0
SECTION
  2
HEADER
  9
$ACADVER
  1
AC1027
  9
$ACADMAINTVER
 70
     8
  9
$DWGCODEPAGE
  3
ANSI_1252
  9
$REQUIREDVERSIONS
160
                 0
  9
$COMMENTS
  1
File was created by Cadenas
  9
$CUSTOMPROPERTYTAG
  1
NN
  9
$CUSTOMPROPERTY
  1
Steel IMPERIAL-HD Flange - 4 Bolt 2-3/8 thru 2-1/4 Inch Bore
  9
$CUSTOMPROPERTYTAG
  1
NT
  9
$CUSTOMPROPERTY
  1
Imperial 4 Bolt Square Flange Bearing -Inch-206-400
  9
$CUSTOMPROPERTYTAG
  1
NB
  9
$CUSTOMPROPERTY
  1
072189
  9
$CUSTOMPROPERTYTAG
  1
NBSYN
  9
$CUSTOMPROPERTY
  1
$PN.
  9
$CUSTOMPROPERTYTAG
  1
LINA
  9
$CUSTOMPROPERTY
  1
072189
  9
$CUSTOMPROPERTYTAG
  1
PN
  9
$CUSTOMPROPERTY
  1
072189
  9
$CUSTOMPROPERTYTAG
  1
SS
  9
$CUSTOMPROPERTY
  1
2-15/16
  9
$CUSTOMPROPERTYTAG
  1
TYPE
  9
$CUSTOMPROPERTY
  1
Non-Expansion
  9
$CUSTOMPROPERTYTAG
  1
DESCRIPTION
  9
$CUSTOMPROPERTY
  1
SF4S-IP-215R
  9
$CUSTOMPROPERTYTAG
  1
EF
  9
$CUSTOMPROPERTY
  1
Non-Expansion
  9
$CUSTOMPROPERTYTAG
  1
ST
  9
$CUSTOMPROPERTY
  1
Contact Seal
  9
$CUSTOMPROPERTYTAG
  1
A
  9
$CUSTOMPROPERTY
  1
3.50
  9
$CUSTOMPROPERTYTAG
  1
B
  9
$CUSTOMPROPERTY
  1
7.18
  9
$CUSTOMPROPERTYTAG
  1
C
  9
$CUSTOMPROPERTY
  1
3.77
  9
$CUSTOMPROPERTYTAG
  1
D
  9
$CUSTOMPROPERTY
  1
5.57
  9
$CUSTOMPROPERTYTAG
  1
F
  9
$CUSTOMPROPERTY
  1
3/4
  9
$CUSTOMPROPERTYTAG
  1
G
  9
$CUSTOMPROPERTY
  1
0.94
  9
$CUSTOMPROPERTYTAG
  1
H
  9
$CUSTOMPROPERTY
  1
1.06
  9
$CUSTOMPROPERTYTAG
  1
J
  9
$CUSTOMPROPERTY
  1
6.51
  9
$CUSTOMPROPERTYTAG
  1
K
  9
$CUSTOMPROPERTY
  1
7.88
  9
$CUSTOMPROPERTYTAG
  1
L
  9
$CUSTOMPROPERTY
  1
4.20
  9
$CUSTOMPROPERTYTAG
  1
N
  9
$CUSTOMPROPERTY
  1
3.67
  9
$CUSTOMPROPERTYTAG
  1
P
  9
$CUSTOMPROPERTY
  1
0.27
  9
$CUSTOMPROPERTYTAG
  1
X
  9
$CUSTOMPROPERTY
  1
0.25
  9
$CUSTOMPROPERTYTAG
  1
Y
  9
$CUSTOMPROPERTY
  1
0.025
  9
$CUSTOMPROPERTYTAG
  1
Z
  9
$CUSTOMPROPERTY
  1
3.47
  9
$CUSTOMPROPERTYTAG
  1
COMPANY
  9
$CUSTOMPROPERTY
  1
baldor
  9
$INSBASE
 10
0.0
 20
0.0
 30
0.0
  9
$EXTMIN
 10
1.000000000000000E+20
 20
1.000000000000000E+20
 30
1.000000000000000E+20
  9
$EXTMAX
 10
-1.000000000000000E+20
 20
-1.000000000000000E+20
 30
-1.000000000000000E+20
  9
$LIMMIN
 10
0.0
 20
0.0
  9
$LIMMAX
 10
12.0
 20
9.0
  9
$ORTHOMODE
 70
     0
  9
$REGENMODE
 70
     1
  9
$FILLMODE
 70
     1
  9
$QTEXTMODE
 70
     0
  9
$MIRRTEXT
 70
     1
  9
$LTSCALE
 40
1.0
  9
$ATTMODE
 70
     1
  9
$TEXTSIZE
 40
0.2
  9
$TRACEWID
 40
0.05
  9
$TEXTSTYLE
  7
Standard
  9
$CLAYER
  8
0
  9
$CELTYPE
  6
ByLayer
  9
$CECOLOR
 62
   256
  9
$CELTSCALE
 40
1.0
  9
$DISPSILH
 70
     0
  9
$DIMSCALE
 40
1.0
  9
$DIMASZ
 40
0.18
  9
$DIMEXO
 40
0.0625
  9
$DIMDLI
 40
0.38
  9
$DIMRND
 40
0.0
  9
$DIMDLE
 40
0.0
  9
$DIMEXE
 40
0.18
  9
$DIMTP
 40
0.0
  9
$DIMTM
 40
0.0
  9
$DIMTXT
 40
0.18
  9
$DIMCEN
 40
0.09
  9
$DIMTSZ
 40
0.0
  9
$DIMTOL
 70
     0
  9
$DIMLIM
 70
     0
  9
$DIMTIH
 70
     1
  9
$DIMTOH
 70
     1
  9
$DIMSE1
 70
     0
  9
$DIMSE2
 70
     0
  9
$DIMTAD
 70
     0
  9
$DIMZIN
 70
     0
  9
$DIMBLK
  1

  9
$DIMASO
 70
     1
  9
$DIMSHO
 70
     1
  9
$DIMPOST
  1

  9
$DIMAPOST
  1

  9
$DIMALT
 70
     0
  9
$DIMALTD
 70
     2
  9
$DIMALTF
 40
25.4
  9
$DIMLFAC
 40
1.0
  9
$DIMTOFL
 70
     0
  9
$DIMTVP
 40
0.0
  9
$DIMTIX
 70
     0
  9
$DIMSOXD
 70
     0
  9
$DIMSAH
 70
     0
  9
$DIMBLK1
  1

  9
$DIMBLK2
  1

  9
$DIMSTYLE
  2
Standard
  9
$DIMCLRD
 70
     0
  9
$DIMCLRE
 70
     0
  9
$DIMCLRT
 70
     0
  9
$DIMTFAC
 40
1.0
  9
$DIMGAP
 40
0.09
  9
$DIMJUST
 70
     0
  9
$DIMSD1
 70
     0
  9
$DIMSD2
 70
     0
  9
$DIMTOLJ
 70
     1
  9
$DIMTZIN
 70
     0
  9
$DIMALTZ
 70
     0
  9
$DIMALTTZ
 70
     0
  9
$DIMUPT
 70
     0
  9
$DIMDEC
 70
     4
  9
$DIMTDEC
 70
     4
  9
$DIMALTU
 70
     2
  9
$DIMALTTD
 70
     2
  9
$DIMTXSTY
  7
Standard
  9
$DIMAUNIT
 70
     0
  9
$DIMADEC
 70
     0
  9
$DIMALTRND
 40
0.0
  9
$DIMAZIN
 70
     0
  9
$DIMDSEP
 70
    46
  9
$DIMATFIT
 70
     3
  9
$DIMFRAC
 70
     0
  9
$DIMLDRBLK
  1

  9
$DIMLUNIT
 70
     2
  9
$DIMLWD
 70
    -2
  9
$DIMLWE
 70
    -2
  9
$DIMTMOVE
 70
     0
  9
$DIMFXL
 40
1.0
  9
$DIMFXLON
 70
     0
  9
$DIMJOGANG
 40
0.7853981633974483
  9
$DIMTFILL
 70
     0
  9
$DIMTFILLCLR
 70
     0
  9
$DIMARCSYM
 70
     0
  9
$DIMLTYPE
  6

  9
$DIMLTEX1
  6

  9
$DIMLTEX2
  6

  9
$DIMTXTDIRECTION
 70
     0
  9
$LUNITS
 70
     2
  9
$LUPREC
 70
     4
  9
$SKETCHINC
 40
0.1
  9
$FILLETRAD
 40
0.5
  9
$AUNITS
 70
     0
  9
$AUPREC
 70
     0
  9
$MENU
  1
.
  9
$ELEVATION
 40
0.0
  9
$PELEVATION
 40
0.0
  9
$THICKNESS
 40
0.0
  9
$LIMCHECK
 70
     0
  9
$CHAMFERA
 40
0.0
  9
$CHAMFERB
 40
0.0
  9
$CHAMFERC
 40
0.0
  9
$CHAMFERD
 40
0.0
  9
$SKPOLY
 70
     0
  9
$TDCREATE
 40
2458168.898781887
  9
$TDUCREATE
 40
2458168.85711522
  9
$TDUPDATE
 40
2458168.898782072
  9
$TDUUPDATE
 40
2458168.857115405
  9
$TDINDWG
 40
0.0000000116
  9
$TDUSRTIMER
 40
0.0000000116
  9
$USRTIMER
 70
     1
  9
$ANGBASE
 50
0.0
  9
$ANGDIR
 70
     0
  9
$PDMODE
 70
     0
  9
$PDSIZE
 40
0.0
  9
$PLINEWID
 40
0.0
  9
$SPLFRAME
 70
     0
  9
$SPLINETYPE
 70
     6
  9
$SPLINESEGS
 70
     8
  9
$HANDSEED
  5
218
  9
$SURFTAB1
 70
     6
  9
$SURFTAB2
 70
     6
  9
$SURFTYPE
 70
     6
  9
$SURFU
 70
     6
  9
$SURFV
 70
     6
  9
$UCSBASE
  2

  9
$UCSNAME
  2

  9
$UCSORG
 10
0.0
 20
0.0
 30
0.0
  9
$UCSXDIR
 10
1.0
 20
0.0
 30
0.0
  9
$UCSYDIR
 10
0.0
 20
1.0
 30
0.0
  9
$UCSORTHOREF
  2

  9
$UCSORTHOVIEW
 70
     0
  9
$UCSORGTOP
 10
0.0
 20
0.0
 30
0.0
  9
$UCSORGBOTTOM
 10
0.0
 20
0.0
 30
0.0
  9
$UCSORGLEFT
 10
0.0
 20
0.0
 30
0.0
  9
$UCSORGRIGHT
 10
0.0
 20
0.0
 30
0.0
  9
$UCSORGFRONT
 10
0.0
 20
0.0
 30
0.0
  9
$UCSORGBACK
 10
0.0
 20
0.0
 30
0.0
  9
$PUCSBASE
  2

  9
$PUCSNAME
  2

  9
$PUCSORG
 10
0.0
 20
0.0
 30
0.0
  9
$PUCSXDIR
 10
1.0
 20
0.0
 30
0.0
  9
$PUCSYDIR
 10
0.0
 20
1.0
 30
0.0
  9
$PUCSORTHOREF
  2

  9
$PUCSORTHOVIEW
 70
     0
  9
$PUCSORGTOP
 10
0.0
 20
0.0
 30
0.0
  9
$PUCSORGBOTTOM
 10
0.0
 20
0.0
 30
0.0
  9
$PUCSORGLEFT
 10
0.0
 20
0.0
 30
0.0
  9
$PUCSORGRIGHT
 10
0.0
 20
0.0
 30
0.0
  9
$PUCSORGFRONT
 10
0.0
 20
0.0
 30
0.0
  9
$PUCSORGBACK
 10
0.0
 20
0.0
 30
0.0
  9
$USERI1
 70
     0
  9
$USERI2
 70
     0
  9
$USERI3
 70
     0
  9
$USERI4
 70
     0
  9
$USERI5
 70
     0
  9
$USERR1
 40
0.0
  9
$USERR2
 40
0.0
  9
$USERR3
 40
0.0
  9
$USERR4
 40
0.0
  9
$USERR5
 40
0.0
  9
$WORLDVIEW
 70
     1
  9
$SHADEDGE
 70
     3
  9
$SHADEDIF
 70
    70
  9
$TILEMODE
 70
     1
  9
$MAXACTVP
 70
    64
  9
$PINSBASE
 10
0.0
 20
0.0
 30
0.0
  9
$PLIMCHECK
 70
     0
  9
$PEXTMIN
 10
1.000000000000000E+20
 20
1.000000000000000E+20
 30
1.000000000000000E+20
  9
$PEXTMAX
 10
-1.000000000000000E+20
 20
-1.000000000000000E+20
 30
-1.000000000000000E+20
  9
$PLIMMIN
 10
0.0
 20
0.0
  9
$PLIMMAX
 10
12.0
 20
9.0
  9
$UNITMODE
 70
     0
  9
$VISRETAIN
 70
     1
  9
$PLINEGEN
 70
     0
  9
$PSLTSCALE
 70
     1
  9
$TREEDEPTH
 70
  3020
  9
$CMLSTYLE
  2
Standard
  9
$CMLJUST
 70
     0
  9
$CMLSCALE
 40
1.0
  9
$PROXYGRAPHICS
 70
     1
  9
$MEASUREMENT
 70
     0
  9
$CELWEIGHT
370
    -1
  9
$ENDCAPS
280
     0
  9
$JOINSTYLE
280
     0
  9
$LWDISPLAY
290
     0
  9
$INSUNITS
 70
     1
  9
$HYPERLINKBASE
  1

  9
$STYLESHEET
  1

  9
$XEDIT
290
     1
  9
$CEPSNTYPE
380
     0
  9
$PSTYLEMODE
290
     1
  9
$FINGERPRINTGUID
  2
{7C7587CE-445B-4D39-8A76-BD5E44A9836B}
  9
$VERSIONGUID
  2
{FAEB1C32-E019-11D5-929B-00C0DF256EC4}
  9
$EXTNAMES
290
     1
  9
$PSVPSCALE
 40
0.0
  9
$OLESTARTUP
290
     0
  9
$SORTENTS
280
   127
  9
$INDEXCTL
280
     0
  9
$HIDETEXT
280
     1
  9
$XCLIPFRAME
280
     2
  9
$HALOGAP
280
     0
  9
$OBSCOLOR
 70
   257
  9
$OBSLTYPE
280
     0
  9
$INTERSECTIONDISPLAY
280
     0
  9
$INTERSECTIONCOLOR
 70
   257
  9
$DIMASSOC
280
     2
  9
$PROJECTNAME
  1

  9
$CAMERADISPLAY
290
     0
  9
$LENSLENGTH
 40
50.0
  9
$CAMERAHEIGHT
 40
0.0
  9
$STEPSPERSEC
 40
2.0
  9
$STEPSIZE
 40
6.0
  9
$3DDWFPREC
 40
2.0
  9
$PSOLWIDTH
 40
0.25
  9
$PSOLHEIGHT
 40
4.0
  9
$LOFTANG1
 40
1.570796326794897
  9
$LOFTANG2
 40
1.570796326794897
  9
$LOFTMAG1
 40
0.0
  9
$LOFTMAG2
 40
0.0
  9
$LOFTPARAM
 70
     7
  9
$LOFTNORMALS
280
     1
  9
$LATITUDE
 40
37.795
  9
$LONGITUDE
 40
-122.394
  9
$NORTHDIRECTION
 40
0.0
  9
$TIMEZONE
 70
 -8000
  9
$LIGHTGLYPHDISPLAY
280
     1
  9
$TILEMODELIGHTSYNCH
280
     1
  9
$CMATERIAL
347
44
  9
$SOLIDHIST
280
     0
  9
$SHOWHIST
280
     1
  9
$DWFFRAME
280
     2
  9
$DGNFRAME
280
     2
  9
$REALWORLDSCALE
290
     1
  9
$INTERFERECOLOR
 62
   256
  9
$CSHADOW
280
     0
  9
$SHADOWPLANELOCATION
 40
0.0
  0
ENDSEC
  0
SECTION
  2
CLASSES
  0
CLASS
  1
ACDBDICTIONARYWDFLT
  2
AcDbDictionaryWithDefault
  3
ObjectDBX Classes
 90
        0
 91
        4
280
     0
281
     0
  0
CLASS
  1
VISUALSTYLE
  2
AcDbVisualStyle
  3
ObjectDBX Classes
 90
     4095
 91
        4
280
     0
281
     0
  0
CLASS
  1
MATERIAL
  2
AcDbMaterial
  3
ObjectDBX Classes
 90
     1153
 91
        4
280
     0
281
     0
  0
CLASS
  1
SCALE
  2
AcDbScale
  3
ObjectDBX Classes
 90
     1153
 91
        4
280
     0
281
     0
  0
CLASS
  1
TABLESTYLE
  2
AcDbTableStyle
  3
ObjectDBX Classes
 90
     4095
 91
        4
280
     0
281
     0
  0
CLASS
  1
MLEADERSTYLE
  2
AcDbMLeaderStyle
  3
ACDB_MLEADERSTYLE_CLASS
 90
     4095
 91
        4
280
     0
281
     0
  0
CLASS
  1
SUN
  2
AcDbSun
  3
SCENEOE
 90
     1153
 91
        4
280
     0
281
     0
  0
CLASS
  1
DICTIONARYVAR
  2
AcDbDictionaryVar
  3
ObjectDBX Classes
 90
        0
 91
        4
280
     0
281
     0
  0
CLASS
  1
CELLSTYLEMAP
  2
AcDbCellStyleMap
  3
ObjectDBX Classes
 90
     1152
 91
        4
280
     0
281
     0
  0
ENDSEC
  0
SECTION
  2
TABLES
  0
TABLE
  2
VPORT
  5
8
330
0
100
AcDbSymbolTable
 70
     1
  0
VPORT
  5
29
330
8
100
AcDbSymbolTableRecord
100
AcDbViewportTableRecord
  2
*Active
 70
     0
 10
0.0
 20
0.0
 11
1.0
 21
1.0
 12
0.0
 22
-1.913750166666667
 13
0.0
 23
0.0
 14
0.5
 24
0.5
 15
0.5
 25
0.5
 16
0.0
 26
0.0
 36
1.0
 17
0.0
 27
0.0
 37
0.0
 40
4.192710340000001
 41
1.746745996290314
 42
50.0
 43
0.0
 44
0.0
 50
0.0
 51
0.0
 71
     0
 72
   100
 73
     1
 74
     3
 75
     0
 76
     0
 77
     0
 78
     0
281
     0
 65
     1
110
0.0
120
0.0
130
0.0
111
1.0
121
0.0
131
0.0
112
0.0
122
1.0
132
0.0
 79
     0
146
0.0
348
2F
 60
     3
 61
     5
292
     1
282
     1
141
0.0
142
0.0
 63
   250
361
6D
  0
ENDTAB
  0
TABLE
  2
LTYPE
  5
5
330
0
100
AcDbSymbolTable
 70
     3
  0
LTYPE
  5
14
330
5
100
AcDbSymbolTableRecord
100
AcDbLinetypeTableRecord
  2
ByBlock
 70
     0
  3

 72
    65
 73
     0
 40
0.0
  0
LTYPE
  5
15
330
5
100
AcDbSymbolTableRecord
100
AcDbLinetypeTableRecord
  2
ByLayer
 70
     0
  3

 72
    65
 73
     0
 40
0.0
  0
LTYPE
  5
16
330
5
100
AcDbSymbolTableRecord
100
AcDbLinetypeTableRecord
  2
Continuous
 70
     0
  3
Solid line
 72
    65
 73
     0
 40
0.0
  0
LTYPE
  5
C0
330
5
100
AcDbSymbolTableRecord
100
AcDbLinetypeTableRecord
  2
Dashed
 70
     0
  3

 72
    65
 73
     2
 40
2.0
 49
1.0
 74
     0
 49
-1.0
 74
     0
  0
LTYPE
  5
1F0
330
5
100
AcDbSymbolTableRecord
100
AcDbLinetypeTableRecord
  2
Center
 70
     0
  3

 72
    65
 73
     4
 40
1.5
 49
0.45
 74
     0
 49
-0.5
 74
     0
 49
0.05
 74
     0
 49
-0.5
 74
     0
  0
ENDTAB
  0
TABLE
  2
LAYER
  5
2
330
0
100
AcDbSymbolTable
 70
     7
  0
LAYER
  5
10
330
2
100
AcDbSymbolTableRecord
100
AcDbLayerTableRecord
  2
0
 70
     0
 62
     7
  6
Continuous
370
    -3
390
F
347
46
348
0
  0
LAYER
  5
72
330
2
100
AcDbSymbolTableRecord
100
AcDbLayerTableRecord
  2
AM_6
 70
     0
 62
    -2
  6
Continuous
370
    35
390
F
347
46
348
0
  0
LAYER
  5
9A
330
2
100
AcDbSymbolTableRecord
100
AcDbLayerTableRecord
  2
AM_5
 70
     0
 62
     3
  6
Continuous
370
    25
390
F
347
46
348
0
  0
LAYER
  5
C1
330
2
100
AcDbSymbolTableRecord
100
AcDbLayerTableRecord
  2
AM_9
 70
     0
 62
     6
  6
Dashed
370
    25
390
F
347
46
348
0
  0
LAYER
  5
CE
330
2
100
AcDbSymbolTableRecord
100
AcDbLayerTableRecord
  2
AM_4
 70
     0
 62
     7
  6
Continuous
370
    50
390
F
347
46
348
0
  0
LAYER
  5
1F1
330
2
100
AcDbSymbolTableRecord
100
AcDbLayerTableRecord
  2
AM_7
 70
     0
 62
     7
  6
Center
370
    25
390
F
347
46
348
0
  0
LAYER
  5
201
330
2
100
AcDbSymbolTableRecord
100
AcDbLayerTableRecord
  2
ConnectionPoints
 70
     0
 62
     7
  6
Continuous
370
    50
390
F
347
46
348
0
  0
ENDTAB
  0
TABLE
  2
STYLE
  5
3
330
0
100
AcDbSymbolTable
 70
     1
  0
STYLE
  5
11
330
3
100
AcDbSymbolTableRecord
100
AcDbTextStyleTableRecord
  2
Standard
 70
     0
 40
0.0
 41
1.0
 50
0.0
 71
     0
 42
0.2
  3
txt
  4

  0
ENDTAB
  0
TABLE
  2
VIEW
  5
6
330
0
100
AcDbSymbolTable
 70
     0
  0
ENDTAB
  0
TABLE
  2
UCS
  5
7
330
0
100
AcDbSymbolTable
 70
     0
  0
ENDTAB
  0
TABLE
  2
APPID
  5
9
330
0
100
AcDbSymbolTable
 70
     1
  0
APPID
  5
12
330
9
100
AcDbSymbolTableRecord
100
AcDbRegAppTableRecord
  2
ACAD
 70
     0
  0
ENDTAB
  0
TABLE
  2
DIMSTYLE
  5
A
330
0
100
AcDbSymbolTable
 70
     1
100
AcDbDimStyleTable
  0
DIMSTYLE
105
27
330
A
100
AcDbSymbolTableRecord
100
AcDbDimStyleTableRecord
  2
Standard
 70
     0
178
     0
340
11
  0
ENDTAB
  0
TABLE
  2
BLOCK_RECORD
  5
1
330
0
100
AcDbSymbolTable
 70
     9
  0
BLOCK_RECORD
  5
1F
330
1
100
AcDbSymbolTableRecord
100
AcDbBlockTableRecord
  2
*Model_Space
340
22
 70
     0
280
     1
281
     0
  0
BLOCK_RECORD
  5
1B
330
1
100
AcDbSymbolTableRecord
100
AcDbBlockTableRecord
  2
*Paper_Space
340
1E
 70
     0
280
     1
281
     0
  0
BLOCK_RECORD
  5
23
330
1
100
AcDbSymbolTableRecord
100
AcDbBlockTableRecord
  2
*Paper_Space0
340
26
 70
     0
280
     1
281
     0
  0
BLOCK_RECORD
  5
6E
330
1
100
AcDbSymbolTableRecord
100
AcDbBlockTableRecord
  2
1_072189_4
340
0
102
{BLKREFS
331
6F
102
}
 70
     0
280
     1
281
     0
  0
BLOCK_RECORD
  5
8E
330
1
100
AcDbSymbolTableRecord
100
AcDbBlockTableRecord
  2
2_405015E_Inch_1_0_in_072189_4
340
0
102
{BLKREFS
331
8F
102
}
 70
     0
280
     1
281
     0
  0
BLOCK_RECORD
  5
9D
330
1
100
AcDbSymbolTableRecord
100
AcDbBlockTableRecord
  2
3_ASME_B18_3_10_1_0_in_072189_4
340
0
102
{BLKREFS
331
9E
102
}
 70
     0
280
     1
281
     0
  0
BLOCK_RECORD
  5
B0
330
1
100
AcDbSymbolTableRecord
100
AcDbBlockTableRecord
  2
4_ASME_B18_3_10_2_0_in_072189_4
340
0
102
{BLKREFS
331
B1
102
}
 70
     0
280
     1
281
     0
  0
BLOCK_RECORD
  5
DB
330
1
100
AcDbSymbolTableRecord
100
AcDbBlockTableRecord
  2
5_070899LWE_0_in_072189_4
340
0
102
{BLKREFS
331
DC
102
}
 70
     0
280
     1
281
     0
  0
BLOCK_RECORD
  5
113
330
1
100
AcDbSymbolTableRecord
100
AcDbBlockTableRecord
  2
6_070899E_0_in_072189_4
340
0
102
{BLKREFS
331
114
102
}
 70
     0
280
     1
281
     0
  0
BLOCK_RECORD
  5
191
330
1
100
AcDbSymbolTableRecord
100
AcDbBlockTableRecord
  2
7_405015E_Inch_2_0_in_072189_4
340
0
102
{BLKREFS
331
192
102
}
 70
     0
280
     1
281
     0
  0
BLOCK_RECORD
  5
1AE
330
1
100
AcDbSymbolTableRecord
100
AcDbBlockTableRecord
  2
8_B072189H_0_in_072189_4
340
0
102
{BLKREFS
331
1AF
102
}
 70
     0
280
     1
281
     0
  0
ENDTAB
  0
ENDSEC
  0
SECTION
  2
BLOCKS
  0
BLOCK
  5
20
330
1F
100
AcDbEntity
  8
0
100
AcDbBlockBegin
  2
*Model_Space
 70
     0
 10
0.0
 20
0.0
 30
0.0
  3
*Model_Space
  1

  0
ENDBLK
  5
21
330
1F
100
AcDbEntity
  8
0
100
AcDbBlockEnd
  0
BLOCK
  5
1C
330
1B
100
AcDbEntity
 67
     1
  8
0
100
AcDbBlockBegin
  2
*Paper_Space
 70
     0
 10
0.0
 20
0.0
 30
0.0
  3
*Paper_Space
  1

  0
ENDBLK
  5
1D
330
1B
100
AcDbEntity
 67
     1
  8
0
100
AcDbBlockEnd
  0
BLOCK
  5
24
330
23
100
AcDbEntity
  8
0
100
AcDbBlockBegin
  2
*Paper_Space0
 70
     0
 10
0.0
 20
0.0
 30
0.0
  3
*Paper_Space0
  1

  0
ENDBLK
  5
25
330
23
100
AcDbEntity
  8
0
100
AcDbBlockEnd
  0
BLOCK
  5
70
330
6E
100
AcDbEntity
  8
0
100
AcDbBlockBegin
  2
1_072189_4
 70
     2
 10
0.0
 20
0.0
 30
0.0
  3
1_072189_4
  1

  0
ATTDEF
  5
73
330
6E
100
AcDbEntity
  8
AM_6
100
AcDbText
 10
8.59
 20
0.1415
 30
0.0
 40
0.5
  1
Steel IMPERIAL-HD Flange - 4 Bolt 2-3/8 thru 2-1/4 Inch Bore
100
AcDbAttributeDefinition
  3

  2
NN
 70
     8
280
     0
  0
ATTDEF
  5
74
330
6E
100
AcDbEntity
  8
AM_6
100
AcDbText
 10
8.59
 20
-0.3585
 30
0.0
 40
0.5
  1
Imperial 4 Bolt Square Flange Bearing -Inch-206-400
100
AcDbAttributeDefinition
  3

  2
NT
 70
     8
280
     0
  0
ATTDEF
  5
75
330
6E
100
AcDbEntity
  8
AM_6
100
AcDbText
 10
8.59
 20
-0.8585
 30
0.0
 40
0.5
  1
072189
100
AcDbAttributeDefinition
  3

  2
NB
 70
     8
280
     0
  0
ATTDEF
  5
76
330
6E
100
AcDbEntity
  8
AM_6
100
AcDbText
 10
8.59
 20
-1.3585
 30
0.0
 40
0.5
  1
$PN.
100
AcDbAttributeDefinition
  3

  2
NBSYN
 70
     8
280
     0
  0
ATTDEF
  5
77
330
6E
100
AcDbEntity
  8
AM_6
100
AcDbText
 10
8.59
 20
-1.8585
 30
0.0
 40
0.5
  1
072189
100
AcDbAttributeDefinition
  3

  2
LINA
 70
     8
280
     0
  0
ATTDEF
  5
78
330
6E
100
AcDbEntity
  8
AM_6
100
AcDbText
 10
8.59
 20
-2.3585
 30
0.0
 40
0.5
  1
072189
100
AcDbAttributeDefinition
  3

  2
PN
 70
     8
280
     0
  0
ATTDEF
  5
79
330
6E
100
AcDbEntity
  8
AM_6
100
AcDbText
 10
8.59
 20
-2.8585
 30
0.0
 40
0.5
  1
2-15/16
100
AcDbAttributeDefinition
  3

  2
SS
 70
     8
280
     0
  0
ATTDEF
  5
7A
330
6E
100
AcDbEntity
  8
AM_6
100
AcDbText
 10
8.59
 20
-3.3585
 30
0.0
 40
0.5
  1
Non-Expansion
100
AcDbAttributeDefinition
  3

  2
TYPE
 70
     8
280
     0
  0
ATTDEF
  5
7B
330
6E
100
AcDbEntity
  8
AM_6
100
AcDbText
 10
8.59
 20
-3.8585
 30
0.0
 40
0.5
  1
SF4S-IP-215R
100
AcDbAttributeDefinition
  3

  2
DESCRIPTION
 70
     8
280
     0
  0
ATTDEF
  5
7C
330
6E
100
AcDbEntity
  8
AM_6
100
AcDbText
 10
8.59
 20
-4.3585
 30
0.0
 40
0.5
  1
Non-Expansion
100
AcDbAttributeDefinition
  3

  2
EF
 70
     8
280
     0
  0
ATTDEF
  5
7D
330
6E
100
AcDbEntity
  8
AM_6
100
AcDbText
 10
8.59
 20
-4.8585
 30
0.0
 40
0.5
  1
Contact Seal
100
AcDbAttributeDefinition
  3

  2
ST
 70
     8
280
     0
  0
ATTDEF
  5
7E
330
6E
100
AcDbEntity
  8
AM_6
100
AcDbText
 10
8.59
 20
-5.3585
 30
0.0
 40
0.5
  1
3.50
100
AcDbAttributeDefinition
  3

  2
A
 70
     8
280
     0
  0
ATTDEF
  5
7F
330
6E
100
AcDbEntity
  8
AM_6
100
AcDbText
 10
8.59
 20
-5.8585
 30
0.0
 40
0.5
  1
7.18
100
AcDbAttributeDefinition
  3

  2
B
 70
     8
280
     0
  0
ATTDEF
  5
80
330
6E
100
AcDbEntity
  8
AM_6
100
AcDbText
 10
8.59
 20
-6.3585
 30
0.0
 40
0.5
  1
3.77
100
AcDbAttributeDefinition
  3

  2
C
 70
     8
280
     0
  0
ATTDEF
  5
81
330
6E
100
AcDbEntity
  8
AM_6
100
AcDbText
 10
8.59
 20
-6.8585
 30
0.0
 40
0.5
  1
5.57
100
AcDbAttributeDefinition
  3

  2
D
 70
     8
280
     0
  0
ATTDEF
  5
82
330
6E
100
AcDbEntity
  8
AM_6
100
AcDbText
 10
8.59
 20
-7.3585
 30
0.0
 40
0.5
  1
3/4
100
AcDbAttributeDefinition
  3

  2
F
 70
     8
280
     0
  0
ATTDEF
  5
83
330
6E
100
AcDbEntity
  8
AM_6
100
AcDbText
 10
8.59
 20
-7.8585
 30
0.0
 40
0.5
  1
0.94
100
AcDbAttributeDefinition
  3

  2
G
 70
     8
280
     0
  0
ATTDEF
  5
84
330
6E
100
AcDbEntity
  8
AM_6
100
AcDbText
 10
8.59
 20
-8.3585
 30
0.0
 40
0.5
  1
1.06
100
AcDbAttributeDefinition
  3

  2
H
 70
     8
280
     0
  0
ATTDEF
  5
85
330
6E
100
AcDbEntity
  8
AM_6
100
AcDbText
 10
8.59
 20
-8.8585
 30
0.0
 40
0.5
  1
6.51
100
AcDbAttributeDefinition
  3

  2
J
 70
     8
280
     0
  0
ATTDEF
  5
86
330
6E
100
AcDbEntity
  8
AM_6
100
AcDbText
 10
8.59
 20
-9.3585
 30
0.0
 40
0.5
  1
7.88
100
AcDbAttributeDefinition
  3

  2
K
 70
     8
280
     0
  0
ATTDEF
  5
87
330
6E
100
AcDbEntity
  8
AM_6
100
AcDbText
 10
8.59
 20
-9.8585
 30
0.0
 40
0.5
  1
4.20
100
AcDbAttributeDefinition
  3

  2
L
 70
     8
280
     0
  0
ATTDEF
  5
88
330
6E
100
AcDbEntity
  8
AM_6
100
AcDbText
 10
8.59
 20
-10.3585
 30
0.0
 40
0.5
  1
3.67
100
AcDbAttributeDefinition
  3

  2
N
 70
     8
280
     0
  0
ATTDEF
  5
89
330
6E
100
AcDbEntity
  8
AM_6
100
AcDbText
 10
8.59
 20
-10.8585
 30
0.0
 40
0.5
  1
0.27
100
AcDbAttributeDefinition
  3

  2
P
 70
     8
280
     0
  0
ATTDEF
  5
8A
330
6E
100
AcDbEntity
  8
AM_6
100
AcDbText
 10
8.59
 20
-11.3585
 30
0.0
 40
0.5
  1
0.25
100
AcDbAttributeDefinition
  3

  2
X
 70
     8
280
     0
  0
ATTDEF
  5
8B
330
6E
100
AcDbEntity
  8
AM_6
100
AcDbText
 10
8.59
 20
-11.8585
 30
0.0
 40
0.5
  1
0.025
100
AcDbAttributeDefinition
  3

  2
Y
 70
     8
280
     0
  0
ATTDEF
  5
8C
330
6E
100
AcDbEntity
  8
AM_6
100
AcDbText
 10
8.59
 20
-12.3585
 30
0.0
 40
0.5
  1
3.47
100
AcDbAttributeDefinition
  3

  2
Z
 70
     8
280
     0
  0
ATTDEF
  5
8D
330
6E
100
AcDbEntity
  8
AM_6
100
AcDbText
 10
8.59
 20
-12.8585
 30
0.0
 40
0.5
  1
baldor
100
AcDbAttributeDefinition
  3

  2
COMPANY
 70
     8
280
     0
  0
INSERT
  5
8F
330
6E
100
AcDbEntity
  8
0
100
AcDbBlockReference
  2
2_405015E_Inch_1_0_in_072189_4
 10
0.0
 20
0.0
 30
0.0
  0
INSERT
  5
9E
330
6E
100
AcDbEntity
  8
0
100
AcDbBlockReference
  2
3_ASME_B18_3_10_1_0_in_072189_4
 10
0.0
 20
0.0
 30
0.0
  0
INSERT
  5
B1
330
6E
100
AcDbEntity
  8
0
100
AcDbBlockReference
  2
4_ASME_B18_3_10_2_0_in_072189_4
 10
0.0
 20
0.0
 30
0.0
  0
INSERT
  5
DC
330
6E
100
AcDbEntity
  8
0
100
AcDbBlockReference
  2
5_070899LWE_0_in_072189_4
 10
0.0
 20
0.0
 30
0.0
  0
INSERT
  5
114
330
6E
100
AcDbEntity
  8
0
100
AcDbBlockReference
  2
6_070899E_0_in_072189_4
 10
0.0
 20
0.0
 30
0.0
  0
INSERT
  5
192
330
6E
100
AcDbEntity
  8
0
100
AcDbBlockReference
  2
7_405015E_Inch_2_0_in_072189_4
 10
0.0
 20
0.0
 30
0.0
  0
INSERT
  5
1AF
330
6E
100
AcDbEntity
  8
0
100
AcDbBlockReference
  2
8_B072189H_0_in_072189_4
 10
0.0
 20
0.0
 30
0.0
  0
ENDBLK
  5
71
330
6E
100
AcDbEntity
  8
0
100
AcDbBlockEnd
  0
BLOCK
  5
90
330
8E
100
AcDbEntity
  8
0
100
AcDbBlockBegin
  2
2_405015E_Inch_1_0_in_072189_4
 70
     2
 10
0.0
 20
0.0
 30
0.0
  3
2_405015E_Inch_1_0_in_072189_4
  1

  0
ATTDEF
  5
92
330
8E
100
AcDbEntity
  8
AM_6
100
AcDbText
 10
5.202500005
 20
-1.742499995
 30
0.0
 40
0.5
  1
405015E -Inch
100
AcDbAttributeDefinition
  3

  2
NN
 70
     8
280
     0
  0
ATTDEF
  5
93
330
8E
100
AcDbEntity
  8
AM_6
100
AcDbText
 10
5.202500005
 20
-2.242499995
 30
0.0
 40
0.5
  1
Grease Fitting
100
AcDbAttributeDefinition
  3

  2
NT
 70
     8
280
     0
  0
ATTDEF
  5
94
330
8E
100
AcDbEntity
  8
AM_6
100
AcDbText
 10
5.202500005
 20
-2.742499995
 30
0.0
 40
0.5
  1
405015E-Inch
100
AcDbAttributeDefinition
  3

  2
NB
 70
     8
280
     0
  0
ATTDEF
  5
95
330
8E
100
AcDbEntity
  8
AM_6
100
AcDbText
 10
5.202500005
 20
-3.242499995
 30
0.0
 40
0.5
  1
$MN.-Inch
100
AcDbAttributeDefinition
  3

  2
NBSYN
 70
     8
280
     0
  0
ATTDEF
  5
96
330
8E
100
AcDbEntity
  8
AM_6
100
AcDbText
 10
5.202500005
 20
-3.742499995
 30
0.0
 40
0.5
  1
405015E
100
AcDbAttributeDefinition
  3

  2
LINA
 70
     8
280
     0
  0
ATTDEF
  5
97
330
8E
100
AcDbEntity
  8
AM_6
100
AcDbText
 10
5.202500005
 20
-4.242499995
 30
0.0
 40
0.5
  1
405015E
100
AcDbAttributeDefinition
  3

  2
MN
 70
     8
280
     0
  0
ATTDEF
  5
98
330
8E
100
AcDbEntity
  8
AM_6
100
AcDbText
 10
5.202500005
 20
-4.742499995
 30
0.0
 40
0.5
  1
1/8 x 27PTF
100
AcDbAttributeDefinition
  3

  2
T
 70
     8
280
     0
  0
ATTDEF
  5
99
330
8E
100
AcDbEntity
  8
AM_6
100
AcDbText
 10
5.202500005
 20
-5.242499995
 30
0.0
 40
0.5
  1
baldor
100
AcDbAttributeDefinition
  3

  2
COMPANY
 70
     8
280
     0
  0
ARC
  5
9B
330
8E
100
AcDbEntity
  8
AM_5
100
AcDbCircle
 10
-0.0000000000000001
 20
-1.945000000000001
 30
0.0
 40
0.202500005
100
AcDbArc
 50
75.00000000000001
 51
15.0
  0
ARC
  5
9C
330
8E
100
AcDbEntity
  8
AM_5
100
AcDbCircle
 10
0.0000000000000002
 20
-1.945
 30
0.0
 40
0.2025000049999999
100
AcDbArc
 50
345.0
 51
284.9999999999999
  0
ENDBLK
  5
91
330
8E
100
AcDbEntity
  8
0
100
AcDbBlockEnd
  0
BLOCK
  5
9F
330
9D
100
AcDbEntity
  8
0
100
AcDbBlockBegin
  2
3_ASME_B18_3_10_1_0_in_072189_4
 70
     2
 10
0.0
 20
0.0
 30
0.0
  3
3_ASME_B18_3_10_1_0_in_072189_4
  1

  0
ATTDEF
  5
A1
330
9D
100
AcDbEntity
  8
AM_6
100
AcDbText
 10
5.095
 20
-2.869000333333333
 30
0.0
 40
0.5
  1
ANSI/ASME-B18.3-1998
100
AcDbAttributeDefinition
  3

  2
NN
 70
     8
280
     0
  0
ATTDEF
  5
A2
330
9D
100
AcDbEntity
  8
AM_6
100
AcDbText
 10
5.095
 20
-3.369000333333333
 30
0.0
 40
0.5
  1
Socket Button Head Cap Screws
100
AcDbAttributeDefinition
  3

  2
NT
 70
     8
280
     0
  0
ATTDEF
  5
A3
330
9D
100
AcDbEntity
  8
AM_6
100
AcDbText
 10
5.095
 20
-3.869000333333333
 30
0.0
 40
0.5
  1
ASME-B18.3-10
100
AcDbAttributeDefinition
  3

  2
NB
 70
     8
280
     0
  0
ATTDEF
  5
A4
330
9D
100
AcDbEntity
  8
AM_6
100
AcDbText
 10
5.095
 20
-4.369000333333333
 30
0.0
 40
0.5
  1
ASME-B18.3-$NS.
100
AcDbAttributeDefinition
  3

  2
NBSYN
 70
     8
280
     0
  0
ATTDEF
  5
A5
330
9D
100
AcDbEntity
  8
AM_6
100
AcDbText
 10
5.095
 20
-4.869000333333333
 30
0.0
 40
0.5
  1
ASME-B18.3-10
100
AcDbAttributeDefinition
  3

  2
LINA
 70
     8
280
     0
  0
ATTDEF
  5
A6
330
9D
100
AcDbEntity
  8
AM_6
100
AcDbText
 10
5.095
 20
-5.369000333333333
 30
0.0
 40
0.5
  1
10
100
AcDbAttributeDefinition
  3

  2
NS
 70
     8
280
     0
  0
ATTDEF
  5
A7
330
9D
100
AcDbEntity
  8
AM_6
100
AcDbText
 10
5.095
 20
-5.869000333333333
 30
0.0
 40
0.5
  1
0.361
100
AcDbAttributeDefinition
  3

  2
A
 70
     8
280
     0
  0
ATTDEF
  5
A8
330
9D
100
AcDbEntity
  8
AM_6
100
AcDbText
 10
5.095
 20
-6.369000333333333
 30
0.0
 40
0.5
  1
0.101
100
AcDbAttributeDefinition
  3

  2
H
 70
     8
280
     0
  0
ATTDEF
  5
A9
330
9D
100
AcDbEntity
  8
AM_6
100
AcDbText
 10
5.095
 20
-6.869000333333333
 30
0.0
 40
0.5
  1
0.800
100
AcDbAttributeDefinition
  3

  2
L
 70
     8
280
     0
  0
ATTDEF
  5
AA
330
9D
100
AcDbEntity
  8
AM_6
100
AcDbText
 10
5.095
 20
-7.369000333333333
 30
0.0
 40
0.5
  1
0.020
100
AcDbAttributeDefinition
  3

  2
S
 70
     8
280
     0
  0
ATTDEF
  5
AB
330
9D
100
AcDbEntity
  8
AM_6
100
AcDbText
 10
5.095
 20
-7.869000333333333
 30
0.0
 40
0.5
  1
0.125000
100
AcDbAttributeDefinition
  3

  2
J
 70
     8
280
     0
  0
ATTDEF
  5
AC
330
9D
100
AcDbEntity
  8
AM_6
100
AcDbText
 10
5.095
 20
-8.369000333333332
 30
0.0
 40
0.5
  1
baldor
100
AcDbAttributeDefinition
  3

  2
COMPANY
 70
     8
280
     0
  0
LINE
  5
AD
330
9D
100
AcDbEntity
  8
AM_5
100
AcDbLine
 10
0.0702
 20
-2.869000333333333
 30
0.0
 11
0.0702
 21
-3.770000333333333
 31
0.0
  0
LINE
  5
AE
330
9D
100
AcDbEntity
  8
AM_5
100
AcDbLine
 10
-0.0702
 20
-2.869000333333333
 30
0.0
 11
-0.0702
 21
-3.770000333333333
 31
0.0
  0
LINE
  5
AF
330
9D
100
AcDbEntity
  8
AM_5
100
AcDbLine
 10
0.095
 20
-3.969000333333333
 30
0.0
 11
-0.095
 21
-3.969000333333333
 31
0.0
  0
ENDBLK
  5
A0
330
9D
100
AcDbEntity
  8
0
100
AcDbBlockEnd
  0
BLOCK
  5
B2
330
B0
100
AcDbEntity
  8
0
100
AcDbBlockBegin
  2
4_ASME_B18_3_10_2_0_in_072189_4
 70
     2
 10
0.0
 20
0.0
 30
0.0
  3
4_ASME_B18_3_10_2_0_in_072189_4
  1

  0
ATTDEF
  5
B4
330
B0
100
AcDbEntity
  8
AM_6
100
AcDbText
 10
5.1805
 20
-2.869000333333333
 30
0.0
 40
0.5
  1
ANSI/ASME-B18.3-1998
100
AcDbAttributeDefinition
  3

  2
NN
 70
     8
280
     0
  0
ATTDEF
  5
B5
330
B0
100
AcDbEntity
  8
AM_6
100
AcDbText
 10
5.1805
 20
-3.369000333333333
 30
0.0
 40
0.5
  1
Socket Button Head Cap Screws
100
AcDbAttributeDefinition
  3

  2
NT
 70
     8
280
     0
  0
ATTDEF
  5
B6
330
B0
100
AcDbEntity
  8
AM_6
100
AcDbText
 10
5.1805
 20
-3.869000333333333
 30
0.0
 40
0.5
  1
ASME-B18.3-10
100
AcDbAttributeDefinition
  3

  2
NB
 70
     8
280
     0
  0
ATTDEF
  5
B7
330
B0
100
AcDbEntity
  8
AM_6
100
AcDbText
 10
5.1805
 20
-4.369000333333333
 30
0.0
 40
0.5
  1
ASME-B18.3-$NS.
100
AcDbAttributeDefinition
  3

  2
NBSYN
 70
     8
280
     0
  0
ATTDEF
  5
B8
330
B0
100
AcDbEntity
  8
AM_6
100
AcDbText
 10
5.1805
 20
-4.869000333333333
 30
0.0
 40
0.5
  1
ASME-B18.3-10
100
AcDbAttributeDefinition
  3

  2
LINA
 70
     8
280
     0
  0
ATTDEF
  5
B9
330
B0
100
AcDbEntity
  8
AM_6
100
AcDbText
 10
5.1805
 20
-5.369000333333333
 30
0.0
 40
0.5
  1
10
100
AcDbAttributeDefinition
  3

  2
NS
 70
     8
280
     0
  0
ATTDEF
  5
BA
330
B0
100
AcDbEntity
  8
AM_6
100
AcDbText
 10
5.1805
 20
-5.869000333333333
 30
0.0
 40
0.5
  1
0.361
100
AcDbAttributeDefinition
  3

  2
A
 70
     8
280
     0
  0
ATTDEF
  5
BB
330
B0
100
AcDbEntity
  8
AM_6
100
AcDbText
 10
5.1805
 20
-6.369000333333333
 30
0.0
 40
0.5
  1
0.101
100
AcDbAttributeDefinition
  3

  2
H
 70
     8
280
     0
  0
ATTDEF
  5
BC
330
B0
100
AcDbEntity
  8
AM_6
100
AcDbText
 10
5.1805
 20
-6.869000333333333
 30
0.0
 40
0.5
  1
0.800
100
AcDbAttributeDefinition
  3

  2
L
 70
     8
280
     0
  0
ATTDEF
  5
BD
330
B0
100
AcDbEntity
  8
AM_6
100
AcDbText
 10
5.1805
 20
-7.369000333333333
 30
0.0
 40
0.5
  1
0.020
100
AcDbAttributeDefinition
  3

  2
S
 70
     8
280
     0
  0
ATTDEF
  5
BE
330
B0
100
AcDbEntity
  8
AM_6
100
AcDbText
 10
5.1805
 20
-7.869000333333333
 30
0.0
 40
0.5
  1
0.125000
100
AcDbAttributeDefinition
  3

  2
J
 70
     8
280
     0
  0
ATTDEF
  5
BF
330
B0
100
AcDbEntity
  8
AM_6
100
AcDbText
 10
5.1805
 20
-8.369000333333332
 30
0.0
 40
0.5
  1
baldor
100
AcDbAttributeDefinition
  3

  2
COMPANY
 70
     8
280
     0
  0
LINE
  5
C2
330
B0
100
AcDbEntity
  8
AM_9
100
AcDbLine
 10
0.0625
 20
-3.709000333333333
 30
0.0
 11
0.0625
 21
-3.770000333333333
 31
0.0
  0
LINE
  5
C3
330
B0
100
AcDbEntity
  8
AM_9
100
AcDbLine
 10
-0.0625
 20
-3.709000333333333
 30
0.0
 11
-0.0625
 21
-3.770000333333333
 31
0.0
  0
LINE
  5
C4
330
B0
100
AcDbEntity
  8
AM_9
100
AcDbLine
 10
0.0
 20
-3.709000333333333
 30
0.0
 11
0.0
 21
-3.770000333333333
 31
0.0
  0
LINE
  5
C5
330
B0
100
AcDbEntity
  8
AM_9
100
AcDbLine
 10
-0.0625
 20
-3.709000333333333
 30
0.0
 11
0.0625
 21
-3.709000333333333
 31
0.0
  0
LINE
  5
C6
330
B0
100
AcDbEntity
  8
AM_9
100
AcDbLine
 10
-0.0702
 20
-2.869000333333333
 30
0.0
 11
-0.095
 21
-2.893800333333333
 31
0.0
  0
LINE
  5
C7
330
B0
100
AcDbEntity
  8
AM_9
100
AcDbLine
 10
0.095
 20
-2.893800333333333
 30
0.0
 11
0.0702
 21
-2.869000333333333
 31
0.0
  0
LINE
  5
C8
330
B0
100
AcDbEntity
  8
AM_9
100
AcDbLine
 10
-0.0702
 20
-2.869000333333333
 30
0.0
 11
0.0702
 21
-2.869000333333333
 31
0.0
  0
LINE
  5
C9
330
B0
100
AcDbEntity
  8
AM_9
100
AcDbLine
 10
0.095
 20
-3.566833333333333
 30
0.0
 11
0.095
 21
-2.893800333333333
 31
0.0
  0
LINE
  5
CA
330
B0
100
AcDbEntity
  8
AM_9
100
AcDbLine
 10
-0.095
 20
-2.893800333333333
 30
0.0
 11
-0.095
 21
-3.566833333333333
 31
0.0
  0
LINE
  5
CB
330
B0
100
AcDbEntity
  8
AM_9
100
AcDbLine
 10
-0.095
 20
-2.893800333333333
 30
0.0
 11
0.095
 21
-2.893800333333333
 31
0.0
  0
LINE
  5
CC
330
B0
100
AcDbEntity
  8
AM_5
100
AcDbLine
 10
0.0702
 20
-2.869000333333333
 30
0.0
 11
0.0702
 21
-3.566833333333333
 31
0.0
  0
LINE
  5
CD
330
B0
100
AcDbEntity
  8
AM_5
100
AcDbLine
 10
-0.0702
 20
-2.869000333333333
 30
0.0
 11
-0.0702
 21
-3.566833333333333
 31
0.0
  0
LINE
  5
CF
330
B0
100
AcDbEntity
  8
AM_4
100
AcDbLine
 10
0.095
 20
-3.669000333333333
 30
0.0
 11
0.095
 21
-3.566833333333333
 31
0.0
  0
LINE
  5
D0
330
B0
100
AcDbEntity
  8
AM_4
100
AcDbLine
 10
-0.095
 20
-3.566833333333333
 30
0.0
 11
-0.095
 21
-3.669000333333333
 31
0.0
  0
LINE
  5
D1
330
B0
100
AcDbEntity
  8
AM_4
100
AcDbLine
 10
0.1805
 20
-3.689000333333333
 30
0.0
 11
0.1805
 21
-3.669000333333333
 31
0.0
  0
LINE
  5
D2
330
B0
100
AcDbEntity
  8
AM_4
100
AcDbLine
 10
-0.1805
 20
-3.669000333333333
 30
0.0
 11
-0.1805
 21
-3.689000333333333
 31
0.0
  0
LINE
  5
D3
330
B0
100
AcDbEntity
  8
AM_4
100
AcDbLine
 10
-0.1805
 20
-3.669000333333333
 30
0.0
 11
0.1805
 21
-3.669000333333333
 31
0.0
  0
LINE
  5
D4
330
B0
100
AcDbEntity
  8
AM_4
100
AcDbLine
 10
-0.0994992884038658
 20
-3.770000333333333
 30
0.0
 11
0.0995
 21
-3.770000333333333
 31
0.0
  0
ARC
  5
D5
330
B0
100
AcDbEntity
  8
AM_4
100
AcDbCircle
 10
0.0995000000000001
 20
-3.689000333333333
 30
0.0
 40
0.081
100
AcDbArc
 50
270.0
 51
0.0
  0
ARC
  5
D6
330
B0
100
AcDbEntity
  8
AM_4
100
AcDbCircle
 10
-0.0995000000000001
 20
-3.689000333333333
 30
0.0
 40
0.0809999999999998
100
AcDbArc
 50
180.0
 51
270.0
  0
LINE
  5
D7
330
B0
100
AcDbEntity
  8
AM_4
100
AcDbLine
 10
-0.1805
 20
-3.689000333333333
 30
0.0
 11
0.1805
 21
-3.689000333333333
 31
0.0
  0
LINE
  5
D8
330
B0
100
AcDbEntity
  8
AM_5
100
AcDbLine
 10
0.0702
 20
-3.566833333333333
 30
0.0
 11
0.0702
 21
-3.770000333333333
 31
0.0
  0
LINE
  5
D9
330
B0
100
AcDbEntity
  8
AM_5
100
AcDbLine
 10
0.095
 20
-3.969000333333333
 30
0.0
 11
-0.095
 21
-3.969000333333333
 31
0.0
  0
LINE
  5
DA
330
B0
100
AcDbEntity
  8
AM_5
100
AcDbLine
 10
-0.0702
 20
-3.566833333333333
 30
0.0
 11
-0.0702
 21
-3.770000333333333
 31
0.0
  0
ENDBLK
  5
B3
330
B0
100
AcDbEntity
  8
0
100
AcDbBlockEnd
  0
BLOCK
  5
DD
330
DB
100
AcDbEntity
  8
0
100
AcDbBlockBegin
  2
5_070899LWE_0_in_072189_4
 70
     2
 10
0.0
 20
0.0
 30
0.0
  3
5_070899LWE_0_in_072189_4
  1

  0
ATTDEF
  5
DF
330
DB
100
AcDbEntity
  8
AM_6
100
AcDbText
 10
7.140000000000001
 20
-3.126833333333333
 30
0.0
 40
0.5
  1
Imperial/E Insert Lockwasher -Inch
100
AcDbAttributeDefinition
  3

  2
NN
 70
     8
280
     0
  0
ATTDEF
  5
E0
330
DB
100
AcDbEntity
  8
AM_6
100
AcDbText
 10
7.140000000000001
 20
-3.626833333333333
 30
0.0
 40
0.5
  1
Imperial/E Bearings
100
AcDbAttributeDefinition
  3

  2
NT
 70
     8
280
     0
  0
ATTDEF
  5
E1
330
DB
100
AcDbEntity
  8
AM_6
100
AcDbText
 10
7.140000000000001
 20
-4.126833333333333
 30
0.0
 40
0.5
  1
070899LWE
100
AcDbAttributeDefinition
  3

  2
NB
 70
     8
280
     0
  0
ATTDEF
  5
E2
330
DB
100
AcDbEntity
  8
AM_6
100
AcDbText
 10
7.140000000000001
 20
-4.626833333333333
 30
0.0
 40
0.5
  1
$PN.LWE
100
AcDbAttributeDefinition
  3

  2
NBSYN
 70
     8
280
     0
  0
ATTDEF
  5
E3
330
DB
100
AcDbEntity
  8
AM_6
100
AcDbText
 10
7.140000000000001
 20
-5.126833333333333
 30
0.0
 40
0.5
  1
070899
100
AcDbAttributeDefinition
  3

  2
LINA
 70
     8
280
     0
  0
ATTDEF
  5
E4
330
DB
100
AcDbEntity
  8
AM_6
100
AcDbText
 10
7.140000000000001
 20
-5.626833333333333
 30
0.0
 40
0.5
  1
2-15/16
100
AcDbAttributeDefinition
  3

  2
SS
 70
     8
280
     0
  0
ATTDEF
  5
E5
330
DB
100
AcDbEntity
  8
AM_6
100
AcDbText
 10
7.140000000000001
 20
-6.126833333333333
 30
0.0
 40
0.5
  1
4.280000
100
AcDbAttributeDefinition
  3

  2
E1
 70
     8
280
     0
  0
ATTDEF
  5
E6
330
DB
100
AcDbEntity
  8
AM_6
100
AcDbText
 10
7.140000000000001
 20
-6.626833333333333
 30
0.0
 40
0.5
  1
2.937500
100
AcDbAttributeDefinition
  3

  2
SS1
 70
     8
280
     0
  0
ATTDEF
  5
E7
330
DB
100
AcDbEntity
  8
AM_6
100
AcDbText
 10
7.140000000000001
 20
-7.126833333333333
 30
0.0
 40
0.5
  1
070899
100
AcDbAttributeDefinition
  3

  2
PN
 70
     8
280
     0
  0
ATTDEF
  5
E8
330
DB
100
AcDbEntity
  8
AM_6
100
AcDbText
 10
7.140000000000001
 20
-7.626833333333333
 30
0.0
 40
0.5
  1
INS-IP-215R
100
AcDbAttributeDefinition
  3

  2
DESCRIPTION
 70
     8
280
     0
  0
ATTDEF
  5
E9
330
DB
100
AcDbEntity
  8
AM_6
100
AcDbText
 10
7.140000000000001
 20
-8.126833333333334
 30
0.0
 40
0.5
  1
5.1181
100
AcDbAttributeDefinition
  3

  2
A
 70
     8
280
     0
  0
ATTDEF
  5
EA
330
DB
100
AcDbEntity
  8
AM_6
100
AcDbText
 10
7.140000000000001
 20
-8.626833333333334
 30
0.0
 40
0.5
  1
1-9/32
100
AcDbAttributeDefinition
  3

  2
B
 70
     8
280
     0
  0
ATTDEF
  5
EB
330
DB
100
AcDbEntity
  8
AM_6
100
AcDbText
 10
7.140000000000001
 20
-9.126833333333334
 30
0.0
 40
0.5
  1
1.281250
100
AcDbAttributeDefinition
  3

  2
B1
 70
     8
280
     0
  0
ATTDEF
  5
EC
330
DB
100
AcDbEntity
  8
AM_6
100
AcDbText
 10
7.140000000000001
 20
-9.626833333333334
 30
0.0
 40
0.5
  1
3-1/2
100
AcDbAttributeDefinition
  3

  2
C
 70
     8
280
     0
  0
ATTDEF
  5
ED
330
DB
100
AcDbEntity
  8
AM_6
100
AcDbText
 10
7.140000000000001
 20
-10.12683333333333
 30
0.0
 40
0.5
  1
3.500000
100
AcDbAttributeDefinition
  3

  2
C1
 70
     8
280
     0
  0
ATTDEF
  5
EE
330
DB
100
AcDbEntity
  8
AM_6
100
AcDbText
 10
7.140000000000001
 20
-10.62683333333333
 30
0.0
 40
0.5
  1
1.219
100
AcDbAttributeDefinition
  3

  2
D
 70
     8
280
     0
  0
ATTDEF
  5
EF
330
DB
100
AcDbEntity
  8
AM_6
100
AcDbText
 10
7.140000000000001
 20
-11.12683333333333
 30
0.0
 40
0.5
  1
4-9/32
100
AcDbAttributeDefinition
  3

  2
E
 70
     8
280
     0
  0
ATTDEF
  5
F0
330
DB
100
AcDbEntity
  8
AM_6
100
AcDbText
 10
7.140000000000001
 20
-11.62683333333333
 30
0.0
 40
0.5
  1
0.1900
100
AcDbAttributeDefinition
  3

  2
NDM
 70
     8
280
     0
  0
ATTDEF
  5
F1
330
DB
100
AcDbEntity
  8
AM_6
100
AcDbText
 10
7.140000000000001
 20
-12.12683333333333
 30
0.0
 40
0.5
  1
0.1450
100
AcDbAttributeDefinition
  3

  2
KDM
 70
     8
280
     0
  0
ATTDEF
  5
F2
330
DB
100
AcDbEntity
  8
AM_6
100
AcDbText
 10
7.140000000000001
 20
-12.62683333333333
 30
0.0
 40
0.5
  1
3.74
100
AcDbAttributeDefinition
  3

  2
AL
 70
     8
280
     0
  0
ATTDEF
  5
F3
330
DB
100
AcDbEntity
  8
AM_6
100
AcDbText
 10
7.140000000000001
 20
-13.12683333333333
 30
0.0
 40
0.5
  1
0.50
100
AcDbAttributeDefinition
  3

  2
BL
 70
     8
280
     0
  0
ATTDEF
  5
F4
330
DB
100
AcDbEntity
  8
AM_6
100
AcDbText
 10
7.140000000000001
 20
-13.62683333333333
 30
0.0
 40
0.5
  1
0.07
100
AcDbAttributeDefinition
  3

  2
CL
 70
     8
280
     0
  0
ATTDEF
  5
F5
330
DB
100
AcDbEntity
  8
AM_6
100
AcDbText
 10
7.140000000000001
 20
-14.12683333333333
 30
0.0
 40
0.5
  1
0.44
100
AcDbAttributeDefinition
  3

  2
DL
 70
     8
280
     0
  0
ATTDEF
  5
F6
330
DB
100
AcDbEntity
  8
AM_6
100
AcDbText
 10
7.140000000000001
 20
-14.62683333333333
 30
0.0
 40
0.5
  1
baldor
100
AcDbAttributeDefinition
  3

  2
COMPANY
 70
     8
280
     0
  0
LINE
  5
F7
330
DB
100
AcDbEntity
  8
AM_9
100
AcDbLine
 10
-1.885972222222222
 20
-3.496833333333333
 30
0.0
 11
-1.885972222222222
 21
-3.566833333333333
 31
0.0
  0
LINE
  5
F8
330
DB
100
AcDbEntity
  8
AM_9
100
AcDbLine
 10
-1.981002386490942
 20
-3.496833333333333
 30
0.0
 11
-1.981002386490942
 21
-3.566833333333333
 31
0.0
  0
LINE
  5
F9
330
DB
100
AcDbEntity
  8
AM_9
100
AcDbLine
 10
1.885972222222222
 20
-3.496833333333333
 30
0.0
 11
1.885972222222222
 21
-3.566833333333333
 31
0.0
  0
LINE
  5
FA
330
DB
100
AcDbEntity
  8
AM_9
100
AcDbLine
 10
1.981002386490941
 20
-3.566833333333333
 30
0.0
 11
1.981002386490941
 21
-3.496833333333333
 31
0.0
  0
LINE
  5
FB
330
DB
100
AcDbEntity
  8
AM_9
100
AcDbLine
 10
-1.584993375150048
 20
-3.496833333333333
 30
0.0
 11
-1.584993375150048
 21
-3.566833333333333
 31
0.0
  0
LINE
  5
FC
330
DB
100
AcDbEntity
  8
AM_9
100
AcDbLine
 10
1.584993375150048
 20
-3.496833333333333
 30
0.0
 11
1.584993375150048
 21
-3.566833333333333
 31
0.0
  0
LINE
  5
FD
330
DB
100
AcDbEntity
  8
AM_9
100
AcDbLine
 10
-1.187934707917074
 20
-3.496833333333333
 30
0.0
 11
-1.187934707917074
 21
-3.566833333333333
 31
0.0
  0
LINE
  5
FE
330
DB
100
AcDbEntity
  8
AM_9
100
AcDbLine
 10
1.187934707917074
 20
-3.496833333333333
 30
0.0
 11
1.187934707917074
 21
-3.566833333333333
 31
0.0
  0
LINE
  5
FF
330
DB
100
AcDbEntity
  8
AM_9
100
AcDbLine
 10
1.05358441949163
 20
-3.496833333333333
 30
0.0
 11
1.053584419491632
 21
-3.566833333333333
 31
0.0
  0
LINE
  5
100
330
DB
100
AcDbEntity
  8
AM_9
100
AcDbLine
 10
-1.05358441949163
 20
-3.496833333333333
 30
0.0
 11
-1.05358441949163
 21
-3.566833333333333
 31
0.0
  0
LINE
  5
101
330
DB
100
AcDbEntity
  8
AM_9
100
AcDbLine
 10
-0.6755119833469594
 20
-3.126833333333333
 30
0.0
 11
-0.6755119833469594
 21
-3.566833333333333
 31
0.0
  0
LINE
  5
102
330
DB
100
AcDbEntity
  8
AM_9
100
AcDbLine
 10
-0.7212383651687281
 20
-3.496833333333333
 30
0.0
 11
-0.7212383651687281
 21
-3.566833333333333
 31
0.0
  0
LINE
  5
103
330
DB
100
AcDbEntity
  8
AM_9
100
AcDbLine
 10
-1.400758891675518
 20
-3.496833333333333
 30
0.0
 11
-1.400758891675518
 21
-3.566833333333333
 31
0.0
  0
LINE
  5
104
330
DB
100
AcDbEntity
  8
AM_9
100
AcDbLine
 10
-1.266408603250089
 20
-3.496833333333333
 30
0.0
 11
-1.266408603250089
 21
-3.566833333333333
 31
0.0
  0
LINE
  5
105
330
DB
100
AcDbEntity
  8
AM_9
100
AcDbLine
 10
-1.428605078223936
 20
-3.496833333333333
 30
0.0
 11
-1.428605078223936
 21
-3.566833333333333
 31
0.0
  0
LINE
  5
106
330
DB
100
AcDbEntity
  8
AM_9
100
AcDbLine
 10
1.266408603250073
 20
-3.496833333333333
 30
0.0
 11
1.266408603250073
 21
-3.566833333333333
 31
0.0
  0
LINE
  5
107
330
DB
100
AcDbEntity
  8
AM_9
100
AcDbLine
 10
1.400758891675517
 20
-3.496833333333333
 30
0.0
 11
1.400758891675517
 21
-3.566833333333333
 31
0.0
  0
LINE
  5
108
330
DB
100
AcDbEntity
  8
AM_9
100
AcDbLine
 10
1.428605078223935
 20
-3.566833333333333
 30
0.0
 11
1.428605078223935
 21
-3.496833333333333
 31
0.0
  0
LINE
  5
109
330
DB
100
AcDbEntity
  8
AM_9
100
AcDbLine
 10
-0.4902684820409064
 20
-3.496833333333333
 30
0.0
 11
-0.4902684820409064
 21
-3.566833333333333
 31
0.0
  0
LINE
  5
10A
330
DB
100
AcDbEntity
  8
AM_9
100
AcDbLine
 10
-0.4445421002191369
 20
-3.126833333333333
 30
0.0
 11
-0.7051967259816958
 21
-3.126833333333333
 31
0.0
  0
LINE
  5
10B
330
DB
100
AcDbEntity
  8
AM_9
100
AcDbLine
 10
-0.4445421002191369
 20
-3.126833333333333
 30
0.0
 11
-0.4445421002191369
 21
-3.566833333333333
 31
0.0
  0
LINE
  5
10C
330
DB
100
AcDbEntity
  8
AM_9
100
AcDbLine
 10
-0.474226842853874
 20
-3.496833333333333
 30
0.0
 11
-0.4742268428538741
 21
-3.126833333333333
 31
0.0
  0
LINE
  5
10D
330
DB
100
AcDbEntity
  8
AM_9
100
AcDbLine
 10
-0.7051967259816958
 20
-3.126833333333333
 30
0.0
 11
-0.7051967259816958
 21
-3.496833333333333
 31
0.0
  0
LINE
  5
10E
330
DB
100
AcDbEntity
  8
AM_4
100
AcDbLine
 10
-2.14
 20
-3.496833333333333
 30
0.0
 11
-2.14
 21
-3.566833333333333
 31
0.0
  0
LINE
  5
10F
330
DB
100
AcDbEntity
  8
AM_4
100
AcDbLine
 10
2.14
 20
-3.566833333333333
 30
0.0
 11
2.14
 21
-3.496833333333333
 31
0.0
  0
LINE
  5
110
330
DB
100
AcDbEntity
  8
AM_4
100
AcDbLine
 10
-2.14
 20
-3.566833333333333
 30
0.0
 11
2.14
 21
-3.566833333333333
 31
0.0
  0
LINE
  5
111
330
DB
100
AcDbEntity
  8
AM_4
100
AcDbLine
 10
1.326515590093168
 20
-3.496833333333333
 30
0.0
 11
1.680068980686441
 21
-3.496833333333333
 31
0.0
  0
LINE
  5
112
330
DB
100
AcDbEntity
  8
AM_4
100
AcDbLine
 10
-1.680068980686441
 20
-3.496833333333333
 30
0.0
 11
-1.326515590093167
 21
-3.496833333333333
 31
0.0
  0
ENDBLK
  5
DE
330
DB
100
AcDbEntity
  8
0
100
AcDbBlockEnd
  0
BLOCK
  5
115
330
113
100
AcDbEntity
  8
0
100
AcDbBlockBegin
  2
6_070899E_0_in_072189_4
 70
     2
 10
0.0
 20
0.0
 30
0.0
  3
6_070899E_0_in_072189_4
  1

  0
ATTDEF
  5
117
330
113
100
AcDbEntity
  8
AM_6
100
AcDbText
 10
7.55905
 20
-0.2449999999999989
 30
0.0
 40
0.5
  1
Imperial/E Insert -Inch
100
AcDbAttributeDefinition
  3

  2
NN
 70
     8
280
     0
  0
ATTDEF
  5
118
330
113
100
AcDbEntity
  8
AM_6
100
AcDbText
 10
7.55905
 20
-0.7449999999999989
 30
0.0
 40
0.5
  1
Imperial Bearings
100
AcDbAttributeDefinition
  3

  2
NT
 70
     8
280
     0
  0
ATTDEF
  5
119
330
113
100
AcDbEntity
  8
AM_6
100
AcDbText
 10
7.55905
 20
-1.244999999999999
 30
0.0
 40
0.5
  1
070899E
100
AcDbAttributeDefinition
  3

  2
NB
 70
     8
280
     0
  0
ATTDEF
  5
11A
330
113
100
AcDbEntity
  8
AM_6
100
AcDbText
 10
7.55905
 20
-1.744999999999999
 30
0.0
 40
0.5
  1
$PN.
100
AcDbAttributeDefinition
  3

  2
NBSYN
 70
     8
280
     0
  0
ATTDEF
  5
11B
330
113
100
AcDbEntity
  8
AM_6
100
AcDbText
 10
7.55905
 20
-2.244999999999999
 30
0.0
 40
0.5
  1
070899E
100
AcDbAttributeDefinition
  3

  2
LINA
 70
     8
280
     0
  0
ATTDEF
  5
11C
330
113
100
AcDbEntity
  8
AM_6
100
AcDbText
 10
7.55905
 20
-2.744999999999999
 30
0.0
 40
0.5
  1
2-15/16
100
AcDbAttributeDefinition
  3

  2
SS
 70
     8
280
     0
  0
ATTDEF
  5
11D
330
113
100
AcDbEntity
  8
AM_6
100
AcDbText
 10
7.55905
 20
-3.244999999999999
 30
0.0
 40
0.5
  1
2.937500
100
AcDbAttributeDefinition
  3

  2
SS1
 70
     8
280
     0
  0
ATTDEF
  5
11E
330
113
100
AcDbEntity
  8
AM_6
100
AcDbText
 10
7.55905
 20
-3.744999999999999
 30
0.0
 40
0.5
  1
070899E
100
AcDbAttributeDefinition
  3

  2
PN
 70
     8
280
     0
  0
ATTDEF
  5
11F
330
113
100
AcDbEntity
  8
AM_6
100
AcDbText
 10
7.55905
 20
-4.244999999999999
 30
0.0
 40
0.5
  1
INS-IP-215R
100
AcDbAttributeDefinition
  3

  2
DESCRIPTION
 70
     8
280
     0
  0
ATTDEF
  5
120
330
113
100
AcDbEntity
  8
AM_6
100
AcDbText
 10
7.55905
 20
-4.744999999999999
 30
0.0
 40
0.5
  1
Contact Seal
100
AcDbAttributeDefinition
  3

  2
ST
 70
     8
280
     0
  0
ATTDEF
  5
121
330
113
100
AcDbEntity
  8
AM_6
100
AcDbText
 10
7.55905
 20
-5.244999999999999
 30
0.0
 40
0.5
  1
1
100
AcDbAttributeDefinition
  3

  2
ST1
 70
     8
280
     0
  0
ATTDEF
  5
122
330
113
100
AcDbEntity
  8
AM_6
100
AcDbText
 10
7.55905
 20
-5.744999999999999
 30
0.0
 40
0.5
  1
5.1181
100
AcDbAttributeDefinition
  3

  2
A
 70
     8
280
     0
  0
ATTDEF
  5
123
330
113
100
AcDbEntity
  8
AM_6
100
AcDbText
 10
7.55905
 20
-6.244999999999999
 30
0.0
 40
0.5
  1
1-9/32
100
AcDbAttributeDefinition
  3

  2
B
 70
     8
280
     0
  0
ATTDEF
  5
124
330
113
100
AcDbEntity
  8
AM_6
100
AcDbText
 10
7.55905
 20
-6.744999999999999
 30
0.0
 40
0.5
  1
1.281250
100
AcDbAttributeDefinition
  3

  2
B1
 70
     8
280
     0
  0
ATTDEF
  5
125
330
113
100
AcDbEntity
  8
AM_6
100
AcDbText
 10
7.55905
 20
-7.244999999999999
 30
0.0
 40
0.5
  1
3-1/2
100
AcDbAttributeDefinition
  3

  2
C
 70
     8
280
     0
  0
ATTDEF
  5
126
330
113
100
AcDbEntity
  8
AM_6
100
AcDbText
 10
7.55905
 20
-7.744999999999999
 30
0.0
 40
0.5
  1
3.500000
100
AcDbAttributeDefinition
  3

  2
C1
 70
     8
280
     0
  0
ATTDEF
  5
127
330
113
100
AcDbEntity
  8
AM_6
100
AcDbText
 10
7.55905
 20
-8.245
 30
0.0
 40
0.5
  1
4.59000
100
AcDbAttributeDefinition
  3

  2
CR
 70
     8
280
     0
  0
ATTDEF
  5
128
330
113
100
AcDbEntity
  8
AM_6
100
AcDbText
 10
7.55905
 20
-8.745
 30
0.0
 40
0.5
  1
1.219
100
AcDbAttributeDefinition
  3

  2
D
 70
     8
280
     0
  0
ATTDEF
  5
129
330
113
100
AcDbEntity
  8
AM_6
100
AcDbText
 10
7.55905
 20
-9.245
 30
0.0
 40
0.5
  1
4-9/32
100
AcDbAttributeDefinition
  3

  2
E
 70
     8
280
     0
  0
ATTDEF
  5
12A
330
113
100
AcDbEntity
  8
AM_6
100
AcDbText
 10
7.55905
 20
-9.745
 30
0.0
 40
0.5
  1
4.281250
100
AcDbAttributeDefinition
  3

  2
E1
 70
     8
280
     0
  0
ATTDEF
  5
12B
330
113
100
AcDbEntity
  8
AM_6
100
AcDbText
 10
7.55905
 20
-10.245
 30
0.0
 40
0.5
  1
0.1900
100
AcDbAttributeDefinition
  3

  2
NDM
 70
     8
280
     0
  0
ATTDEF
  5
12C
330
113
100
AcDbEntity
  8
AM_6
100
AcDbText
 10
7.55905
 20
-10.745
 30
0.0
 40
0.5
  1
0.1450
100
AcDbAttributeDefinition
  3

  2
KDM
 70
     8
280
     0
  0
ATTDEF
  5
12D
330
113
100
AcDbEntity
  8
AM_6
100
AcDbText
 10
7.55905
 20
-11.245
 30
0.0
 40
0.5
  1
3.74
100
AcDbAttributeDefinition
  3

  2
AL
 70
     8
280
     0
  0
ATTDEF
  5
12E
330
113
100
AcDbEntity
  8
AM_6
100
AcDbText
 10
7.55905
 20
-11.745
 30
0.0
 40
0.5
  1
0.50
100
AcDbAttributeDefinition
  3

  2
BL
 70
     8
280
     0
  0
ATTDEF
  5
12F
330
113
100
AcDbEntity
  8
AM_6
100
AcDbText
 10
7.55905
 20
-12.245
 30
0.0
 40
0.5
  1
0.07
100
AcDbAttributeDefinition
  3

  2
CL
 70
     8
280
     0
  0
ATTDEF
  5
130
330
113
100
AcDbEntity
  8
AM_6
100
AcDbText
 10
7.55905
 20
-12.745
 30
0.0
 40
0.5
  1
0.44
100
AcDbAttributeDefinition
  3

  2
DL
 70
     8
280
     0
  0
ATTDEF
  5
131
330
113
100
AcDbEntity
  8
AM_6
100
AcDbText
 10
7.55905
 20
-13.245
 30
0.0
 40
0.5
  1
0.8000
100
AcDbAttributeDefinition
  3

  2
LL
 70
     8
280
     0
  0
ATTDEF
  5
132
330
113
100
AcDbEntity
  8
AM_6
100
AcDbText
 10
7.55905
 20
-13.745
 30
0.0
 40
0.5
  1
0.025
100
AcDbAttributeDefinition
  3

  2
Y
 70
     8
280
     0
  0
ATTDEF
  5
133
330
113
100
AcDbEntity
  8
AM_6
100
AcDbText
 10
7.55905
 20
-14.245
 30
0.0
 40
0.5
  1
0.025000
100
AcDbAttributeDefinition
  3

  2
Y1
 70
     8
280
     0
  0
ATTDEF
  5
134
330
113
100
AcDbEntity
  8
AM_6
100
AcDbText
 10
7.55905
 20
-14.745
 30
0.0
 40
0.5
  1
3-15/32
100
AcDbAttributeDefinition
  3

  2
Z
 70
     8
280
     0
  0
ATTDEF
  5
135
330
113
100
AcDbEntity
  8
AM_6
100
AcDbText
 10
7.55905
 20
-15.245
 30
0.0
 40
0.5
  1
3.468750
100
AcDbAttributeDefinition
  3

  2
Z1
 70
     8
280
     0
  0
ATTDEF
  5
136
330
113
100
AcDbEntity
  8
AM_6
100
AcDbText
 10
7.55905
 20
-15.745
 30
0.0
 40
0.5
  1
1.10000
100
AcDbAttributeDefinition
  3

  2
P1
 70
     8
280
     0
  0
ATTDEF
  5
137
330
113
100
AcDbEntity
  8
AM_6
100
AcDbText
 10
7.55905
 20
-16.245
 30
0.0
 40
0.5
  1
1.61000
100
AcDbAttributeDefinition
  3

  2
H1
 70
     8
280
     0
  0
ATTDEF
  5
138
330
113
100
AcDbEntity
  8
AM_6
100
AcDbText
 10
7.55905
 20
-16.745
 30
0.0
 40
0.5
  1
0.79000
100
AcDbAttributeDefinition
  3

  2
G1
 70
     8
280
     0
  0
ATTDEF
  5
139
330
113
100
AcDbEntity
  8
AM_6
100
AcDbText
 10
7.55905
 20
-17.245
 30
0.0
 40
0.5
  1
0.10100
100
AcDbAttributeDefinition
  3

  2
CW
 70
     8
280
     0
  0
ATTDEF
  5
13A
330
113
100
AcDbEntity
  8
AM_6
100
AcDbText
 10
7.55905
 20
-17.745
 30
0.0
 40
0.5
  1
4.28000
100
AcDbAttributeDefinition
  3

  2
L1
 70
     8
280
     0
  0
ATTDEF
  5
13B
330
113
100
AcDbEntity
  8
AM_6
100
AcDbText
 10
7.55905
 20
-18.245
 30
0.0
 40
0.5
  1
baldor
100
AcDbAttributeDefinition
  3

  2
COMPANY
 70
     8
280
     0
  0
LINE
  5
13C
330
113
100
AcDbEntity
  8
AM_9
100
AcDbLine
 10
-0.7067629183137032
 20
-0.8483750000000003
 30
0.0
 11
-0.7067629183137032
 21
-3.496833333333334
 31
0.0
  0
LINE
  5
13D
330
113
100
AcDbEntity
  8
AM_9
100
AcDbLine
 10
-0.4445421002191373
 20
-0.8483750000000003
 30
0.0
 11
-0.4445421002191376
 21
-3.77
 31
0.0
  0
LINE
  5
13E
330
113
100
AcDbEntity
  8
AM_9
100
AcDbLine
 10
-0.675511983346959
 20
-3.566833333333333
 30
0.0
 11
-0.675511983346959
 21
-0.8483750000000003
 31
0.0
  0
LINE
  5
13F
330
113
100
AcDbEntity
  8
AM_9
100
AcDbLine
 10
-1.46875
 20
-0.8483750000000004
 30
0.0
 11
-1.46875
 21
-3.77
 31
0.0
  0
LINE
  5
140
330
113
100
AcDbEntity
  8
AM_9
100
AcDbLine
 10
1.46875
 20
-3.77
 30
0.0
 11
1.46875
 21
-0.8483750000000004
 31
0.0
  0
LINE
  5
141
330
113
100
AcDbEntity
  8
AM_9
100
AcDbLine
 10
-0.4757930351858815
 20
-0.8483750000000003
 30
0.0
 11
-0.4757930351858815
 21
-3.496833333333334
 31
0.0
  0
LINE
  5
142
330
113
100
AcDbEntity
  8
AM_9
100
AcDbLine
 10
1.145512985522207
 20
-3.056833333333334
 30
0.0
 11
1.145512985522207
 21
-3.496833333333333
 31
0.0
  0
LINE
  5
143
330
113
100
AcDbEntity
  8
AM_9
100
AcDbLine
 10
-1.145512985522207
 20
-3.056833333333334
 30
0.0
 11
-1.145512985522207
 21
-3.496833333333333
 31
0.0
  0
LINE
  5
144
330
113
100
AcDbEntity
  8
AM_9
100
AcDbLine
 10
-1.546052631578947
 20
-0.2699999999999999
 30
0.0
 11
-1.546052631578947
 21
-0.8483750000000004
 31
0.0
  0
LINE
  5
145
330
113
100
AcDbEntity
  8
AM_9
100
AcDbLine
 10
1.546052631578947
 20
-0.8483750000000004
 30
0.0
 11
1.546052631578947
 21
-0.2699999999999999
 31
0.0
  0
LINE
  5
146
330
113
100
AcDbEntity
  8
AM_9
100
AcDbLine
 10
-0.4742268428538741
 20
-3.566833333333333
 30
0.0
 11
-0.474226842853874
 21
-3.496833333333333
 31
0.0
  0
LINE
  5
147
330
113
100
AcDbEntity
  8
AM_9
100
AcDbLine
 10
-0.7051967259816957
 20
-3.496833333333333
 30
0.0
 11
-0.7051967259816958
 21
-3.566833333333333
 31
0.0
  0
LINE
  5
148
330
113
100
AcDbEntity
  8
AM_9
100
AcDbLine
 10
-1.546052631578947
 20
-3.496833333333333
 30
0.0
 11
-1.546052631578947
 21
-3.566833333333333
 31
0.0
  0
LINE
  5
149
330
113
100
AcDbEntity
  8
AM_9
100
AcDbLine
 10
1.546052631578947
 20
-3.566833333333333
 30
0.0
 11
1.546052631578947
 21
-3.496833333333333
 31
0.0
  0
LINE
  5
14A
330
113
100
AcDbEntity
  8
AM_9
100
AcDbLine
 10
1.145512985522207
 20
-3.056833333333334
 30
0.0
 11
1.331983616199923
 21
-3.056833333333334
 31
0.0
  0
LINE
  5
14B
330
113
100
AcDbEntity
  8
AM_9
100
AcDbLine
 10
-1.331983616199923
 20
-3.056833333333334
 30
0.0
 11
-1.145512985522207
 21
-3.056833333333334
 31
0.0
  0
LINE
  5
14C
330
113
100
AcDbEntity
  8
AM_9
100
AcDbLine
 10
1.734375
 20
-0.2699999999999999
 30
0.0
 11
-1.734375
 21
-0.2699999999999999
 31
0.0
  0
LINE
  5
14D
330
113
100
AcDbEntity
  8
AM_9
100
AcDbLine
 10
-1.734375
 20
-0.2450000000000011
 30
0.0
 11
-1.734375
 21
-0.2699999999999999
 31
0.0
  0
LINE
  5
14E
330
113
100
AcDbEntity
  8
AM_9
100
AcDbLine
 10
1.734375
 20
-0.2699999999999999
 30
0.0
 11
1.734375
 21
-0.2450000000000011
 31
0.0
  0
LINE
  5
14F
330
113
100
AcDbEntity
  8
AM_9
100
AcDbLine
 10
-0.0724499999999999
 20
-2.698662360336121
 30
0.0
 11
-0.0724499999999999
 21
-3.474283333333334
 31
0.0
  0
LINE
  5
150
330
113
100
AcDbEntity
  8
AM_9
100
AcDbLine
 10
0.0724499999999999
 20
-3.474283333333334
 30
0.0
 11
0.0724499999999999
 21
-2.698662360336121
 31
0.0
  0
LINE
  5
151
330
113
100
AcDbEntity
  8
AM_9
100
AcDbLine
 10
0.0724499999999999
 20
-2.698662360336121
 30
0.0
 11
-0.0724499999999999
 21
-2.698662360336121
 31
0.0
  0
LINE
  5
152
330
113
100
AcDbEntity
  8
AM_9
100
AcDbLine
 10
0.0
 20
-2.656833333333333
 30
0.0
 11
-0.0724499999999999
 21
-2.698662360336121
 31
0.0
  0
LINE
  5
153
330
113
100
AcDbEntity
  8
AM_9
100
AcDbLine
 10
0.0724499999999999
 20
-2.698662360336121
 30
0.0
 11
0.0
 21
-2.656833333333333
 31
0.0
  0
LINE
  5
154
330
113
100
AcDbEntity
  8
AM_9
100
AcDbLine
 10
0.0724499999999999
 20
-3.474283333333334
 30
0.0
 11
-0.0724499999999999
 21
-3.474283333333334
 31
0.0
  0
LINE
  5
155
330
113
100
AcDbEntity
  8
AM_9
100
AcDbLine
 10
-0.0724499999999999
 20
-3.474283333333334
 30
0.0
 11
-0.0949999999999999
 21
-3.496833333333333
 31
0.0
  0
LINE
  5
156
330
113
100
AcDbEntity
  8
AM_9
100
AcDbLine
 10
0.0949999999999999
 20
-3.496833333333333
 30
0.0
 11
0.0724499999999999
 21
-3.474283333333334
 31
0.0
  0
LINE
  5
157
330
113
100
AcDbEntity
  8
AM_9
100
AcDbLine
 10
2.152264619129633
 20
-2.83
 30
0.0
 11
2.163632188626698
 21
-2.178752379678136
 31
0.0
  0
LINE
  5
158
330
113
100
AcDbEntity
  8
AM_9
100
AcDbLine
 10
-2.163632188626698
 20
-2.178752379678136
 30
0.0
 11
-2.152264619129633
 21
-2.83
 31
0.0
  0
LINE
  5
159
330
113
100
AcDbEntity
  8
AM_9
100
AcDbLine
 10
2.163632188626698
 20
-2.178752379678136
 30
0.0
 11
-2.163632188626698
 21
-2.178752379678136
 31
0.0
  0
ARC
  5
15A
330
113
100
AcDbEntity
  8
AM_9
100
AcDbCircle
 10
-2.213624573384517
 20
-2.179625
 30
0.0
 40
0.0499999999999998
100
AcDbArc
 50
0.9999999999988067
 51
90.0
  0
ARC
  5
15B
330
113
100
AcDbEntity
  8
AM_9
100
AcDbCircle
 10
2.213624573384517
 20
-2.179625
 30
0.0
 40
0.0499999999999998
100
AcDbArc
 50
90.0
 51
179.0000000000012
  0
ARC
  5
15C
330
113
100
AcDbEntity
  8
AM_9
100
AcDbCircle
 10
-2.153368966601195
 20
-0.6921250000000014
 30
0.0
 40
0.1000000000000008
100
AcDbArc
 50
90.0
 51
149.9999999999997
  0
ARC
  5
15D
330
113
100
AcDbEntity
  8
AM_9
100
AcDbCircle
 10
2.153368966601195
 20
-0.6921250000000014
 30
0.0
 40
0.1000000000000008
100
AcDbArc
 50
30.00000000000033
 51
90.0
  0
LINE
  5
15E
330
113
100
AcDbEntity
  8
AM_9
100
AcDbLine
 10
2.3125
 20
-0.5921250000000007
 30
0.0
 11
-2.3125
 21
-0.5921250000000007
 31
0.0
  0
LINE
  5
15F
330
113
100
AcDbEntity
  8
AM_9
100
AcDbLine
 10
2.3125
 20
-0.2449999999999989
 30
0.0
 11
-2.3125
 21
-0.2449999999999989
 31
0.0
  0
LINE
  5
160
330
113
100
AcDbEntity
  8
AM_9
100
AcDbLine
 10
-2.3125
 20
-0.2449999999999989
 30
0.0
 11
-2.3125
 21
-0.5921250000000007
 31
0.0
  0
LINE
  5
161
330
113
100
AcDbEntity
  8
AM_9
100
AcDbLine
 10
2.3125
 20
-0.5921250000000007
 30
0.0
 11
2.3125
 21
-0.2449999999999989
 31
0.0
  0
LINE
  5
162
330
113
100
AcDbEntity
  8
AM_9
100
AcDbLine
 10
2.239971506979639
 20
-0.6421250000000005
 30
0.0
 11
-2.239971506979639
 21
-0.6421250000000005
 31
0.0
  0
LINE
  5
163
330
113
100
AcDbEntity
  8
AM_9
100
AcDbLine
 10
-2.239971506979639
 20
-0.6421250000000005
 30
0.0
 11
-2.35905
 21
-0.8483750000000004
 31
0.0
  0
LINE
  5
164
330
113
100
AcDbEntity
  8
AM_9
100
AcDbLine
 10
2.35905
 20
-0.8483750000000004
 30
0.0
 11
2.239971506979639
 21
-0.6421250000000005
 31
0.0
  0
LINE
  5
165
330
113
100
AcDbEntity
  8
AM_9
100
AcDbLine
 10
-2.4949875
 20
-1.47201349838004
 30
0.0
 11
-2.4949875
 21
-1.545986501619961
 31
0.0
  0
LINE
  5
166
330
113
100
AcDbEntity
  8
AM_9
100
AcDbLine
 10
2.4949875
 20
-1.545986501619961
 30
0.0
 11
2.4949875
 21
-1.47201349838004
 31
0.0
  0
LINE
  5
167
330
113
100
AcDbEntity
  8
AM_9
100
AcDbLine
 10
2.549050000000001
 20
-2.129625
 30
0.0
 11
-2.549049999994984
 21
-2.129625
 31
0.0
  0
ARC
  5
168
330
113
100
AcDbEntity
  8
AM_9
100
AcDbCircle
 10
-2.549049999999999
 20
-2.119625
 30
0.0
 40
0.0100000000000007
100
AcDbArc
 50
180.0
 51
270.0
  0
ARC
  5
169
330
113
100
AcDbEntity
  8
AM_9
100
AcDbCircle
 10
2.549049999999999
 20
-2.119625
 30
0.0
 40
0.0100000000000007
100
AcDbArc
 50
270.0
 51
0.0
  0
LINE
  5
16A
330
113
100
AcDbEntity
  8
AM_9
100
AcDbLine
 10
2.50905
 20
-0.8483750000000004
 30
0.0
 11
-2.509049999993336
 21
-0.8483750000000004
 31
0.0
  0
ARC
  5
16B
330
113
100
AcDbEntity
  8
AM_9
100
AcDbCircle
 10
-2.509049999999999
 20
-0.8983750000000016
 30
0.0
 40
0.0500000000000009
100
AcDbArc
 50
90.0
 51
180.0
  0
ARC
  5
16C
330
113
100
AcDbEntity
  8
AM_9
100
AcDbCircle
 10
2.509049999999999
 20
-0.8983750000000016
 30
0.0
 40
0.0500000000000012
100
AcDbArc
 50
0.0
 51
90.0
  0
LINE
  5
16D
330
113
100
AcDbEntity
  8
AM_9
100
AcDbLine
 10
2.55905
 20
-2.119625
 30
0.0
 11
-2.55905
 21
-2.119625
 31
0.0
  0
LINE
  5
16E
330
113
100
AcDbEntity
  8
AM_9
100
AcDbLine
 10
-2.55905
 20
-1.582973003239921
 30
0.0
 11
-2.55905
 21
-2.119625
 31
0.0
  0
LINE
  5
16F
330
113
100
AcDbEntity
  8
AM_9
100
AcDbLine
 10
2.55905
 20
-2.119625
 30
0.0
 11
2.55905
 21
-1.582973003239921
 31
0.0
  0
LINE
  5
170
330
113
100
AcDbEntity
  8
AM_9
100
AcDbLine
 10
2.55905
 20
-0.8983750000000008
 30
0.0
 11
-2.55905
 21
-0.8983750000000008
 31
0.0
  0
LINE
  5
171
330
113
100
AcDbEntity
  8
AM_9
100
AcDbLine
 10
-2.55905
 20
-0.8983750000000008
 30
0.0
 11
-2.55905
 21
-1.43502699676008
 31
0.0
  0
LINE
  5
172
330
113
100
AcDbEntity
  8
AM_9
100
AcDbLine
 10
2.55905
 20
-1.43502699676008
 30
0.0
 11
2.55905
 21
-0.8983750000000008
 31
0.0
  0
LINE
  5
173
330
113
100
AcDbEntity
  8
AM_9
100
AcDbLine
 10
2.494987500000001
 20
-1.545986501619961
 30
0.0
 11
-2.494987500000001
 21
-1.545986501619961
 31
0.0
  0
LINE
  5
174
330
113
100
AcDbEntity
  8
AM_9
100
AcDbLine
 10
2.55905
 20
-1.582973003239921
 30
0.0
 11
-2.55905
 21
-1.582973003239921
 31
0.0
  0
LINE
  5
175
330
113
100
AcDbEntity
  8
AM_9
100
AcDbLine
 10
-2.494987500000001
 20
-1.545986501619961
 30
0.0
 11
-2.55905
 21
-1.582973003239921
 31
0.0
  0
LINE
  5
176
330
113
100
AcDbEntity
  8
AM_9
100
AcDbLine
 10
2.55905
 20
-1.582973003239921
 30
0.0
 11
2.494987500000001
 21
-1.545986501619961
 31
0.0
  0
LINE
  5
177
330
113
100
AcDbEntity
  8
AM_9
100
AcDbLine
 10
2.55905
 20
-1.43502699676008
 30
0.0
 11
-2.55905
 21
-1.43502699676008
 31
0.0
  0
LINE
  5
178
330
113
100
AcDbEntity
  8
AM_9
100
AcDbLine
 10
2.4949875
 20
-1.47201349838004
 30
0.0
 11
-2.4949875
 21
-1.47201349838004
 31
0.0
  0
LINE
  5
179
330
113
100
AcDbEntity
  8
AM_9
100
AcDbLine
 10
2.4949875
 20
-1.47201349838004
 30
0.0
 11
2.55905
 21
-1.43502699676008
 31
0.0
  0
LINE
  5
17A
330
113
100
AcDbEntity
  8
AM_9
100
AcDbLine
 10
-2.55905
 20
-1.43502699676008
 30
0.0
 11
-2.4949875
 21
-1.47201349838004
 31
0.0
  0
LINE
  5
17B
330
113
100
AcDbEntity
  8
AM_5
100
AcDbLine
 10
0.0950000000000002
 20
-2.796833333333333
 30
0.0
 11
0.0724499999999999
 21
-2.757775587622656
 31
0.0
  0
LINE
  5
17C
330
113
100
AcDbEntity
  8
AM_5
100
AcDbLine
 10
-0.0950000000000002
 20
-2.796833333333337
 30
0.0
 11
-0.0724499999999999
 21
-2.757775587622658
 31
0.0
  0
LINE
  5
17D
330
113
100
AcDbEntity
  8
AM_4
100
AcDbLine
 10
-0.6755119833469592
 20
-3.77
 30
0.0
 11
-0.675511983346959
 21
-3.566833333333333
 31
0.0
  0
LINE
  5
17E
330
113
100
AcDbEntity
  8
AM_4
100
AcDbLine
 10
1.499066376115481
 20
-3.056833333333334
 30
0.0
 11
1.499066376115481
 21
-3.496833333333333
 31
0.0
  0
LINE
  5
17F
330
113
100
AcDbEntity
  8
AM_4
100
AcDbLine
 10
-1.49906637611548
 20
-3.056833333333334
 30
0.0
 11
-1.49906637611548
 21
-3.496833333333333
 31
0.0
  0
LINE
  5
180
330
113
100
AcDbEntity
  8
AM_4
100
AcDbLine
 10
-0.4742268428538741
 20
-3.77
 30
0.0
 11
-0.4742268428538741
 21
-3.566833333333333
 31
0.0
  0
LINE
  5
181
330
113
100
AcDbEntity
  8
AM_4
100
AcDbLine
 10
-0.7051967259816958
 20
-3.566833333333333
 30
0.0
 11
-0.7051967259816958
 21
-3.77
 31
0.0
  0
LINE
  5
182
330
113
100
AcDbEntity
  8
AM_4
100
AcDbLine
 10
-1.546052631578947
 20
-3.566833333333333
 30
0.0
 11
-1.546052631578947
 21
-3.77
 31
0.0
  0
LINE
  5
183
330
113
100
AcDbEntity
  8
AM_4
100
AcDbLine
 10
1.546052631578947
 20
-3.77
 30
0.0
 11
1.546052631578947
 21
-3.566833333333333
 31
0.0
  0
LINE
  5
184
330
113
100
AcDbEntity
  8
AM_4
100
AcDbLine
 10
-0.0994992884038658
 20
-3.77
 30
0.0
 11
-1.546052631578947
 21
-3.77
 31
0.0
  0
LINE
  5
185
330
113
100
AcDbEntity
  8
AM_4
100
AcDbLine
 10
1.546052631578947
 20
-3.77
 30
0.0
 11
0.0995
 21
-3.77
 31
0.0
  0
LINE
  5
186
330
113
100
AcDbEntity
  8
AM_4
100
AcDbLine
 10
-1.680068980686441
 20
-3.496833333333333
 30
0.0
 11
-2.140625
 21
-3.496833333333333
 31
0.0
  0
LINE
  5
187
330
113
100
AcDbEntity
  8
AM_4
100
AcDbLine
 10
-1.680068980686441
 20
-3.496833333333333
 30
0.0
 11
-1.685537006793197
 21
-3.056833333333334
 31
0.0
  0
LINE
  5
188
330
113
100
AcDbEntity
  8
AM_4
100
AcDbLine
 10
-1.685537006793197
 20
-3.056833333333334
 30
0.0
 11
-1.331983616199923
 21
-3.056833333333334
 31
0.0
  0
LINE
  5
189
330
113
100
AcDbEntity
  8
AM_4
100
AcDbLine
 10
-1.331983616199923
 20
-3.056833333333334
 30
0.0
 11
-1.326515590093167
 21
-3.496833333333333
 31
0.0
  0
LINE
  5
18A
330
113
100
AcDbEntity
  8
AM_4
100
AcDbLine
 10
1.326515590093168
 20
-3.496833333333333
 30
0.0
 11
-1.326515590093167
 21
-3.496833333333333
 31
0.0
  0
LINE
  5
18B
330
113
100
AcDbEntity
  8
AM_4
100
AcDbLine
 10
1.326515590093168
 20
-3.496833333333333
 30
0.0
 11
1.331983616199923
 21
-3.056833333333334
 31
0.0
  0
LINE
  5
18C
330
113
100
AcDbEntity
  8
AM_4
100
AcDbLine
 10
1.331983616199923
 20
-3.056833333333334
 30
0.0
 11
1.685537006793197
 21
-3.056833333333334
 31
0.0
  0
LINE
  5
18D
330
113
100
AcDbEntity
  8
AM_4
100
AcDbLine
 10
1.685537006793197
 20
-3.056833333333334
 30
0.0
 11
1.680068980686441
 21
-3.496833333333333
 31
0.0
  0
LINE
  5
18E
330
113
100
AcDbEntity
  8
AM_4
100
AcDbLine
 10
2.140625
 20
-3.496833333333333
 30
0.0
 11
2.152264619129633
 21
-2.83
 31
0.0
  0
LINE
  5
18F
330
113
100
AcDbEntity
  8
AM_4
100
AcDbLine
 10
-2.152264619129633
 20
-2.83
 30
0.0
 11
-2.140625
 21
-3.496833333333333
 31
0.0
  0
LINE
  5
190
330
113
100
AcDbEntity
  8
AM_4
100
AcDbLine
 10
2.140625
 20
-3.496833333333333
 30
0.0
 11
1.680068980686441
 21
-3.496833333333333
 31
0.0
  0
ENDBLK
  5
116
330
113
100
AcDbEntity
  8
0
100
AcDbBlockEnd
  0
BLOCK
  5
193
330
191
100
AcDbEntity
  8
0
100
AcDbBlockBegin
  2
7_405015E_Inch_2_0_in_072189_4
 70
     2
 10
0.0
 20
0.0
 30
0.0
  3
7_405015E_Inch_2_0_in_072189_4
  1

  0
ATTDEF
  5
195
330
191
100
AcDbEntity
  8
AM_6
100
AcDbText
 10
5.21875
 20
-1.692409257229539
 30
0.0
 40
0.5
  1
405015E -Inch
100
AcDbAttributeDefinition
  3

  2
NN
 70
     8
280
     0
  0
ATTDEF
  5
196
330
191
100
AcDbEntity
  8
AM_6
100
AcDbText
 10
5.21875
 20
-2.192409257229539
 30
0.0
 40
0.5
  1
Grease Fitting
100
AcDbAttributeDefinition
  3

  2
NT
 70
     8
280
     0
  0
ATTDEF
  5
197
330
191
100
AcDbEntity
  8
AM_6
100
AcDbText
 10
5.21875
 20
-2.692409257229539
 30
0.0
 40
0.5
  1
405015E-Inch
100
AcDbAttributeDefinition
  3

  2
NB
 70
     8
280
     0
  0
ATTDEF
  5
198
330
191
100
AcDbEntity
  8
AM_6
100
AcDbText
 10
5.21875
 20
-3.192409257229539
 30
0.0
 40
0.5
  1
$MN.-Inch
100
AcDbAttributeDefinition
  3

  2
NBSYN
 70
     8
280
     0
  0
ATTDEF
  5
199
330
191
100
AcDbEntity
  8
AM_6
100
AcDbText
 10
5.21875
 20
-3.692409257229539
 30
0.0
 40
0.5
  1
405015E
100
AcDbAttributeDefinition
  3

  2
LINA
 70
     8
280
     0
  0
ATTDEF
  5
19A
330
191
100
AcDbEntity
  8
AM_6
100
AcDbText
 10
5.21875
 20
-4.192409257229539
 30
0.0
 40
0.5
  1
405015E
100
AcDbAttributeDefinition
  3

  2
MN
 70
     8
280
     0
  0
ATTDEF
  5
19B
330
191
100
AcDbEntity
  8
AM_6
100
AcDbText
 10
5.21875
 20
-4.692409257229539
 30
0.0
 40
0.5
  1
1/8 x 27PTF
100
AcDbAttributeDefinition
  3

  2
T
 70
     8
280
     0
  0
ATTDEF
  5
19C
330
191
100
AcDbEntity
  8
AM_6
100
AcDbText
 10
5.21875
 20
-5.192409257229539
 30
0.0
 40
0.5
  1
baldor
100
AcDbAttributeDefinition
  3

  2
COMPANY
 70
     8
280
     0
  0
CIRCLE
  5
19D
330
191
100
AcDbEntity
  8
AM_9
100
AcDbCircle
 10
0.0
 20
-1.945
 30
0.0
 40
0.161902872472269
  0
CIRCLE
  5
19E
330
191
100
AcDbEntity
  8
AM_9
100
AcDbCircle
 10
0.0
 20
-1.945
 30
0.0
 40
0.1986176267812154
  0
CIRCLE
  5
19F
330
191
100
AcDbEntity
  8
AM_9
100
AcDbCircle
 10
0.0
 20
-1.945
 30
0.0
 40
0.2057518972230696
  0
CIRCLE
  5
1A0
330
191
100
AcDbEntity
  8
AM_9
100
AcDbCircle
 10
0.0
 20
-1.945
 30
0.0
 40
0.1188200907348975
  0
CIRCLE
  5
1A1
330
191
100
AcDbEntity
  8
AM_9
100
AcDbCircle
 10
0.0
 20
-1.945
 30
0.0
 40
0.105
  0
LINE
  5
1A2
330
191
100
AcDbEntity
  8
AM_4
100
AcDbLine
 10
0.21875
 20
-2.071295371385231
 30
0.0
 11
0.21875
 21
-1.818704628614769
 31
0.0
  0
LINE
  5
1A3
330
191
100
AcDbEntity
  8
AM_4
100
AcDbLine
 10
0.21875
 20
-1.818704628614769
 30
0.0
 11
0.0
 21
-1.692409257229539
 31
0.0
  0
LINE
  5
1A4
330
191
100
AcDbEntity
  8
AM_4
100
AcDbLine
 10
-0.21875
 20
-2.07129537138523
 30
0.0
 11
0.0
 21
-2.197590742770461
 31
0.0
  0
LINE
  5
1A5
330
191
100
AcDbEntity
  8
AM_4
100
AcDbLine
 10
-0.21875
 20
-1.818704628614769
 30
0.0
 11
-0.21875
 21
-2.07129537138523
 31
0.0
  0
LINE
  5
1A6
330
191
100
AcDbEntity
  8
AM_4
100
AcDbLine
 10
0.0
 20
-2.197590742770461
 30
0.0
 11
0.21875
 21
-2.071295371385231
 31
0.0
  0
LINE
  5
1A7
330
191
100
AcDbEntity
  8
AM_4
100
AcDbLine
 10
0.0
 20
-1.692409257229539
 30
0.0
 11
-0.21875
 21
-1.818704628614769
 31
0.0
  0
CIRCLE
  5
1A8
330
191
100
AcDbEntity
  8
AM_4
100
AcDbCircle
 10
0.0
 20
-1.945
 30
0.0
 40
0.21375
  0
CIRCLE
  5
1A9
330
191
100
AcDbEntity
  8
AM_4
100
AcDbCircle
 10
0.0
 20
-1.945
 30
0.0
 40
0.1725340532830154
  0
CIRCLE
  5
1AA
330
191
100
AcDbEntity
  8
AM_4
100
AcDbCircle
 10
0.0
 20
-1.945
 30
0.0
 40
0.135
  0
CIRCLE
  5
1AB
330
191
100
AcDbEntity
  8
AM_4
100
AcDbCircle
 10
0.0
 20
-1.945
 30
0.0
 40
0.1026779019331875
  0
ARC
  5
1AC
330
191
100
AcDbEntity
  8
AM_5
100
AcDbCircle
 10
0.0
 20
-1.945
 30
0.0
 40
0.2025000050000001
100
AcDbArc
 50
75.00000000000001
 51
15.0
  0
CIRCLE
  5
1AD
330
191
100
AcDbEntity
  8
AM_4
100
AcDbCircle
 10
0.0
 20
-1.944999999999999
 30
0.0
 40
0.2187499999999989
  0
ENDBLK
  5
194
330
191
100
AcDbEntity
  8
0
100
AcDbBlockEnd
  0
BLOCK
  5
1B0
330
1AE
100
AcDbEntity
  8
0
100
AcDbBlockBegin
  2
8_B072189H_0_in_072189_4
 70
     2
 10
0.0
 20
0.0
 30
0.0
  3
8_B072189H_0_in_072189_4
  1

  0
ATTDEF
  5
1B2
330
1AE
100
AcDbEntity
  8
AM_6
100
AcDbText
 10
8.59
 20
0.1415
 30
0.0
 40
0.5
  1
SF4B-IP-206-400-(Contact Seal)-Housing
100
AcDbAttributeDefinition
  3

  2
NN
 70
     8
280
     0
  0
ATTDEF
  5
1B3
330
1AE
100
AcDbEntity
  8
AM_6
100
AcDbText
 10
8.59
 20
-0.3585
 30
0.0
 40
0.5
  1
Imperial 4 Bolt Square Flange Bearing -Inch-206-400
100
AcDbAttributeDefinition
  3

  2
NT
 70
     8
280
     0
  0
ATTDEF
  5
1B4
330
1AE
100
AcDbEntity
  8
AM_6
100
AcDbText
 10
8.59
 20
-0.8585
 30
0.0
 40
0.5
  1
B072189H
100
AcDbAttributeDefinition
  3

  2
NB
 70
     8
280
     0
  0
ATTDEF
  5
1B5
330
1AE
100
AcDbEntity
  8
AM_6
100
AcDbText
 10
8.59
 20
-1.3585
 30
0.0
 40
0.5
  1
$PN.H
100
AcDbAttributeDefinition
  3

  2
NBSYN
 70
     8
280
     0
  0
ATTDEF
  5
1B6
330
1AE
100
AcDbEntity
  8
AM_6
100
AcDbText
 10
8.59
 20
-1.8585
 30
0.0
 40
0.5
  1
B072189H
100
AcDbAttributeDefinition
  3

  2
LINA
 70
     8
280
     0
  0
ATTDEF
  5
1B7
330
1AE
100
AcDbEntity
  8
AM_6
100
AcDbText
 10
8.59
 20
-2.3585
 30
0.0
 40
0.5
  1
2-15/16
100
AcDbAttributeDefinition
  3

  2
SS
 70
     8
280
     0
  0
ATTDEF
  5
1B8
330
1AE
100
AcDbEntity
  8
AM_6
100
AcDbText
 10
8.59
 20
-2.8585
 30
0.0
 40
0.5
  1
2.937500
100
AcDbAttributeDefinition
  3

  2
SS1
 70
     8
280
     0
  0
ATTDEF
  5
1B9
330
1AE
100
AcDbEntity
  8
AM_6
100
AcDbText
 10
8.59
 20
-3.3585
 30
0.0
 40
0.5
  1
072189
100
AcDbAttributeDefinition
  3

  2
PN1
 70
     8
280
     0
  0
ATTDEF
  5
1BA
330
1AE
100
AcDbEntity
  8
AM_6
100
AcDbText
 10
8.59
 20
-3.8585
 30
0.0
 40
0.5
  1
072217
100
AcDbAttributeDefinition
  3

  2
PN2
 70
     8
280
     0
  0
ATTDEF
  5
1BB
330
1AE
100
AcDbEntity
  8
AM_6
100
AcDbText
 10
8.59
 20
-4.3585
 30
0.0
 40
0.5
  1
Non-Expansion
100
AcDbAttributeDefinition
  3

  2
TYPE
 70
     8
280
     0
  0
ATTDEF
  5
1BC
330
1AE
100
AcDbEntity
  8
AM_6
100
AcDbText
 10
8.59
 20
-4.8585
 30
0.0
 40
0.5
  1
SF4S-IP-215R
100
AcDbAttributeDefinition
  3

  2
DESCRIPTIONS
 70
     8
280
     0
  0
ATTDEF
  5
1BD
330
1AE
100
AcDbEntity
  8
AM_6
100
AcDbText
 10
8.59
 20
-5.3585
 30
0.0
 40
0.5
  1
Contact Seal
100
AcDbAttributeDefinition
  3

  2
ST
 70
     8
280
     0
  0
ATTDEF
  5
1BE
330
1AE
100
AcDbEntity
  8
AM_6
100
AcDbText
 10
8.59
 20
-5.8585
 30
0.0
 40
0.5
  1
3.50
100
AcDbAttributeDefinition
  3

  2
A
 70
     8
280
     0
  0
ATTDEF
  5
1BF
330
1AE
100
AcDbEntity
  8
AM_6
100
AcDbText
 10
8.59
 20
-6.3585
 30
0.0
 40
0.5
  1
3.50
100
AcDbAttributeDefinition
  3

  2
A1
 70
     8
280
     0
  0
ATTDEF
  5
1C0
330
1AE
100
AcDbEntity
  8
AM_6
100
AcDbText
 10
8.59
 20
-6.8585
 30
0.0
 40
0.5
  1
7.18
100
AcDbAttributeDefinition
  3

  2
B
 70
     8
280
     0
  0
ATTDEF
  5
1C1
330
1AE
100
AcDbEntity
  8
AM_6
100
AcDbText
 10
8.59
 20
-7.3585
 30
0.0
 40
0.5
  1
7.1800000
100
AcDbAttributeDefinition
  3

  2
B1
 70
     8
280
     0
  0
ATTDEF
  5
1C2
330
1AE
100
AcDbEntity
  8
AM_6
100
AcDbText
 10
8.59
 20
-7.8585
 30
0.0
 40
0.5
  1
3.77
100
AcDbAttributeDefinition
  3

  2
C
 70
     8
280
     0
  0
ATTDEF
  5
1C3
330
1AE
100
AcDbEntity
  8
AM_6
100
AcDbText
 10
8.59
 20
-8.3585
 30
0.0
 40
0.5
  1
3.77
100
AcDbAttributeDefinition
  3

  2
C1
 70
     8
280
     0
  0
ATTDEF
  5
1C4
330
1AE
100
AcDbEntity
  8
AM_6
100
AcDbText
 10
8.59
 20
-8.8585
 30
0.0
 40
0.5
  1
5.57
100
AcDbAttributeDefinition
  3

  2
D
 70
     8
280
     0
  0
ATTDEF
  5
1C5
330
1AE
100
AcDbEntity
  8
AM_6
100
AcDbText
 10
8.59
 20
-9.3585
 30
0.0
 40
0.5
  1
5.57
100
AcDbAttributeDefinition
  3

  2
D1
 70
     8
280
     0
  0
ATTDEF
  5
1C6
330
1AE
100
AcDbEntity
  8
AM_6
100
AcDbText
 10
8.59
 20
-9.8585
 30
0.0
 40
0.5
  1
3/4
100
AcDbAttributeDefinition
  3

  2
F
 70
     8
280
     0
  0
ATTDEF
  5
1C7
330
1AE
100
AcDbEntity
  8
AM_6
100
AcDbText
 10
8.59
 20
-10.3585
 30
0.0
 40
0.5
  1
0.7500000
100
AcDbAttributeDefinition
  3

  2
F1
 70
     8
280
     0
  0
ATTDEF
  5
1C8
330
1AE
100
AcDbEntity
  8
AM_6
100
AcDbText
 10
8.59
 20
-10.8585
 30
0.0
 40
0.5
  1
0.94
100
AcDbAttributeDefinition
  3

  2
G
 70
     8
280
     0
  0
ATTDEF
  5
1C9
330
1AE
100
AcDbEntity
  8
AM_6
100
AcDbText
 10
8.59
 20
-11.3585
 30
0.0
 40
0.5
  1
0.94
100
AcDbAttributeDefinition
  3

  2
G1
 70
     8
280
     0
  0
ATTDEF
  5
1CA
330
1AE
100
AcDbEntity
  8
AM_6
100
AcDbText
 10
8.59
 20
-11.8585
 30
0.0
 40
0.5
  1
1.06
100
AcDbAttributeDefinition
  3

  2
H
 70
     8
280
     0
  0
ATTDEF
  5
1CB
330
1AE
100
AcDbEntity
  8
AM_6
100
AcDbText
 10
8.59
 20
-12.3585
 30
0.0
 40
0.5
  1
1.06
100
AcDbAttributeDefinition
  3

  2
H1
 70
     8
280
     0
  0
ATTDEF
  5
1CC
330
1AE
100
AcDbEntity
  8
AM_6
100
AcDbText
 10
8.59
 20
-12.8585
 30
0.0
 40
0.5
  1
6.51
100
AcDbAttributeDefinition
  3

  2
J
 70
     8
280
     0
  0
ATTDEF
  5
1CD
330
1AE
100
AcDbEntity
  8
AM_6
100
AcDbText
 10
8.59
 20
-13.3585
 30
0.0
 40
0.5
  1
6.51
100
AcDbAttributeDefinition
  3

  2
J1
 70
     8
280
     0
  0
ATTDEF
  5
1CE
330
1AE
100
AcDbEntity
  8
AM_6
100
AcDbText
 10
8.59
 20
-13.8585
 30
0.0
 40
0.5
  1
7.88
100
AcDbAttributeDefinition
  3

  2
K
 70
     8
280
     0
  0
ATTDEF
  5
1CF
330
1AE
100
AcDbEntity
  8
AM_6
100
AcDbText
 10
8.59
 20
-14.3585
 30
0.0
 40
0.5
  1
7.88
100
AcDbAttributeDefinition
  3

  2
K1
 70
     8
280
     0
  0
ATTDEF
  5
1D0
330
1AE
100
AcDbEntity
  8
AM_6
100
AcDbText
 10
8.59
 20
-14.8585
 30
0.0
 40
0.5
  1
4.20
100
AcDbAttributeDefinition
  3

  2
L
 70
     8
280
     0
  0
ATTDEF
  5
1D1
330
1AE
100
AcDbEntity
  8
AM_6
100
AcDbText
 10
8.59
 20
-15.3585
 30
0.0
 40
0.5
  1
4.20
100
AcDbAttributeDefinition
  3

  2
L1
 70
     8
280
     0
  0
ATTDEF
  5
1D2
330
1AE
100
AcDbEntity
  8
AM_6
100
AcDbText
 10
8.59
 20
-15.8585
 30
0.0
 40
0.5
  1
3.67
100
AcDbAttributeDefinition
  3

  2
N
 70
     8
280
     0
  0
ATTDEF
  5
1D3
330
1AE
100
AcDbEntity
  8
AM_6
100
AcDbText
 10
8.59
 20
-16.3585
 30
0.0
 40
0.5
  1
3.67
100
AcDbAttributeDefinition
  3

  2
N1
 70
     8
280
     0
  0
ATTDEF
  5
1D4
330
1AE
100
AcDbEntity
  8
AM_6
100
AcDbText
 10
8.59
 20
-16.8585
 30
0.0
 40
0.5
  1
0.27
100
AcDbAttributeDefinition
  3

  2
P
 70
     8
280
     0
  0
ATTDEF
  5
1D5
330
1AE
100
AcDbEntity
  8
AM_6
100
AcDbText
 10
8.59
 20
-17.3585
 30
0.0
 40
0.5
  1
0.27
100
AcDbAttributeDefinition
  3

  2
P1
 70
     8
280
     0
  0
ATTDEF
  5
1D6
330
1AE
100
AcDbEntity
  8
AM_6
100
AcDbText
 10
8.59
 20
-17.8585
 30
0.0
 40
0.5
  1
0.25
100
AcDbAttributeDefinition
  3

  2
X
 70
     8
280
     0
  0
ATTDEF
  5
1D7
330
1AE
100
AcDbEntity
  8
AM_6
100
AcDbText
 10
8.59
 20
-18.3585
 30
0.0
 40
0.5
  1
0.25
100
AcDbAttributeDefinition
  3

  2
X1
 70
     8
280
     0
  0
ATTDEF
  5
1D8
330
1AE
100
AcDbEntity
  8
AM_6
100
AcDbText
 10
8.59
 20
-18.8585
 30
0.0
 40
0.5
  1
0.025
100
AcDbAttributeDefinition
  3

  2
Y
 70
     8
280
     0
  0
ATTDEF
  5
1D9
330
1AE
100
AcDbEntity
  8
AM_6
100
AcDbText
 10
8.59
 20
-19.3585
 30
0.0
 40
0.5
  1
3.47
100
AcDbAttributeDefinition
  3

  2
Z
 70
     8
280
     0
  0
ATTDEF
  5
1DA
330
1AE
100
AcDbEntity
  8
AM_6
100
AcDbText
 10
8.59
 20
-19.8585
 30
0.0
 40
0.5
  1
3.470000
100
AcDbAttributeDefinition
  3

  2
Z1
 70
     8
280
     0
  0
ATTDEF
  5
1DB
330
1AE
100
AcDbEntity
  8
AM_6
100
AcDbText
 10
8.59
 20
-20.3585
 30
0.0
 40
0.5
  1
0
100
AcDbAttributeDefinition
  3

  2
CS
 70
     8
280
     0
  0
ATTDEF
  5
1DC
330
1AE
100
AcDbEntity
  8
AM_6
100
AcDbText
 10
8.59
 20
-20.8585
 30
0.0
 40
0.5
  1
0.1900
100
AcDbAttributeDefinition
  3

  2
NDM
 70
     8
280
     0
  0
ATTDEF
  5
1DD
330
1AE
100
AcDbEntity
  8
AM_6
100
AcDbText
 10
8.59
 20
-21.3585
 30
0.0
 40
0.5
  1
0.1450
100
AcDbAttributeDefinition
  3

  2
KDM
 70
     8
280
     0
  0
ATTDEF
  5
1DE
330
1AE
100
AcDbEntity
  8
AM_6
100
AcDbText
 10
8.59
 20
-21.8585
 30
0.0
 40
0.5
  1
5.1181
100
AcDbAttributeDefinition
  3

  2
BORE
 70
     8
280
     0
  0
ATTDEF
  5
1DF
330
1AE
100
AcDbEntity
  8
AM_6
100
AcDbText
 10
8.59
 20
-22.3585
 30
0.0
 40
0.5
  1
1
100
AcDbAttributeDefinition
  3

  2
ST1
 70
     8
280
     0
  0
ATTDEF
  5
1E0
330
1AE
100
AcDbEntity
  8
AM_6
100
AcDbText
 10
8.59
 20
-22.8585
 30
0.0
 40
0.5
  1
0.1021670
100
AcDbAttributeDefinition
  3

  2
O
 70
     8
280
     0
  0
ATTDEF
  5
1E1
330
1AE
100
AcDbEntity
  8
AM_6
100
AcDbText
 10
8.59
 20
-23.3585
 30
0.0
 40
0.5
  1
baldor
100
AcDbAttributeDefinition
  3

  2
COMPANY
 70
     8
280
     0
  0
LINE
  5
1E2
330
1AE
100
AcDbEntity
  8
AM_9
100
AcDbLine
 10
2.55905
 20
-2.83
 30
0.0
 11
2.55905
 21
-0.1514285714285711
 31
0.0
  0
LINE
  5
1E3
330
1AE
100
AcDbEntity
  8
AM_9
100
AcDbLine
 10
-2.55905
 20
-0.1514285714285711
 30
0.0
 11
-2.55905
 21
-2.83
 31
0.0
  0
LINE
  5
1E4
330
1AE
100
AcDbEntity
  8
AM_9
100
AcDbLine
 10
2.907025
 20
-0.0454285714285716
 30
0.0
 11
2.907025
 21
0.0
 31
0.0
  0
LINE
  5
1E5
330
1AE
100
AcDbEntity
  8
AM_9
100
AcDbLine
 10
-2.907025
 20
0.0
 30
0.0
 11
-2.907025
 21
-0.0454285714285716
 31
0.0
  0
LINE
  5
1E6
330
1AE
100
AcDbEntity
  8
AM_9
100
AcDbLine
 10
-2.801025
 20
-0.1514285714285714
 30
0.0
 11
2.801024999994462
 21
-0.1514285714285714
 31
0.0
  0
LINE
  5
1E7
330
1AE
100
AcDbEntity
  8
AM_9
100
AcDbLine
 10
-2.907025
 20
-0.0454285714285716
 30
0.0
 11
2.907025
 21
-0.0454285714285716
 31
0.0
  0
ARC
  5
1E8
330
1AE
100
AcDbEntity
  8
AM_9
100
AcDbCircle
 10
2.801025000000001
 20
-0.0454285714285719
 30
0.0
 40
0.1059999999999995
100
AcDbArc
 50
270.0
 51
0.0000008537736463
  0
ARC
  5
1E9
330
1AE
100
AcDbEntity
  8
AM_9
100
AcDbCircle
 10
-2.801025000000001
 20
-0.0454285714285719
 30
0.0
 40
0.1059999999999994
100
AcDbArc
 50
179.9999991462263
 51
270.0
  0
LINE
  5
1EA
330
1AE
100
AcDbEntity
  8
AM_9
100
AcDbLine
 10
3.161000717874998
 20
-1.06
 30
0.0
 11
3.161000717874998
 21
0.0000000000000002
 31
0.0
  0
LINE
  5
1EB
330
1AE
100
AcDbEntity
  8
AM_9
100
AcDbLine
 10
2.411000717874998
 20
0.0000000000000002
 30
0.0
 11
2.411000717874998
 21
-1.06
 31
0.0
  0
LINE
  5
1EC
330
1AE
100
AcDbEntity
  8
AM_9
100
AcDbLine
 10
-2.411000717874997
 20
-1.06
 30
0.0
 11
-2.411000717874997
 21
0.0000000000000002
 31
0.0
  0
LINE
  5
1ED
330
1AE
100
AcDbEntity
  8
AM_9
100
AcDbLine
 10
-3.161000717874997
 20
0.0000000000000002
 30
0.0
 11
-3.161000717874997
 21
-1.06
 31
0.0
  0
LWPOLYLINE
  5
1EE
330
1AE
100
AcDbEntity
  8
AM_9
100
AcDbPolyline
 90
        4
 70
     0
 43
0.0
 10
-0.3584772420250143
 20
-1.608653157407743
 10
-0.3791759430288014
 20
-1.630603191332596
 10
-0.4044860788836454
 20
-1.661826708983515
 10
-0.4086174499242323
 20
-1.667475090261537
  0
LINE
  5
1EF
330
1AE
100
AcDbEntity
  8
AM_9
100
AcDbLine
 10
-0.2524398260054903
 20
-1.529132732848857
 30
0.0
 11
-0.2769952681450612
 21
-1.543692117038793
 31
0.0
  0
LINE
  5
1F2
330
1AE
100
AcDbEntity
  8
AM_7
100
AcDbLine
 10
-0.4200000000000019
 20
-1.945
 30
0.0
 11
0.4200000000000019
 21
-1.945
 31
0.0
  0
LINE
  5
1F3
330
1AE
100
AcDbEntity
  8
AM_7
100
AcDbLine
 10
2.786000717874997
 20
0.0529999999999998
 30
0.0
 11
2.786000717874997
 21
-1.113
 31
0.0
  0
LINE
  5
1F4
330
1AE
100
AcDbEntity
  8
AM_7
100
AcDbLine
 10
-2.786000717874997
 20
0.0529999999999998
 30
0.0
 11
-2.786000717874997
 21
-1.113
 31
0.0
  0
LINE
  5
1F5
330
1AE
100
AcDbEntity
  8
AM_7
100
AcDbLine
 10
0.0
 20
-3.94625
 30
0.0
 11
0.0
 21
0.1415
 31
0.0
  0
LINE
  5
1F6
330
1AE
100
AcDbEntity
  8
AM_4
100
AcDbLine
 10
3.255
 20
-2.83
 30
0.0
 11
-3.255
 21
-2.83
 31
0.0
  0
LINE
  5
1F7
330
1AE
100
AcDbEntity
  8
AM_4
100
AcDbLine
 10
3.255
 20
-2.83
 30
0.0
 11
3.255
 21
-1.06
 31
0.0
  0
LINE
  5
1F8
330
1AE
100
AcDbEntity
  8
AM_4
100
AcDbLine
 10
-3.255
 20
-1.06
 30
0.0
 11
-3.255
 21
-2.83
 31
0.0
  0
LWPOLYLINE
  5
1F9
330
1AE
100
AcDbEntity
  8
AM_4
100
AcDbPolyline
 90
       75
 70
     0
 43
0.0
 10
-0.3768627508131789
 20
-1.628006543694233
 10
-0.3493141062995316
 20
-1.599781305092637
 10
-0.3192953020589873
 20
-1.573773753800806
 10
-0.286502079289725
 20
-1.549868000610887
 10
-0.2515574136740402
 20
-1.528644875202724
 10
-0.2162566224021713
 20
-1.510972534566259
 10
-0.1794206391616551
 20
-1.496041497123976
 10
-0.1407778329829055
 20
-1.483811589732595
 10
-0.1010328320074242
 20
-1.474574455883739
 10
-0.0594135762043265
 20
-1.468284265704364
 10
-0.0171487562572167
 20
-1.465272548870518
 10
0.0260675217572914
 20
-1.465630055813564
 10
0.0693981362438282
 20
-1.469487833279882
 10
0.1126456202074187
 20
-1.476938245323841
 10
0.155405117363288
 20
-1.488049301139895
 10
0.1979826966413842
 20
-1.503144138550471
 10
0.2393475289218587
 20
-1.522132412604668
 10
0.276149021321025
 20
-1.543157532977672
 10
0.3112259979768606
 20
-1.567491403390976
 10
0.3447660834515952
 20
-1.595551095988264
 10
0.3758278619987821
 20
-1.626857251330006
 10
0.4012739304653778
 20
-1.657543950520254
 10
0.4241870197614004
 20
-1.690532729105273
 10
0.444628842857982
 20
-1.726189475188373
 10
0.462013575737569
 20
-1.763806775264255
 10
0.4753088567526103
 20
-1.8004733672413
 10
0.4856171603915525
 20
-1.838387649828101
 10
0.4928945636445002
 20
-1.877877180706202
 10
0.4968570059507056
 20
-1.918139906875863
 10
0.497450028792544
 20
-1.957336970540221
 10
0.4948159728666546
 20
-1.996719057141626
 10
0.4887919728148009
 20
-2.036582234263498
 10
0.4793542048400844
 20
-2.076067288449454
 10
0.4670686927052115
 20
-2.113329106868632
 10
0.4516329591966781
 20
-2.149677862178638
 10
0.4327828522282667
 20
-2.185342350630604
 10
0.4107815431329865
 20
-2.219490921899782
 10
0.3869985253527845
 20
-2.250319612959782
 10
0.3605616710768828
 20
-2.279260474954669
 10
0.3311767561572339
 20
-2.306453313206451
 10
0.2993738842988148
 20
-2.33125048550935
 10
0.2664833773144702
 20
-2.352778393595802
 10
0.231723662960046
 20
-2.371715174836688
 10
0.1948144429820168
 20
-2.38812740575423
 10
0.1564440044672637
 20
-2.40163190649492
 10
0.1166450976780335
 20
-2.412184495271037
 10
0.0758669513999078
 20
-2.419630421397851
 10
0.0338172511360915
 20
-2.423939043294004
 10
-0.0087181042990226
 20
-2.424929577742641
 10
-0.0521970089138268
 20
-2.4224675732253
 10
-0.0956166843520299
 20
-2.416435717498084
 10
-0.1392960192714961
 20
-2.406591912563778
 10
-0.1822664250848868
 20
-2.392923240741338
 10
-0.2221934360851122
 20
-2.376297271579197
 10
-0.2607977771723756
 20
-2.356127836638001
 10
-0.2983164743707408
 20
-2.332003532869047
 10
-0.3337249971983233
 20
-2.304271878010365
 10
-0.3633133250830775
 20
-2.276465880276739
 10
-0.3905953421633271
 20
-2.245984256561176
 10
-0.4156722133276148
 20
-2.212440667961377
 10
-0.4378325642140601
 20
-2.176487028960013
 10
-0.455402354321289
 20
-2.141542545736025
 10
-0.4701181186264627
 20
-2.10498714198592
 10
-0.4819734099712918
 20
-2.066483161300086
 10
-0.4905882913122002
 20
-2.026805558252374
 10
-0.4956766426096905
 20
-1.988037818501296
 10
-0.4975941326637379
 20
-1.948708702115084
 10
-0.4962204959458138
 20
-1.908508639951641
 10
-0.4914402649644835
 20
-1.868281658688421
 10
-0.4835730123190958
 20
-1.829793104141016
 10
-0.472482435861509
 20
-1.791837787009946
 10
-0.4579332910811483
 20
-1.754158774317966
 10
-0.4400857018761912
 20
-1.717613461322211
 10
-0.4113086414355479
 20
-1.671255833294491
 10
-0.3768627508131789
 20
-1.628006543694233
  0
CIRCLE
  5
1FA
330
1AE
100
AcDbEntity
  8
AM_4
100
AcDbCircle
 10
0.0
 20
-1.945
 30
0.0
 40
0.4000000000000017
  0
LINE
  5
1FB
330
1AE
100
AcDbEntity
  8
AM_4
100
AcDbLine
 10
-3.59
 20
-1.06
 30
0.0
 11
-3.59
 21
0.0000000000000002
 31
0.0
  0
LINE
  5
1FC
330
1AE
100
AcDbEntity
  8
AM_4
100
AcDbLine
 10
-2.785
 20
-1.06
 30
0.0
 11
-2.785
 21
0.0000000000000002
 31
0.0
  0
LINE
  5
1FD
330
1AE
100
AcDbEntity
  8
AM_4
100
AcDbLine
 10
3.59
 20
0.0000000000000002
 30
0.0
 11
-3.59
 21
0.0000000000000002
 31
0.0
  0
LINE
  5
1FE
330
1AE
100
AcDbEntity
  8
AM_4
100
AcDbLine
 10
2.785
 20
-1.06
 30
0.0
 11
2.785
 21
0.0000000000000002
 31
0.0
  0
LINE
  5
1FF
330
1AE
100
AcDbEntity
  8
AM_4
100
AcDbLine
 10
3.59
 20
-1.06
 30
0.0
 11
-3.59
 21
-1.06
 31
0.0
  0
LINE
  5
200
330
1AE
100
AcDbEntity
  8
AM_4
100
AcDbLine
 10
3.59
 20
-1.06
 30
0.0
 11
3.59
 21
0.0000000000000002
 31
0.0
  0
ENDBLK
  5
1B1
330
1AE
100
AcDbEntity
  8
0
100
AcDbBlockEnd
  0
ENDSEC
  0
SECTION
  2
ENTITIES
  0
INSERT
  5
6F
330
1F
100
AcDbEntity
  8
0
100
AcDbBlockReference
  2
1_072189_4
 10
0.0
 20
0.0
 30
0.0
  0
POINT
  5
202
330
1F
100
AcDbEntity
  8
ConnectionPoints
100
AcDbPoint
 10
0.0
 20
-3.669000333333333
 30
-1.886284722222222
  0
POINT
  5
203
330
1F
100
AcDbEntity
  8
ConnectionPoints
100
AcDbPoint
 10
0.0
 20
-3.669000333333333
 30
1.886284722222223
  0
POINT
  5
204
330
1F
100
AcDbEntity
  8
ConnectionPoints
100
AcDbPoint
 10
0.0
 20
-3.496833333333333
 30
0.0000000000000002
  0
POINT
  5
205
330
1F
100
AcDbEntity
  8
ConnectionPoints
100
AcDbPoint
 10
0.0
 20
-3.77
 30
0.0000000000000002
  0
POINT
  5
206
330
1F
100
AcDbEntity
  8
ConnectionPoints
100
AcDbPoint
 10
0.0
 20
-3.695833333333333
 30
0.0000000000000002
  0
POINT
  5
207
330
1F
100
AcDbEntity
  8
ConnectionPoints
100
AcDbPoint
 10
0.0
 20
-3.496833333333333
 30
1.886284722222223
  0
POINT
  5
208
330
1F
100
AcDbEntity
  8
ConnectionPoints
100
AcDbPoint
 10
0.0
 20
-3.496833333333333
 30
-1.886284722222222
  0
POINT
  5
209
330
1F
100
AcDbEntity
  8
ConnectionPoints
100
AcDbPoint
 10
0.0
 20
-3.496833333333333
 30
0.0000000000000002
  0
POINT
  5
20A
330
1F
100
AcDbEntity
  8
ConnectionPoints
100
AcDbPoint
 10
0.0
 20
-1.945
 30
3.295
  0
POINT
  5
20B
330
1F
100
AcDbEntity
  8
ConnectionPoints
100
AcDbPoint
 10
0.0
 20
-1.945
 30
3.295
  0
POINT
  5
20C
330
1F
100
AcDbEntity
  8
ConnectionPoints
100
AcDbPoint
 10
0.0
 20
-1.945
 30
-3.295
  0
POINT
  5
20D
330
1F
100
AcDbEntity
  8
ConnectionPoints
100
AcDbPoint
 10
0.0
 20
-3.52
 30
0.0000000000000002
  0
POINT
  5
20E
330
1F
100
AcDbEntity
  8
ConnectionPoints
100
AcDbPoint
 10
0.0
 20
-3.77
 30
0.0000000000000002
  0
ENDSEC
  0
SECTION
  2
OBJECTS
  0
DICTIONARY
  5
C
330
0
100
AcDbDictionary
281
     1
  3
ACAD_DETAILVIEWSTYLE
350
216
  3
ACAD_GROUP
350
D
  3
ACAD_LAYOUT
350
1A
  3
ACAD_MATERIAL
350
43
  3
ACAD_MLEADERSTYLE
350
6B
  3
ACAD_MLINESTYLE
350
17
  3
ACAD_PLOTSETTINGS
350
19
  3
ACAD_PLOTSTYLENAME
350
E
  3
ACAD_SCALELIST
350
47
  3
ACAD_SECTIONVIEWSTYLE
350
217
  3
ACAD_TABLESTYLE
350
69
  3
ACAD_VISUALSTYLE
350
2A
  3
ACDB_RECOMPOSE_DATA
350
213
  3
AcDbVariableDictionary
350
20F
  0
SUN
  5
6D
330
29
100
AcDbSun
 90
        1
290
     0
 63
     7
421
 16777215
 40
1.0
291
     1
 91
  2455826
 92
 54000000
292
     0
 70
     2
 71
   256
280
     1
  0
DICTIONARY
  5
216
102
{ACAD_REACTORS
330
C
102
}
330
C
100
AcDbDictionary
281
     1
  0
DICTIONARY
  5
D
102
{ACAD_REACTORS
330
C
102
}
330
C
100
AcDbDictionary
281
     1
  0
DICTIONARY
  5
1A
102
{ACAD_REACTORS
330
C
102
}
330
C
100
AcDbDictionary
281
     1
  3
Layout1
350
1E
  3
Layout2
350
26
  3
Model
350
22
  0
DICTIONARY
  5
43
102
{ACAD_REACTORS
330
C
102
}
330
C
100
AcDbDictionary
281
     1
  3
ByBlock
350
45
  3
ByLayer
350
44
  3
Global
350
46
  0
DICTIONARY
  5
6B
102
{ACAD_REACTORS
330
C
102
}
330
C
100
AcDbDictionary
281
     1
  3
Standard
350
6C
  0
DICTIONARY
  5
17
102
{ACAD_REACTORS
330
C
102
}
330
C
100
AcDbDictionary
281
     1
  3
Standard
350
18
  0
DICTIONARY
  5
19
102
{ACAD_REACTORS
330
C
102
}
330
C
100
AcDbDictionary
281
     1
  0
ACDBDICTIONARYWDFLT
  5
E
102
{ACAD_REACTORS
330
C
102
}
330
C
100
AcDbDictionary
281
     1
  3
Normal
350
F
100
AcDbDictionaryWithDefault
340
F
  0
DICTIONARY
  5
47
102
{ACAD_REACTORS
330
C
102
}
330
C
100
AcDbDictionary
281
     1
  3
A0
350
48
  3
A1
350
49
  3
A2
350
4A
  3
A3
350
4B
  3
A4
350
4C
  3
A5
350
4D
  3
A6
350
4E
  3
A7
350
4F
  3
A8
350
50
  3
A9
350
51
  3
B0
350
52
  3
B1
350
53
  3
B2
350
54
  3
B3
350
55
  3
B4
350
56
  3
B5
350
57
  3
B6
350
58
  3
B7
350
59
  3
B8
350
5A
  3
B9
350
5B
  3
C0
350
5C
  3
C1
350
5D
  3
C2
350
5E
  3
C3
350
5F
  3
C4
350
60
  3
C5
350
61
  3
C6
350
62
  3
C7
350
63
  3
C8
350
64
  3
C9
350
65
  3
D0
350
66
  3
D1
350
67
  3
D2
350
68
  0
DICTIONARY
  5
217
102
{ACAD_REACTORS
330
C
102
}
330
C
100
AcDbDictionary
281
     1
  0
DICTIONARY
  5
69
102
{ACAD_REACTORS
330
C
102
}
330
C
100
AcDbDictionary
281
     1
  3
Standard
350
6A
  0
DICTIONARY
  5
2A
102
{ACAD_REACTORS
330
C
102
}
330
C
100
AcDbDictionary
281
     1
  3
2dWireframe
350
2F
  3
Basic
350
32
  3
Brighten
350
36
  3
ColorChange
350
3A
  3
Conceptual
350
34
  3
Dim
350
35
  3
EdgeColorOff
350
3D
  3
Facepattern
350
39
  3
Flat
350
2B
  3
FlatWithEdges
350
2C
  3
Gouraud
350
2D
  3
GouraudWithEdges
350
2E
  3
Hidden
350
31
  3
JitterOff
350
3B
  3
Linepattern
350
38
  3
OverhangOff
350
3C
  3
Realistic
350
33
  3
Shaded
350
42
  3
Shaded with edges
350
41
  3
Shades of Gray
350
3E
  3
Sketchy
350
3F
  3
Thicken
350
37
  3
Wireframe
350
30
  3
X-Ray
350
40
  0
XRECORD
  5
213
102
{ACAD_REACTORS
330
C
102
}
330
C
100
AcDbXrecord
280
     1
 90
        1
330
6A
  0
DICTIONARY
  5
20F
102
{ACAD_REACTORS
330
C
102
}
330
C
100
AcDbDictionary
281
     1
  3
CANNOSCALE
350
210
  3
CMLEADERSTYLE
350
215
  3
CTABLESTYLE
350
214
  0
LAYOUT
  5
1E
102
{ACAD_REACTORS
330
1A
102
}
330
1A
100
AcDbPlotSettings
  1

  2
none_device
  4

  6

 40
0.0
 41
0.0
 42
0.0
 43
0.0
 44
0.0
 45
0.0
 46
0.0
 47
0.0
 48
0.0
 49
0.0
140
0.0
141
0.0
142
1.0
143
1.0
 70
   688
 72
     0
 73
     0
 74
     5
  7

 75
    16
 76
     0
 77
     2
 78
   300
147
1.0
148
0.0
149
0.0
100
AcDbLayout
  1
Layout1
 70
     1
 71
     1
 10
0.0
 20
0.0
 11
12.0
 21
9.0
 12
0.0
 22
0.0
 32
0.0
 14
1.000000000000000E+20
 24
1.000000000000000E+20
 34
1.000000000000000E+20
 15
-1.000000000000000E+20
 25
-1.000000000000000E+20
 35
-1.000000000000000E+20
146
0.0
 13
0.0
 23
0.0
 33
0.0
 16
1.0
 26
0.0
 36
0.0
 17
0.0
 27
1.0
 37
0.0
 76
     0
330
1B
  0
LAYOUT
  5
26
102
{ACAD_REACTORS
330
1A
102
}
330
1A
100
AcDbPlotSettings
  1

  2
none_device
  4

  6

 40
0.0
 41
0.0
 42
0.0
 43
0.0
 44
0.0
 45
0.0
 46
0.0
 47
0.0
 48
0.0
 49
0.0
140
0.0
141
0.0
142
1.0
143
1.0
 70
   688
 72
     0
 73
     0
 74
     5
  7

 75
    16
 76
     0
 77
     2
 78
   300
147
1.0
148
0.0
149
0.0
100
AcDbLayout
  1
Layout2
 70
     1
 71
     2
 10
0.0
 20
0.0
 11
0.0
 21
0.0
 12
0.0
 22
0.0
 32
0.0
 14
0.0
 24
0.0
 34
0.0
 15
0.0
 25
0.0
 35
0.0
146
0.0
 13
0.0
 23
0.0
 33
0.0
 16
1.0
 26
0.0
 36
0.0
 17
0.0
 27
1.0
 37
0.0
 76
     0
330
23
  0
LAYOUT
  5
22
102
{ACAD_REACTORS
330
1A
102
}
330
1A
100
AcDbPlotSettings
  1

  2
none_device
  4
Letter_(8.50_x_11.00_Inches)
  6

 40
6.35
 41
6.35
 42
6.35000508
 43
6.35000508
 44
215.9
 45
279.4
 46
0.0
 47
0.0
 48
0.0
 49
0.0
140
0.0
141
0.0
142
1.0
143
1.0
 70
  1712
 72
     0
 73
     0
 74
     0
  7

 75
     0
 76
     0
 77
     2
 78
   300
147
1.0
148
0.0
149
0.0
100
AcDbLayout
  1
Model
 70
     1
 71
     0
 10
0.0
 20
0.0
 11
12.0
 21
9.0
 12
0.0
 22
0.0
 32
0.0
 14
1.000000000000000E+20
 24
1.000000000000000E+20
 34
1.000000000000000E+20
 15
-1.000000000000000E+20
 25
-1.000000000000000E+20
 35
-1.000000000000000E+20
146
0.0
 13
0.0
 23
0.0
 33
0.0
 16
1.0
 26
0.0
 36
0.0
 17
0.0
 27
1.0
 37
0.0
 76
     0
330
1F
331
29
  0
MATERIAL
  5
45
102
{ACAD_REACTORS
330
43
102
}
330
43
100
AcDbMaterial
  1
ByBlock
 72
     1
 94
      127
  0
MATERIAL
  5
44
102
{ACAD_REACTORS
330
43
102
}
330
43
100
AcDbMaterial
  1
ByLayer
 72
     1
 94
      127
  0
MATERIAL
  5
46
102
{ACAD_REACTORS
330
43
102
}
330
43
100
AcDbMaterial
  1
Global
 72
     1
 94
      127
  0
MLEADERSTYLE
  5
6C
102
{ACAD_REACTORS
330
6B
102
}
330
6B
100
AcDbMLeaderStyle
179
     2
170
     2
171
     1
172
     0
 90
        2
 40
0.0
 41
0.0
173
     1
 91
-1056964608
340
14
 92
       -2
290
     1
 42
0.09
291
     1
 43
0.36
  3
Standard
341
0
 44
0.18
300

342
11
174
     1
178
     6
175
     1
176
     0
 93
-1056964608
 45
0.18
292
     0
297
     0
 46
0.18
343
0
 94
-1056964608
 47
1.0
 49
1.0
140
1.0
293
     1
141
0.0
294
     1
177
     0
142
1.0
295
     0
296
     0
143
0.125
271
     0
272
     9
273
     9
298
     0
  0
MLINESTYLE
  5
18
102
{ACAD_REACTORS
330
17
102
}
330
17
100
AcDbMlineStyle
  2
Standard
 70
     0
  3

 62
   256
 51
90.0
 52
90.0
 71
     2
 49
0.5
 62
   256
  6
BYLAYER
 49
-0.5
 62
   256
  6
BYLAYER
  0
ACDBPLACEHOLDER
  5
F
102
{ACAD_REACTORS
330
E
102
}
330
E
  0
SCALE
  5
48
102
{ACAD_REACTORS
330
47
102
}
330
47
100
AcDbScale
 70
     0
300
1:1
140
1.0
141
1.0
290
     1
  0
SCALE
  5
49
102
{ACAD_REACTORS
330
47
102
}
330
47
100
AcDbScale
 70
     0
300
1:2
140
1.0
141
2.0
290
     0
  0
SCALE
  5
4A
102
{ACAD_REACTORS
330
47
102
}
330
47
100
AcDbScale
 70
     0
300
1:4
140
1.0
141
4.0
290
     0
  0
SCALE
  5
4B
102
{ACAD_REACTORS
330
47
102
}
330
47
100
AcDbScale
 70
     0
300
1:5
140
1.0
141
5.0
290
     0
  0
SCALE
  5
4C
102
{ACAD_REACTORS
330
47
102
}
330
47
100
AcDbScale
 70
     0
300
1:8
140
1.0
141
8.0
290
     0
  0
SCALE
  5
4D
102
{ACAD_REACTORS
330
47
102
}
330
47
100
AcDbScale
 70
     0
300
1:10
140
1.0
141
10.0
290
     0
  0
SCALE
  5
4E
102
{ACAD_REACTORS
330
47
102
}
330
47
100
AcDbScale
 70
     0
300
1:16
140
1.0
141
16.0
290
     0
  0
SCALE
  5
4F
102
{ACAD_REACTORS
330
47
102
}
330
47
100
AcDbScale
 70
     0
300
1:20
140
1.0
141
20.0
290
     0
  0
SCALE
  5
50
102
{ACAD_REACTORS
330
47
102
}
330
47
100
AcDbScale
 70
     0
300
1:30
140
1.0
141
30.0
290
     0
  0
SCALE
  5
51
102
{ACAD_REACTORS
330
47
102
}
330
47
100
AcDbScale
 70
     0
300
1:40
140
1.0
141
40.0
290
     0
  0
SCALE
  5
52
102
{ACAD_REACTORS
330
47
102
}
330
47
100
AcDbScale
 70
     0
300
1:50
140
1.0
141
50.0
290
     0
  0
SCALE
  5
53
102
{ACAD_REACTORS
330
47
102
}
330
47
100
AcDbScale
 70
     0
300
1:100
140
1.0
141
100.0
290
     0
  0
SCALE
  5
54
102
{ACAD_REACTORS
330
47
102
}
330
47
100
AcDbScale
 70
     0
300
2:1
140
2.0
141
1.0
290
     0
  0
SCALE
  5
55
102
{ACAD_REACTORS
330
47
102
}
330
47
100
AcDbScale
 70
     0
300
4:1
140
4.0
141
1.0
290
     0
  0
SCALE
  5
56
102
{ACAD_REACTORS
330
47
102
}
330
47
100
AcDbScale
 70
     0
300
8:1
140
8.0
141
1.0
290
     0
  0
SCALE
  5
57
102
{ACAD_REACTORS
330
47
102
}
330
47
100
AcDbScale
 70
     0
300
10:1
140
10.0
141
1.0
290
     0
  0
SCALE
  5
58
102
{ACAD_REACTORS
330
47
102
}
330
47
100
AcDbScale
 70
     0
300
100:1
140
100.0
141
1.0
290
     0
  0
SCALE
  5
59
102
{ACAD_REACTORS
330
47
102
}
330
47
100
AcDbScale
 70
     0
300
1/128" = 1'-0"
140
0.0078125
141
12.0
290
     0
  0
SCALE
  5
5A
102
{ACAD_REACTORS
330
47
102
}
330
47
100
AcDbScale
 70
     0
300
1/64" = 1'-0"
140
0.015625
141
12.0
290
     0
  0
SCALE
  5
5B
102
{ACAD_REACTORS
330
47
102
}
330
47
100
AcDbScale
 70
     0
300
1/32" = 1'-0"
140
0.03125
141
12.0
290
     0
  0
SCALE
  5
5C
102
{ACAD_REACTORS
330
47
102
}
330
47
100
AcDbScale
 70
     0
300
1/16" = 1'-0"
140
0.0625
141
12.0
290
     0
  0
SCALE
  5
5D
102
{ACAD_REACTORS
330
47
102
}
330
47
100
AcDbScale
 70
     0
300
3/32" = 1'-0"
140
0.09375
141
12.0
290
     0
  0
SCALE
  5
5E
102
{ACAD_REACTORS
330
47
102
}
330
47
100
AcDbScale
 70
     0
300
1/8" = 1'-0"
140
0.125
141
12.0
290
     0
  0
SCALE
  5
5F
102
{ACAD_REACTORS
330
47
102
}
330
47
100
AcDbScale
 70
     0
300
3/16" = 1'-0"
140
0.1875
141
12.0
290
     0
  0
SCALE
  5
60
102
{ACAD_REACTORS
330
47
102
}
330
47
100
AcDbScale
 70
     0
300
1/4" = 1'-0"
140
0.25
141
12.0
290
     0
  0
SCALE
  5
61
102
{ACAD_REACTORS
330
47
102
}
330
47
100
AcDbScale
 70
     0
300
3/8" = 1'-0"
140
0.375
141
12.0
290
     0
  0
SCALE
  5
62
102
{ACAD_REACTORS
330
47
102
}
330
47
100
AcDbScale
 70
     0
300
1/2" = 1'-0"
140
0.5
141
12.0
290
     0
  0
SCALE
  5
63
102
{ACAD_REACTORS
330
47
102
}
330
47
100
AcDbScale
 70
     0
300
3/4" = 1'-0"
140
0.75
141
12.0
290
     0
  0
SCALE
  5
64
102
{ACAD_REACTORS
330
47
102
}
330
47
100
AcDbScale
 70
     0
300
1" = 1'-0"
140
1.0
141
12.0
290
     0
  0
SCALE
  5
65
102
{ACAD_REACTORS
330
47
102
}
330
47
100
AcDbScale
 70
     0
300
1-1/2" = 1'-0"
140
1.5
141
12.0
290
     0
  0
SCALE
  5
66
102
{ACAD_REACTORS
330
47
102
}
330
47
100
AcDbScale
 70
     0
300
3" = 1'-0"
140
3.0
141
12.0
290
     0
  0
SCALE
  5
67
102
{ACAD_REACTORS
330
47
102
}
330
47
100
AcDbScale
 70
     0
300
6" = 1'-0"
140
6.0
141
12.0
290
     0
  0
SCALE
  5
68
102
{ACAD_REACTORS
330
47
102
}
330
47
100
AcDbScale
 70
     0
300
1'-0" = 1'-0"
140
12.0
141
12.0
290
     0
  0
TABLESTYLE
  5
6A
102
{ACAD_REACTORS
330
69
102
}
102
{ACAD_XDICTIONARY
360
211
102
}
330
69
100
AcDbTableStyle
  3
Standard
 70
     0
 71
     0
 40
0.06
 41
0.06
280
     0
281
     0
  7
Standard
140
0.18
170
     2
 62
     0
 63
   257
283
     0
 90
        4
 91
        0
  1

274
    -2
284
     1
 64
     0
275
    -2
285
     1
 65
     0
276
    -2
286
     1
 66
     0
277
    -2
287
     1
 67
     0
278
    -2
288
     1
 68
     0
279
    -2
289
     1
 69
     0
  7
Standard
140
0.25
170
     5
 62
     0
 63
   257
283
     0
 90
        4
 91
        0
  1

274
    -2
284
     1
 64
     0
275
    -2
285
     1
 65
     0
276
    -2
286
     1
 66
     0
277
    -2
287
     1
 67
     0
278
    -2
288
     1
 68
     0
279
    -2
289
     1
 69
     0
  7
Standard
140
0.18
170
     5
 62
     0
 63
   257
283
     0
 90
        4
 91
        0
  1

274
    -2
284
     1
 64
     0
275
    -2
285
     1
 65
     0
276
    -2
286
     1
 66
     0
277
    -2
287
     1
 67
     0
278
    -2
288
     1
 68
     0
279
    -2
289
     1
 69
     0
  0
VISUALSTYLE
  5
2F
102
{ACAD_REACTORS
330
2A
102
}
330
2A
100
AcDbVisualStyle
  2
2dWireframe
 70
     4
177
     3
291
     0
 70
    58
 90
        0
176
     1
 90
        2
176
     1
 90
        0
176
     1
 90
        0
176
     1
 40
0.6
176
     1
 40
30.0
176
     1
 62
     7
420
 16777215
176
     1
 90
        1
176
     1
 90
        4
176
     1
 62
     7
176
     1
 62
   257
176
     1
 90
        1
176
     1
 90
        1
176
     1
 40
1.0
176
     1
 90
        0
176
     1
 62
   257
176
     1
 40
1.0
176
     1
 90
        1
176
     1
 90
        6
176
     1
 90
        2
176
     1
 62
     7
176
     1
 90
        5
176
     1
 90
        0
176
     1
 90
        0
176
     1
290
     0
176
     1
 90
        1
176
     1
 40
0.0
176
     1
 90
        0
176
     1
290
     1
176
     1
290
     1
176
     1
290
     0
176
     1
290
     0
176
     1
290
     0
176
     1
290
     0
176
     1
290
     0
176
     1
290
     0
176
     1
290
     0
176
     1
 90
       50
176
     1
 40
0.0
176
     1
 40
1.0
176
     1
 90
        0
176
     1
 62
    18
420
        0
176
     1
 90
       50
176
     1
 90
        3
176
     1
 62
     5
420
      255
176
     1
290
     0
176
     1
 90
       50
176
     1
 90
       50
176
     1
 90
       50
176
     1
290
     0
176
     1
 90
       50
176
     1
 62
   256
176
     0
 40
1.0
176
     0
 90
        2
176
     1
  1
strokes_ogs.tif
176
     1
290
     0
176
     1
 40
1.0
176
     1
 40
1.0
176
     1
  0
VISUALSTYLE
  5
32
102
{ACAD_REACTORS
330
2A
102
}
330
2A
100
AcDbVisualStyle
  2
Basic
 70
     7
177
     3
291
     1
 70
    58
 90
        1
176
     1
 90
        0
176
     1
 90
        1
176
     1
 90
        0
176
     1
 40
0.6
176
     1
 40
30.0
176
     1
 62
     7
420
 16777215
176
     1
 90
        0
176
     1
 90
        4
176
     1
 62
     7
176
     1
 62
   257
176
     1
 90
        1
176
     1
 90
        1
176
     1
 40
1.0
176
     1
 90
        8
176
     1
 62
     7
176
     1
 40
1.0
176
     1
 90
        1
176
     1
 90
        6
176
     1
 90
        2
176
     1
 62
     7
176
     1
 90
        5
176
     1
 90
        0
176
     1
 90
        0
176
     1
290
     0
176
     1
 90
        1
176
     1
 40
0.0
176
     1
 90
        0
176
     1
290
     0
176
     1
290
     1
176
     1
290
     1
176
     1
290
     0
176
     1
290
     0
176
     1
290
     0
176
     1
290
     0
176
     1
290
     0
176
     1
290
     0
176
     1
 90
       50
176
     1
 40
0.0
176
     1
 40
1.0
176
     1
 90
        0
176
     1
 62
    18
420
        0
176
     1
 90
       50
176
     1
 90
        3
176
     1
 62
     5
420
      255
176
     1
290
     0
176
     1
 90
       50
176
     1
 90
       50
176
     1
 90
       50
176
     1
290
     0
176
     1
 90
       50
176
     1
 62
   256
176
     0
 40
1.0
176
     0
 90
        2
176
     1
  1
strokes_ogs.tif
176
     1
290
     0
176
     1
 40
1.0
176
     1
 40
1.0
176
     1
  0
VISUALSTYLE
  5
36
102
{ACAD_REACTORS
330
2A
102
}
330
2A
100
AcDbVisualStyle
  2
Brighten
 70
    12
177
     3
291
     1
 70
    58
 90
        2
176
     1
 90
        2
176
     1
 90
        0
176
     1
 90
        0
176
     1
 40
0.6
176
     1
 40
30.0
176
     1
 62
     7
420
 16777215
176
     1
 90
        1
176
     1
 90
        4
176
     1
 62
     7
176
     1
 62
   257
176
     1
 90
        1
176
     1
 90
        1
176
     1
 40
1.0
176
     1
 90
        8
176
     1
 62
     7
176
     1
 40
1.0
176
     1
 90
        1
176
     1
 90
        6
176
     1
 90
        2
176
     1
 62
     7
176
     1
 90
        5
176
     1
 90
        0
176
     1
 90
        0
176
     1
290
     0
176
     1
 90
        1
176
     1
 40
50.0
176
     1
 90
        0
176
     1
290
     0
176
     1
290
     1
176
     1
290
     1
176
     1
290
     0
176
     1
290
     0
176
     1
290
     0
176
     1
290
     0
176
     1
290
     0
176
     1
290
     0
176
     1
 90
       50
176
     1
 40
0.0
176
     1
 40
1.0
176
     1
 90
        0
176
     1
 62
    18
420
        0
176
     1
 90
       50
176
     1
 90
        3
176
     1
 62
     5
420
      255
176
     1
290
     0
176
     1
 90
       50
176
     1
 90
       50
176
     1
 90
       50
176
     1
290
     0
176
     1
 90
       50
176
     1
 62
   256
176
     0
 40
1.0
176
     0
 90
        2
176
     1
  1
strokes_ogs.tif
176
     1
290
     0
176
     1
 40
1.0
176
     1
 40
1.0
176
     1
  0
VISUALSTYLE
  5
3A
102
{ACAD_REACTORS
330
2A
102
}
330
2A
100
AcDbVisualStyle
  2
ColorChange
 70
    16
177
     3
291
     1
 70
    58
 90
        2
176
     1
 90
        2
176
     1
 90
        3
176
     1
 90
        0
176
     1
 40
0.6
176
     1
 40
30.0
176
     1
 62
     8
420
  8421504
176
     1
 90
        1
176
     1
 90
        4
176
     1
 62
     7
176
     1
 62
   257
176
     1
 90
        1
176
     1
 90
        1
176
     1
 40
1.0
176
     1
 90
        8
176
     1
 62
     8
420
  8421504
176
     1
 40
1.0
176
     1
 90
        1
176
     1
 90
        6
176
     1
 90
        2
176
     1
 62
     7
176
     1
 90
        5
176
     1
 90
        0
176
     1
 90
        0
176
     1
290
     0
176
     1
 90
        1
176
     1
 40
0.0
176
     1
 90
        0
176
     1
290
     0
176
     1
290
     1
176
     1
290
     1
176
     1
290
     0
176
     1
290
     0
176
     1
290
     0
176
     1
290
     0
176
     1
290
     0
176
     1
290
     0
176
     1
 90
       50
176
     1
 40
0.0
176
     1
 40
1.0
176
     1
 90
        0
176
     1
 62
    18
420
        0
176
     1
 90
       50
176
     1
 90
        3
176
     1
 62
     5
420
      255
176
     1
290
     0
176
     1
 90
       50
176
     1
 90
       50
176
     1
 90
       50
176
     1
290
     0
176
     1
 90
       50
176
     1
 62
   256
176
     0
 40
1.0
176
     0
 90
        2
176
     1
  1
strokes_ogs.tif
176
     1
290
     0
176
     1
 40
1.0
176
     1
 40
1.0
176
     1
  0
VISUALSTYLE
  5
34
102
{ACAD_REACTORS
330
2A
102
}
330
2A
100
AcDbVisualStyle
  2
Conceptual
 70
     9
177
     3
291
     0
 70
    58
 90
        3
176
     1
 90
        2
176
     1
 90
        0
176
     1
 90
        0
176
     1
 40
0.6
176
     1
 40
30.0
176
     1
 62
     7
420
 16777215
176
     1
 90
        2
176
     1
 90
        2
176
     1
 62
     7
176
     1
 62
   257
176
     1
 90
        1
176
     1
 90
        1
176
     1
 40
179.0
176
     1
 90
        8
176
     1
 62
     7
176
     1
 40
1.0
176
     1
 90
        1
176
     1
 90
        6
176
     1
 90
        2
176
     1
 62
     7
176
     1
 90
        3
176
     1
 90
        0
176
     1
 90
        0
176
     1
290
     0
176
     1
 90
        1
176
     1
 40
0.0
176
     1
 90
        0
176
     1
290
     0
176
     1
290
     1
176
     1
290
     1
176
     1
290
     0
176
     1
290
     0
176
     1
290
     0
176
     1
290
     0
176
     1
290
     0
176
     1
290
     0
176
     1
 90
       50
176
     1
 40
0.0
176
     1
 40
1.0
176
     1
 90
        0
176
     1
 62
    18
420
        0
176
     1
 90
       50
176
     1
 90
        3
176
     1
 62
     5
420
      255
176
     1
290
     0
176
     1
 90
       50
176
     1
 90
       50
176
     1
 90
       50
176
     1
290
     0
176
     1
 90
       50
176
     1
 62
   256
176
     0
 40
1.0
176
     0
 90
        2
176
     1
  1
strokes_ogs.tif
176
     1
290
     0
176
     1
 40
1.0
176
     1
 40
1.0
176
     1
  0
VISUALSTYLE
  5
35
102
{ACAD_REACTORS
330
2A
102
}
330
2A
100
AcDbVisualStyle
  2
Dim
 70
    11
177
     3
291
     1
 70
    58
 90
        2
176
     1
 90
        2
176
     1
 90
        0
176
     1
 90
        0
176
     1
 40
0.6
176
     1
 40
30.0
176
     1
 62
     7
420
 16777215
176
     1
 90
        1
176
     1
 90
        4
176
     1
 62
     7
176
     1
 62
   257
176
     1
 90
        1
176
     1
 90
        1
176
     1
 40
1.0
176
     1
 90
        8
176
     1
 62
     7
176
     1
 40
1.0
176
     1
 90
        1
176
     1
 90
        6
176
     1
 90
        2
176
     1
 62
     7
176
     1
 90
        5
176
     1
 90
        0
176
     1
 90
        0
176
     1
290
     0
176
     1
 90
        1
176
     1
 40
-50.0
176
     1
 90
        0
176
     1
290
     0
176
     1
290
     1
176
     1
290
     1
176
     1
290
     0
176
     1
290
     0
176
     1
290
     0
176
     1
290
     0
176
     1
290
     0
176
     1
290
     0
176
     1
 90
       50
176
     1
 40
0.0
176
     1
 40
1.0
176
     1
 90
        0
176
     1
 62
    18
420
        0
176
     1
 90
       50
176
     1
 90
        3
176
     1
 62
     5
420
      255
176
     1
290
     0
176
     1
 90
       50
176
     1
 90
       50
176
     1
 90
       50
176
     1
290
     0
176
     1
 90
       50
176
     1
 62
   256
176
     0
 40
1.0
176
     0
 90
        2
176
     1
  1
strokes_ogs.tif
176
     1
290
     0
176
     1
 40
1.0
176
     1
 40
1.0
176
     1
  0
VISUALSTYLE
  5
3D
102
{ACAD_REACTORS
330
2A
102
}
330
2A
100
AcDbVisualStyle
  2
EdgeColorOff
 70
    22
177
     3
291
     1
 70
    58
 90
        2
176
     0
 90
        2
176
     0
 90
        0
176
     0
 90
        0
176
     0
 40
0.6
176
     0
 40
30.0
176
     0
 62
     7
420
 16777215
176
     0
 90
        1
176
     0
 90
        4
176
     0
 62
     7
176
     0
 62
   257
176
     0
 90
        1
176
     0
 90
        1
176
     0
 40
1.0
176
     0
 90
        8
176
     2
 62
     7
176
     0
 40
1.0
176
     0
 90
        1
176
     0
 90
        6
176
     0
 90
        2
176
     0
 62
     7
176
     0
 90
        5
176
     0
 90
        0
176
     0
 90
        0
176
     0
290
     0
176
     0
 90
        1
176
     0
 40
0.0
176
     0
 90
        0
176
     0
290
     0
176
     0
290
     1
176
     0
290
     1
176
     0
290
     0
176
     0
290
     0
176
     0
290
     0
176
     0
290
     0
176
     0
290
     0
176
     0
290
     0
176
     0
 90
       50
176
     0
 40
0.0
176
     0
 40
1.0
176
     0
 90
        0
176
     0
 62
    18
420
        0
176
     0
 90
       50
176
     0
 90
        3
176
     0
 62
     5
420
      255
176
     0
290
     0
176
     0
 90
       50
176
     0
 90
       50
176
     0
 90
       50
176
     0
290
     0
176
     0
 90
       50
176
     0
 62
   256
176
     0
 40
1.0
176
     0
 90
        2
176
     0
  1
strokes_ogs.tif
176
     0
290
     0
176
     0
 40
1.0
176
     0
 40
1.0
176
     0
  0
VISUALSTYLE
  5
39
102
{ACAD_REACTORS
330
2A
102
}
330
2A
100
AcDbVisualStyle
  2
Facepattern
 70
    15
177
     3
291
     1
 70
    58
 90
        2
176
     1
 90
        2
176
     1
 90
        0
176
     1
 90
        0
176
     1
 40
0.6
176
     1
 40
30.0
176
     1
 62
     7
420
 16777215
176
     1
 90
        1
176
     1
 90
        4
176
     1
 62
     7
176
     1
 62
   257
176
     1
 90
        1
176
     1
 90
        1
176
     1
 40
1.0
176
     1
 90
        8
176
     1
 62
     7
176
     1
 40
1.0
176
     1
 90
        1
176
     1
 90
        6
176
     1
 90
        2
176
     1
 62
     7
176
     1
 90
        5
176
     1
 90
        0
176
     1
 90
        0
176
     1
290
     0
176
     1
 90
        1
176
     1
 40
0.0
176
     1
 90
        0
176
     1
290
     0
176
     1
290
     1
176
     1
290
     1
176
     1
290
     0
176
     1
290
     0
176
     1
290
     0
176
     1
290
     0
176
     1
290
     0
176
     1
290
     0
176
     1
 90
       50
176
     1
 40
0.0
176
     1
 40
1.0
176
     1
 90
        0
176
     1
 62
    18
420
        0
176
     1
 90
       50
176
     1
 90
        3
176
     1
 62
     5
420
      255
176
     1
290
     0
176
     1
 90
       50
176
     1
 90
       50
176
     1
 90
       50
176
     1
290
     0
176
     1
 90
       50
176
     1
 62
   256
176
     0
 40
1.0
176
     0
 90
        2
176
     1
  1
strokes_ogs.tif
176
     1
290
     0
176
     1
 40
1.0
176
     1
 40
1.0
176
     1
  0
VISUALSTYLE
  5
2B
102
{ACAD_REACTORS
330
2A
102
}
330
2A
100
AcDbVisualStyle
  2
Flat
 70
     0
177
     3
291
     1
 70
    58
 90
        2
176
     1
 90
        1
176
     1
 90
        1
176
     1
 90
        2
176
     1
 40
0.6
176
     1
 40
30.0
176
     1
 62
     7
420
 16777215
176
     1
 90
        0
176
     1
 90
        0
176
     1
 62
     7
176
     1
 62
   257
176
     1
 90
        1
176
     1
 90
        1
176
     1
 40
1.0
176
     1
 90
        8
176
     1
 62
     7
176
     1
 40
1.0
176
     1
 90
        1
176
     1
 90
        6
176
     1
 90
        2
176
     1
 62
     7
176
     1
 90
        5
176
     1
 90
        0
176
     1
 90
        0
176
     1
290
     0
176
     1
 90
       13
176
     1
 40
0.0
176
     1
 90
        0
176
     1
290
     0
176
     1
290
     1
176
     1
290
     1
176
     1
290
     0
176
     1
290
     0
176
     1
290
     0
176
     1
290
     0
176
     1
290
     0
176
     1
290
     0
176
     1
 90
       50
176
     1
 40
0.0
176
     1
 40
1.0
176
     1
 90
        0
176
     1
 62
    18
420
        0
176
     1
 90
       50
176
     1
 90
        3
176
     1
 62
     5
420
      255
176
     1
290
     0
176
     1
 90
       50
176
     1
 90
       50
176
     1
 90
       50
176
     1
290
     0
176
     1
 90
       50
176
     1
 62
   256
176
     0
 40
1.0
176
     0
 90
        2
176
     1
  1
strokes_ogs.tif
176
     1
290
     0
176
     1
 40
1.0
176
     1
 40
1.0
176
     1
  0
VISUALSTYLE
  5
2C
102
{ACAD_REACTORS
330
2A
102
}
330
2A
100
AcDbVisualStyle
  2
FlatWithEdges
 70
     1
177
     3
291
     1
 70
    58
 90
        2
176
     1
 90
        1
176
     1
 90
        1
176
     1
 90
        2
176
     1
 40
0.6
176
     1
 40
30.0
176
     1
 62
     7
420
 16777215
176
     1
 90
        1
176
     1
 90
        0
176
     1
 62
     7
176
     1
 62
   257
176
     1
 90
        1
176
     1
 90
        1
176
     1
 40
1.0
176
     1
 90
        0
176
     1
 62
   257
176
     1
 40
1.0
176
     1
 90
        1
176
     1
 90
        6
176
     1
 90
        2
176
     1
 62
     7
176
     1
 90
        5
176
     1
 90
        0
176
     1
 90
        0
176
     1
290
     0
176
     1
 90
       13
176
     1
 40
0.0
176
     1
 90
        0
176
     1
290
     0
176
     1
290
     1
176
     1
290
     1
176
     1
290
     0
176
     1
290
     0
176
     1
290
     0
176
     1
290
     0
176
     1
290
     0
176
     1
290
     0
176
     1
 90
       50
176
     1
 40
0.0
176
     1
 40
1.0
176
     1
 90
        0
176
     1
 62
    18
420
        0
176
     1
 90
       50
176
     1
 90
        3
176
     1
 62
     5
420
      255
176
     1
290
     0
176
     1
 90
       50
176
     1
 90
       50
176
     1
 90
       50
176
     1
290
     0
176
     1
 90
       50
176
     1
 62
   256
176
     0
 40
1.0
176
     0
 90
        2
176
     1
  1
strokes_ogs.tif
176
     1
290
     0
176
     1
 40
1.0
176
     1
 40
1.0
176
     1
  0
VISUALSTYLE
  5
2D
102
{ACAD_REACTORS
330
2A
102
}
330
2A
100
AcDbVisualStyle
  2
Gouraud
 70
     2
177
     3
291
     1
 70
    58
 90
        2
176
     1
 90
        2
176
     1
 90
        1
176
     1
 90
        2
176
     1
 40
0.6
176
     1
 40
30.0
176
     1
 62
     7
420
 16777215
176
     1
 90
        0
176
     1
 90
        0
176
     1
 62
     7
176
     1
 62
   257
176
     1
 90
        1
176
     1
 90
        1
176
     1
 40
1.0
176
     1
 90
        0
176
     1
 62
     7
176
     1
 40
1.0
176
     1
 90
        1
176
     1
 90
        6
176
     1
 90
        2
176
     1
 62
     7
176
     1
 90
        5
176
     1
 90
        0
176
     1
 90
        0
176
     1
290
     0
176
     1
 90
       13
176
     1
 40
0.0
176
     1
 90
        0
176
     1
290
     0
176
     1
290
     1
176
     1
290
     1
176
     1
290
     0
176
     1
290
     0
176
     1
290
     0
176
     1
290
     0
176
     1
290
     0
176
     1
290
     0
176
     1
 90
       50
176
     1
 40
0.0
176
     1
 40
1.0
176
     1
 90
        0
176
     1
 62
    18
420
        0
176
     1
 90
       50
176
     1
 90
        3
176
     1
 62
     5
420
      255
176
     1
290
     0
176
     1
 90
       50
176
     1
 90
       50
176
     1
 90
       50
176
     1
290
     0
176
     1
 90
       50
176
     1
 62
   256
176
     0
 40
1.0
176
     0
 90
        2
176
     1
  1
strokes_ogs.tif
176
     1
290
     0
176
     1
 40
1.0
176
     1
 40
1.0
176
     1
  0
VISUALSTYLE
  5
2E
102
{ACAD_REACTORS
330
2A
102
}
330
2A
100
AcDbVisualStyle
  2
GouraudWithEdges
 70
     3
177
     3
291
     1
 70
    58
 90
        2
176
     1
 90
        2
176
     1
 90
        1
176
     1
 90
        2
176
     1
 40
0.6
176
     1
 40
30.0
176
     1
 62
     7
420
 16777215
176
     1
 90
        1
176
     1
 90
        0
176
     1
 62
     7
176
     1
 62
   257
176
     1
 90
        1
176
     1
 90
        1
176
     1
 40
1.0
176
     1
 90
        0
176
     1
 62
   257
176
     1
 40
1.0
176
     1
 90
        1
176
     1
 90
        6
176
     1
 90
        2
176
     1
 62
     7
176
     1
 90
        5
176
     1
 90
        0
176
     1
 90
        0
176
     1
290
     0
176
     1
 90
       13
176
     1
 40
0.0
176
     1
 90
        0
176
     1
290
     0
176
     1
290
     1
176
     1
290
     1
176
     1
290
     0
176
     1
290
     0
176
     1
290
     0
176
     1
290
     0
176
     1
290
     0
176
     1
290
     0
176
     1
 90
       50
176
     1
 40
0.0
176
     1
 40
1.0
176
     1
 90
        0
176
     1
 62
    18
420
        0
176
     1
 90
       50
176
     1
 90
        3
176
     1
 62
     5
420
      255
176
     1
290
     0
176
     1
 90
       50
176
     1
 90
       50
176
     1
 90
       50
176
     1
290
     0
176
     1
 90
       50
176
     1
 62
   256
176
     0
 40
1.0
176
     0
 90
        2
176
     1
  1
strokes_ogs.tif
176
     1
290
     0
176
     1
 40
1.0
176
     1
 40
1.0
176
     1
  0
VISUALSTYLE
  5
31
102
{ACAD_REACTORS
330
2A
102
}
330
2A
100
AcDbVisualStyle
  2
Hidden
 70
     6
177
     3
291
     0
 70
    58
 90
        1
176
     1
 90
        2
176
     1
 90
        2
176
     1
 90
        0
176
     1
 40
0.6
176
     1
 40
30.0
176
     1
 62
     7
420
 16777215
176
     1
 90
        2
176
     1
 90
        2
176
     1
 62
     7
176
     1
 62
   257
176
     1
 90
        2
176
     1
 90
        1
176
     1
 40
40.0
176
     1
 90
        0
176
     1
 62
   257
176
     1
 40
1.0
176
     1
 90
        1
176
     1
 90
        6
176
     1
 90
        2
176
     1
 62
     7
176
     1
 90
        3
176
     1
 90
        0
176
     1
 90
        0
176
     1
290
     0
176
     1
 90
        1
176
     1
 40
0.0
176
     1
 90
        0
176
     1
290
     0
176
     1
290
     1
176
     1
290
     1
176
     1
290
     0
176
     1
290
     0
176
     1
290
     0
176
     1
290
     0
176
     1
290
     0
176
     1
290
     0
176
     1
 90
       50
176
     1
 40
0.0
176
     1
 40
1.0
176
     1
 90
        0
176
     1
 62
    18
420
        0
176
     1
 90
       50
176
     1
 90
        3
176
     1
 62
     5
420
      255
176
     1
290
     0
176
     1
 90
       50
176
     1
 90
       50
176
     1
 90
       50
176
     1
290
     0
176
     1
 90
       50
176
     1
 62
   256
176
     0
 40
1.0
176
     0
 90
        2
176
     1
  1
strokes_ogs.tif
176
     1
290
     0
176
     1
 40
1.0
176
     1
 40
1.0
176
     1
  0
VISUALSTYLE
  5
3B
102
{ACAD_REACTORS
330
2A
102
}
330
2A
100
AcDbVisualStyle
  2
JitterOff
 70
    20
177
     3
291
     1
 70
    58
 90
        2
176
     0
 90
        2
176
     0
 90
        0
176
     0
 90
        0
176
     0
 40
0.6
176
     0
 40
30.0
176
     0
 62
     7
420
 16777215
176
     0
 90
        1
176
     0
 90
        4
176
     0
 62
     7
176
     0
 62
   257
176
     0
 90
        1
176
     0
 90
        1
176
     0
 40
1.0
176
     0
 90
       10
176
     2
 62
     7
176
     0
 40
1.0
176
     0
 90
        1
176
     0
 90
        6
176
     0
 90
        2
176
     0
 62
     7
176
     0
 90
        5
176
     0
 90
        0
176
     0
 90
        0
176
     0
290
     0
176
     0
 90
        1
176
     0
 40
0.0
176
     0
 90
        0
176
     0
290
     0
176
     0
290
     1
176
     0
290
     1
176
     0
290
     0
176
     0
290
     0
176
     0
290
     0
176
     0
290
     0
176
     0
290
     0
176
     0
290
     0
176
     0
 90
       50
176
     0
 40
0.0
176
     0
 40
1.0
176
     0
 90
        0
176
     0
 62
    18
420
        0
176
     0
 90
       50
176
     0
 90
        3
176
     0
 62
     5
420
      255
176
     0
290
     0
176
     0
 90
       50
176
     0
 90
       50
176
     0
 90
       50
176
     0
290
     0
176
     0
 90
       50
176
     0
 62
   256
176
     0
 40
1.0
176
     0
 90
        2
176
     0
  1
strokes_ogs.tif
176
     0
290
     0
176
     0
 40
1.0
176
     0
 40
1.0
176
     0
  0
VISUALSTYLE
  5
38
102
{ACAD_REACTORS
330
2A
102
}
330
2A
100
AcDbVisualStyle
  2
Linepattern
 70
    14
177
     3
291
     1
 70
    58
 90
        2
176
     1
 90
        2
176
     1
 90
        0
176
     1
 90
        0
176
     1
 40
0.6
176
     1
 40
30.0
176
     1
 62
     7
420
 16777215
176
     1
 90
        1
176
     1
 90
        4
176
     1
 62
     7
176
     1
 62
   257
176
     1
 90
        7
176
     1
 90
        7
176
     1
 40
1.0
176
     1
 90
        8
176
     1
 62
     7
176
     1
 40
1.0
176
     1
 90
        1
176
     1
 90
        6
176
     1
 90
        2
176
     1
 62
     7
176
     1
 90
        5
176
     1
 90
        0
176
     1
 90
        0
176
     1
290
     0
176
     1
 90
        1
176
     1
 40
0.0
176
     1
 90
        0
176
     1
290
     0
176
     1
290
     1
176
     1
290
     1
176
     1
290
     0
176
     1
290
     0
176
     1
290
     0
176
     1
290
     0
176
     1
290
     0
176
     1
290
     0
176
     1
 90
       50
176
     1
 40
0.0
176
     1
 40
1.0
176
     1
 90
        0
176
     1
 62
    18
420
        0
176
     1
 90
       50
176
     1
 90
        3
176
     1
 62
     5
420
      255
176
     1
290
     0
176
     1
 90
       50
176
     1
 90
       50
176
     1
 90
       50
176
     1
290
     0
176
     1
 90
       50
176
     1
 62
   256
176
     0
 40
1.0
176
     0
 90
        2
176
     1
  1
strokes_ogs.tif
176
     1
290
     0
176
     1
 40
1.0
176
     1
 40
1.0
176
     1
  0
VISUALSTYLE
  5
3C
102
{ACAD_REACTORS
330
2A
102
}
330
2A
100
AcDbVisualStyle
  2
OverhangOff
 70
    21
177
     3
291
     1
 70
    58
 90
        2
176
     0
 90
        2
176
     0
 90
        0
176
     0
 90
        0
176
     0
 40
0.6
176
     0
 40
30.0
176
     0
 62
     7
420
 16777215
176
     0
 90
        1
176
     0
 90
        4
176
     0
 62
     7
176
     0
 62
   257
176
     0
 90
        1
176
     0
 90
        1
176
     0
 40
1.0
176
     0
 90
        9
176
     2
 62
     7
176
     0
 40
1.0
176
     0
 90
        1
176
     0
 90
        6
176
     0
 90
        2
176
     0
 62
     7
176
     0
 90
        5
176
     0
 90
        0
176
     0
 90
        0
176
     0
290
     0
176
     0
 90
        1
176
     0
 40
0.0
176
     0
 90
        0
176
     0
290
     0
176
     0
290
     1
176
     0
290
     1
176
     0
290
     0
176
     0
290
     0
176
     0
290
     0
176
     0
290
     0
176
     0
290
     0
176
     0
290
     0
176
     0
 90
       50
176
     0
 40
0.0
176
     0
 40
1.0
176
     0
 90
        0
176
     0
 62
    18
420
        0
176
     0
 90
       50
176
     0
 90
        3
176
     0
 62
     5
420
      255
176
     0
290
     0
176
     0
 90
       50
176
     0
 90
       50
176
     0
 90
       50
176
     0
290
     0
176
     0
 90
       50
176
     0
 62
   256
176
     0
 40
1.0
176
     0
 90
        2
176
     0
  1
strokes_ogs.tif
176
     0
290
     0
176
     0
 40
1.0
176
     0
 40
1.0
176
     0
  0
VISUALSTYLE
  5
33
102
{ACAD_REACTORS
330
2A
102
}
330
2A
100
AcDbVisualStyle
  2
Realistic
 70
     8
177
     3
291
     0
 70
    58
 90
        2
176
     1
 90
        3
176
     1
 90
        0
176
     1
 90
        2
176
     1
 40
0.6
176
     1
 40
30.0
176
     1
 62
     7
420
 16777215
176
     1
 90
        0
176
     1
 90
        0
176
     1
 62
     7
176
     1
 62
   257
176
     1
 90
        1
176
     1
 90
        1
176
     1
 40
1.0
176
     1
 90
        8
176
     1
 62
   257
176
     1
 40
1.0
176
     1
 90
        1
176
     1
 90
        6
176
     1
 90
        2
176
     1
 62
     7
176
     1
 90
        3
176
     1
 90
        0
176
     1
 90
        0
176
     1
290
     0
176
     1
 90
       13
176
     1
 40
0.0
176
     1
 90
        0
176
     1
290
     0
176
     1
290
     1
176
     1
290
     1
176
     1
290
     0
176
     1
290
     0
176
     1
290
     0
176
     1
290
     0
176
     1
290
     0
176
     1
290
     0
176
     1
 90
       50
176
     1
 40
0.0
176
     1
 40
1.0
176
     1
 90
        0
176
     1
 62
    18
420
        0
176
     1
 90
       50
176
     1
 90
        3
176
     1
 62
     5
420
      255
176
     1
290
     0
176
     1
 90
       50
176
     1
 90
       50
176
     1
 90
       50
176
     1
290
     0
176
     1
 90
       50
176
     1
 62
   256
176
     0
 40
1.0
176
     0
 90
        2
176
     1
  1
strokes_ogs.tif
176
     1
290
     0
176
     1
 40
1.0
176
     1
 40
1.0
176
     1
  0
VISUALSTYLE
  5
42
102
{ACAD_REACTORS
330
2A
102
}
330
2A
100
AcDbVisualStyle
  2
Shaded
 70
    27
177
     3
291
     0
 70
    58
 90
        2
176
     1
 90
        2
176
     1
 90
        1
176
     1
 90
        2
176
     1
 40
0.6
176
     1
 40
30.0
176
     1
 62
     7
420
 16777215
176
     1
 90
        0
176
     1
 90
        4
176
     1
 62
     7
176
     1
 62
   257
176
     1
 90
        1
176
     1
 90
        1
176
     1
 40
1.0
176
     1
 90
        8
176
     1
 62
   257
176
     1
 40
1.0
176
     1
 90
        1
176
     1
 90
        6
176
     1
 90
        2
176
     1
 62
     8
420
  7895160
176
     1
 90
        3
176
     1
 90
        0
176
     1
 90
        0
176
     1
290
     0
176
     1
 90
        5
176
     1
 40
0.0
176
     1
 90
        0
176
     1
290
     0
176
     1
290
     1
176
     1
290
     1
176
     1
290
     0
176
     1
290
     0
176
     1
290
     0
176
     1
290
     0
176
     1
290
     0
176
     1
290
     0
176
     1
 90
       50
176
     1
 40
0.0
176
     1
 40
1.0
176
     1
 90
        0
176
     1
 62
    18
420
        0
176
     1
 90
       50
176
     1
 90
        3
176
     1
 62
     5
420
      255
176
     1
290
     0
176
     1
 90
       50
176
     1
 90
       50
176
     1
 90
       50
176
     1
290
     0
176
     1
 90
       50
176
     1
 62
   256
176
     0
 40
1.0
176
     0
 90
        2
176
     1
  1
strokes_ogs.tif
176
     1
290
     0
176
     1
 40
1.0
176
     1
 40
1.0
176
     1
  0
VISUALSTYLE
  5
41
102
{ACAD_REACTORS
330
2A
102
}
330
2A
100
AcDbVisualStyle
  2
Shaded with edges
 70
    26
177
     3
291
     0
 70
    58
 90
        2
176
     1
 90
        2
176
     1
 90
        1
176
     1
 90
        2
176
     1
 40
0.6
176
     1
 40
30.0
176
     1
 62
     7
420
 16777215
176
     1
 90
        1
176
     1
 90
       10
176
     1
 62
     7
176
     1
 62
   257
176
     1
 90
        2
176
     1
 90
        1
176
     1
 40
1.0
176
     1
 90
        8
176
     1
 62
   257
176
     1
 40
1.0
176
     1
 90
        1
176
     1
 90
        6
176
     1
 90
        2
176
     1
 62
     7
176
     1
 90
        3
176
     1
 90
        0
176
     1
 90
        0
176
     1
290
     0
176
     1
 90
        5
176
     1
 40
0.0
176
     1
 90
        0
176
     1
290
     0
176
     1
290
     1
176
     1
290
     1
176
     1
290
     0
176
     1
290
     0
176
     1
290
     0
176
     1
290
     0
176
     1
290
     0
176
     1
290
     0
176
     1
 90
       50
176
     1
 40
0.0
176
     1
 40
1.0
176
     1
 90
        0
176
     1
 62
    18
420
        0
176
     1
 90
       50
176
     1
 90
        3
176
     1
 62
     5
420
      255
176
     1
290
     0
176
     1
 90
       50
176
     1
 90
       50
176
     1
 90
       50
176
     1
290
     0
176
     1
 90
       50
176
     1
 62
   256
176
     0
 40
1.0
176
     0
 90
        2
176
     1
  1
strokes_ogs.tif
176
     1
290
     0
176
     1
 40
1.0
176
     1
 40
1.0
176
     1
  0
VISUALSTYLE
  5
3E
102
{ACAD_REACTORS
330
2A
102
}
330
2A
100
AcDbVisualStyle
  2
Shades of Gray
 70
    23
177
     3
291
     0
 70
    58
 90
        2
176
     1
 90
        2
176
     1
 90
        3
176
     1
 90
        0
176
     1
 40
0.6
176
     1
 40
30.0
176
     1
 62
     7
420
 16777215
176
     1
 90
        2
176
     1
 90
        2
176
     1
 62
     7
176
     1
 62
     7
176
     1
 90
        1
176
     1
 90
        1
176
     1
 40
40.0
176
     1
 90
        8
176
     1
 62
     7
176
     1
 40
1.0
176
     1
 90
        1
176
     1
 90
        6
176
     1
 90
        2
176
     1
 62
     7
176
     1
 90
        3
176
     1
 90
        0
176
     1
 90
        0
176
     1
290
     0
176
     1
 90
        1
176
     1
 40
0.0
176
     1
 90
        0
176
     1
290
     0
176
     1
290
     1
176
     1
290
     1
176
     1
290
     0
176
     1
290
     0
176
     1
290
     0
176
     1
290
     0
176
     1
290
     0
176
     1
290
     0
176
     1
 90
       50
176
     1
 40
0.0
176
     1
 40
1.0
176
     1
 90
        0
176
     1
 62
    18
420
        0
176
     1
 90
       50
176
     1
 90
        3
176
     1
 62
     5
420
      255
176
     1
290
     0
176
     1
 90
       50
176
     1
 90
       50
176
     1
 90
       50
176
     1
290
     0
176
     1
 90
       50
176
     1
 62
   256
176
     0
 40
1.0
176
     0
 90
        2
176
     1
  1
strokes_ogs.tif
176
     1
290
     0
176
     1
 40
1.0
176
     1
 40
1.0
176
     1
  0
VISUALSTYLE
  5
3F
102
{ACAD_REACTORS
330
2A
102
}
330
2A
100
AcDbVisualStyle
  2
Sketchy
 70
    24
177
     3
291
     0
 70
    58
 90
        1
176
     1
 90
        2
176
     1
 90
        2
176
     1
 90
        0
176
     1
 40
0.6
176
     1
 40
30.0
176
     1
 62
     7
420
 16777215
176
     1
 90
        2
176
     1
 90
        2
176
     1
 62
     7
176
     1
 62
     7
176
     1
 90
        1
176
     1
 90
        1
176
     1
 40
40.0
176
     1
 90
       11
176
     1
 62
     7
176
     1
 40
1.0
176
     1
 90
        1
176
     1
 90
        6
176
     1
 90
        2
176
     1
 62
     7
176
     1
 90
        6
176
     1
 90
        0
176
     1
 90
        0
176
     1
290
     0
176
     1
 90
        1
176
     1
 40
0.0
176
     1
 90
        0
176
     1
290
     0
176
     1
290
     1
176
     1
290
     1
176
     1
290
     0
176
     1
290
     0
176
     1
290
     0
176
     1
290
     0
176
     1
290
     0
176
     1
290
     0
176
     1
 90
       50
176
     1
 40
0.0
176
     1
 40
1.0
176
     1
 90
        0
176
     1
 62
    18
420
        0
176
     1
 90
       50
176
     1
 90
        3
176
     1
 62
     5
420
      255
176
     1
290
     0
176
     1
 90
       50
176
     1
 90
       50
176
     1
 90
       50
176
     1
290
     0
176
     1
 90
       50
176
     1
 62
   256
176
     0
 40
1.0
176
     0
 90
        2
176
     1
  1
strokes_ogs.tif
176
     1
290
     0
176
     1
 40
1.0
176
     1
 40
1.0
176
     1
  0
VISUALSTYLE
  5
37
102
{ACAD_REACTORS
330
2A
102
}
330
2A
100
AcDbVisualStyle
  2
Thicken
 70
    13
177
     3
291
     1
 70
    58
 90
        2
176
     1
 90
        2
176
     1
 90
        0
176
     1
 90
        0
176
     1
 40
0.6
176
     1
 40
30.0
176
     1
 62
     7
420
 16777215
176
     1
 90
        1
176
     1
 90
        4
176
     1
 62
     7
176
     1
 62
   257
176
     1
 90
        1
176
     1
 90
        1
176
     1
 40
1.0
176
     1
 90
       12
176
     1
 62
     7
176
     1
 40
1.0
176
     1
 90
        1
176
     1
 90
        6
176
     1
 90
        2
176
     1
 62
     7
176
     1
 90
        5
176
     1
 90
        0
176
     1
 90
        0
176
     1
290
     0
176
     1
 90
        1
176
     1
 40
0.0
176
     1
 90
        0
176
     1
290
     0
176
     1
290
     1
176
     1
290
     1
176
     1
290
     0
176
     1
290
     0
176
     1
290
     0
176
     1
290
     0
176
     1
290
     0
176
     1
290
     0
176
     1
 90
       50
176
     1
 40
0.0
176
     1
 40
1.0
176
     1
 90
        0
176
     1
 62
    18
420
        0
176
     1
 90
       50
176
     1
 90
        3
176
     1
 62
     5
420
      255
176
     1
290
     0
176
     1
 90
       50
176
     1
 90
       50
176
     1
 90
       50
176
     1
290
     0
176
     1
 90
       50
176
     1
 62
   256
176
     0
 40
1.0
176
     0
 90
        2
176
     1
  1
strokes_ogs.tif
176
     1
290
     0
176
     1
 40
1.0
176
     1
 40
1.0
176
     1
  0
VISUALSTYLE
  5
30
102
{ACAD_REACTORS
330
2A
102
}
330
2A
100
AcDbVisualStyle
  2
Wireframe
 70
     5
177
     3
291
     0
 70
    58
 90
        0
176
     1
 90
        2
176
     1
 90
        0
176
     1
 90
        0
176
     1
 40
0.6
176
     1
 40
30.0
176
     1
 62
     7
420
 16777215
176
     1
 90
        1
176
     1
 90
        4
176
     1
 62
     7
176
     1
 62
   257
176
     1
 90
        1
176
     1
 90
        1
176
     1
 40
1.0
176
     1
 90
        0
176
     1
 62
   257
176
     1
 40
1.0
176
     1
 90
        1
176
     1
 90
        6
176
     1
 90
        2
176
     1
 62
     7
176
     1
 90
        3
176
     1
 90
        0
176
     1
 90
        0
176
     1
290
     0
176
     1
 90
        1
176
     1
 40
0.0
176
     1
 90
        0
176
     1
290
     0
176
     1
290
     1
176
     1
290
     1
176
     1
290
     0
176
     1
290
     0
176
     1
290
     0
176
     1
290
     0
176
     1
290
     0
176
     1
290
     0
176
     1
 90
       50
176
     1
 40
0.0
176
     1
 40
1.0
176
     1
 90
        0
176
     1
 62
    18
420
        0
176
     1
 90
       50
176
     1
 90
        3
176
     1
 62
     5
420
      255
176
     1
290
     0
176
     1
 90
       50
176
     1
 90
       50
176
     1
 90
       50
176
     1
290
     0
176
     1
 90
       50
176
     1
 62
   256
176
     0
 40
1.0
176
     0
 90
        2
176
     1
  1
strokes_ogs.tif
176
     1
290
     0
176
     1
 40
1.0
176
     1
 40
1.0
176
     1
  0
VISUALSTYLE
  5
40
102
{ACAD_REACTORS
330
2A
102
}
330
2A
100
AcDbVisualStyle
  2
X-Ray
 70
    25
177
     3
291
     0
 70
    58
 90
        2
176
     1
 90
        2
176
     1
 90
        1
176
     1
 90
        1
176
     1
 40
0.5
176
     1
 40
30.0
176
     1
 62
     7
420
 16777215
176
     1
 90
        1
176
     1
 90
        0
176
     1
 62
     7
176
     1
 62
   257
176
     1
 90
        1
176
     1
 90
        1
176
     1
 40
1.0
176
     1
 90
        8
176
     1
 62
     7
176
     1
 40
1.0
176
     1
 90
        1
176
     1
 90
        6
176
     1
 90
        2
176
     1
 62
     7
176
     1
 90
        3
176
     1
 90
        0
176
     1
 90
        0
176
     1
290
     0
176
     1
 90
       13
176
     1
 40
0.0
176
     1
 90
        0
176
     1
290
     0
176
     1
290
     1
176
     1
290
     1
176
     1
290
     0
176
     1
290
     0
176
     1
290
     0
176
     1
290
     0
176
     1
290
     0
176
     1
290
     0
176
     1
 90
       50
176
     1
 40
0.0
176
     1
 40
1.0
176
     1
 90
        0
176
     1
 62
    18
420
        0
176
     1
 90
       50
176
     1
 90
        3
176
     1
 62
     5
420
      255
176
     1
290
     0
176
     1
 90
       50
176
     1
 90
       50
176
     1
 90
       50
176
     1
290
     0
176
     1
 90
       50
176
     1
 62
   256
176
     0
 40
1.0
176
     0
 90
        2
176
     1
  1
strokes_ogs.tif
176
     1
290
     0
176
     1
 40
1.0
176
     1
 40
1.0
176
     1
  0
DICTIONARYVAR
  5
210
102
{ACAD_REACTORS
330
20F
102
}
330
20F
100
DictionaryVariables
280
     0
  1
1:1
  0
DICTIONARYVAR
  5
215
102
{ACAD_REACTORS
330
20F
102
}
330
20F
100
DictionaryVariables
280
     0
  1
Standard
  0
DICTIONARYVAR
  5
214
102
{ACAD_REACTORS
330
20F
102
}
330
20F
100
DictionaryVariables
280
     0
  1
Standard
  0
DICTIONARY
  5
211
330
6A
100
AcDbDictionary
280
     1
281
     1
  3
ACAD_ROUNDTRIP_2008_TABLESTYLE_CELLSTYLEMAP
360
212
  0
CELLSTYLEMAP
  5
212
102
{ACAD_REACTORS
330
211
102
}
330
211
100
AcDbCellStyleMap
 90
        3
300
CELLSTYLE
  1
TABLEFORMAT_BEGIN
 90
        5
170
     1
 91
        0
 92
    32768
 62
   257
 93
        1
300
CONTENTFORMAT
  1
CONTENTFORMAT_BEGIN
 90
        0
 91
        0
 92
        4
 93
        0
300

 40
0.0
140
1.0
 94
        5
 62
     0
340
11
144
0.25
309
CONTENTFORMAT_END
171
     1
301
MARGIN
  1
CELLMARGIN_BEGIN
 40
0.06
 40
0.06
 40
0.06
 40
0.06
 40
0.06
 40
0.06
309
CELLMARGIN_END
 94
        6
 95
        1
302
GRIDFORMAT
  1
GRIDFORMAT_BEGIN
 90
        0
 91
        1
 62
     0
 92
       -2
340
14
 93
        0
 40
0.045
309
GRIDFORMAT_END
 95
        2
302
GRIDFORMAT
  1
GRIDFORMAT_BEGIN
 90
        0
 91
        1
 62
     0
 92
       -2
340
14
 93
        0
 40
0.045
309
GRIDFORMAT_END
 95
        4
302
GRIDFORMAT
  1
GRIDFORMAT_BEGIN
 90
        0
 91
        1
 62
     0
 92
       -2
340
14
 93
        0
 40
0.045
309
GRIDFORMAT_END
 95
        8
302
GRIDFORMAT
  1
GRIDFORMAT_BEGIN
 90
        0
 91
        1
 62
     0
 92
       -2
340
14
 93
        0
 40
0.045
309
GRIDFORMAT_END
 95
       16
302
GRIDFORMAT
  1
GRIDFORMAT_BEGIN
 90
        0
 91
        1
 62
     0
 92
       -2
340
14
 93
        0
 40
0.045
309
GRIDFORMAT_END
 95
       32
302
GRIDFORMAT
  1
GRIDFORMAT_BEGIN
 90
        0
 91
        1
 62
     0
 92
       -2
340
14
 93
        0
 40
0.045
309
GRIDFORMAT_END
309
TABLEFORMAT_END
  1
CELLSTYLE_BEGIN
 90
        1
 91
        1
300
_TITLE
309
CELLSTYLE_END
300
CELLSTYLE
  1
TABLEFORMAT_BEGIN
 90
        5
170
     1
 91
        0
 92
        0
 62
   257
 93
        1
300
CONTENTFORMAT
  1
CONTENTFORMAT_BEGIN
 90
        0
 91
        0
 92
        4
 93
        0
300

 40
0.0
140
1.0
 94
        5
 62
     0
340
11
144
0.18
309
CONTENTFORMAT_END
171
     1
301
MARGIN
  1
CELLMARGIN_BEGIN
 40
0.06
 40
0.06
 40
0.06
 40
0.06
 40
0.06
 40
0.06
309
CELLMARGIN_END
 94
        6
 95
        1
302
GRIDFORMAT
  1
GRIDFORMAT_BEGIN
 90
        0
 91
        1
 62
     0
 92
       -2
340
14
 93
        0
 40
0.045
309
GRIDFORMAT_END
 95
        2
302
GRIDFORMAT
  1
GRIDFORMAT_BEGIN
 90
        0
 91
        1
 62
     0
 92
       -2
340
14
 93
        0
 40
0.045
309
GRIDFORMAT_END
 95
        4
302
GRIDFORMAT
  1
GRIDFORMAT_BEGIN
 90
        0
 91
        1
 62
     0
 92
       -2
340
14
 93
        0
 40
0.045
309
GRIDFORMAT_END
 95
        8
302
GRIDFORMAT
  1
GRIDFORMAT_BEGIN
 90
        0
 91
        1
 62
     0
 92
       -2
340
14
 93
        0
 40
0.045
309
GRIDFORMAT_END
 95
       16
302
GRIDFORMAT
  1
GRIDFORMAT_BEGIN
 90
        0
 91
        1
 62
     0
 92
       -2
340
14
 93
        0
 40
0.045
309
GRIDFORMAT_END
 95
       32
302
GRIDFORMAT
  1
GRIDFORMAT_BEGIN
 90
        0
 91
        1
 62
     0
 92
       -2
340
14
 93
        0
 40
0.045
309
GRIDFORMAT_END
309
TABLEFORMAT_END
  1
CELLSTYLE_BEGIN
 90
        2
 91
        1
300
_HEADER
309
CELLSTYLE_END
300
CELLSTYLE
  1
TABLEFORMAT_BEGIN
 90
        5
170
     1
 91
        0
 92
        0
 62
   257
 93
        1
300
CONTENTFORMAT
  1
CONTENTFORMAT_BEGIN
 90
        0
 91
        0
 92
        4
 93
        0
300

 40
0.0
140
1.0
 94
        2
 62
     0
340
11
144
0.18
309
CONTENTFORMAT_END
171
     1
301
MARGIN
  1
CELLMARGIN_BEGIN
 40
0.06
 40
0.06
 40
0.06
 40
0.06
 40
0.06
 40
0.06
309
CELLMARGIN_END
 94
        6
 95
        1
302
GRIDFORMAT
  1
GRIDFORMAT_BEGIN
 90
        0
 91
        1
 62
     0
 92
       -2
340
14
 93
        0
 40
0.045
309
GRIDFORMAT_END
 95
        2
302
GRIDFORMAT
  1
GRIDFORMAT_BEGIN
 90
        0
 91
        1
 62
     0
 92
       -2
340
14
 93
        0
 40
0.045
309
GRIDFORMAT_END
 95
        4
302
GRIDFORMAT
  1
GRIDFORMAT_BEGIN
 90
        0
 91
        1
 62
     0
 92
       -2
340
14
 93
        0
 40
0.045
309
GRIDFORMAT_END
 95
        8
302
GRIDFORMAT
  1
GRIDFORMAT_BEGIN
 90
        0
 91
        1
 62
     0
 92
       -2
340
14
 93
        0
 40
0.045
309
GRIDFORMAT_END
 95
       16
302
GRIDFORMAT
  1
GRIDFORMAT_BEGIN
 90
        0
 91
        1
 62
     0
 92
       -2
340
14
 93
        0
 40
0.045
309
GRIDFORMAT_END
 95
       32
302
GRIDFORMAT
  1
GRIDFORMAT_BEGIN
 90
        0
 91
        1
 62
     0
 92
       -2
340
14
 93
        0
 40
0.045
309
GRIDFORMAT_END
309
TABLEFORMAT_END
  1
CELLSTYLE_BEGIN
 90
        3
 91
        2
300
_DATA
309
CELLSTYLE_END
  0
ENDSEC
  0
EOF