0
SECTION
  2
HEADER
  9
$ACADVER
  1
AC1027
  9
$ACADMAINTVER
 70
     8
  9
$DWGCODEPAGE
  3
ANSI_1252
  9
$REQUIREDVERSIONS
160
                 0
  9
$COMMENTS
  1
File was created by Cadenas
  9
$CUSTOMPROPERTYTAG
  1
NN
  9
$CUSTOMPROPERTY
  1
Imperial - IP Pillow Block with Type E Dimensions 2-1/4 thru 7 inch 4-Bolt Trident Seal Expansion
  9
$CUSTOMPROPERTYTAG
  1
NT
  9
$CUSTOMPROPERTY
  1
Imperial/E 4 Bolt Piliow Block Bearings
  9
$CUSTOMPROPERTYTAG
  1
NB
  9
$CUSTOMPROPERTY
  1
071622
  9
$CUSTOMPROPERTYTAG
  1
NBSYN
  9
$CUSTOMPROPERTY
  1
$PN.
  9
$CUSTOMPROPERTYTAG
  1
LINA
  9
$CUSTOMPROPERTY
  1
071622
  9
$CUSTOMPROPERTYTAG
  1
SS
  9
$CUSTOMPROPERTY
  1
6-7/16
  9
$CUSTOMPROPERTYTAG
  1
TYPE
  9
$CUSTOMPROPERTY
  1
Expansion
  9
$CUSTOMPROPERTYTAG
  1
PN
  9
$CUSTOMPROPERTY
  1
071622
  9
$CUSTOMPROPERTYTAG
  1
DESCRIPTION
  9
$CUSTOMPROPERTY
  1
EP4B-IP-607RE
  9
$CUSTOMPROPERTYTAG
  1
ST
  9
$CUSTOMPROPERTY
  1
Contact Seal
  9
$CUSTOMPROPERTYTAG
  1
A
  9
$CUSTOMPROPERTY
  1
7.39
  9
$CUSTOMPROPERTYTAG
  1
B
  9
$CUSTOMPROPERTY
  1
26
  9
$CUSTOMPROPERTYTAG
  1
C
  9
$CUSTOMPROPERTY
  1
7.12
  9
$CUSTOMPROPERTYTAG
  1
DMIN
  9
$CUSTOMPROPERTY
  1
21.25
  9
$CUSTOMPROPERTYTAG
  1
DMAX
  9
$CUSTOMPROPERTY
  1
23.25
  9
$CUSTOMPROPERTYTAG
  1
E
  9
$CUSTOMPROPERTY
  1
4.62
  9
$CUSTOMPROPERTYTAG
  1
F
  9
$CUSTOMPROPERTY
  1
1
  9
$CUSTOMPROPERTYTAG
  1
G
  9
$CUSTOMPROPERTY
  1
2
  9
$CUSTOMPROPERTYTAG
  1
H
  9
$CUSTOMPROPERTY
  1
3.69
  9
$CUSTOMPROPERTYTAG
  1
J
  9
$CUSTOMPROPERTY
  1
14.94
  9
$CUSTOMPROPERTYTAG
  1
L
  9
$CUSTOMPROPERTY
  1
11.41
  9
$CUSTOMPROPERTYTAG
  1
M
  9
$CUSTOMPROPERTY
  1
7.5
  9
$CUSTOMPROPERTYTAG
  1
R
  9
$CUSTOMPROPERTY
  1
2.46
  9
$CUSTOMPROPERTYTAG
  1
S
  9
$CUSTOMPROPERTY
  1
4.94
  9
$CUSTOMPROPERTYTAG
  1
X
  9
$CUSTOMPROPERTY
  1
0.38
  9
$CUSTOMPROPERTYTAG
  1
Y
  9
$CUSTOMPROPERTY
  1
0.036
  9
$CUSTOMPROPERTYTAG
  1
Z
  9
$CUSTOMPROPERTY
  1
7.89
  9
$CUSTOMPROPERTYTAG
  1
COMPANY
  9
$CUSTOMPROPERTY
  1
baldor
  9
$INSBASE
 10
0.0
 20
0.0
 30
0.0
  9
$EXTMIN
 10
1.000000000000000E+20
 20
1.000000000000000E+20
 30
1.000000000000000E+20
  9
$EXTMAX
 10
-1.000000000000000E+20
 20
-1.000000000000000E+20
 30
-1.000000000000000E+20
  9
$LIMMIN
 10
0.0
 20
0.0
  9
$LIMMAX
 10
12.0
 20
9.0
  9
$ORTHOMODE
 70
     0
  9
$REGENMODE
 70
     1
  9
$FILLMODE
 70
     1
  9
$QTEXTMODE
 70
     0
  9
$MIRRTEXT
 70
     1
  9
$LTSCALE
 40
1.0
  9
$ATTMODE
 70
     1
  9
$TEXTSIZE
 40
0.2
  9
$TRACEWID
 40
0.05
  9
$TEXTSTYLE
  7
Standard
  9
$CLAYER
  8
0
  9
$CELTYPE
  6
ByLayer
  9
$CECOLOR
 62
   256
  9
$CELTSCALE
 40
1.0
  9
$DISPSILH
 70
     0
  9
$DIMSCALE
 40
1.0
  9
$DIMASZ
 40
0.18
  9
$DIMEXO
 40
0.0625
  9
$DIMDLI
 40
0.38
  9
$DIMRND
 40
0.0
  9
$DIMDLE
 40
0.0
  9
$DIMEXE
 40
0.18
  9
$DIMTP
 40
0.0
  9
$DIMTM
 40
0.0
  9
$DIMTXT
 40
0.18
  9
$DIMCEN
 40
0.09
  9
$DIMTSZ
 40
0.0
  9
$DIMTOL
 70
     0
  9
$DIMLIM
 70
     0
  9
$DIMTIH
 70
     1
  9
$DIMTOH
 70
     1
  9
$DIMSE1
 70
     0
  9
$DIMSE2
 70
     0
  9
$DIMTAD
 70
     0
  9
$DIMZIN
 70
     0
  9
$DIMBLK
  1

  9
$DIMASO
 70
     1
  9
$DIMSHO
 70
     1
  9
$DIMPOST
  1

  9
$DIMAPOST
  1

  9
$DIMALT
 70
     0
  9
$DIMALTD
 70
     2
  9
$DIMALTF
 40
25.4
  9
$DIMLFAC
 40
1.0
  9
$DIMTOFL
 70
     0
  9
$DIMTVP
 40
0.0
  9
$DIMTIX
 70
     0
  9
$DIMSOXD
 70
     0
  9
$DIMSAH
 70
     0
  9
$DIMBLK1
  1

  9
$DIMBLK2
  1

  9
$DIMSTYLE
  2
Standard
  9
$DIMCLRD
 70
     0
  9
$DIMCLRE
 70
     0
  9
$DIMCLRT
 70
     0
  9
$DIMTFAC
 40
1.0
  9
$DIMGAP
 40
0.09
  9
$DIMJUST
 70
     0
  9
$DIMSD1
 70
     0
  9
$DIMSD2
 70
     0
  9
$DIMTOLJ
 70
     1
  9
$DIMTZIN
 70
     0
  9
$DIMALTZ
 70
     0
  9
$DIMALTTZ
 70
     0
  9
$DIMUPT
 70
     0
  9
$DIMDEC
 70
     4
  9
$DIMTDEC
 70
     4
  9
$DIMALTU
 70
     2
  9
$DIMALTTD
 70
     2
  9
$DIMTXSTY
  7
Standard
  9
$DIMAUNIT
 70
     0
  9
$DIMADEC
 70
     0
  9
$DIMALTRND
 40
0.0
  9
$DIMAZIN
 70
     0
  9
$DIMDSEP
 70
    46
  9
$DIMATFIT
 70
     3
  9
$DIMFRAC
 70
     0
  9
$DIMLDRBLK
  1

  9
$DIMLUNIT
 70
     2
  9
$DIMLWD
 70
    -2
  9
$DIMLWE
 70
    -2
  9
$DIMTMOVE
 70
     0
  9
$DIMFXL
 40
1.0
  9
$DIMFXLON
 70
     0
  9
$DIMJOGANG
 40
0.7853981633974483
  9
$DIMTFILL
 70
     0
  9
$DIMTFILLCLR
 70
     0
  9
$DIMARCSYM
 70
     0
  9
$DIMLTYPE
  6

  9
$DIMLTEX1
  6

  9
$DIMLTEX2
  6

  9
$DIMTXTDIRECTION
 70
     0
  9
$LUNITS
 70
     2
  9
$LUPREC
 70
     4
  9
$SKETCHINC
 40
0.1
  9
$FILLETRAD
 40
0.5
  9
$AUNITS
 70
     0
  9
$AUPREC
 70
     0
  9
$MENU
  1
.
  9
$ELEVATION
 40
0.0
  9
$PELEVATION
 40
0.0
  9
$THICKNESS
 40
0.0
  9
$LIMCHECK
 70
     0
  9
$CHAMFERA
 40
0.0
  9
$CHAMFERB
 40
0.0
  9
$CHAMFERC
 40
0.0
  9
$CHAMFERD
 40
0.0
  9
$SKPOLY
 70
     0
  9
$TDCREATE
 40
2458168.960850845
  9
$TDUCREATE
 40
2458168.919184178
  9
$TDUPDATE
 40
2458168.96085103
  9
$TDUUPDATE
 40
2458168.919184363
  9
$TDINDWG
 40
0.0000000116
  9
$TDUSRTIMER
 40
0.0000000116
  9
$USRTIMER
 70
     1
  9
$ANGBASE
 50
0.0
  9
$ANGDIR
 70
     0
  9
$PDMODE
 70
     0
  9
$PDSIZE
 40
0.0
  9
$PLINEWID
 40
0.0
  9
$SPLFRAME
 70
     0
  9
$SPLINETYPE
 70
     6
  9
$SPLINESEGS
 70
     8
  9
$HANDSEED
  5
234
  9
$SURFTAB1
 70
     6
  9
$SURFTAB2
 70
     6
  9
$SURFTYPE
 70
     6
  9
$SURFU
 70
     6
  9
$SURFV
 70
     6
  9
$UCSBASE
  2

  9
$UCSNAME
  2

  9
$UCSORG
 10
0.0
 20
0.0
 30
0.0
  9
$UCSXDIR
 10
1.0
 20
0.0
 30
0.0
  9
$UCSYDIR
 10
0.0
 20
1.0
 30
0.0
  9
$UCSORTHOREF
  2

  9
$UCSORTHOVIEW
 70
     0
  9
$UCSORGTOP
 10
0.0
 20
0.0
 30
0.0
  9
$UCSORGBOTTOM
 10
0.0
 20
0.0
 30
0.0
  9
$UCSORGLEFT
 10
0.0
 20
0.0
 30
0.0
  9
$UCSORGRIGHT
 10
0.0
 20
0.0
 30
0.0
  9
$UCSORGFRONT
 10
0.0
 20
0.0
 30
0.0
  9
$UCSORGBACK
 10
0.0
 20
0.0
 30
0.0
  9
$PUCSBASE
  2

  9
$PUCSNAME
  2

  9
$PUCSORG
 10
0.0
 20
0.0
 30
0.0
  9
$PUCSXDIR
 10
1.0
 20
0.0
 30
0.0
  9
$PUCSYDIR
 10
0.0
 20
1.0
 30
0.0
  9
$PUCSORTHOREF
  2

  9
$PUCSORTHOVIEW
 70
     0
  9
$PUCSORGTOP
 10
0.0
 20
0.0
 30
0.0
  9
$PUCSORGBOTTOM
 10
0.0
 20
0.0
 30
0.0
  9
$PUCSORGLEFT
 10
0.0
 20
0.0
 30
0.0
  9
$PUCSORGRIGHT
 10
0.0
 20
0.0
 30
0.0
  9
$PUCSORGFRONT
 10
0.0
 20
0.0
 30
0.0
  9
$PUCSORGBACK
 10
0.0
 20
0.0
 30
0.0
  9
$USERI1
 70
     0
  9
$USERI2
 70
     0
  9
$USERI3
 70
     0
  9
$USERI4
 70
     0
  9
$USERI5
 70
     0
  9
$USERR1
 40
0.0
  9
$USERR2
 40
0.0
  9
$USERR3
 40
0.0
  9
$USERR4
 40
0.0
  9
$USERR5
 40
0.0
  9
$WORLDVIEW
 70
     1
  9
$SHADEDGE
 70
     3
  9
$SHADEDIF
 70
    70
  9
$TILEMODE
 70
     1
  9
$MAXACTVP
 70
    64
  9
$PINSBASE
 10
0.0
 20
0.0
 30
0.0
  9
$PLIMCHECK
 70
     0
  9
$PEXTMIN
 10
1.000000000000000E+20
 20
1.000000000000000E+20
 30
1.000000000000000E+20
  9
$PEXTMAX
 10
-1.000000000000000E+20
 20
-1.000000000000000E+20
 30
-1.000000000000000E+20
  9
$PLIMMIN
 10
0.0
 20
0.0
  9
$PLIMMAX
 10
12.0
 20
9.0
  9
$UNITMODE
 70
     0
  9
$VISRETAIN
 70
     1
  9
$PLINEGEN
 70
     0
  9
$PSLTSCALE
 70
     1
  9
$TREEDEPTH
 70
  3020
  9
$CMLSTYLE
  2
Standard
  9
$CMLJUST
 70
     0
  9
$CMLSCALE
 40
1.0
  9
$PROXYGRAPHICS
 70
     1
  9
$MEASUREMENT
 70
     0
  9
$CELWEIGHT
370
    -1
  9
$ENDCAPS
280
     0
  9
$JOINSTYLE
280
     0
  9
$LWDISPLAY
290
     0
  9
$INSUNITS
 70
     1
  9
$HYPERLINKBASE
  1

  9
$STYLESHEET
  1

  9
$XEDIT
290
     1
  9
$CEPSNTYPE
380
     0
  9
$PSTYLEMODE
290
     1
  9
$FINGERPRINTGUID
  2
{25962733-AE25-4B3A-A8F0-2E55A3BDBDBE}
  9
$VERSIONGUID
  2
{FAEB1C32-E019-11D5-929B-00C0DF256EC4}
  9
$EXTNAMES
290
     1
  9
$PSVPSCALE
 40
0.0
  9
$OLESTARTUP
290
     0
  9
$SORTENTS
280
   127
  9
$INDEXCTL
280
     0
  9
$HIDETEXT
280
     1
  9
$XCLIPFRAME
280
     2
  9
$HALOGAP
280
     0
  9
$OBSCOLOR
 70
   257
  9
$OBSLTYPE
280
     0
  9
$INTERSECTIONDISPLAY
280
     0
  9
$INTERSECTIONCOLOR
 70
   257
  9
$DIMASSOC
280
     2
  9
$PROJECTNAME
  1

  9
$CAMERADISPLAY
290
     0
  9
$LENSLENGTH
 40
50.0
  9
$CAMERAHEIGHT
 40
0.0
  9
$STEPSPERSEC
 40
2.0
  9
$STEPSIZE
 40
6.0
  9
$3DDWFPREC
 40
2.0
  9
$PSOLWIDTH
 40
0.25
  9
$PSOLHEIGHT
 40
4.0
  9
$LOFTANG1
 40
1.570796326794897
  9
$LOFTANG2
 40
1.570796326794897
  9
$LOFTMAG1
 40
0.0
  9
$LOFTMAG2
 40
0.0
  9
$LOFTPARAM
 70
     7
  9
$LOFTNORMALS
280
     1
  9
$LATITUDE
 40
37.795
  9
$LONGITUDE
 40
-122.394
  9
$NORTHDIRECTION
 40
0.0
  9
$TIMEZONE
 70
 -8000
  9
$LIGHTGLYPHDISPLAY
280
     1
  9
$TILEMODELIGHTSYNCH
280
     1
  9
$CMATERIAL
347
44
  9
$SOLIDHIST
280
     0
  9
$SHOWHIST
280
     1
  9
$DWFFRAME
280
     2
  9
$DGNFRAME
280
     2
  9
$REALWORLDSCALE
290
     1
  9
$INTERFERECOLOR
 62
   256
  9
$CSHADOW
280
     0
  9
$SHADOWPLANELOCATION
 40
0.0
  0
ENDSEC
  0
SECTION
  2
CLASSES
  0
CLASS
  1
ACDBDICTIONARYWDFLT
  2
AcDbDictionaryWithDefault
  3
ObjectDBX Classes
 90
        0
 91
        4
280
     0
281
     0
  0
CLASS
  1
VISUALSTYLE
  2
AcDbVisualStyle
  3
ObjectDBX Classes
 90
     4095
 91
        4
280
     0
281
     0
  0
CLASS
  1
MATERIAL
  2
AcDbMaterial
  3
ObjectDBX Classes
 90
     1153
 91
        4
280
     0
281
     0
  0
CLASS
  1
SCALE
  2
AcDbScale
  3
ObjectDBX Classes
 90
     1153
 91
        4
280
     0
281
     0
  0
CLASS
  1
TABLESTYLE
  2
AcDbTableStyle
  3
ObjectDBX Classes
 90
     4095
 91
        4
280
     0
281
     0
  0
CLASS
  1
MLEADERSTYLE
  2
AcDbMLeaderStyle
  3
ACDB_MLEADERSTYLE_CLASS
 90
     4095
 91
        4
280
     0
281
     0
  0
CLASS
  1
SUN
  2
AcDbSun
  3
SCENEOE
 90
     1153
 91
        4
280
     0
281
     0
  0
CLASS
  1
DICTIONARYVAR
  2
AcDbDictionaryVar
  3
ObjectDBX Classes
 90
        0
 91
        4
280
     0
281
     0
  0
CLASS
  1
CELLSTYLEMAP
  2
AcDbCellStyleMap
  3
ObjectDBX Classes
 90
     1152
 91
        4
280
     0
281
     0
  0
ENDSEC
  0
SECTION
  2
TABLES
  0
TABLE
  2
VPORT
  5
8
330
0
100
AcDbSymbolTable
 70
     1
  0
VPORT
  5
29
330
8
100
AcDbSymbolTableRecord
100
AcDbViewportTableRecord
  2
*Active
 70
     0
 10
0.0
 20
0.0
 11
1.0
 21
1.0
 12
0.0000000000000036
 22
-0.0300000000000011
 13
0.0
 23
0.0
 14
0.5
 24
0.5
 15
0.5
 25
0.5
 16
0.0
 26
0.0
 36
1.0
 17
0.0
 27
0.0
 37
0.0
 40
15.2388
 41
1.740294511378849
 42
50.0
 43
0.0
 44
0.0
 50
0.0
 51
0.0
 71
     0
 72
   100
 73
     1
 74
     3
 75
     0
 76
     0
 77
     0
 78
     0
281
     0
 65
     1
110
0.0
120
0.0
130
0.0
111
1.0
121
0.0
131
0.0
112
0.0
122
1.0
132
0.0
 79
     0
146
0.0
348
2F
 60
     3
 61
     5
292
     1
282
     1
141
0.0
142
0.0
 63
   250
361
6D
  0
ENDTAB
  0
TABLE
  2
LTYPE
  5
5
330
0
100
AcDbSymbolTable
 70
     3
  0
LTYPE
  5
14
330
5
100
AcDbSymbolTableRecord
100
AcDbLinetypeTableRecord
  2
ByBlock
 70
     0
  3

 72
    65
 73
     0
 40
0.0
  0
LTYPE
  5
15
330
5
100
AcDbSymbolTableRecord
100
AcDbLinetypeTableRecord
  2
ByLayer
 70
     0
  3

 72
    65
 73
     0
 40
0.0
  0
LTYPE
  5
16
330
5
100
AcDbSymbolTableRecord
100
AcDbLinetypeTableRecord
  2
Continuous
 70
     0
  3
Solid line
 72
    65
 73
     0
 40
0.0
  0
LTYPE
  5
9B
330
5
100
AcDbSymbolTableRecord
100
AcDbLinetypeTableRecord
  2
Dashed
 70
     0
  3

 72
    65
 73
     2
 40
2.0
 49
1.0
 74
     0
 49
-1.0
 74
     0
  0
LTYPE
  5
D9
330
5
100
AcDbSymbolTableRecord
100
AcDbLinetypeTableRecord
  2
Center
 70
     0
  3

 72
    65
 73
     4
 40
1.5
 49
0.45
 74
     0
 49
-0.5
 74
     0
 49
0.05
 74
     0
 49
-0.5
 74
     0
  0
ENDTAB
  0
TABLE
  2
LAYER
  5
2
330
0
100
AcDbSymbolTable
 70
     7
  0
LAYER
  5
10
330
2
100
AcDbSymbolTableRecord
100
AcDbLayerTableRecord
  2
0
 70
     0
 62
     7
  6
Continuous
370
    -3
390
F
347
46
348
0
  0
LAYER
  5
72
330
2
100
AcDbSymbolTableRecord
100
AcDbLayerTableRecord
  2
AM_6
 70
     0
 62
    -2
  6
Continuous
370
    35
390
F
347
46
348
0
  0
LAYER
  5
9C
330
2
100
AcDbSymbolTableRecord
100
AcDbLayerTableRecord
  2
AM_9
 70
     0
 62
     6
  6
Dashed
370
    25
390
F
347
46
348
0
  0
LAYER
  5
A3
330
2
100
AcDbSymbolTableRecord
100
AcDbLayerTableRecord
  2
AM_5
 70
     0
 62
     3
  6
Continuous
370
    25
390
F
347
46
348
0
  0
LAYER
  5
A9
330
2
100
AcDbSymbolTableRecord
100
AcDbLayerTableRecord
  2
AM_4
 70
     0
 62
     7
  6
Continuous
370
    50
390
F
347
46
348
0
  0
LAYER
  5
DA
330
2
100
AcDbSymbolTableRecord
100
AcDbLayerTableRecord
  2
AM_7
 70
     0
 62
     7
  6
Center
370
    25
390
F
347
46
348
0
  0
LAYER
  5
21F
330
2
100
AcDbSymbolTableRecord
100
AcDbLayerTableRecord
  2
ConnectionPoints
 70
     0
 62
     7
  6
Continuous
370
    50
390
F
347
46
348
0
  0
ENDTAB
  0
TABLE
  2
STYLE
  5
3
330
0
100
AcDbSymbolTable
 70
     1
  0
STYLE
  5
11
330
3
100
AcDbSymbolTableRecord
100
AcDbTextStyleTableRecord
  2
Standard
 70
     0
 40
0.0
 41
1.0
 50
0.0
 71
     0
 42
0.2
  3
txt
  4

  0
ENDTAB
  0
TABLE
  2
VIEW
  5
6
330
0
100
AcDbSymbolTable
 70
     0
  0
ENDTAB
  0
TABLE
  2
UCS
  5
7
330
0
100
AcDbSymbolTable
 70
     0
  0
ENDTAB
  0
TABLE
  2
APPID
  5
9
330
0
100
AcDbSymbolTable
 70
     1
  0
APPID
  5
12
330
9
100
AcDbSymbolTableRecord
100
AcDbRegAppTableRecord
  2
ACAD
 70
     0
  0
ENDTAB
  0
TABLE
  2
DIMSTYLE
  5
A
330
0
100
AcDbSymbolTable
 70
     1
100
AcDbDimStyleTable
  0
DIMSTYLE
105
27
330
A
100
AcDbSymbolTableRecord
100
AcDbDimStyleTableRecord
  2
Standard
 70
     0
178
     0
340
11
  0
ENDTAB
  0
TABLE
  2
BLOCK_RECORD
  5
1
330
0
100
AcDbSymbolTable
 70
     8
  0
BLOCK_RECORD
  5
1F
330
1
100
AcDbSymbolTableRecord
100
AcDbBlockTableRecord
  2
*Model_Space
340
22
 70
     0
280
     1
281
     0
  0
BLOCK_RECORD
  5
1B
330
1
100
AcDbSymbolTableRecord
100
AcDbBlockTableRecord
  2
*Paper_Space
340
1E
 70
     0
280
     1
281
     0
  0
BLOCK_RECORD
  5
23
330
1
100
AcDbSymbolTableRecord
100
AcDbBlockTableRecord
  2
*Paper_Space0
340
26
 70
     0
280
     1
281
     0
  0
BLOCK_RECORD
  5
6E
330
1
100
AcDbSymbolTableRecord
100
AcDbBlockTableRecord
  2
1_071622_0
340
0
102
{BLKREFS
331
6F
102
}
 70
     0
280
     1
281
     0
  0
BLOCK_RECORD
  5
8F
330
1
100
AcDbSymbolTableRecord
100
AcDbBlockTableRecord
  2
2_405015E_Inch_0_in_071622_0
340
0
102
{BLKREFS
331
90
102
}
 70
     0
280
     1
281
     0
  0
BLOCK_RECORD
  5
C8
330
1
100
AcDbSymbolTableRecord
100
AcDbBlockTableRecord
  2
3_ASME_B18_3_3_8_1_0_in_071622_0
340
0
102
{BLKREFS
331
C9
102
}
 70
     0
280
     1
281
     0
  0
BLOCK_RECORD
  5
E6
330
1
100
AcDbSymbolTableRecord
100
AcDbBlockTableRecord
  2
4_ASME_B18_3_3_8_2_0_in_071622_0
340
0
102
{BLKREFS
331
E7
102
}
 70
     0
280
     1
281
     0
  0
BLOCK_RECORD
  5
102
330
1
100
AcDbSymbolTableRecord
100
AcDbBlockTableRecord
  2
5_037929LWE_0_in_071622_0
340
0
102
{BLKREFS
331
103
102
}
 70
     0
280
     1
281
     0
  0
BLOCK_RECORD
  5
150
330
1
100
AcDbSymbolTableRecord
100
AcDbBlockTableRecord
  2
6_037937E_0_in_071622_0
340
0
102
{BLKREFS
331
151
102
}
 70
     0
280
     1
281
     0
  0
BLOCK_RECORD
  5
1A8
330
1
100
AcDbSymbolTableRecord
100
AcDbBlockTableRecord
  2
7_071622H_0_in_071622_0
340
0
102
{BLKREFS
331
1A9
102
}
 70
     0
280
     1
281
     0
  0
ENDTAB
  0
ENDSEC
  0
SECTION
  2
BLOCKS
  0
BLOCK
  5
20
330
1F
100
AcDbEntity
  8
0
100
AcDbBlockBegin
  2
*Model_Space
 70
     0
 10
0.0
 20
0.0
 30
0.0
  3
*Model_Space
  1

  0
ENDBLK
  5
21
330
1F
100
AcDbEntity
  8
0
100
AcDbBlockEnd
  0
BLOCK
  5
1C
330
1B
100
AcDbEntity
 67
     1
  8
0
100
AcDbBlockBegin
  2
*Paper_Space
 70
     0
 10
0.0
 20
0.0
 30
0.0
  3
*Paper_Space
  1

  0
ENDBLK
  5
1D
330
1B
100
AcDbEntity
 67
     1
  8
0
100
AcDbBlockEnd
  0
BLOCK
  5
24
330
23
100
AcDbEntity
  8
0
100
AcDbBlockBegin
  2
*Paper_Space0
 70
     0
 10
0.0
 20
0.0
 30
0.0
  3
*Paper_Space0
  1

  0
ENDBLK
  5
25
330
23
100
AcDbEntity
  8
0
100
AcDbBlockEnd
  0
BLOCK
  5
70
330
6E
100
AcDbEntity
  8
0
100
AcDbBlockBegin
  2
1_071622_0
 70
     2
 10
0.0
 20
0.0
 30
0.0
  3
1_071622_0
  1

  0
ATTDEF
  5
73
330
6E
100
AcDbEntity
  8
AM_6
100
AcDbText
 10
18.00000000000001
 20
7.44
 30
0.0
 40
0.5
  1
Imperial - IP Pillow Block with Type E Dimensions 2-1/4 thru 7 inch 4-Bolt Trident Seal Expansion
100
AcDbAttributeDefinition
  3

  2
NN
 70
     8
280
     0
  0
ATTDEF
  5
74
330
6E
100
AcDbEntity
  8
AM_6
100
AcDbText
 10
18.00000000000001
 20
6.94
 30
0.0
 40
0.5
  1
Imperial/E 4 Bolt Piliow Block Bearings
100
AcDbAttributeDefinition
  3

  2
NT
 70
     8
280
     0
  0
ATTDEF
  5
75
330
6E
100
AcDbEntity
  8
AM_6
100
AcDbText
 10
18.00000000000001
 20
6.44
 30
0.0
 40
0.5
  1
071622
100
AcDbAttributeDefinition
  3

  2
NB
 70
     8
280
     0
  0
ATTDEF
  5
76
330
6E
100
AcDbEntity
  8
AM_6
100
AcDbText
 10
18.00000000000001
 20
5.94
 30
0.0
 40
0.5
  1
$PN.
100
AcDbAttributeDefinition
  3

  2
NBSYN
 70
     8
280
     0
  0
ATTDEF
  5
77
330
6E
100
AcDbEntity
  8
AM_6
100
AcDbText
 10
18.00000000000001
 20
5.44
 30
0.0
 40
0.5
  1
071622
100
AcDbAttributeDefinition
  3

  2
LINA
 70
     8
280
     0
  0
ATTDEF
  5
78
330
6E
100
AcDbEntity
  8
AM_6
100
AcDbText
 10
18.00000000000001
 20
4.94
 30
0.0
 40
0.5
  1
6-7/16
100
AcDbAttributeDefinition
  3

  2
SS
 70
     8
280
     0
  0
ATTDEF
  5
79
330
6E
100
AcDbEntity
  8
AM_6
100
AcDbText
 10
18.00000000000001
 20
4.44
 30
0.0
 40
0.5
  1
Expansion
100
AcDbAttributeDefinition
  3

  2
TYPE
 70
     8
280
     0
  0
ATTDEF
  5
7A
330
6E
100
AcDbEntity
  8
AM_6
100
AcDbText
 10
18.00000000000001
 20
3.94
 30
0.0
 40
0.5
  1
071622
100
AcDbAttributeDefinition
  3

  2
PN
 70
     8
280
     0
  0
ATTDEF
  5
7B
330
6E
100
AcDbEntity
  8
AM_6
100
AcDbText
 10
18.00000000000001
 20
3.44
 30
0.0
 40
0.5
  1
EP4B-IP-607RE
100
AcDbAttributeDefinition
  3

  2
DESCRIPTION
 70
     8
280
     0
  0
ATTDEF
  5
7C
330
6E
100
AcDbEntity
  8
AM_6
100
AcDbText
 10
18.00000000000001
 20
2.94
 30
0.0
 40
0.5
  1
Contact Seal
100
AcDbAttributeDefinition
  3

  2
ST
 70
     8
280
     0
  0
ATTDEF
  5
7D
330
6E
100
AcDbEntity
  8
AM_6
100
AcDbText
 10
18.00000000000001
 20
2.44
 30
0.0
 40
0.5
  1
7.39
100
AcDbAttributeDefinition
  3

  2
A
 70
     8
280
     0
  0
ATTDEF
  5
7E
330
6E
100
AcDbEntity
  8
AM_6
100
AcDbText
 10
18.00000000000001
 20
1.94
 30
0.0
 40
0.5
  1
26
100
AcDbAttributeDefinition
  3

  2
B
 70
     8
280
     0
  0
ATTDEF
  5
7F
330
6E
100
AcDbEntity
  8
AM_6
100
AcDbText
 10
18.00000000000001
 20
1.44
 30
0.0
 40
0.5
  1
7.12
100
AcDbAttributeDefinition
  3

  2
C
 70
     8
280
     0
  0
ATTDEF
  5
80
330
6E
100
AcDbEntity
  8
AM_6
100
AcDbText
 10
18.00000000000001
 20
0.9399999999999995
 30
0.0
 40
0.5
  1
21.25
100
AcDbAttributeDefinition
  3

  2
DMIN
 70
     8
280
     0
  0
ATTDEF
  5
81
330
6E
100
AcDbEntity
  8
AM_6
100
AcDbText
 10
18.00000000000001
 20
0.4399999999999995
 30
0.0
 40
0.5
  1
23.25
100
AcDbAttributeDefinition
  3

  2
DMAX
 70
     8
280
     0
  0
ATTDEF
  5
82
330
6E
100
AcDbEntity
  8
AM_6
100
AcDbText
 10
18.00000000000001
 20
-0.0600000000000005
 30
0.0
 40
0.5
  1
4.62
100
AcDbAttributeDefinition
  3

  2
E
 70
     8
280
     0
  0
ATTDEF
  5
83
330
6E
100
AcDbEntity
  8
AM_6
100
AcDbText
 10
18.00000000000001
 20
-0.5600000000000005
 30
0.0
 40
0.5
  1
1
100
AcDbAttributeDefinition
  3

  2
F
 70
     8
280
     0
  0
ATTDEF
  5
84
330
6E
100
AcDbEntity
  8
AM_6
100
AcDbText
 10
18.00000000000001
 20
-1.06
 30
0.0
 40
0.5
  1
2
100
AcDbAttributeDefinition
  3

  2
G
 70
     8
280
     0
  0
ATTDEF
  5
85
330
6E
100
AcDbEntity
  8
AM_6
100
AcDbText
 10
18.00000000000001
 20
-1.56
 30
0.0
 40
0.5
  1
3.69
100
AcDbAttributeDefinition
  3

  2
H
 70
     8
280
     0
  0
ATTDEF
  5
86
330
6E
100
AcDbEntity
  8
AM_6
100
AcDbText
 10
18.00000000000001
 20
-2.06
 30
0.0
 40
0.5
  1
14.94
100
AcDbAttributeDefinition
  3

  2
J
 70
     8
280
     0
  0
ATTDEF
  5
87
330
6E
100
AcDbEntity
  8
AM_6
100
AcDbText
 10
18.00000000000001
 20
-2.56
 30
0.0
 40
0.5
  1
11.41
100
AcDbAttributeDefinition
  3

  2
L
 70
     8
280
     0
  0
ATTDEF
  5
88
330
6E
100
AcDbEntity
  8
AM_6
100
AcDbText
 10
18.00000000000001
 20
-3.06
 30
0.0
 40
0.5
  1
7.5
100
AcDbAttributeDefinition
  3

  2
M
 70
     8
280
     0
  0
ATTDEF
  5
89
330
6E
100
AcDbEntity
  8
AM_6
100
AcDbText
 10
18.00000000000001
 20
-3.56
 30
0.0
 40
0.5
  1
2.46
100
AcDbAttributeDefinition
  3

  2
R
 70
     8
280
     0
  0
ATTDEF
  5
8A
330
6E
100
AcDbEntity
  8
AM_6
100
AcDbText
 10
18.00000000000001
 20
-4.06
 30
0.0
 40
0.5
  1
4.94
100
AcDbAttributeDefinition
  3

  2
S
 70
     8
280
     0
  0
ATTDEF
  5
8B
330
6E
100
AcDbEntity
  8
AM_6
100
AcDbText
 10
18.00000000000001
 20
-4.56
 30
0.0
 40
0.5
  1
0.38
100
AcDbAttributeDefinition
  3

  2
X
 70
     8
280
     0
  0
ATTDEF
  5
8C
330
6E
100
AcDbEntity
  8
AM_6
100
AcDbText
 10
18.00000000000001
 20
-5.06
 30
0.0
 40
0.5
  1
0.036
100
AcDbAttributeDefinition
  3

  2
Y
 70
     8
280
     0
  0
ATTDEF
  5
8D
330
6E
100
AcDbEntity
  8
AM_6
100
AcDbText
 10
18.00000000000001
 20
-5.56
 30
0.0
 40
0.5
  1
7.89
100
AcDbAttributeDefinition
  3

  2
Z
 70
     8
280
     0
  0
ATTDEF
  5
8E
330
6E
100
AcDbEntity
  8
AM_6
100
AcDbText
 10
18.00000000000001
 20
-6.06
 30
0.0
 40
0.5
  1
baldor
100
AcDbAttributeDefinition
  3

  2
COMPANY
 70
     8
280
     0
  0
INSERT
  5
90
330
6E
100
AcDbEntity
  8
0
100
AcDbBlockReference
  2
2_405015E_Inch_0_in_071622_0
 10
0.0
 20
0.0
 30
0.0
  0
INSERT
  5
C9
330
6E
100
AcDbEntity
  8
0
100
AcDbBlockReference
  2
3_ASME_B18_3_3_8_1_0_in_071622_0
 10
0.0
 20
0.0
 30
0.0
  0
INSERT
  5
E7
330
6E
100
AcDbEntity
  8
0
100
AcDbBlockReference
  2
4_ASME_B18_3_3_8_2_0_in_071622_0
 10
0.0
 20
0.0
 30
0.0
  0
INSERT
  5
103
330
6E
100
AcDbEntity
  8
0
100
AcDbBlockReference
  2
5_037929LWE_0_in_071622_0
 10
0.0
 20
0.0
 30
0.0
  0
INSERT
  5
151
330
6E
100
AcDbEntity
  8
0
100
AcDbBlockReference
  2
6_037937E_0_in_071622_0
 10
0.0
 20
0.0
 30
0.0
  0
INSERT
  5
1A9
330
6E
100
AcDbEntity
  8
0
100
AcDbBlockReference
  2
7_071622H_0_in_071622_0
 10
0.0
 20
0.0
 30
0.0
  0
ENDBLK
  5
71
330
6E
100
AcDbEntity
  8
0
100
AcDbBlockEnd
  0
BLOCK
  5
91
330
8F
100
AcDbEntity
  8
0
100
AcDbBlockBegin
  2
2_405015E_Inch_0_in_071622_0
 70
     2
 10
0.0
 20
0.0
 30
0.0
  3
2_405015E_Inch_0_in_071622_0
  1

  0
ATTDEF
  5
93
330
8F
100
AcDbEntity
  8
AM_6
100
AcDbText
 10
1.516150533277437
 20
6.905930021920426
 30
0.0
 40
0.5
  1
405015E -Inch
100
AcDbAttributeDefinition
  3

  2
NN
 70
     8
280
     0
  0
ATTDEF
  5
94
330
8F
100
AcDbEntity
  8
AM_6
100
AcDbText
 10
1.516150533277437
 20
6.405930021920426
 30
0.0
 40
0.5
  1
Grease Fitting
100
AcDbAttributeDefinition
  3

  2
NT
 70
     8
280
     0
  0
ATTDEF
  5
95
330
8F
100
AcDbEntity
  8
AM_6
100
AcDbText
 10
1.516150533277437
 20
5.905930021920426
 30
0.0
 40
0.5
  1
405015E-Inch
100
AcDbAttributeDefinition
  3

  2
NB
 70
     8
280
     0
  0
ATTDEF
  5
96
330
8F
100
AcDbEntity
  8
AM_6
100
AcDbText
 10
1.516150533277437
 20
5.405930021920426
 30
0.0
 40
0.5
  1
$MN.-Inch
100
AcDbAttributeDefinition
  3

  2
NBSYN
 70
     8
280
     0
  0
ATTDEF
  5
97
330
8F
100
AcDbEntity
  8
AM_6
100
AcDbText
 10
1.516150533277437
 20
4.905930021920426
 30
0.0
 40
0.5
  1
405015E
100
AcDbAttributeDefinition
  3

  2
LINA
 70
     8
280
     0
  0
ATTDEF
  5
98
330
8F
100
AcDbEntity
  8
AM_6
100
AcDbText
 10
1.516150533277437
 20
4.405930021920426
 30
0.0
 40
0.5
  1
405015E
100
AcDbAttributeDefinition
  3

  2
MN
 70
     8
280
     0
  0
ATTDEF
  5
99
330
8F
100
AcDbEntity
  8
AM_6
100
AcDbText
 10
1.516150533277437
 20
3.905930021920426
 30
0.0
 40
0.5
  1
1/8 x 27PTF
100
AcDbAttributeDefinition
  3

  2
T
 70
     8
280
     0
  0
ATTDEF
  5
9A
330
8F
100
AcDbEntity
  8
AM_6
100
AcDbText
 10
1.516150533277437
 20
3.405930021920426
 30
0.0
 40
0.5
  1
baldor
100
AcDbAttributeDefinition
  3

  2
COMPANY
 70
     8
280
     0
  0
LINE
  5
9D
330
8F
100
AcDbEntity
  8
AM_9
100
AcDbLine
 10
-3.497287999493341
 20
6.381286248767926
 30
0.0
 11
-3.483849466722563
 21
6.43143953584765
 31
0.0
  0
LINE
  5
9E
330
8F
100
AcDbEntity
  8
AM_9
100
AcDbLine
 10
-3.827865287586381
 20
6.232821909066435
 30
0.0
 11
-3.777712000506656
 21
6.219383376295657
 31
0.0
  0
LINE
  5
9F
330
8F
100
AcDbEntity
  8
AM_9
100
AcDbLine
 10
-3.777712000506656
 20
6.219383376295657
 30
0.0
 11
-3.497287999493341
 21
6.381286248767926
 31
0.0
  0
LINE
  5
A0
330
8F
100
AcDbEntity
  8
AM_9
100
AcDbLine
 10
-3.483849466722563
 20
6.43143953584765
 30
0.0
 11
-3.591813630127976
 21
6.632707493146201
 31
0.0
  0
LINE
  5
A1
330
8F
100
AcDbEntity
  8
AM_9
100
AcDbLine
 10
-3.948186369872022
 20
6.426955595923133
 30
0.0
 11
-3.827865287586381
 21
6.232821909066435
 31
0.0
  0
LINE
  5
A2
330
8F
100
AcDbEntity
  8
AM_9
100
AcDbLine
 10
-3.827865287586381
 20
6.232821909066435
 30
0.0
 11
-3.483849466722563
 21
6.43143953584765
 31
0.0
  0
LINE
  5
A4
330
8F
100
AcDbEntity
  8
AM_5
100
AcDbLine
 10
-3.591813630127976
 20
6.557501948404758
 30
0.0
 11
-3.497287999493341
 21
6.381286248767926
 31
0.0
  0
LINE
  5
A5
330
8F
100
AcDbEntity
  8
AM_5
100
AcDbLine
 10
-3.591813630127977
 20
6.632707493146201
 30
0.0
 11
-3.591813630127976
 21
6.557501948404758
 31
0.0
  0
LINE
  5
A6
330
8F
100
AcDbEntity
  8
AM_5
100
AcDbLine
 10
-3.913858695704769
 20
6.371569143102805
 30
0.0
 11
-3.561011392043691
 21
6.575285628854363
 31
0.0
  0
LINE
  5
A7
330
8F
100
AcDbEntity
  8
AM_5
100
AcDbLine
 10
-3.883056457620485
 20
6.389352823552411
 30
0.0
 11
-3.777712000506656
 21
6.219383376295657
 31
0.0
  0
LINE
  5
A8
330
8F
100
AcDbEntity
  8
AM_5
100
AcDbLine
 10
-3.948186369872022
 20
6.426955595923133
 30
0.0
 11
-3.883056457620485
 21
6.389352823552411
 31
0.0
  0
LINE
  5
AA
330
8F
100
AcDbEntity
  8
AM_4
100
AcDbLine
 10
-3.781567332602633
 20
6.759866752310477
 30
0.0
 11
-3.796567332602633
 21
6.78584751442401
 31
0.0
  0
LINE
  5
AB
330
8F
100
AcDbEntity
  8
AM_4
100
AcDbLine
 10
-3.978432667397365
 20
6.68084751442401
 30
0.0
 11
-3.963432667397365
 21
6.654866752310476
 31
0.0
  0
LINE
  5
AC
330
8F
100
AcDbEntity
  8
AM_4
100
AcDbLine
 10
-3.963432667397365
 20
6.654866752310476
 30
0.0
 11
-3.959277777865678
 21
6.620030091071965
 31
0.0
  0
LINE
  5
AD
330
8F
100
AcDbEntity
  8
AM_4
100
AcDbLine
 10
-3.753475343752892
 20
6.738850181806862
 30
0.0
 11
-3.781567332602633
 21
6.759866752310477
 31
0.0
  0
LINE
  5
AE
330
8F
100
AcDbEntity
  8
AM_4
100
AcDbLine
 10
-3.963432667397365
 20
6.654866752310476
 30
0.0
 11
-3.781567332602633
 21
6.759866752310477
 31
0.0
  0
LINE
  5
AF
330
8F
100
AcDbEntity
  8
AM_4
100
AcDbLine
 10
-4.046421671481427
 20
6.803252119987237
 30
0.0
 11
-4.034413429510898
 21
6.717809038651077
 31
0.0
  0
LINE
  5
B0
330
8F
100
AcDbEntity
  8
AM_4
100
AcDbLine
 10
-3.8005865704891
 20
6.852809038651076
 30
0.0
 11
-3.868578328518571
 21
6.905930021920426
 31
0.0
  0
LINE
  5
B1
330
8F
100
AcDbEntity
  8
AM_4
100
AcDbLine
 10
-4.046421671481427
 20
6.803252119987237
 30
0.0
 11
-3.868578328518571
 21
6.905930021920426
 31
0.0
  0
LINE
  5
B2
330
8F
100
AcDbEntity
  8
AM_4
100
AcDbLine
 10
-3.796567332602633
 20
6.78584751442401
 30
0.0
 11
-3.8005865704891
 21
6.852809038651076
 31
0.0
  0
LINE
  5
B3
330
8F
100
AcDbEntity
  8
AM_4
100
AcDbLine
 10
-4.034413429510898
 20
6.717809038651077
 30
0.0
 11
-3.978432667397365
 21
6.68084751442401
 31
0.0
  0
LINE
  5
B4
330
8F
100
AcDbEntity
  8
AM_4
100
AcDbLine
 10
-4.034413429510898
 20
6.717809038651077
 30
0.0
 11
-3.8005865704891
 21
6.852809038651076
 31
0.0
  0
LINE
  5
B5
330
8F
100
AcDbEntity
  8
AM_4
100
AcDbLine
 10
-3.978432667397365
 20
6.68084751442401
 30
0.0
 11
-3.796567332602633
 21
6.78584751442401
 31
0.0
  0
LINE
  5
B6
330
8F
100
AcDbEntity
  8
AM_4
100
AcDbLine
 10
-3.959277777865678
 20
6.620030091071965
 30
0.0
 11
-3.97857797243143
 21
6.546031083559575
 31
0.0
  0
LINE
  5
B7
330
8F
100
AcDbEntity
  8
AM_4
100
AcDbLine
 10
-3.679740226109451
 20
6.71856513684259
 30
0.0
 11
-3.753475343752892
 21
6.738850181806862
 31
0.0
  0
LINE
  5
B8
330
8F
100
AcDbEntity
  8
AM_4
100
AcDbLine
 10
-3.959277777865678
 20
6.620030091071965
 30
0.0
 11
-3.753475343752892
 21
6.738850181806862
 31
0.0
  0
LINE
  5
B9
330
8F
100
AcDbEntity
  8
AM_4
100
AcDbLine
 10
-4.009443057077845
 20
6.507059084913111
 30
0.0
 11
-3.963976856926152
 21
6.428309316223283
 31
0.0
  0
LINE
  5
BA
330
8F
100
AcDbEntity
  8
AM_4
100
AcDbLine
 10
-4.009443057077845
 20
6.507059084913111
 30
0.0
 11
-3.630556942922153
 21
6.725809084913111
 31
0.0
  0
LINE
  5
BB
330
8F
100
AcDbEntity
  8
AM_4
100
AcDbLine
 10
-3.58509074277046
 20
6.647059316223283
 30
0.0
 11
-3.630556942922153
 21
6.725809084913111
 31
0.0
  0
LINE
  5
BC
330
8F
100
AcDbEntity
  8
AM_4
100
AcDbLine
 10
-3.97857797243143
 20
6.546031083559575
 30
0.0
 11
-4.005112930058923
 21
6.509559084913111
 31
0.0
  0
LINE
  5
BD
330
8F
100
AcDbEntity
  8
AM_4
100
AcDbLine
 10
-3.634887069941075
 20
6.723309084913111
 30
0.0
 11
-3.679740226109451
 21
6.71856513684259
 31
0.0
  0
LINE
  5
BE
330
8F
100
AcDbEntity
  8
AM_4
100
AcDbLine
 10
-3.97857797243143
 20
6.546031083559575
 30
0.0
 11
-3.679740226109451
 21
6.71856513684259
 31
0.0
  0
LWPOLYLINE
  5
BF
330
8F
100
AcDbEntity
  8
AM_4
100
AcDbPolyline
 90
        4
 70
     0
 43
0.0
 10
-3.725278471461076
 20
6.671121584913111
 10
-3.701294382324345
 20
6.684267423955033
 10
-3.676721016799097
 20
6.696392606352341
 10
-3.626023143073846
 20
6.717956313224494
  0
LWPOLYLINE
  5
C0
330
8F
100
AcDbEntity
  8
AM_4
100
AcDbPolyline
 90
        4
 70
     0
 43
0.0
 10
-3.815466200151692
 20
6.608581313224495
 10
-3.771644920004843
 20
6.641563850105744
 10
-3.748791218340423
 20
6.656836859315177
 10
-3.725278471461076
 20
6.671121584913111
  0
LWPOLYLINE
  5
C1
330
8F
100
AcDbEntity
  8
AM_4
100
AcDbPolyline
 90
        4
 70
     0
 43
0.0
 10
-3.58509074277046
 20
6.647059316223283
 10
-3.628912022917308
 20
6.614076779342034
 10
-3.651765724581729
 20
6.598803770132601
 10
-3.675278471461076
 20
6.584519044534667
  0
LWPOLYLINE
  5
C2
330
8F
100
AcDbEntity
  8
AM_4
100
AcDbPolyline
 90
        4
 70
     0
 43
0.0
 10
-3.675278471461076
 20
6.584519044534667
 10
-3.699262560597806
 20
6.571373205492745
 10
-3.723835926123054
 20
6.559248023095436
 10
-3.774533799848306
 20
6.537684316223284
  0
LINE
  5
C3
330
8F
100
AcDbEntity
  8
AM_4
100
AcDbLine
 10
-3.815466200151692
 20
6.608581313224495
 30
0.0
 11
-3.774533799848306
 21
6.537684316223284
 31
0.0
  0
LWPOLYLINE
  5
C4
330
8F
100
AcDbEntity
  8
AM_4
100
AcDbPolyline
 90
        4
 70
     0
 43
0.0
 10
-3.914721528538922
 20
6.561746584913111
 10
-3.890737439402192
 20
6.574892423955034
 10
-3.866164073876943
 20
6.587017606352341
 10
-3.815466200151692
 20
6.608581313224495
  0
LWPOLYLINE
  5
C5
330
8F
100
AcDbEntity
  8
AM_4
100
AcDbPolyline
 90
        4
 70
     0
 43
0.0
 10
-4.004909257229538
 20
6.499206313224494
 10
-3.961087977082689
 20
6.532188850105743
 10
-3.938234275418269
 20
6.547461859315177
 10
-3.914721528538922
 20
6.561746584913111
  0
LWPOLYLINE
  5
C6
330
8F
100
AcDbEntity
  8
AM_4
100
AcDbPolyline
 90
        4
 70
     0
 43
0.0
 10
-3.864721528538922
 20
6.475144044534667
 10
-3.888705617675652
 20
6.461998205492744
 10
-3.913278983200901
 20
6.449873023095436
 10
-3.963976856926152
 20
6.428309316223283
  0
LWPOLYLINE
  5
C7
330
8F
100
AcDbEntity
  8
AM_4
100
AcDbPolyline
 90
        4
 70
     0
 43
0.0
 10
-3.774533799848306
 20
6.537684316223284
 10
-3.818355079995154
 20
6.504701779342035
 10
-3.841208781659575
 20
6.489428770132601
 10
-3.864721528538922
 20
6.475144044534667
  0
ENDBLK
  5
92
330
8F
100
AcDbEntity
  8
0
100
AcDbBlockEnd
  0
BLOCK
  5
CA
330
C8
100
AcDbEntity
  8
0
100
AcDbBlockBegin
  2
3_ASME_B18_3_3_8_1_0_in_071622_0
 70
     2
 10
0.0
 20
0.0
 30
0.0
  3
3_ASME_B18_3_3_8_1_0_in_071622_0
  1

  0
ATTDEF
  5
CC
330
C8
100
AcDbEntity
  8
AM_6
100
AcDbText
 10
5.3444
 20
-4.311756944444444
 30
0.0
 40
0.5
  1
ANSI/ASME B18.3-1998
100
AcDbAttributeDefinition
  3

  2
NN
 70
     8
280
     0
  0
ATTDEF
  5
CD
330
C8
100
AcDbEntity
  8
AM_6
100
AcDbText
 10
5.3444
 20
-4.811756944444444
 30
0.0
 40
0.5
  1
Socket Button Head Cap Screws
100
AcDbAttributeDefinition
  3

  2
NT
 70
     8
280
     0
  0
ATTDEF
  5
CE
330
C8
100
AcDbEntity
  8
AM_6
100
AcDbText
 10
5.3444
 20
-5.311756944444444
 30
0.0
 40
0.5
  1
ASME B18.3-3/8
100
AcDbAttributeDefinition
  3

  2
NB
 70
     8
280
     0
  0
ATTDEF
  5
CF
330
C8
100
AcDbEntity
  8
AM_6
100
AcDbText
 10
5.3444
 20
-5.811756944444444
 30
0.0
 40
0.5
  1
ASME B18.3-$NS.
100
AcDbAttributeDefinition
  3

  2
NBSYN
 70
     8
280
     0
  0
ATTDEF
  5
D0
330
C8
100
AcDbEntity
  8
AM_6
100
AcDbText
 10
5.3444
 20
-6.311756944444444
 30
0.0
 40
0.5
  1
ASME B18.3-3/8
100
AcDbAttributeDefinition
  3

  2
LINA
 70
     8
280
     0
  0
ATTDEF
  5
D1
330
C8
100
AcDbEntity
  8
AM_6
100
AcDbText
 10
5.3444
 20
-6.811756944444444
 30
0.0
 40
0.5
  1
3/8
100
AcDbAttributeDefinition
  3

  2
NS
 70
     8
280
     0
  0
ATTDEF
  5
D2
330
C8
100
AcDbEntity
  8
AM_6
100
AcDbText
 10
5.3444
 20
-7.311756944444444
 30
0.0
 40
0.5
  1
0.656
100
AcDbAttributeDefinition
  3

  2
A
 70
     8
280
     0
  0
ATTDEF
  5
D3
330
C8
100
AcDbEntity
  8
AM_6
100
AcDbText
 10
5.3444
 20
-7.811756944444444
 30
0.0
 40
0.5
  1
0.199
100
AcDbAttributeDefinition
  3

  2
H
 70
     8
280
     0
  0
ATTDEF
  5
D4
330
C8
100
AcDbEntity
  8
AM_6
100
AcDbText
 10
5.3444
 20
-8.311756944444443
 30
0.0
 40
0.5
  1
1.250
100
AcDbAttributeDefinition
  3

  2
L
 70
     8
280
     0
  0
ATTDEF
  5
D5
330
C8
100
AcDbEntity
  8
AM_6
100
AcDbText
 10
5.3444
 20
-8.811756944444443
 30
0.0
 40
0.5
  1
0.031
100
AcDbAttributeDefinition
  3

  2
S
 70
     8
280
     0
  0
ATTDEF
  5
D6
330
C8
100
AcDbEntity
  8
AM_6
100
AcDbText
 10
5.3444
 20
-9.311756944444443
 30
0.0
 40
0.5
  1
0.218750
100
AcDbAttributeDefinition
  3

  2
J
 70
     8
280
     0
  0
ATTDEF
  5
D7
330
C8
100
AcDbEntity
  8
AM_6
100
AcDbText
 10
5.3444
 20
-9.811756944444443
 30
0.0
 40
0.5
  1
baldor
100
AcDbAttributeDefinition
  3

  2
COMPANY
 70
     8
280
     0
  0
ARC
  5
D8
330
C8
100
AcDbEntity
  8
AM_5
100
AcDbCircle
 10
0.0000000000000006
 20
-4.639756944444445
 30
0.0
 40
0.15025
100
AcDbArc
 50
75.00000000000013
 51
14.9999999999999
  0
LINE
  5
DB
330
C8
100
AcDbEntity
  8
AM_7
100
AcDbLine
 10
-0.3444000000000003
 20
-4.639756944444445
 30
0.0
 11
0.3444000000000003
 21
-4.639756944444445
 31
0.0
  0
LINE
  5
DC
330
C8
100
AcDbEntity
  8
AM_4
100
AcDbLine
 10
0.0
 20
-4.766052315829675
 30
0.0
 11
-0.109375
 21
-4.70290463013706
 31
0.0
  0
LINE
  5
DD
330
C8
100
AcDbEntity
  8
AM_4
100
AcDbLine
 10
0.0
 20
-4.513461573059214
 30
0.0
 11
0.109375
 21
-4.576609258751829
 31
0.0
  0
CIRCLE
  5
DE
330
C8
100
AcDbEntity
  8
AM_4
100
AcDbCircle
 10
0.0
 20
-4.639756944444445
 30
0.0
 40
0.16
  0
LINE
  5
DF
330
C8
100
AcDbEntity
  8
AM_4
100
AcDbLine
 10
-0.109375
 20
-4.70290463013706
 30
0.0
 11
-0.109375
 21
-4.576609258751829
 31
0.0
  0
LINE
  5
E0
330
C8
100
AcDbEntity
  8
AM_4
100
AcDbLine
 10
-0.109375
 20
-4.576609258751829
 30
0.0
 11
0.0
 21
-4.513461573059214
 31
0.0
  0
LINE
  5
E1
330
C8
100
AcDbEntity
  8
AM_4
100
AcDbLine
 10
0.109375
 20
-4.576609258751829
 30
0.0
 11
0.109375
 21
-4.70290463013706
 31
0.0
  0
LINE
  5
E2
330
C8
100
AcDbEntity
  8
AM_4
100
AcDbLine
 10
0.109375
 20
-4.70290463013706
 30
0.0
 11
0.0
 21
-4.766052315829675
 31
0.0
  0
ARC
  5
E3
330
C8
100
AcDbEntity
  8
AM_5
100
AcDbCircle
 10
0.0000000000000003
 20
-4.639756944444445
 30
0.0
 40
0.1502499999999996
100
AcDbArc
 50
345.0000000000001
 51
284.9999999999999
  0
CIRCLE
  5
E4
330
C8
100
AcDbEntity
  8
AM_4
100
AcDbCircle
 10
0.0
 20
-4.639756944444445
 30
0.0
 40
0.3280000000000003
  0
CIRCLE
  5
E5
330
C8
100
AcDbEntity
  8
AM_5
100
AcDbCircle
 10
0.0000000000000005
 20
-4.639756944444446
 30
0.0
 40
0.1688999999999996
  0
ENDBLK
  5
CB
330
C8
100
AcDbEntity
  8
0
100
AcDbBlockEnd
  0
BLOCK
  5
E8
330
E6
100
AcDbEntity
  8
0
100
AcDbBlockBegin
  2
4_ASME_B18_3_3_8_2_0_in_071622_0
 70
     2
 10
0.0
 20
0.0
 30
0.0
  3
4_ASME_B18_3_3_8_2_0_in_071622_0
  1

  0
ATTDEF
  5
EA
330
E6
100
AcDbEntity
  8
AM_6
100
AcDbText
 10
5.3444
 20
4.967756944444445
 30
0.0
 40
0.5
  1
ANSI/ASME B18.3-1998
100
AcDbAttributeDefinition
  3

  2
NN
 70
     8
280
     0
  0
ATTDEF
  5
EB
330
E6
100
AcDbEntity
  8
AM_6
100
AcDbText
 10
5.3444
 20
4.467756944444445
 30
0.0
 40
0.5
  1
Socket Button Head Cap Screws
100
AcDbAttributeDefinition
  3

  2
NT
 70
     8
280
     0
  0
ATTDEF
  5
EC
330
E6
100
AcDbEntity
  8
AM_6
100
AcDbText
 10
5.3444
 20
3.967756944444445
 30
0.0
 40
0.5
  1
ASME B18.3-3/8
100
AcDbAttributeDefinition
  3

  2
NB
 70
     8
280
     0
  0
ATTDEF
  5
ED
330
E6
100
AcDbEntity
  8
AM_6
100
AcDbText
 10
5.3444
 20
3.467756944444445
 30
0.0
 40
0.5
  1
ASME B18.3-$NS.
100
AcDbAttributeDefinition
  3

  2
NBSYN
 70
     8
280
     0
  0
ATTDEF
  5
EE
330
E6
100
AcDbEntity
  8
AM_6
100
AcDbText
 10
5.3444
 20
2.967756944444445
 30
0.0
 40
0.5
  1
ASME B18.3-3/8
100
AcDbAttributeDefinition
  3

  2
LINA
 70
     8
280
     0
  0
ATTDEF
  5
EF
330
E6
100
AcDbEntity
  8
AM_6
100
AcDbText
 10
5.3444
 20
2.467756944444445
 30
0.0
 40
0.5
  1
3/8
100
AcDbAttributeDefinition
  3

  2
NS
 70
     8
280
     0
  0
ATTDEF
  5
F0
330
E6
100
AcDbEntity
  8
AM_6
100
AcDbText
 10
5.3444
 20
1.967756944444445
 30
0.0
 40
0.5
  1
0.656
100
AcDbAttributeDefinition
  3

  2
A
 70
     8
280
     0
  0
ATTDEF
  5
F1
330
E6
100
AcDbEntity
  8
AM_6
100
AcDbText
 10
5.3444
 20
1.467756944444445
 30
0.0
 40
0.5
  1
0.199
100
AcDbAttributeDefinition
  3

  2
H
 70
     8
280
     0
  0
ATTDEF
  5
F2
330
E6
100
AcDbEntity
  8
AM_6
100
AcDbText
 10
5.3444
 20
0.9677569444444449
 30
0.0
 40
0.5
  1
1.250
100
AcDbAttributeDefinition
  3

  2
L
 70
     8
280
     0
  0
ATTDEF
  5
F3
330
E6
100
AcDbEntity
  8
AM_6
100
AcDbText
 10
5.3444
 20
0.4677569444444449
 30
0.0
 40
0.5
  1
0.031
100
AcDbAttributeDefinition
  3

  2
S
 70
     8
280
     0
  0
ATTDEF
  5
F4
330
E6
100
AcDbEntity
  8
AM_6
100
AcDbText
 10
5.3444
 20
-0.0322430555555551
 30
0.0
 40
0.5
  1
0.218750
100
AcDbAttributeDefinition
  3

  2
J
 70
     8
280
     0
  0
ATTDEF
  5
F5
330
E6
100
AcDbEntity
  8
AM_6
100
AcDbText
 10
5.3444
 20
-0.5322430555555551
 30
0.0
 40
0.5
  1
baldor
100
AcDbAttributeDefinition
  3

  2
COMPANY
 70
     8
280
     0
  0
ARC
  5
F6
330
E6
100
AcDbEntity
  8
AM_5
100
AcDbCircle
 10
0.0000000000000006
 20
4.639756944444445
 30
0.0
 40
0.1502499999999999
100
AcDbArc
 50
75.00000000000016
 51
14.99999999999994
  0
LINE
  5
F7
330
E6
100
AcDbEntity
  8
AM_7
100
AcDbLine
 10
-0.3444000000000003
 20
4.639756944444445
 30
0.0
 11
0.3444000000000003
 21
4.639756944444445
 31
0.0
  0
LINE
  5
F8
330
E6
100
AcDbEntity
  8
AM_4
100
AcDbLine
 10
0.0
 20
4.513461573059214
 30
0.0
 11
-0.109375
 21
4.576609258751829
 31
0.0
  0
CIRCLE
  5
F9
330
E6
100
AcDbEntity
  8
AM_4
100
AcDbCircle
 10
0.0
 20
4.639756944444445
 30
0.0
 40
0.16
  0
LINE
  5
FA
330
E6
100
AcDbEntity
  8
AM_4
100
AcDbLine
 10
-0.109375
 20
4.576609258751829
 30
0.0
 11
-0.109375
 21
4.70290463013706
 31
0.0
  0
LINE
  5
FB
330
E6
100
AcDbEntity
  8
AM_4
100
AcDbLine
 10
-0.109375
 20
4.70290463013706
 30
0.0
 11
0.0
 21
4.766052315829675
 31
0.0
  0
LINE
  5
FC
330
E6
100
AcDbEntity
  8
AM_4
100
AcDbLine
 10
0.0
 20
4.766052315829675
 30
0.0
 11
0.109375
 21
4.70290463013706
 31
0.0
  0
LINE
  5
FD
330
E6
100
AcDbEntity
  8
AM_4
100
AcDbLine
 10
0.109375
 20
4.70290463013706
 30
0.0
 11
0.109375
 21
4.576609258751829
 31
0.0
  0
LINE
  5
FE
330
E6
100
AcDbEntity
  8
AM_4
100
AcDbLine
 10
0.109375
 20
4.576609258751829
 30
0.0
 11
0.0
 21
4.513461573059214
 31
0.0
  0
ARC
  5
FF
330
E6
100
AcDbEntity
  8
AM_5
100
AcDbCircle
 10
0.0000000000000003
 20
4.639756944444445
 30
0.0
 40
0.1502499999999996
100
AcDbArc
 50
345.0000000000001
 51
284.9999999999999
  0
CIRCLE
  5
100
330
E6
100
AcDbEntity
  8
AM_4
100
AcDbCircle
 10
0.0
 20
4.639756944444445
 30
0.0
 40
0.3280000000000003
  0
CIRCLE
  5
101
330
E6
100
AcDbEntity
  8
AM_5
100
AcDbCircle
 10
0.0000000000000005
 20
4.639756944444444
 30
0.0
 40
0.1688999999999996
  0
ENDBLK
  5
E9
330
E6
100
AcDbEntity
  8
0
100
AcDbBlockEnd
  0
BLOCK
  5
104
330
102
100
AcDbEntity
  8
0
100
AcDbBlockBegin
  2
5_037929LWE_0_in_071622_0
 70
     2
 10
0.0
 20
0.0
 30
0.0
  3
5_037929LWE_0_in_071622_0
  1

  0
ATTDEF
  5
106
330
102
100
AcDbEntity
  8
AM_6
100
AcDbText
 10
10.703125
 20
5.703125
 30
0.0
 40
0.5
  1
Imperial/E Insert Lockwasher -Inch
100
AcDbAttributeDefinition
  3

  2
NN
 70
     8
280
     0
  0
ATTDEF
  5
107
330
102
100
AcDbEntity
  8
AM_6
100
AcDbText
 10
10.703125
 20
5.203125
 30
0.0
 40
0.5
  1
Imperial/E Bearings
100
AcDbAttributeDefinition
  3

  2
NT
 70
     8
280
     0
  0
ATTDEF
  5
108
330
102
100
AcDbEntity
  8
AM_6
100
AcDbText
 10
10.703125
 20
4.703125
 30
0.0
 40
0.5
  1
037929LWE
100
AcDbAttributeDefinition
  3

  2
NB
 70
     8
280
     0
  0
ATTDEF
  5
109
330
102
100
AcDbEntity
  8
AM_6
100
AcDbText
 10
10.703125
 20
4.203125
 30
0.0
 40
0.5
  1
$PN.LWE
100
AcDbAttributeDefinition
  3

  2
NBSYN
 70
     8
280
     0
  0
ATTDEF
  5
10A
330
102
100
AcDbEntity
  8
AM_6
100
AcDbText
 10
10.703125
 20
3.703125
 30
0.0
 40
0.5
  1
037929
100
AcDbAttributeDefinition
  3

  2
LINA
 70
     8
280
     0
  0
ATTDEF
  5
10B
330
102
100
AcDbEntity
  8
AM_6
100
AcDbText
 10
10.703125
 20
3.203125
 30
0.0
 40
0.5
  1
6-7/16
100
AcDbAttributeDefinition
  3

  2
SS
 70
     8
280
     0
  0
ATTDEF
  5
10C
330
102
100
AcDbEntity
  8
AM_6
100
AcDbText
 10
10.703125
 20
2.703125
 30
0.0
 40
0.5
  1
11.406250
100
AcDbAttributeDefinition
  3

  2
E1
 70
     8
280
     0
  0
ATTDEF
  5
10D
330
102
100
AcDbEntity
  8
AM_6
100
AcDbText
 10
10.703125
 20
2.203125
 30
0.0
 40
0.5
  1
6.437500
100
AcDbAttributeDefinition
  3

  2
SS1
 70
     8
280
     0
  0
ATTDEF
  5
10E
330
102
100
AcDbEntity
  8
AM_6
100
AcDbText
 10
10.703125
 20
1.703125
 30
0.0
 40
0.5
  1
037929
100
AcDbAttributeDefinition
  3

  2
PN
 70
     8
280
     0
  0
ATTDEF
  5
10F
330
102
100
AcDbEntity
  8
AM_6
100
AcDbText
 10
10.703125
 20
1.203125
 30
0.0
 40
0.5
  1
INS-IP-607R
100
AcDbAttributeDefinition
  3

  2
DESCRIPTION
 70
     8
280
     0
  0
ATTDEF
  5
110
330
102
100
AcDbEntity
  8
AM_6
100
AcDbText
 10
10.703125
 20
0.703125
 30
0.0
 40
0.5
  1
12.5984
100
AcDbAttributeDefinition
  3

  2
A
 70
     8
280
     0
  0
ATTDEF
  5
111
330
102
100
AcDbEntity
  8
AM_6
100
AcDbText
 10
10.703125
 20
0.203125
 30
0.0
 40
0.5
  1
3-15/32
100
AcDbAttributeDefinition
  3

  2
B
 70
     8
280
     0
  0
ATTDEF
  5
112
330
102
100
AcDbEntity
  8
AM_6
100
AcDbText
 10
10.703125
 20
-0.296875
 30
0.0
 40
0.5
  1
3.468750
100
AcDbAttributeDefinition
  3

  2
B1
 70
     8
280
     0
  0
ATTDEF
  5
113
330
102
100
AcDbEntity
  8
AM_6
100
AcDbText
 10
10.703125
 20
-0.796875
 30
0.0
 40
0.5
  1
7-25/64
100
AcDbAttributeDefinition
  3

  2
C
 70
     8
280
     0
  0
ATTDEF
  5
114
330
102
100
AcDbEntity
  8
AM_6
100
AcDbText
 10
10.703125
 20
-1.296875
 30
0.0
 40
0.5
  1
7.390625
100
AcDbAttributeDefinition
  3

  2
C1
 70
     8
280
     0
  0
ATTDEF
  5
115
330
102
100
AcDbEntity
  8
AM_6
100
AcDbText
 10
10.703125
 20
-1.796875
 30
0.0
 40
0.5
  1
2.862
100
AcDbAttributeDefinition
  3

  2
D
 70
     8
280
     0
  0
ATTDEF
  5
116
330
102
100
AcDbEntity
  8
AM_6
100
AcDbText
 10
10.703125
 20
-2.296875
 30
0.0
 40
0.5
  1
11-13/32
100
AcDbAttributeDefinition
  3

  2
E
 70
     8
280
     0
  0
ATTDEF
  5
117
330
102
100
AcDbEntity
  8
AM_6
100
AcDbText
 10
10.703125
 20
-2.796875
 30
0.0
 40
0.5
  1
0.3750
100
AcDbAttributeDefinition
  3

  2
NDM
 70
     8
280
     0
  0
ATTDEF
  5
118
330
102
100
AcDbEntity
  8
AM_6
100
AcDbText
 10
10.703125
 20
-3.296875
 30
0.0
 40
0.5
  1
0.3070
100
AcDbAttributeDefinition
  3

  2
KDM
 70
     8
280
     0
  0
ATTDEF
  5
119
330
102
100
AcDbEntity
  8
AM_6
100
AcDbText
 10
10.703125
 20
-3.796875
 30
0.0
 40
0.5
  1
10.00
100
AcDbAttributeDefinition
  3

  2
AL
 70
     8
280
     0
  0
ATTDEF
  5
11A
330
102
100
AcDbEntity
  8
AM_6
100
AcDbText
 10
10.703125
 20
-4.296875
 30
0.0
 40
0.5
  1
0.81
100
AcDbAttributeDefinition
  3

  2
BL
 70
     8
280
     0
  0
ATTDEF
  5
11B
330
102
100
AcDbEntity
  8
AM_6
100
AcDbText
 10
10.703125
 20
-4.796875
 30
0.0
 40
0.5
  1
0.07
100
AcDbAttributeDefinition
  3

  2
CL
 70
     8
280
     0
  0
ATTDEF
  5
11C
330
102
100
AcDbEntity
  8
AM_6
100
AcDbText
 10
10.703125
 20
-5.296875
 30
0.0
 40
0.5
  1
1.12
100
AcDbAttributeDefinition
  3

  2
DL
 70
     8
280
     0
  0
ATTDEF
  5
11D
330
102
100
AcDbEntity
  8
AM_6
100
AcDbText
 10
10.703125
 20
-5.796875
 30
0.0
 40
0.5
  1
baldor
100
AcDbAttributeDefinition
  3

  2
COMPANY
 70
     8
280
     0
  0
ARC
  5
11E
330
102
100
AcDbEntity
  8
AM_9
100
AcDbCircle
 10
-0.0000000000000049
 20
0.0000000000000133
 30
0.0
 40
3.388157894736828
100
AcDbArc
 50
109.0735617076037
 51
115.9264382923963
  0
LINE
  5
11F
330
102
100
AcDbEntity
  8
AM_9
100
AcDbLine
 10
0.1874999999999996
 20
4.639756944444445
 30
0.0
 11
0.1875000000000005
 21
4.370632902411779
 31
0.0
  0
LINE
  5
120
330
102
100
AcDbEntity
  8
AM_9
100
AcDbLine
 10
-0.1874999999999998
 20
4.370632902411779
 30
0.0
 11
-0.1874999999999998
 21
4.639756944444445
 31
0.0
  0
LINE
  5
121
330
102
100
AcDbEntity
  8
AM_9
100
AcDbLine
 10
0.1875000000000014
 20
-4.37063290241178
 30
0.0
 11
0.1875000000000012
 21
-4.639756944444445
 31
0.0
  0
LINE
  5
122
330
102
100
AcDbEntity
  8
AM_9
100
AcDbLine
 10
-0.1874999999999996
 20
-4.639756944444445
 30
0.0
 11
-0.1874999999999994
 21
-4.370632902411779
 31
0.0
  0
LINE
  5
123
330
102
100
AcDbEntity
  8
AM_7
100
AcDbLine
 10
-3.47770568419246
 20
3.280830680085344
 30
0.0
 11
-3.083955675978227
 21
3.280830680085344
 31
0.0
  0
LINE
  5
124
330
102
100
AcDbEntity
  8
AM_7
100
AcDbLine
 10
-3.280830680085344
 20
3.083955675978228
 30
0.0
 11
-3.280830680085344
 21
3.477705684192461
 31
0.0
  0
LINE
  5
125
330
102
100
AcDbEntity
  8
AM_7
100
AcDbLine
 10
4.639795243626438
 20
-0.1968750041071163
 30
0.0
 11
4.639795243626438
 21
0.1968750041071168
 31
0.0
  0
LINE
  5
126
330
102
100
AcDbEntity
  8
AM_7
100
AcDbLine
 10
3.083955675978227
 20
3.280830680085344
 30
0.0
 11
3.47770568419246
 21
3.280830680085344
 31
0.0
  0
LINE
  5
127
330
102
100
AcDbEntity
  8
AM_7
100
AcDbLine
 10
3.280830680085344
 20
3.083955675978227
 30
0.0
 11
3.280830680085344
 21
3.47770568419246
 31
0.0
  0
LINE
  5
128
330
102
100
AcDbEntity
  8
AM_7
100
AcDbLine
 10
-4.639795243626438
 20
-0.1968750041071178
 30
0.0
 11
-4.639795243626438
 21
0.1968750041071152
 31
0.0
  0
LINE
  5
129
330
102
100
AcDbEntity
  8
AM_7
100
AcDbLine
 10
3.083955675978228
 20
-3.280830680085344
 30
0.0
 11
3.477705684192461
 21
-3.280830680085344
 31
0.0
  0
LINE
  5
12A
330
102
100
AcDbEntity
  8
AM_7
100
AcDbLine
 10
3.280830680085344
 20
-3.47770568419246
 30
0.0
 11
3.280830680085344
 21
-3.083955675978228
 31
0.0
  0
LINE
  5
12B
330
102
100
AcDbEntity
  8
AM_7
100
AcDbLine
 10
-3.477705684192459
 20
-3.280830680085344
 30
0.0
 11
-3.083955675978226
 21
-3.280830680085344
 31
0.0
  0
LINE
  5
12C
330
102
100
AcDbEntity
  8
AM_7
100
AcDbLine
 10
-3.280830680085343
 20
-3.477705684192461
 30
0.0
 11
-3.280830680085343
 21
-3.083955675978228
 31
0.0
  0
LINE
  5
12D
330
102
100
AcDbEntity
  8
AM_4
100
AcDbLine
 10
-2.324383365751529
 20
-2.589548408696491
 30
0.0
 11
-3.148221077001564
 21
-3.413386119946521
 31
0.0
  0
ARC
  5
12E
330
102
100
AcDbEntity
  8
AM_4
100
AcDbCircle
 10
-0.0000000000000002
 20
0.0000000000000036
 30
0.0
 40
3.479729729729727
100
AcDbArc
 50
48.08879277148692
 51
86.91120722851306
  0
LINE
  5
12F
330
102
100
AcDbEntity
  8
AM_4
100
AcDbLine
 10
0.1875000000000005
 20
4.370632902411779
 30
0.0
 11
0.1875000000000004
 21
3.47467448000024
 31
0.0
  0
ARC
  5
130
330
102
100
AcDbEntity
  8
AM_4
100
AcDbCircle
 10
0.0000000000000029
 20
0.0000000000000053
 30
0.0
 40
3.479729729729735
100
AcDbArc
 50
228.088792771487
 51
266.911207228513
  0
ARC
  5
131
330
102
100
AcDbEntity
  8
AM_4
100
AcDbCircle
 10
-3.280830680085342
 20
-3.280830680085344
 30
0.0
 40
0.1875000039115401
100
AcDbArc
 50
134.988296632232
 51
315.0117033677678
  0
LINE
  5
132
330
102
100
AcDbEntity
  8
AM_4
100
AcDbLine
 10
-0.1874999999999993
 20
3.47467448000024
 30
0.0
 11
-0.1874999999999998
 21
4.370632902411779
 31
0.0
  0
ARC
  5
133
330
102
100
AcDbEntity
  8
AM_4
100
AcDbCircle
 10
-4.639795243626438
 20
-0.0000000000000018
 30
0.0
 40
0.1875000039115399
100
AcDbArc
 50
89.98829663223212
 51
270.0117033677676
  0
LINE
  5
134
330
102
100
AcDbEntity
  8
AM_4
100
AcDbLine
 10
0.1875000000000015
 20
-3.47467448000024
 30
0.0
 11
0.1875000000000014
 21
-4.37063290241178
 31
0.0
  0
ARC
  5
135
330
102
100
AcDbEntity
  8
AM_4
100
AcDbCircle
 10
-0.000000000000007
 20
0.0000000000000133
 30
0.0
 40
3.479729729729744
100
AcDbArc
 50
273.0887927714871
 51
311.911207228513
  0
LINE
  5
136
330
102
100
AcDbEntity
  8
AM_4
100
AcDbLine
 10
3.148221077001664
 20
-3.413386119946619
 30
0.0
 11
2.324383365751532
 21
-2.589548408696488
 31
0.0
  0
ARC
  5
137
330
102
100
AcDbEntity
  8
AM_4
100
AcDbCircle
 10
3.280830680085344
 20
-3.280830680085344
 30
0.0
 40
0.1875000039115401
100
AcDbArc
 50
224.9882966322748
 51
45.01170336776805
  0
LINE
  5
138
330
102
100
AcDbEntity
  8
AM_4
100
AcDbLine
 10
2.58954840869649
 20
-2.32438336575153
 30
0.0
 11
3.413386119946521
 21
-3.148221077001564
 31
0.0
  0
ARC
  5
139
330
102
100
AcDbEntity
  8
AM_4
100
AcDbCircle
 10
0.0000000000000093
 20
-0.0000000000000042
 30
0.0
 40
3.479729729729719
100
AcDbArc
 50
318.0887927714869
 51
356.9112072285131
  0
LINE
  5
13A
330
102
100
AcDbEntity
  8
AM_4
100
AcDbLine
 10
4.639756944444446
 20
-0.1875000000000004
 30
0.0
 11
3.474674480000239
 21
-0.1874999999999998
 31
0.0
  0
ARC
  5
13B
330
102
100
AcDbEntity
  8
AM_4
100
AcDbCircle
 10
4.639795243626437
 20
-0.0000000000000002
 30
0.0
 40
0.1875000039115398
100
AcDbArc
 50
269.9882966322326
 51
90.01170336776764
  0
LINE
  5
13C
330
102
100
AcDbEntity
  8
AM_4
100
AcDbLine
 10
3.47467448000024
 20
0.1875000000000004
 30
0.0
 11
4.639756944444445
 21
0.1875000000000004
 31
0.0
  0
ARC
  5
13D
330
102
100
AcDbEntity
  8
AM_4
100
AcDbCircle
 10
0.0000000000000004
 20
-0.0000000000000017
 30
0.0
 40
3.479729729729729
100
AcDbArc
 50
3.088792771486823
 51
41.91120722851308
  0
LINE
  5
13E
330
102
100
AcDbEntity
  8
AM_4
100
AcDbLine
 10
3.41338611994652
 20
3.148221077001565
 30
0.0
 11
2.589548408696488
 21
2.324383365751532
 31
0.0
  0
ARC
  5
13F
330
102
100
AcDbEntity
  8
AM_4
100
AcDbCircle
 10
0.0000000000000071
 20
-0.0000000000000033
 30
0.0
 40
3.479729729729737
100
AcDbArc
 50
138.088792771487
 51
176.9112072285129
  0
LINE
  5
140
330
102
100
AcDbEntity
  8
AM_4
100
AcDbLine
 10
-0.1874999999999994
 20
-4.370632902411779
 30
0.0
 11
-0.187499999999999
 21
-3.47467448000024
 31
0.0
  0
ARC
  5
141
330
102
100
AcDbEntity
  8
AM_4
100
AcDbCircle
 10
0.0000000000000162
 20
-0.0000000000000613
 30
0.0
 40
3.479729729729792
100
AcDbArc
 50
93.08879277148715
 51
109.1638345623649
  0
LINE
  5
142
330
102
100
AcDbEntity
  8
AM_4
100
AcDbLine
 10
-1.107188441982794
 20
3.202147353512531
 30
0.0
 11
-1.142292566983592
 21
3.286896208184701
 31
0.0
  0
ARC
  5
143
330
102
100
AcDbEntity
  8
AM_4
100
AcDbCircle
 10
0.000000000000077
 20
-0.0000000000002047
 30
0.0
 40
3.218750000000219
100
AcDbArc
 50
108.8929902213364
 51
116.1070097786634
  0
LINE
  5
144
330
102
100
AcDbEntity
  8
AM_4
100
AcDbLine
 10
-1.516463777650665
 20
3.131909418076841
 30
0.0
 11
-1.481359652649865
 21
3.047160563404669
 31
0.0
  0
LINE
  5
145
330
102
100
AcDbEntity
  8
AM_4
100
AcDbLine
 10
2.324383365751531
 20
2.589548408696489
 30
0.0
 11
3.148221077001565
 21
3.41338611994652
 31
0.0
  0
ARC
  5
146
330
102
100
AcDbEntity
  8
AM_4
100
AcDbCircle
 10
3.280830680085343
 20
3.280830680085343
 30
0.0
 40
0.1875000039115398
100
AcDbArc
 50
314.9882966322324
 51
135.0117033677677
  0
LINE
  5
147
330
102
100
AcDbEntity
  8
AM_4
100
AcDbLine
 10
-3.413386119946519
 20
-3.148221077001565
 30
0.0
 11
-2.589548408696487
 21
-2.324383365751533
 31
0.0
  0
ARC
  5
148
330
102
100
AcDbEntity
  8
AM_4
100
AcDbCircle
 10
-0.0000000000000036
 20
0.000000000000001
 30
0.0
 40
3.479729729729727
100
AcDbArc
 50
183.0887927714871
 51
221.9112072285131
  0
LINE
  5
149
330
102
100
AcDbEntity
  8
AM_4
100
AcDbLine
 10
-3.47467448000024
 20
-0.1875000000000017
 30
0.0
 11
-4.639756944444446
 21
-0.1875000000000015
 31
0.0
  0
LINE
  5
14A
330
102
100
AcDbEntity
  8
AM_4
100
AcDbLine
 10
-4.639756944444445
 20
0.1874999999999985
 30
0.0
 11
-3.47467448000024
 21
0.1874999999999985
 31
0.0
  0
LINE
  5
14B
330
102
100
AcDbEntity
  8
AM_4
100
AcDbLine
 10
-2.589548408696488
 20
2.324383365751533
 30
0.0
 11
-3.413386119946519
 21
3.148221077001565
 31
0.0
  0
ARC
  5
14C
330
102
100
AcDbEntity
  8
AM_4
100
AcDbCircle
 10
-3.280830680085344
 20
3.280830680085344
 30
0.0
 40
0.1875000039115401
100
AcDbArc
 50
44.98829663224374
 51
225.0117033677681
  0
LINE
  5
14D
330
102
100
AcDbEntity
  8
AM_4
100
AcDbLine
 10
-3.148221077001591
 20
3.413386119946548
 30
0.0
 11
-2.324383365751532
 21
2.589548408696488
 31
0.0
  0
ARC
  5
14E
330
102
100
AcDbEntity
  8
AM_4
100
AcDbCircle
 10
-0.0000000000000036
 20
0.0000000000000111
 30
0.0
 40
3.479729729729718
100
AcDbArc
 50
115.8361654376351
 51
131.9112072285131
  0
CIRCLE
  5
14F
330
102
100
AcDbEntity
  8
AM_4
100
AcDbCircle
 10
0.0
 20
0.0
 30
0.0
 40
5.703125
  0
ENDBLK
  5
105
330
102
100
AcDbEntity
  8
0
100
AcDbBlockEnd
  0
BLOCK
  5
152
330
150
100
AcDbEntity
  8
0
100
AcDbBlockBegin
  2
6_037937E_0_in_071622_0
 70
     2
 10
0.0
 20
0.0
 30
0.0
  3
6_037937E_0_in_071622_0
  1

  0
ATTDEF
  5
154
330
150
100
AcDbEntity
  8
AM_6
100
AcDbText
 10
11.2892
 20
6.289199999999996
 30
0.0
 40
0.5
  1
Imperial/E Insert -Inch
100
AcDbAttributeDefinition
  3

  2
NN
 70
     8
280
     0
  0
ATTDEF
  5
155
330
150
100
AcDbEntity
  8
AM_6
100
AcDbText
 10
11.2892
 20
5.789199999999996
 30
0.0
 40
0.5
  1
Imperial Bearings
100
AcDbAttributeDefinition
  3

  2
NT
 70
     8
280
     0
  0
ATTDEF
  5
156
330
150
100
AcDbEntity
  8
AM_6
100
AcDbText
 10
11.2892
 20
5.289199999999996
 30
0.0
 40
0.5
  1
037937E
100
AcDbAttributeDefinition
  3

  2
NB
 70
     8
280
     0
  0
ATTDEF
  5
157
330
150
100
AcDbEntity
  8
AM_6
100
AcDbText
 10
11.2892
 20
4.789199999999996
 30
0.0
 40
0.5
  1
$PN.
100
AcDbAttributeDefinition
  3

  2
NBSYN
 70
     8
280
     0
  0
ATTDEF
  5
158
330
150
100
AcDbEntity
  8
AM_6
100
AcDbText
 10
11.2892
 20
4.289199999999996
 30
0.0
 40
0.5
  1
037937E
100
AcDbAttributeDefinition
  3

  2
LINA
 70
     8
280
     0
  0
ATTDEF
  5
159
330
150
100
AcDbEntity
  8
AM_6
100
AcDbText
 10
11.2892
 20
3.789199999999996
 30
0.0
 40
0.5
  1
6-7/16
100
AcDbAttributeDefinition
  3

  2
SS
 70
     8
280
     0
  0
ATTDEF
  5
15A
330
150
100
AcDbEntity
  8
AM_6
100
AcDbText
 10
11.2892
 20
3.289199999999996
 30
0.0
 40
0.5
  1
6.437500
100
AcDbAttributeDefinition
  3

  2
SS1
 70
     8
280
     0
  0
ATTDEF
  5
15B
330
150
100
AcDbEntity
  8
AM_6
100
AcDbText
 10
11.2892
 20
2.789199999999996
 30
0.0
 40
0.5
  1
037937E
100
AcDbAttributeDefinition
  3

  2
PN
 70
     8
280
     0
  0
ATTDEF
  5
15C
330
150
100
AcDbEntity
  8
AM_6
100
AcDbText
 10
11.2892
 20
2.289199999999996
 30
0.0
 40
0.5
  1
INS-IP-607L
100
AcDbAttributeDefinition
  3

  2
DESCRIPTION
 70
     8
280
     0
  0
ATTDEF
  5
15D
330
150
100
AcDbEntity
  8
AM_6
100
AcDbText
 10
11.2892
 20
1.789199999999996
 30
0.0
 40
0.5
  1
Contact Seal
100
AcDbAttributeDefinition
  3

  2
ST
 70
     8
280
     0
  0
ATTDEF
  5
15E
330
150
100
AcDbEntity
  8
AM_6
100
AcDbText
 10
11.2892
 20
1.289199999999996
 30
0.0
 40
0.5
  1
2
100
AcDbAttributeDefinition
  3

  2
ST1
 70
     8
280
     0
  0
ATTDEF
  5
15F
330
150
100
AcDbEntity
  8
AM_6
100
AcDbText
 10
11.2892
 20
0.7891999999999957
 30
0.0
 40
0.5
  1
12.5984
100
AcDbAttributeDefinition
  3

  2
A
 70
     8
280
     0
  0
ATTDEF
  5
160
330
150
100
AcDbEntity
  8
AM_6
100
AcDbText
 10
11.2892
 20
0.2891999999999957
 30
0.0
 40
0.5
  1
3-15/32
100
AcDbAttributeDefinition
  3

  2
B
 70
     8
280
     0
  0
ATTDEF
  5
161
330
150
100
AcDbEntity
  8
AM_6
100
AcDbText
 10
11.2892
 20
-0.2108000000000043
 30
0.0
 40
0.5
  1
3.468750
100
AcDbAttributeDefinition
  3

  2
B1
 70
     8
280
     0
  0
ATTDEF
  5
162
330
150
100
AcDbEntity
  8
AM_6
100
AcDbText
 10
11.2892
 20
-0.7108000000000043
 30
0.0
 40
0.5
  1
7-25/64
100
AcDbAttributeDefinition
  3

  2
C
 70
     8
280
     0
  0
ATTDEF
  5
163
330
150
100
AcDbEntity
  8
AM_6
100
AcDbText
 10
11.2892
 20
-1.210800000000004
 30
0.0
 40
0.5
  1
7.390625
100
AcDbAttributeDefinition
  3

  2
C1
 70
     8
280
     0
  0
ATTDEF
  5
164
330
150
100
AcDbEntity
  8
AM_6
100
AcDbText
 10
11.2892
 20
-1.710800000000004
 30
0.0
 40
0.5
  1
7.39063
100
AcDbAttributeDefinition
  3

  2
CR
 70
     8
280
     0
  0
ATTDEF
  5
165
330
150
100
AcDbEntity
  8
AM_6
100
AcDbText
 10
11.2892
 20
-2.210800000000004
 30
0.0
 40
0.5
  1
2.862
100
AcDbAttributeDefinition
  3

  2
D
 70
     8
280
     0
  0
ATTDEF
  5
166
330
150
100
AcDbEntity
  8
AM_6
100
AcDbText
 10
11.2892
 20
-2.710800000000004
 30
0.0
 40
0.5
  1
11-13/32
100
AcDbAttributeDefinition
  3

  2
E
 70
     8
280
     0
  0
ATTDEF
  5
167
330
150
100
AcDbEntity
  8
AM_6
100
AcDbText
 10
11.2892
 20
-3.210800000000004
 30
0.0
 40
0.5
  1
11.406250
100
AcDbAttributeDefinition
  3

  2
E1
 70
     8
280
     0
  0
ATTDEF
  5
168
330
150
100
AcDbEntity
  8
AM_6
100
AcDbText
 10
11.2892
 20
-3.710800000000004
 30
0.0
 40
0.5
  1
0.3750
100
AcDbAttributeDefinition
  3

  2
NDM
 70
     8
280
     0
  0
ATTDEF
  5
169
330
150
100
AcDbEntity
  8
AM_6
100
AcDbText
 10
11.2892
 20
-4.210800000000004
 30
0.0
 40
0.5
  1
0.3070
100
AcDbAttributeDefinition
  3

  2
KDM
 70
     8
280
     0
  0
ATTDEF
  5
16A
330
150
100
AcDbEntity
  8
AM_6
100
AcDbText
 10
11.2892
 20
-4.710800000000004
 30
0.0
 40
0.5
  1
10.00
100
AcDbAttributeDefinition
  3

  2
AL
 70
     8
280
     0
  0
ATTDEF
  5
16B
330
150
100
AcDbEntity
  8
AM_6
100
AcDbText
 10
11.2892
 20
-5.210800000000004
 30
0.0
 40
0.5
  1
0.81
100
AcDbAttributeDefinition
  3

  2
BL
 70
     8
280
     0
  0
ATTDEF
  5
16C
330
150
100
AcDbEntity
  8
AM_6
100
AcDbText
 10
11.2892
 20
-5.710800000000004
 30
0.0
 40
0.5
  1
0.07
100
AcDbAttributeDefinition
  3

  2
CL
 70
     8
280
     0
  0
ATTDEF
  5
16D
330
150
100
AcDbEntity
  8
AM_6
100
AcDbText
 10
11.2892
 20
-6.210800000000004
 30
0.0
 40
0.5
  1
1.12
100
AcDbAttributeDefinition
  3

  2
DL
 70
     8
280
     0
  0
ATTDEF
  5
16E
330
150
100
AcDbEntity
  8
AM_6
100
AcDbText
 10
11.2892
 20
-6.710800000000004
 30
0.0
 40
0.5
  1
1.2500
100
AcDbAttributeDefinition
  3

  2
LL
 70
     8
280
     0
  0
ATTDEF
  5
16F
330
150
100
AcDbEntity
  8
AM_6
100
AcDbText
 10
11.2892
 20
-7.210800000000004
 30
0.0
 40
0.5
  1
0.036
100
AcDbAttributeDefinition
  3

  2
Y
 70
     8
280
     0
  0
ATTDEF
  5
170
330
150
100
AcDbEntity
  8
AM_6
100
AcDbText
 10
11.2892
 20
-7.710800000000004
 30
0.0
 40
0.5
  1
0.036000
100
AcDbAttributeDefinition
  3

  2
Y1
 70
     8
280
     0
  0
ATTDEF
  5
171
330
150
100
AcDbEntity
  8
AM_6
100
AcDbText
 10
11.2892
 20
-8.210800000000004
 30
0.0
 40
0.5
  1
7-7/8
100
AcDbAttributeDefinition
  3

  2
Z
 70
     8
280
     0
  0
ATTDEF
  5
172
330
150
100
AcDbEntity
  8
AM_6
100
AcDbText
 10
11.2892
 20
-8.710800000000004
 30
0.0
 40
0.5
  1
7.875000
100
AcDbAttributeDefinition
  3

  2
Z1
 70
     8
280
     0
  0
ATTDEF
  5
173
330
150
100
AcDbEntity
  8
AM_6
100
AcDbText
 10
11.2892
 20
-9.210800000000004
 30
0.0
 40
0.5
  1
0.00000
100
AcDbAttributeDefinition
  3

  2
P1
 70
     8
280
     0
  0
ATTDEF
  5
174
330
150
100
AcDbEntity
  8
AM_6
100
AcDbText
 10
11.2892
 20
-9.710800000000004
 30
0.0
 40
0.5
  1
0.00000
100
AcDbAttributeDefinition
  3

  2
H1
 70
     8
280
     0
  0
ATTDEF
  5
175
330
150
100
AcDbEntity
  8
AM_6
100
AcDbText
 10
11.2892
 20
-10.2108
 30
0.0
 40
0.5
  1
0.00000
100
AcDbAttributeDefinition
  3

  2
G1
 70
     8
280
     0
  0
ATTDEF
  5
176
330
150
100
AcDbEntity
  8
AM_6
100
AcDbText
 10
11.2892
 20
-10.7108
 30
0.0
 40
0.5
  1
0.19900
100
AcDbAttributeDefinition
  3

  2
CW
 70
     8
280
     0
  0
ATTDEF
  5
177
330
150
100
AcDbEntity
  8
AM_6
100
AcDbText
 10
11.2892
 20
-11.2108
 30
0.0
 40
0.5
  1
11.41000
100
AcDbAttributeDefinition
  3

  2
L1
 70
     8
280
     0
  0
ATTDEF
  5
178
330
150
100
AcDbEntity
  8
AM_6
100
AcDbText
 10
11.2892
 20
-11.7108
 30
0.0
 40
0.5
  1
baldor
100
AcDbAttributeDefinition
  3

  2
COMPANY
 70
     8
280
     0
  0
CIRCLE
  5
179
330
150
100
AcDbEntity
  8
AM_9
100
AcDbCircle
 10
0.0
 20
0.0
 30
0.0
 40
3.9375
  0
CIRCLE
  5
17A
330
150
100
AcDbEntity
  8
AM_9
100
AcDbCircle
 10
0.0
 20
0.0
 30
0.0
 40
5.640928223830733
  0
CIRCLE
  5
17B
330
150
100
AcDbEntity
  8
AM_9
100
AcDbCircle
 10
0.0
 20
0.0
 30
0.0
 40
5.25
  0
CIRCLE
  5
17C
330
150
100
AcDbEntity
  8
AM_9
100
AcDbCircle
 10
0.0
 20
0.0
 30
0.0
 40
5.727530764209178
  0
CIRCLE
  5
17D
330
150
100
AcDbEntity
  8
AM_9
100
AcDbCircle
 10
0.0
 20
0.0
 30
0.0
 40
6.099199999999999
  0
CIRCLE
  5
17E
330
150
100
AcDbEntity
  8
AM_9
100
AcDbCircle
 10
0.0
 20
0.0
 30
0.0
 40
6.249200000000001
  0
CIRCLE
  5
17F
330
150
100
AcDbEntity
  8
AM_9
100
AcDbCircle
 10
0.0
 20
0.0
 30
0.0
 40
6.125762499999999
  0
CIRCLE
  5
180
330
150
100
AcDbEntity
  8
AM_9
100
AcDbCircle
 10
0.0
 20
4.639756944444445
 30
0.0
 40
0.1536500000000001
  0
CIRCLE
  5
181
330
150
100
AcDbEntity
  8
AM_9
100
AcDbCircle
 10
0.0
 20
-4.639756944444445
 30
0.0
 40
0.1536500000000001
  0
LINE
  5
182
330
150
100
AcDbEntity
  8
AM_9
100
AcDbLine
 10
3.249155659552187
 20
3.821912152313288
 30
0.0
 11
3.73615887374805
 21
4.308915366509151
 31
0.0
  0
LINE
  5
183
330
150
100
AcDbEntity
  8
AM_9
100
AcDbLine
 10
-3.736158873748048
 20
4.308915366509152
 30
0.0
 11
-3.249155659552184
 21
3.82191215231329
 31
0.0
  0
LINE
  5
184
330
150
100
AcDbEntity
  8
AM_9
100
AcDbLine
 10
-3.249155659552184
 20
3.82191215231329
 30
0.0
 11
-3.82191215231329
 21
3.249155659552185
 31
0.0
  0
LINE
  5
185
330
150
100
AcDbEntity
  8
AM_9
100
AcDbLine
 10
-3.82191215231329
 20
3.249155659552185
 30
0.0
 11
-4.308915366509152
 21
3.736158873748048
 31
0.0
  0
LINE
  5
186
330
150
100
AcDbEntity
  8
AM_9
100
AcDbLine
 10
-4.308915366509151
 20
-3.736158873748048
 30
0.0
 11
-3.821912152313288
 21
-3.249155659552187
 31
0.0
  0
LINE
  5
187
330
150
100
AcDbEntity
  8
AM_9
100
AcDbLine
 10
-3.821912152313288
 20
-3.249155659552187
 30
0.0
 11
-3.249155659552186
 21
-3.821912152313289
 31
0.0
  0
LINE
  5
188
330
150
100
AcDbEntity
  8
AM_9
100
AcDbLine
 10
-3.249155659552186
 20
-3.821912152313289
 30
0.0
 11
-3.736158873748049
 21
-4.308915366509152
 31
0.0
  0
LINE
  5
189
330
150
100
AcDbEntity
  8
AM_9
100
AcDbLine
 10
3.736158873748048
 20
-4.308915366509152
 30
0.0
 11
3.249155659552184
 21
-3.82191215231329
 31
0.0
  0
LINE
  5
18A
330
150
100
AcDbEntity
  8
AM_9
100
AcDbLine
 10
3.249155659552184
 20
-3.82191215231329
 30
0.0
 11
3.821912152313289
 21
-3.249155659552186
 31
0.0
  0
LINE
  5
18B
330
150
100
AcDbEntity
  8
AM_9
100
AcDbLine
 10
3.821912152313289
 20
-3.249155659552186
 30
0.0
 11
4.308915366509151
 21
-3.736158873748048
 31
0.0
  0
LINE
  5
18C
330
150
100
AcDbEntity
  8
AM_9
100
AcDbLine
 10
4.308915366509154
 20
3.736158873748046
 30
0.0
 11
3.821912152313291
 21
3.249155659552183
 31
0.0
  0
LINE
  5
18D
330
150
100
AcDbEntity
  8
AM_9
100
AcDbLine
 10
3.821912152313291
 20
3.249155659552183
 30
0.0
 11
3.249155659552187
 21
3.821912152313288
 31
0.0
  0
ARC
  5
18E
330
150
100
AcDbEntity
  8
AM_9
100
AcDbCircle
 10
0.0000000000000149
 20
-0.0000000000000466
 30
0.0
 40
3.397097625329863
100
AcDbArc
 50
109.0825893725938
 51
115.9174106274061
  0
ARC
  5
18F
330
150
100
AcDbEntity
  8
AM_5
100
AcDbCircle
 10
0.000000000000001
 20
4.639756944444446
 30
0.0
 40
0.1875000000000004
100
AcDbArc
 50
75.00000000000014
 51
15.00000000000009
  0
ARC
  5
190
330
150
100
AcDbEntity
  8
AM_5
100
AcDbCircle
 10
0.000000000000001
 20
-4.639756944444444
 30
0.0
 40
0.1875000000000004
100
AcDbArc
 50
75.00000000000013
 51
15.00000000000009
  0
CIRCLE
  5
191
330
150
100
AcDbEntity
  8
AM_4
100
AcDbCircle
 10
0.0
 20
0.0
 30
0.0
 40
6.289199999999996
  0
CIRCLE
  5
192
330
150
100
AcDbEntity
  8
AM_4
100
AcDbCircle
 10
0.0
 20
0.0
 30
0.0
 40
5.791485757815723
  0
LINE
  5
193
330
150
100
AcDbEntity
  8
AM_4
100
AcDbLine
 10
4.308915366509151
 20
-3.736158873748048
 30
0.0
 11
4.322773941167327
 21
-3.750017448406224
 31
0.0
  0
LINE
  5
194
330
150
100
AcDbEntity
  8
AM_4
100
AcDbLine
 10
-4.308915366509152
 20
3.736158873748048
 30
0.0
 11
-4.322773941167328
 21
3.750017448406224
 31
0.0
  0
LINE
  5
195
330
150
100
AcDbEntity
  8
AM_4
100
AcDbLine
 10
-3.750017448406223
 20
4.322773941167328
 30
0.0
 11
-3.736158873748048
 21
4.308915366509152
 31
0.0
  0
LINE
  5
196
330
150
100
AcDbEntity
  8
AM_4
100
AcDbLine
 10
3.73615887374805
 20
4.308915366509151
 30
0.0
 11
3.750017448406226
 21
4.322773941167326
 31
0.0
  0
LINE
  5
197
330
150
100
AcDbEntity
  8
AM_4
100
AcDbLine
 10
3.750017448406223
 20
-4.322773941167328
 30
0.0
 11
3.736158873748048
 21
-4.308915366509152
 31
0.0
  0
CIRCLE
  5
198
330
150
100
AcDbEntity
  8
AM_4
100
AcDbCircle
 10
0.0
 20
0.0
 30
0.0
 40
5.741493373057903
  0
ARC
  5
199
330
150
100
AcDbEntity
  8
AM_4
100
AcDbCircle
 10
-0.0000000000001954
 20
0.0000000000001954
 30
0.0
 40
5.72267467271988
100
AcDbArc
 50
310.9417219729875
 51
319.0582780270124
  0
LINE
  5
19A
330
150
100
AcDbEntity
  8
AM_4
100
AcDbLine
 10
-3.736158873748049
 20
-4.308915366509152
 30
0.0
 11
-3.750017448406224
 21
-4.322773941167328
 31
0.0
  0
ARC
  5
19B
330
150
100
AcDbEntity
  8
AM_4
100
AcDbCircle
 10
0.0000000000002673
 20
0.0000000000002607
 30
0.0
 40
5.722674672719977
100
AcDbArc
 50
220.9417219729875
 51
229.0582780270124
  0
LINE
  5
19C
330
150
100
AcDbEntity
  8
AM_4
100
AcDbLine
 10
-4.322773941167327
 20
-3.750017448406223
 30
0.0
 11
-4.308915366509151
 21
-3.736158873748048
 31
0.0
  0
ARC
  5
19D
330
150
100
AcDbEntity
  8
AM_4
100
AcDbCircle
 10
0.0000000000001954
 20
-0.0000000000001954
 30
0.0
 40
5.72267467271988
100
AcDbArc
 50
130.9417219729875
 51
139.0582780270125
  0
ARC
  5
19E
330
150
100
AcDbEntity
  8
AM_4
100
AcDbCircle
 10
-0.0000000000002842
 20
-0.0000000000002753
 30
0.0
 40
5.722674672719999
100
AcDbArc
 50
40.94172197298748
 51
49.05827802701236
  0
LINE
  5
19F
330
150
100
AcDbEntity
  8
AM_4
100
AcDbLine
 10
4.322773941167329
 20
3.750017448406221
 30
0.0
 11
4.308915366509154
 21
3.736158873748046
 31
0.0
  0
ARC
  5
1A0
330
150
100
AcDbEntity
  8
AM_4
100
AcDbCircle
 10
-0.0000000000000021
 20
-0.0000000000000013
 30
0.0
 40
3.388157894736842
100
AcDbArc
 50
115.9264382923963
 51
109.0735617076037
  0
ARC
  5
1A1
330
150
100
AcDbEntity
  8
AM_4
100
AcDbCircle
 10
-0.0000000000000018
 20
-0.0000000000000011
 30
0.0
 40
3.21875
100
AcDbArc
 50
116.1070097786637
 51
108.8929902213362
  0
LINE
  5
1A2
330
150
100
AcDbEntity
  8
AM_4
100
AcDbLine
 10
-1.042236619436203
 20
3.045339782619699
 30
0.0
 11
-1.107188441982794
 21
3.20214735351253
 31
0.0
  0
LINE
  5
1A3
330
150
100
AcDbEntity
  8
AM_4
100
AcDbLine
 10
-1.481359652649865
 20
3.047160563404669
 30
0.0
 11
-1.416407830103274
 21
2.890352992511838
 31
0.0
  0
ARC
  5
1A4
330
150
100
AcDbEntity
  8
AM_5
100
AcDbCircle
 10
0.0000000000000008
 20
4.639756944444445
 30
0.0
 40
0.1875000000000008
100
AcDbArc
 50
165.0
 51
105.0000000000003
  0
ARC
  5
1A5
330
150
100
AcDbEntity
  8
AM_5
100
AcDbCircle
 10
0.0000000000000008
 20
-4.639756944444445
 30
0.0
 40
0.1875000000000008
100
AcDbArc
 50
165.0
 51
105.0000000000003
  0
ARC
  5
1A6
330
150
100
AcDbEntity
  8
AM_5
100
AcDbCircle
 10
0.0000000000000009
 20
4.639756944444444
 30
0.0
 40
0.1875000000000007
100
AcDbArc
 50
105.0000000000002
 51
15.00000000000041
  0
ARC
  5
1A7
330
150
100
AcDbEntity
  8
AM_5
100
AcDbCircle
 10
0.0000000000000009
 20
-4.639756944444446
 30
0.0
 40
0.1875000000000007
100
AcDbArc
 50
105.0000000000002
 51
15.00000000000041
  0
ENDBLK
  5
153
330
150
100
AcDbEntity
  8
0
100
AcDbBlockEnd
  0
BLOCK
  5
1AA
330
1A8
100
AcDbEntity
  8
0
100
AcDbBlockBegin
  2
7_071622H_0_in_071622_0
 70
     2
 10
0.0
 20
0.0
 30
0.0
  3
7_071622H_0_in_071622_0
  1

  0
ATTDEF
  5
1AC
330
1A8
100
AcDbEntity
  8
AM_6
100
AcDbText
 10
18.00000000000001
 20
7.44
 30
0.0
 40
0.5
  1
EP4B-IP -(Contact Seal)-Housing -Inch
100
AcDbAttributeDefinition
  3

  2
NN
 70
     8
280
     0
  0
ATTDEF
  5
1AD
330
1A8
100
AcDbEntity
  8
AM_6
100
AcDbText
 10
18.00000000000001
 20
6.94
 30
0.0
 40
0.5
  1
Imperial/E 4 Bolt Piliow Block Bearings
100
AcDbAttributeDefinition
  3

  2
NT
 70
     8
280
     0
  0
ATTDEF
  5
1AE
330
1A8
100
AcDbEntity
  8
AM_6
100
AcDbText
 10
18.00000000000001
 20
6.44
 30
0.0
 40
0.5
  1
071622H
100
AcDbAttributeDefinition
  3

  2
NB
 70
     8
280
     0
  0
ATTDEF
  5
1AF
330
1A8
100
AcDbEntity
  8
AM_6
100
AcDbText
 10
18.00000000000001
 20
5.94
 30
0.0
 40
0.5
  1
$PN.H
100
AcDbAttributeDefinition
  3

  2
NBSYN
 70
     8
280
     0
  0
ATTDEF
  5
1B0
330
1A8
100
AcDbEntity
  8
AM_6
100
AcDbText
 10
18.00000000000001
 20
5.44
 30
0.0
 40
0.5
  1
071622
100
AcDbAttributeDefinition
  3

  2
LINA
 70
     8
280
     0
  0
ATTDEF
  5
1B1
330
1A8
100
AcDbEntity
  8
AM_6
100
AcDbText
 10
18.00000000000001
 20
4.94
 30
0.0
 40
0.5
  1
6-7/16
100
AcDbAttributeDefinition
  3

  2
SS
 70
     8
280
     0
  0
ATTDEF
  5
1B2
330
1A8
100
AcDbEntity
  8
AM_6
100
AcDbText
 10
18.00000000000001
 20
4.44
 30
0.0
 40
0.5
  1
6.437500
100
AcDbAttributeDefinition
  3

  2
SS1
 70
     8
280
     0
  0
ATTDEF
  5
1B3
330
1A8
100
AcDbEntity
  8
AM_6
100
AcDbText
 10
18.00000000000001
 20
3.94
 30
0.0
 40
0.5
  1
Expansion
100
AcDbAttributeDefinition
  3

  2
TYPE
 70
     8
280
     0
  0
ATTDEF
  5
1B4
330
1A8
100
AcDbEntity
  8
AM_6
100
AcDbText
 10
18.00000000000001
 20
3.44
 30
0.0
 40
0.5
  1
071614
100
AcDbAttributeDefinition
  3

  2
PN1
 70
     8
280
     0
  0
ATTDEF
  5
1B5
330
1A8
100
AcDbEntity
  8
AM_6
100
AcDbText
 10
18.00000000000001
 20
2.94
 30
0.0
 40
0.5
  1
071622
100
AcDbAttributeDefinition
  3

  2
PN2
 70
     8
280
     0
  0
ATTDEF
  5
1B6
330
1A8
100
AcDbEntity
  8
AM_6
100
AcDbText
 10
18.00000000000001
 20
2.44
 30
0.0
 40
0.5
  1
EP4B-IP-607R
100
AcDbAttributeDefinition
  3

  2
DESCRIPTION
 70
     8
280
     0
  0
ATTDEF
  5
1B7
330
1A8
100
AcDbEntity
  8
AM_6
100
AcDbText
 10
18.00000000000001
 20
1.94
 30
0.0
 40
0.5
  1
Non-Expansion Type
100
AcDbAttributeDefinition
  3

  2
EF
 70
     8
280
     0
  0
ATTDEF
  5
1B8
330
1A8
100
AcDbEntity
  8
AM_6
100
AcDbText
 10
18.00000000000001
 20
1.44
 30
0.0
 40
0.5
  1
1
100
AcDbAttributeDefinition
  3

  2
EF1
 70
     8
280
     0
  0
ATTDEF
  5
1B9
330
1A8
100
AcDbEntity
  8
AM_6
100
AcDbText
 10
18.00000000000001
 20
0.9399999999999995
 30
0.0
 40
0.5
  1
Contact Seal
100
AcDbAttributeDefinition
  3

  2
ST
 70
     8
280
     0
  0
ATTDEF
  5
1BA
330
1A8
100
AcDbEntity
  8
AM_6
100
AcDbText
 10
18.00000000000001
 20
0.4399999999999995
 30
0.0
 40
0.5
  1
1
100
AcDbAttributeDefinition
  3

  2
ST1
 70
     8
280
     0
  0
ATTDEF
  5
1BB
330
1A8
100
AcDbEntity
  8
AM_6
100
AcDbText
 10
18.00000000000001
 20
-0.0600000000000005
 30
0.0
 40
0.5
  1
7.39
100
AcDbAttributeDefinition
  3

  2
A
 70
     8
280
     0
  0
ATTDEF
  5
1BC
330
1A8
100
AcDbEntity
  8
AM_6
100
AcDbText
 10
18.00000000000001
 20
-0.5600000000000005
 30
0.0
 40
0.5
  1
7.3900000
100
AcDbAttributeDefinition
  3

  2
A1
 70
     8
280
     0
  0
ATTDEF
  5
1BD
330
1A8
100
AcDbEntity
  8
AM_6
100
AcDbText
 10
18.00000000000001
 20
-1.06
 30
0.0
 40
0.5
  1
26
100
AcDbAttributeDefinition
  3

  2
B
 70
     8
280
     0
  0
ATTDEF
  5
1BE
330
1A8
100
AcDbEntity
  8
AM_6
100
AcDbText
 10
18.00000000000001
 20
-1.56
 30
0.0
 40
0.5
  1
26.0000000
100
AcDbAttributeDefinition
  3

  2
B1
 70
     8
280
     0
  0
ATTDEF
  5
1BF
330
1A8
100
AcDbEntity
  8
AM_6
100
AcDbText
 10
18.00000000000001
 20
-2.06
 30
0.0
 40
0.5
  1
7.12
100
AcDbAttributeDefinition
  3

  2
C
 70
     8
280
     0
  0
ATTDEF
  5
1C0
330
1A8
100
AcDbEntity
  8
AM_6
100
AcDbText
 10
18.00000000000001
 20
-2.56
 30
0.0
 40
0.5
  1
7.1200000
100
AcDbAttributeDefinition
  3

  2
C1
 70
     8
280
     0
  0
ATTDEF
  5
1C1
330
1A8
100
AcDbEntity
  8
AM_6
100
AcDbText
 10
18.00000000000001
 20
-3.06
 30
0.0
 40
0.5
  1
21.25
100
AcDbAttributeDefinition
  3

  2
DMIN
 70
     8
280
     0
  0
ATTDEF
  5
1C2
330
1A8
100
AcDbEntity
  8
AM_6
100
AcDbText
 10
18.00000000000001
 20
-3.56
 30
0.0
 40
0.5
  1
21.2500000
100
AcDbAttributeDefinition
  3

  2
DMIN1
 70
     8
280
     0
  0
ATTDEF
  5
1C3
330
1A8
100
AcDbEntity
  8
AM_6
100
AcDbText
 10
18.00000000000001
 20
-4.06
 30
0.0
 40
0.5
  1
23.25
100
AcDbAttributeDefinition
  3

  2
DMAX
 70
     8
280
     0
  0
ATTDEF
  5
1C4
330
1A8
100
AcDbEntity
  8
AM_6
100
AcDbText
 10
18.00000000000001
 20
-4.56
 30
0.0
 40
0.5
  1
23.2500000
100
AcDbAttributeDefinition
  3

  2
DMAX1
 70
     8
280
     0
  0
ATTDEF
  5
1C5
330
1A8
100
AcDbEntity
  8
AM_6
100
AcDbText
 10
18.00000000000001
 20
-5.06
 30
0.0
 40
0.5
  1
4.62
100
AcDbAttributeDefinition
  3

  2
E
 70
     8
280
     0
  0
ATTDEF
  5
1C6
330
1A8
100
AcDbEntity
  8
AM_6
100
AcDbText
 10
18.00000000000001
 20
-5.56
 30
0.0
 40
0.5
  1
4.620000
100
AcDbAttributeDefinition
  3

  2
E1
 70
     8
280
     0
  0
ATTDEF
  5
1C7
330
1A8
100
AcDbEntity
  8
AM_6
100
AcDbText
 10
18.00000000000001
 20
-6.06
 30
0.0
 40
0.5
  1
1
100
AcDbAttributeDefinition
  3

  2
F
 70
     8
280
     0
  0
ATTDEF
  5
1C8
330
1A8
100
AcDbEntity
  8
AM_6
100
AcDbText
 10
18.00000000000001
 20
-6.56
 30
0.0
 40
0.5
  1
1.0000000
100
AcDbAttributeDefinition
  3

  2
F1
 70
     8
280
     0
  0
ATTDEF
  5
1C9
330
1A8
100
AcDbEntity
  8
AM_6
100
AcDbText
 10
18.00000000000001
 20
-7.06
 30
0.0
 40
0.5
  1
2
100
AcDbAttributeDefinition
  3

  2
G
 70
     8
280
     0
  0
ATTDEF
  5
1CA
330
1A8
100
AcDbEntity
  8
AM_6
100
AcDbText
 10
18.00000000000001
 20
-7.56
 30
0.0
 40
0.5
  1
2.000000
100
AcDbAttributeDefinition
  3

  2
G1
 70
     8
280
     0
  0
ATTDEF
  5
1CB
330
1A8
100
AcDbEntity
  8
AM_6
100
AcDbText
 10
18.00000000000001
 20
-8.06
 30
0.0
 40
0.5
  1
3.69
100
AcDbAttributeDefinition
  3

  2
H
 70
     8
280
     0
  0
ATTDEF
  5
1CC
330
1A8
100
AcDbEntity
  8
AM_6
100
AcDbText
 10
18.00000000000001
 20
-8.56
 30
0.0
 40
0.5
  1
3.6900000
100
AcDbAttributeDefinition
  3

  2
H1
 70
     8
280
     0
  0
ATTDEF
  5
1CD
330
1A8
100
AcDbEntity
  8
AM_6
100
AcDbText
 10
18.00000000000001
 20
-9.06
 30
0.0
 40
0.5
  1
14.94
100
AcDbAttributeDefinition
  3

  2
J
 70
     8
280
     0
  0
ATTDEF
  5
1CE
330
1A8
100
AcDbEntity
  8
AM_6
100
AcDbText
 10
18.00000000000001
 20
-9.56
 30
0.0
 40
0.5
  1
14.940000
100
AcDbAttributeDefinition
  3

  2
J1
 70
     8
280
     0
  0
ATTDEF
  5
1CF
330
1A8
100
AcDbEntity
  8
AM_6
100
AcDbText
 10
18.00000000000001
 20
-10.06
 30
0.0
 40
0.5
  1
11.41
100
AcDbAttributeDefinition
  3

  2
L
 70
     8
280
     0
  0
ATTDEF
  5
1D0
330
1A8
100
AcDbEntity
  8
AM_6
100
AcDbText
 10
18.00000000000001
 20
-10.56
 30
0.0
 40
0.5
  1
11.4100000
100
AcDbAttributeDefinition
  3

  2
L1
 70
     8
280
     0
  0
ATTDEF
  5
1D1
330
1A8
100
AcDbEntity
  8
AM_6
100
AcDbText
 10
18.00000000000001
 20
-11.06
 30
0.0
 40
0.5
  1
7.5
100
AcDbAttributeDefinition
  3

  2
M
 70
     8
280
     0
  0
ATTDEF
  5
1D2
330
1A8
100
AcDbEntity
  8
AM_6
100
AcDbText
 10
18.00000000000001
 20
-11.56
 30
0.0
 40
0.5
  1
7.500000
100
AcDbAttributeDefinition
  3

  2
M1
 70
     8
280
     0
  0
ATTDEF
  5
1D3
330
1A8
100
AcDbEntity
  8
AM_6
100
AcDbText
 10
18.00000000000001
 20
-12.06
 30
0.0
 40
0.5
  1
2.46
100
AcDbAttributeDefinition
  3

  2
R
 70
     8
280
     0
  0
ATTDEF
  5
1D4
330
1A8
100
AcDbEntity
  8
AM_6
100
AcDbText
 10
18.00000000000001
 20
-12.56
 30
0.0
 40
0.5
  1
2.460000
100
AcDbAttributeDefinition
  3

  2
R1
 70
     8
280
     0
  0
ATTDEF
  5
1D5
330
1A8
100
AcDbEntity
  8
AM_6
100
AcDbText
 10
18.00000000000001
 20
-13.06
 30
0.0
 40
0.5
  1
4.94
100
AcDbAttributeDefinition
  3

  2
S
 70
     8
280
     0
  0
ATTDEF
  5
1D6
330
1A8
100
AcDbEntity
  8
AM_6
100
AcDbText
 10
18.00000000000001
 20
-13.56
 30
0.0
 40
0.5
  1
4.940000
100
AcDbAttributeDefinition
  3

  2
S1
 70
     8
280
     0
  0
ATTDEF
  5
1D7
330
1A8
100
AcDbEntity
  8
AM_6
100
AcDbText
 10
18.00000000000001
 20
-14.06
 30
0.0
 40
0.5
  1
0.38
100
AcDbAttributeDefinition
  3

  2
X
 70
     8
280
     0
  0
ATTDEF
  5
1D8
330
1A8
100
AcDbEntity
  8
AM_6
100
AcDbText
 10
18.00000000000001
 20
-14.56
 30
0.0
 40
0.5
  1
0.380000
100
AcDbAttributeDefinition
  3

  2
X1
 70
     8
280
     0
  0
ATTDEF
  5
1D9
330
1A8
100
AcDbEntity
  8
AM_6
100
AcDbText
 10
18.00000000000001
 20
-15.06
 30
0.0
 40
0.5
  1
0.036
100
AcDbAttributeDefinition
  3

  2
Y
 70
     8
280
     0
  0
ATTDEF
  5
1DA
330
1A8
100
AcDbEntity
  8
AM_6
100
AcDbText
 10
18.00000000000001
 20
-15.56
 30
0.0
 40
0.5
  1
7.89
100
AcDbAttributeDefinition
  3

  2
Z
 70
     8
280
     0
  0
ATTDEF
  5
1DB
330
1A8
100
AcDbEntity
  8
AM_6
100
AcDbText
 10
18.00000000000001
 20
-16.06
 30
0.0
 40
0.5
  1
7.890000
100
AcDbAttributeDefinition
  3

  2
Z1
 70
     8
280
     0
  0
ATTDEF
  5
1DC
330
1A8
100
AcDbEntity
  8
AM_6
100
AcDbText
 10
18.00000000000001
 20
-16.56
 30
0.0
 40
0.5
  1
12.5984
100
AcDbAttributeDefinition
  3

  2
BORE
 70
     8
280
     0
  0
ATTDEF
  5
1DD
330
1A8
100
AcDbEntity
  8
AM_6
100
AcDbText
 10
18.00000000000001
 20
-17.06
 30
0.0
 40
0.5
  1
0.07000
100
AcDbAttributeDefinition
  3

  2
CR
 70
     8
280
     0
  0
ATTDEF
  5
1DE
330
1A8
100
AcDbEntity
  8
AM_6
100
AcDbText
 10
18.00000000000001
 20
-17.56
 30
0.0
 40
0.5
  1
baldor
100
AcDbAttributeDefinition
  3

  2
COMPANY
 70
     8
280
     0
  0
ARC
  5
1DF
330
1A8
100
AcDbEntity
  8
AM_9
100
AcDbCircle
 10
7.550699999999999
 20
-3.6255
 30
0.0
 40
0.1845000000000008
100
AcDbArc
 50
180.0
 51
270.0
  0
LINE
  5
1E0
330
1A8
100
AcDbEntity
  8
AM_9
100
AcDbLine
 10
-8.146579777300483
 20
-3.80999999999999
 30
0.0
 11
-7.550699999999999
 21
-3.80999999999999
 31
0.0
  0
ARC
  5
1E1
330
1A8
100
AcDbEntity
  8
AM_9
100
AcDbCircle
 10
-7.550699999999998
 20
-3.625499999999993
 30
0.0
 40
0.1844999999999977
100
AcDbArc
 50
270.0
 51
0.0
  0
LINE
  5
1E2
330
1A8
100
AcDbEntity
  8
AM_9
100
AcDbLine
 10
-7.3662
 20
-3.62549999999999
 30
0.0
 11
-7.366199999999998
 21
1.045321749510642
 31
0.0
  0
LINE
  5
1E3
330
1A8
100
AcDbEntity
  8
AM_9
100
AcDbLine
 10
7.366199999999998
 20
1.045321749510648
 30
0.0
 11
7.366199999999998
 21
-3.625499999999999
 31
0.0
  0
LINE
  5
1E4
330
1A8
100
AcDbEntity
  8
AM_9
100
AcDbLine
 10
7.5507
 20
-3.81
 30
0.0
 11
8.146579777300486
 21
-3.81
 31
0.0
  0
LINE
  5
1E5
330
1A8
100
AcDbEntity
  8
AM_9
100
AcDbLine
 10
-5.619258669967063
 20
-5.286
 30
0.0
 11
-12.125
 21
-5.286
 31
0.0
  0
LINE
  5
1E6
330
1A8
100
AcDbEntity
  8
AM_9
100
AcDbLine
 10
-11.625
 20
-3.81
 30
0.0
 11
-11.625
 21
-7.5
 31
0.0
  0
LINE
  5
1E7
330
1A8
100
AcDbEntity
  8
AM_9
100
AcDbLine
 10
-12.125
 20
-3.81
 30
0.0
 11
-12.125
 21
-7.5
 31
0.0
  0
LINE
  5
1E8
330
1A8
100
AcDbEntity
  8
AM_9
100
AcDbLine
 10
1.844999999999998
 20
-7.269523712046066
 30
0.0
 11
1.845000000000001
 21
-7.5
 31
0.0
  0
LINE
  5
1E9
330
1A8
100
AcDbEntity
  8
AM_9
100
AcDbLine
 10
10.625
 20
-3.81
 30
0.0
 11
10.625
 21
-5.286
 31
0.0
  0
LINE
  5
1EA
330
1A8
100
AcDbEntity
  8
AM_9
100
AcDbLine
 10
10.125
 20
-3.81
 30
0.0
 11
10.125
 21
-5.286
 31
0.0
  0
ARC
  5
1EB
330
1A8
100
AcDbEntity
  8
AM_9
100
AcDbCircle
 10
0.0000000000000271
 20
-0.0000000000000515
 30
0.0
 40
7.499999999999944
100
AcDbArc
 50
284.2409383128932
 51
313.009093793226
  0
ARC
  5
1EC
330
1A8
100
AcDbEntity
  8
AM_9
100
AcDbCircle
 10
-5.619258669967062
 20
-6.024000000000006
 30
0.0
 40
0.7380000000000058
100
AcDbArc
 50
46.99090620677469
 51
90.0
  0
ARC
  5
1ED
330
1A8
100
AcDbEntity
  8
AM_9
100
AcDbCircle
 10
-0.0000000000000027
 20
-0.0000000000000142
 30
0.0
 40
7.499999999999986
100
AcDbArc
 50
226.990906206774
 51
255.7590616871066
  0
LINE
  5
1EE
330
1A8
100
AcDbEntity
  8
AM_9
100
AcDbLine
 10
-1.845000000000001
 20
-7.5
 30
0.0
 11
-1.845
 21
-7.269523712046065
 31
0.0
  0
LINE
  5
1EF
330
1A8
100
AcDbEntity
  8
AM_9
100
AcDbLine
 10
11.625
 20
-7.5
 30
0.0
 11
11.625
 21
-3.81
 31
0.0
  0
LINE
  5
1F0
330
1A8
100
AcDbEntity
  8
AM_9
100
AcDbLine
 10
12.125
 20
-3.81
 30
0.0
 11
12.125
 21
-7.5
 31
0.0
  0
LINE
  5
1F1
330
1A8
100
AcDbEntity
  8
AM_9
100
AcDbLine
 10
12.125
 20
-5.286
 30
0.0
 11
5.619258669967063
 21
-5.286
 31
0.0
  0
LINE
  5
1F2
330
1A8
100
AcDbEntity
  8
AM_9
100
AcDbLine
 10
-10.625
 20
-3.81
 30
0.0
 11
-10.625
 21
-5.286
 31
0.0
  0
LINE
  5
1F3
330
1A8
100
AcDbEntity
  8
AM_9
100
AcDbLine
 10
-10.125
 20
-5.286
 30
0.0
 11
-10.125
 21
-3.81
 31
0.0
  0
ARC
  5
1F4
330
1A8
100
AcDbEntity
  8
AM_9
100
AcDbCircle
 10
5.619258669967062
 20
-6.023999999999996
 30
0.0
 40
0.737999999999996
100
AcDbArc
 50
90.0
 51
133.009093793226
  0
LINE
  5
1F5
330
1A8
100
AcDbEntity
  8
AM_7
100
AcDbLine
 10
-6.614159999999999
 20
0.0
 30
0.0
 11
6.614159999999999
 21
0.0
 31
0.0
  0
LINE
  5
1F6
330
1A8
100
AcDbEntity
  8
AM_7
100
AcDbLine
 10
0.0
 20
-6.614159999999999
 30
0.0
 11
0.0
 21
6.614159999999999
 31
0.0
  0
LINE
  5
1F7
330
1A8
100
AcDbEntity
  8
AM_7
100
AcDbLine
 10
-3.973499999999999
 20
6.882303883874934
 30
0.0
 11
-3.441379038734369
 21
5.960643343190473
 31
0.0
  0
LINE
  5
1F8
330
1A8
100
AcDbEntity
  8
AM_4
100
AcDbLine
 10
-4.116410161513776
 20
6.329831544534668
 30
0.0
 11
-3.42358986035519
 21
6.729831531908615
 31
0.0
  0
ARC
  5
1F9
330
1A8
100
AcDbEntity
  8
AM_4
100
AcDbCircle
 10
-3.373589838486224
 20
6.643229004156222
 30
0.0
 40
0.1000000000000012
100
AcDbArc
 50
30.00000000000067
 51
119.9999999999995
  0
ARC
  5
1FA
330
1A8
100
AcDbEntity
  8
AM_4
100
AcDbCircle
 10
-4.066410161513772
 20
6.243229004156222
 30
0.0
 40
0.1000000000000024
100
AcDbArc
 50
120.0000000000009
 51
209.9999999999993
  0
LINE
  5
1FB
330
1A8
100
AcDbEntity
  8
AM_4
100
AcDbLine
 10
-4.153012701892218
 20
6.193229004156223
 30
0.0
 11
-3.28698729810778
 21
6.693229004156223
 31
0.0
  0
LINE
  5
1FC
330
1A8
100
AcDbEntity
  8
AM_4
100
AcDbLine
 10
-3.278634421123098
 20
6.678761396829382
 30
0.0
 11
-3.28698729810778
 21
6.693229004156223
 31
0.0
  0
LINE
  5
1FD
330
1A8
100
AcDbEntity
  8
AM_4
100
AcDbLine
 10
-4.153012701892218
 20
6.193229004156223
 30
0.0
 11
-4.144602657692831
 21
6.178662380308984
 31
0.0
  0
ARC
  5
1FE
330
1A8
100
AcDbEntity
  8
AM_4
100
AcDbCircle
 10
8.146579777300467
 20
-3.441000000000003
 30
0.0
 40
0.3689999999999786
100
AcDbArc
 50
185.0923080708798
 51
203.8155170094598
  0
ARC
  5
1FF
330
1A8
100
AcDbEntity
  8
AM_4
100
AcDbCircle
 10
-8.146579777300488
 20
-3.441000000000003
 30
0.0
 40
0.3690000000000025
100
AcDbArc
 50
336.1844829905401
 51
354.9076919291205
  0
LINE
  5
200
330
1A8
100
AcDbEntity
  8
AM_4
100
AcDbLine
 10
-1.915233333333333
 20
7.44
 30
0.0
 11
1.915233333333335
 21
7.44
 31
0.0
  0
ARC
  5
201
330
1A8
100
AcDbEntity
  8
AM_4
100
AcDbCircle
 10
0.0000000000000071
 20
0.0000000000000062
 30
0.0
 40
7.439999999999991
100
AcDbArc
 50
5.092308070880041
 51
73.60712125100305
  0
ARC
  5
202
330
1A8
100
AcDbEntity
  8
AM_4
100
AcDbCircle
 10
-1.915233333333333
 20
7.2555
 30
0.0
 40
0.1844999999999999
100
AcDbArc
 50
90.0
 51
180.0
  0
LINE
  5
203
330
1A8
100
AcDbEntity
  8
AM_4
100
AcDbLine
 10
7.41063424893962
 20
0.6603787007794012
 30
0.0
 11
7.779036223824853
 21
-3.473752653304785
 31
0.0
  0
ARC
  5
204
330
1A8
100
AcDbEntity
  8
AM_4
100
AcDbCircle
 10
1.915233333333335
 20
7.255500000000001
 30
0.0
 40
0.1844999999999981
100
AcDbArc
 50
0.0
 51
90.0
  0
ARC
  5
205
330
1A8
100
AcDbEntity
  8
AM_4
100
AcDbCircle
 10
-0.0000000000000027
 20
0.0000000000000027
 30
0.0
 40
7.439999999999995
100
AcDbArc
 50
106.392878748997
 51
174.9076919291201
  0
LINE
  5
206
330
1A8
100
AcDbEntity
  8
AM_4
100
AcDbLine
 10
2.099733333333333
 20
7.255499999999998
 30
0.0
 11
2.099733333333333
 21
7.137557000044824
 31
0.0
  0
CIRCLE
  5
207
330
1A8
100
AcDbEntity
  8
AM_4
100
AcDbCircle
 10
0.0
 20
0.0
 30
0.0
 40
6.299199999999999
  0
LINE
  5
208
330
1A8
100
AcDbEntity
  8
AM_4
100
AcDbLine
 10
-2.099733333333333
 20
7.137557000044824
 30
0.0
 11
-2.099733333333333
 21
7.255500000000001
 31
0.0
  0
LINE
  5
209
330
1A8
100
AcDbEntity
  8
AM_4
100
AcDbLine
 10
-7.779036223824851
 20
-3.473752653304785
 30
0.0
 11
-7.41063424893962
 21
0.6603787007793929
 31
0.0
  0
LINE
  5
20A
330
1A8
100
AcDbEntity
  8
AM_4
100
AcDbLine
 10
-7.808999999999999
 20
-3.589999644153115
 30
0.0
 11
-7.808999999999999
 21
-7.500000000000002
 31
0.0
  0
LWPOLYLINE
  5
20B
330
1A8
100
AcDbEntity
  8
AM_4
100
AcDbPolyline
 90
       15
 70
     0
 43
0.0
 10
-7.808999999999999
 20
-3.589999644153115
 10
-7.823270767626051
 20
-3.618854671750102
 10
-7.840002112035041
 20
-3.646356117903485
 10
-7.859066697593358
 20
-3.672294680002207
 10
-7.88031943129339
 20
-3.696472949926567
 10
-7.903598566998928
 20
-3.718706916443201
 10
-7.928726936430927
 20
-3.738827365641681
 10
-7.955513297525085
 20
-3.756681168754548
 10
-7.98375378989943
 20
-3.77213244755969
 10
-8.013233486354915
 20
-3.785063608495666
 10
-8.043728028601189
 20
-3.795376237619704
 10
-8.075005334758647
 20
-3.802991849597231
 10
-8.106827365641678
 20
-3.80785248502267
 10
-8.138951936380595
 20
-3.809921151525499
 10
-8.146579777300483
 20
-3.809999999999999
  0
LINE
  5
20C
330
1A8
100
AcDbEntity
  8
AM_4
100
AcDbLine
 10
-13.0
 20
-5.654999999999999
 30
0.0
 11
-12.065
 21
-5.654999999999999
 31
0.0
  0
LINE
  5
20D
330
1A8
100
AcDbEntity
  8
AM_4
100
AcDbLine
 10
-13.0
 20
-5.654999999999999
 30
0.0
 11
-13.0
 21
-7.500000000000002
 31
0.0
  0
LINE
  5
20E
330
1A8
100
AcDbEntity
  8
AM_4
100
AcDbLine
 10
12.065
 20
-5.654999999999999
 30
0.0
 11
13.00000000000001
 21
-5.654999999999999
 31
0.0
  0
LINE
  5
20F
330
1A8
100
AcDbEntity
  8
AM_4
100
AcDbLine
 10
-12.288
 20
-7.5
 30
0.0
 11
-12.28799999999999
 21
-5.654999999999999
 31
0.0
  0
LINE
  5
210
330
1A8
100
AcDbEntity
  8
AM_4
100
AcDbLine
 10
-8.165
 20
-3.81
 30
0.0
 11
-8.165
 21
-7.500000000000002
 31
0.0
  0
LINE
  5
211
330
1A8
100
AcDbEntity
  8
AM_4
100
AcDbLine
 10
8.165000000000001
 20
-7.500000000000002
 30
0.0
 11
8.165000000000001
 21
-3.810000000000002
 31
0.0
  0
LINE
  5
212
330
1A8
100
AcDbEntity
  8
AM_4
100
AcDbLine
 10
8.146579777300486
 20
-3.81
 30
0.0
 11
12.631
 21
-3.81
 31
0.0
  0
LWPOLYLINE
  5
213
330
1A8
100
AcDbEntity
  8
AM_4
100
AcDbPolyline
 90
       15
 70
     0
 43
0.0
 10
8.146579777300486
 20
-3.81
 10
8.1144193082266
 20
-3.808595843595854
 10
8.08250359974139
 20
-3.804394060861504
 10
8.051075549657657
 20
-3.797426629900666
 10
8.020374344413314
 20
-3.787746577069999
 10
7.990633638718168
 20
-3.775427573416522
 10
7.962079777300486
 20
-3.760563373996456
 10
7.93493007228695
 20
-3.743267104342636
 10
7.909391149326153
 20
-3.723670399510901
 10
7.88565737504265
 20
-3.701922402257834
 10
7.863909377789584
 20
-3.67818862797433
 10
7.844312672957849
 20
-3.652649705013533
 10
7.82701640330403
 20
-3.625499999999997
 10
7.812152203883963
 20
-3.596946138582315
 10
7.808999999999999
 20
-3.589999644153105
  0
LINE
  5
214
330
1A8
100
AcDbEntity
  8
AM_4
100
AcDbLine
 10
7.808999999999999
 20
-3.589999644153106
 30
0.0
 11
7.808999999999999
 21
-7.500000000000002
 31
0.0
  0
LINE
  5
215
330
1A8
100
AcDbEntity
  8
AM_4
100
AcDbLine
 10
12.288
 20
-5.654999999999999
 30
0.0
 11
12.288
 21
-7.500000000000002
 31
0.0
  0
LINE
  5
216
330
1A8
100
AcDbEntity
  8
AM_4
100
AcDbLine
 10
13.0
 20
-7.500000000000002
 30
0.0
 11
-13.0
 21
-7.500000000000002
 31
0.0
  0
LINE
  5
217
330
1A8
100
AcDbEntity
  8
AM_4
100
AcDbLine
 10
13.00000000000001
 20
-5.654999999999999
 30
0.0
 11
13.0
 21
-7.500000000000002
 31
0.0
  0
LINE
  5
218
330
1A8
100
AcDbEntity
  8
AM_4
100
AcDbLine
 10
12.065
 20
-5.654999999999999
 30
0.0
 11
12.065
 21
-3.81
 31
0.0
  0
LINE
  5
219
330
1A8
100
AcDbEntity
  8
AM_4
100
AcDbLine
 10
12.9
 20
-5.654999999999999
 30
0.0
 11
12.9
 21
-3.924419915511866
 31
0.0
  0
LWPOLYLINE
  5
21A
330
1A8
100
AcDbEntity
  8
AM_4
100
AcDbPolyline
 90
        6
 70
     0
 43
0.0
 10
12.89999999995032
 20
-3.926413381140789
 10
12.89167095211049
 20
-3.917826389683396
 10
12.86087429700434
 20
-3.89033311644138
 10
12.80754569178415
 20
-3.854974354853733
 10
12.73072459503025
 20
-3.823599338394412
 10
12.631
 20
-3.809999999999999
  0
LWPOLYLINE
  5
21B
330
1A8
100
AcDbEntity
  8
AM_4
100
AcDbPolyline
 90
        7
 70
     0
 43
0.0
 10
-12.631
 20
-3.81
 10
-12.71762388410902
 20
-3.820311691434097
 10
-12.78775141833487
 20
-3.844949116375953
 10
-12.84730078434423
 20
-3.880058985540254
 10
-12.8846592868905
 20
-3.911011257374116
 10
-12.89970976135149
 20
-3.925598756651528
 10
-12.89999999995032
 20
-3.926413381140792
  0
LINE
  5
21C
330
1A8
100
AcDbEntity
  8
AM_4
100
AcDbLine
 10
-12.065
 20
-5.654999999999999
 30
0.0
 11
-12.065
 21
-3.81
 31
0.0
  0
LINE
  5
21D
330
1A8
100
AcDbEntity
  8
AM_4
100
AcDbLine
 10
-12.631
 20
-3.81
 30
0.0
 11
-8.146579777300483
 21
-3.81
 31
0.0
  0
LINE
  5
21E
330
1A8
100
AcDbEntity
  8
AM_4
100
AcDbLine
 10
-12.90000000000001
 20
-3.924419915511868
 30
0.0
 11
-12.90000000000001
 21
-5.654999999999999
 31
0.0
  0
ENDBLK
  5
1AB
330
1A8
100
AcDbEntity
  8
0
100
AcDbBlockEnd
  0
ENDSEC
  0
SECTION
  2
ENTITIES
  0
INSERT
  5
6F
330
1F
100
AcDbEntity
  8
0
100
AcDbBlockReference
  2
1_071622_0
 10
0.0
 20
0.0
 30
0.0
  0
POINT
  5
220
330
1F
100
AcDbEntity
  8
ConnectionPoints
100
AcDbPoint
 10
0.0
 20
-4.639756944444445
 30
4.083
  0
POINT
  5
221
330
1F
100
AcDbEntity
  8
ConnectionPoints
100
AcDbPoint
 10
0.0
 20
4.639756944444445
 30
4.083
  0
POINT
  5
222
330
1F
100
AcDbEntity
  8
ConnectionPoints
100
AcDbPoint
 10
0.0
 20
0.0
 30
4.013
  0
POINT
  5
223
330
1F
100
AcDbEntity
  8
ConnectionPoints
100
AcDbPoint
 10
0.0
 20
0.0
 30
4.56
  0
POINT
  5
224
330
1F
100
AcDbEntity
  8
ConnectionPoints
100
AcDbPoint
 10
0.0
 20
0.0
 30
4.212000000000001
  0
POINT
  5
225
330
1F
100
AcDbEntity
  8
ConnectionPoints
100
AcDbPoint
 10
0.0
 20
4.639756944444445
 30
4.013
  0
POINT
  5
226
330
1F
100
AcDbEntity
  8
ConnectionPoints
100
AcDbPoint
 10
0.0
 20
-4.639756944444445
 30
4.013
  0
POINT
  5
227
330
1F
100
AcDbEntity
  8
ConnectionPoints
100
AcDbPoint
 10
0.0
 20
0.0
 30
4.013
  0
POINT
  5
228
330
1F
100
AcDbEntity
  8
ConnectionPoints
100
AcDbPoint
 10
-3.769999999999999
 20
6.529831544534667
 30
0.0
  0
POINT
  5
229
330
1F
100
AcDbEntity
  8
ConnectionPoints
100
AcDbPoint
 10
0.0
 20
0.0
 30
4.56
  0
POINT
  5
22A
330
1F
100
AcDbEntity
  8
ConnectionPoints
100
AcDbPoint
 10
0.0
 20
0.0
 30
4.94
  0
ENDSEC
  0
SECTION
  2
OBJECTS
  0
DICTIONARY
  5
C
330
0
100
AcDbDictionary
281
     1
  3
ACAD_DETAILVIEWSTYLE
350
232
  3
ACAD_GROUP
350
D
  3
ACAD_LAYOUT
350
1A
  3
ACAD_MATERIAL
350
43
  3
ACAD_MLEADERSTYLE
350
6B
  3
ACAD_MLINESTYLE
350
17
  3
ACAD_PLOTSETTINGS
350
19
  3
ACAD_PLOTSTYLENAME
350
E
  3
ACAD_SCALELIST
350
47
  3
ACAD_SECTIONVIEWSTYLE
350
233
  3
ACAD_TABLESTYLE
350
69
  3
ACAD_VISUALSTYLE
350
2A
  3
ACDB_RECOMPOSE_DATA
350
22F
  3
AcDbVariableDictionary
350
22B
  0
SUN
  5
6D
330
29
100
AcDbSun
 90
        1
290
     0
 63
     7
421
 16777215
 40
1.0
291
     1
 91
  2455826
 92
 54000000
292
     0
 70
     2
 71
   256
280
     1
  0
DICTIONARY
  5
232
102
{ACAD_REACTORS
330
C
102
}
330
C
100
AcDbDictionary
281
     1
  0
DICTIONARY
  5
D
102
{ACAD_REACTORS
330
C
102
}
330
C
100
AcDbDictionary
281
     1
  0
DICTIONARY
  5
1A
102
{ACAD_REACTORS
330
C
102
}
330
C
100
AcDbDictionary
281
     1
  3
Layout1
350
1E
  3
Layout2
350
26
  3
Model
350
22
  0
DICTIONARY
  5
43
102
{ACAD_REACTORS
330
C
102
}
330
C
100
AcDbDictionary
281
     1
  3
ByBlock
350
45
  3
ByLayer
350
44
  3
Global
350
46
  0
DICTIONARY
  5
6B
102
{ACAD_REACTORS
330
C
102
}
330
C
100
AcDbDictionary
281
     1
  3
Standard
350
6C
  0
DICTIONARY
  5
17
102
{ACAD_REACTORS
330
C
102
}
330
C
100
AcDbDictionary
281
     1
  3
Standard
350
18
  0
DICTIONARY
  5
19
102
{ACAD_REACTORS
330
C
102
}
330
C
100
AcDbDictionary
281
     1
  0
ACDBDICTIONARYWDFLT
  5
E
102
{ACAD_REACTORS
330
C
102
}
330
C
100
AcDbDictionary
281
     1
  3
Normal
350
F
100
AcDbDictionaryWithDefault
340
F
  0
DICTIONARY
  5
47
102
{ACAD_REACTORS
330
C
102
}
330
C
100
AcDbDictionary
281
     1
  3
A0
350
48
  3
A1
350
49
  3
A2
350
4A
  3
A3
350
4B
  3
A4
350
4C
  3
A5
350
4D
  3
A6
350
4E
  3
A7
350
4F
  3
A8
350
50
  3
A9
350
51
  3
B0
350
52
  3
B1
350
53
  3
B2
350
54
  3
B3
350
55
  3
B4
350
56
  3
B5
350
57
  3
B6
350
58
  3
B7
350
59
  3
B8
350
5A
  3
B9
350
5B
  3
C0
350
5C
  3
C1
350
5D
  3
C2
350
5E
  3
C3
350
5F
  3
C4
350
60
  3
C5
350
61
  3
C6
350
62
  3
C7
350
63
  3
C8
350
64
  3
C9
350
65
  3
D0
350
66
  3
D1
350
67
  3
D2
350
68
  0
DICTIONARY
  5
233
102
{ACAD_REACTORS
330
C
102
}
330
C
100
AcDbDictionary
281
     1
  0
DICTIONARY
  5
69
102
{ACAD_REACTORS
330
C
102
}
330
C
100
AcDbDictionary
281
     1
  3
Standard
350
6A
  0
DICTIONARY
  5
2A
102
{ACAD_REACTORS
330
C
102
}
330
C
100
AcDbDictionary
281
     1
  3
2dWireframe
350
2F
  3
Basic
350
32
  3
Brighten
350
36
  3
ColorChange
350
3A
  3
Conceptual
350
34
  3
Dim
350
35
  3
EdgeColorOff
350
3D
  3
Facepattern
350
39
  3
Flat
350
2B
  3
FlatWithEdges
350
2C
  3
Gouraud
350
2D
  3
GouraudWithEdges
350
2E
  3
Hidden
350
31
  3
JitterOff
350
3B
  3
Linepattern
350
38
  3
OverhangOff
350
3C
  3
Realistic
350
33
  3
Shaded
350
42
  3
Shaded with edges
350
41
  3
Shades of Gray
350
3E
  3
Sketchy
350
3F
  3
Thicken
350
37
  3
Wireframe
350
30
  3
X-Ray
350
40
  0
XRECORD
  5
22F
102
{ACAD_REACTORS
330
C
102
}
330
C
100
AcDbXrecord
280
     1
 90
        1
330
6A
  0
DICTIONARY
  5
22B
102
{ACAD_REACTORS
330
C
102
}
330
C
100
AcDbDictionary
281
     1
  3
CANNOSCALE
350
22C
  3
CMLEADERSTYLE
350
231
  3
CTABLESTYLE
350
230
  0
LAYOUT
  5
1E
102
{ACAD_REACTORS
330
1A
102
}
330
1A
100
AcDbPlotSettings
  1

  2
none_device
  4

  6

 40
0.0
 41
0.0
 42
0.0
 43
0.0
 44
0.0
 45
0.0
 46
0.0
 47
0.0
 48
0.0
 49
0.0
140
0.0
141
0.0
142
1.0
143
1.0
 70
   688
 72
     0
 73
     0
 74
     5
  7

 75
    16
 76
     0
 77
     2
 78
   300
147
1.0
148
0.0
149
0.0
100
AcDbLayout
  1
Layout1
 70
     1
 71
     1
 10
0.0
 20
0.0
 11
12.0
 21
9.0
 12
0.0
 22
0.0
 32
0.0
 14
1.000000000000000E+20
 24
1.000000000000000E+20
 34
1.000000000000000E+20
 15
-1.000000000000000E+20
 25
-1.000000000000000E+20
 35
-1.000000000000000E+20
146
0.0
 13
0.0
 23
0.0
 33
0.0
 16
1.0
 26
0.0
 36
0.0
 17
0.0
 27
1.0
 37
0.0
 76
     0
330
1B
  0
LAYOUT
  5
26
102
{ACAD_REACTORS
330
1A
102
}
330
1A
100
AcDbPlotSettings
  1

  2
none_device
  4

  6

 40
0.0
 41
0.0
 42
0.0
 43
0.0
 44
0.0
 45
0.0
 46
0.0
 47
0.0
 48
0.0
 49
0.0
140
0.0
141
0.0
142
1.0
143
1.0
 70
   688
 72
     0
 73
     0
 74
     5
  7

 75
    16
 76
     0
 77
     2
 78
   300
147
1.0
148
0.0
149
0.0
100
AcDbLayout
  1
Layout2
 70
     1
 71
     2
 10
0.0
 20
0.0
 11
0.0
 21
0.0
 12
0.0
 22
0.0
 32
0.0
 14
0.0
 24
0.0
 34
0.0
 15
0.0
 25
0.0
 35
0.0
146
0.0
 13
0.0
 23
0.0
 33
0.0
 16
1.0
 26
0.0
 36
0.0
 17
0.0
 27
1.0
 37
0.0
 76
     0
330
23
  0
LAYOUT
  5
22
102
{ACAD_REACTORS
330
1A
102
}
330
1A
100
AcDbPlotSettings
  1

  2
none_device
  4
Letter_(8.50_x_11.00_Inches)
  6

 40
6.35
 41
6.35
 42
6.35000508
 43
6.35000508
 44
215.9
 45
279.4
 46
0.0
 47
0.0
 48
0.0
 49
0.0
140
0.0
141
0.0
142
1.0
143
1.0
 70
  1712
 72
     0
 73
     0
 74
     0
  7

 75
     0
 76
     0
 77
     2
 78
   300
147
1.0
148
0.0
149
0.0
100
AcDbLayout
  1
Model
 70
     1
 71
     0
 10
0.0
 20
0.0
 11
12.0
 21
9.0
 12
0.0
 22
0.0
 32
0.0
 14
1.000000000000000E+20
 24
1.000000000000000E+20
 34
1.000000000000000E+20
 15
-1.000000000000000E+20
 25
-1.000000000000000E+20
 35
-1.000000000000000E+20
146
0.0
 13
0.0
 23
0.0
 33
0.0
 16
1.0
 26
0.0
 36
0.0
 17
0.0
 27
1.0
 37
0.0
 76
     0
330
1F
331
29
  0
MATERIAL
  5
45
102
{ACAD_REACTORS
330
43
102
}
330
43
100
AcDbMaterial
  1
ByBlock
 72
     1
 94
      127
  0
MATERIAL
  5
44
102
{ACAD_REACTORS
330
43
102
}
330
43
100
AcDbMaterial
  1
ByLayer
 72
     1
 94
      127
  0
MATERIAL
  5
46
102
{ACAD_REACTORS
330
43
102
}
330
43
100
AcDbMaterial
  1
Global
 72
     1
 94
      127
  0
MLEADERSTYLE
  5
6C
102
{ACAD_REACTORS
330
6B
102
}
330
6B
100
AcDbMLeaderStyle
179
     2
170
     2
171
     1
172
     0
 90
        2
 40
0.0
 41
0.0
173
     1
 91
-1056964608
340
14
 92
       -2
290
     1
 42
0.09
291
     1
 43
0.36
  3
Standard
341
0
 44
0.18
300

342
11
174
     1
178
     6
175
     1
176
     0
 93
-1056964608
 45
0.18
292
     0
297
     0
 46
0.18
343
0
 94
-1056964608
 47
1.0
 49
1.0
140
1.0
293
     1
141
0.0
294
     1
177
     0
142
1.0
295
     0
296
     0
143
0.125
271
     0
272
     9
273
     9
298
     0
  0
MLINESTYLE
  5
18
102
{ACAD_REACTORS
330
17
102
}
330
17
100
AcDbMlineStyle
  2
Standard
 70
     0
  3

 62
   256
 51
90.0
 52
90.0
 71
     2
 49
0.5
 62
   256
  6
BYLAYER
 49
-0.5
 62
   256
  6
BYLAYER
  0
ACDBPLACEHOLDER
  5
F
102
{ACAD_REACTORS
330
E
102
}
330
E
  0
SCALE
  5
48
102
{ACAD_REACTORS
330
47
102
}
330
47
100
AcDbScale
 70
     0
300
1:1
140
1.0
141
1.0
290
     1
  0
SCALE
  5
49
102
{ACAD_REACTORS
330
47
102
}
330
47
100
AcDbScale
 70
     0
300
1:2
140
1.0
141
2.0
290
     0
  0
SCALE
  5
4A
102
{ACAD_REACTORS
330
47
102
}
330
47
100
AcDbScale
 70
     0
300
1:4
140
1.0
141
4.0
290
     0
  0
SCALE
  5
4B
102
{ACAD_REACTORS
330
47
102
}
330
47
100
AcDbScale
 70
     0
300
1:5
140
1.0
141
5.0
290
     0
  0
SCALE
  5
4C
102
{ACAD_REACTORS
330
47
102
}
330
47
100
AcDbScale
 70
     0
300
1:8
140
1.0
141
8.0
290
     0
  0
SCALE
  5
4D
102
{ACAD_REACTORS
330
47
102
}
330
47
100
AcDbScale
 70
     0
300
1:10
140
1.0
141
10.0
290
     0
  0
SCALE
  5
4E
102
{ACAD_REACTORS
330
47
102
}
330
47
100
AcDbScale
 70
     0
300
1:16
140
1.0
141
16.0
290
     0
  0
SCALE
  5
4F
102
{ACAD_REACTORS
330
47
102
}
330
47
100
AcDbScale
 70
     0
300
1:20
140
1.0
141
20.0
290
     0
  0
SCALE
  5
50
102
{ACAD_REACTORS
330
47
102
}
330
47
100
AcDbScale
 70
     0
300
1:30
140
1.0
141
30.0
290
     0
  0
SCALE
  5
51
102
{ACAD_REACTORS
330
47
102
}
330
47
100
AcDbScale
 70
     0
300
1:40
140
1.0
141
40.0
290
     0
  0
SCALE
  5
52
102
{ACAD_REACTORS
330
47
102
}
330
47
100
AcDbScale
 70
     0
300
1:50
140
1.0
141
50.0
290
     0
  0
SCALE
  5
53
102
{ACAD_REACTORS
330
47
102
}
330
47
100
AcDbScale
 70
     0
300
1:100
140
1.0
141
100.0
290
     0
  0
SCALE
  5
54
102
{ACAD_REACTORS
330
47
102
}
330
47
100
AcDbScale
 70
     0
300
2:1
140
2.0
141
1.0
290
     0
  0
SCALE
  5
55
102
{ACAD_REACTORS
330
47
102
}
330
47
100
AcDbScale
 70
     0
300
4:1
140
4.0
141
1.0
290
     0
  0
SCALE
  5
56
102
{ACAD_REACTORS
330
47
102
}
330
47
100
AcDbScale
 70
     0
300
8:1
140
8.0
141
1.0
290
     0
  0
SCALE
  5
57
102
{ACAD_REACTORS
330
47
102
}
330
47
100
AcDbScale
 70
     0
300
10:1
140
10.0
141
1.0
290
     0
  0
SCALE
  5
58
102
{ACAD_REACTORS
330
47
102
}
330
47
100
AcDbScale
 70
     0
300
100:1
140
100.0
141
1.0
290
     0
  0
SCALE
  5
59
102
{ACAD_REACTORS
330
47
102
}
330
47
100
AcDbScale
 70
     0
300
1/128" = 1'-0"
140
0.0078125
141
12.0
290
     0
  0
SCALE
  5
5A
102
{ACAD_REACTORS
330
47
102
}
330
47
100
AcDbScale
 70
     0
300
1/64" = 1'-0"
140
0.015625
141
12.0
290
     0
  0
SCALE
  5
5B
102
{ACAD_REACTORS
330
47
102
}
330
47
100
AcDbScale
 70
     0
300
1/32" = 1'-0"
140
0.03125
141
12.0
290
     0
  0
SCALE
  5
5C
102
{ACAD_REACTORS
330
47
102
}
330
47
100
AcDbScale
 70
     0
300
1/16" = 1'-0"
140
0.0625
141
12.0
290
     0
  0
SCALE
  5
5D
102
{ACAD_REACTORS
330
47
102
}
330
47
100
AcDbScale
 70
     0
300
3/32" = 1'-0"
140
0.09375
141
12.0
290
     0
  0
SCALE
  5
5E
102
{ACAD_REACTORS
330
47
102
}
330
47
100
AcDbScale
 70
     0
300
1/8" = 1'-0"
140
0.125
141
12.0
290
     0
  0
SCALE
  5
5F
102
{ACAD_REACTORS
330
47
102
}
330
47
100
AcDbScale
 70
     0
300
3/16" = 1'-0"
140
0.1875
141
12.0
290
     0
  0
SCALE
  5
60
102
{ACAD_REACTORS
330
47
102
}
330
47
100
AcDbScale
 70
     0
300
1/4" = 1'-0"
140
0.25
141
12.0
290
     0
  0
SCALE
  5
61
102
{ACAD_REACTORS
330
47
102
}
330
47
100
AcDbScale
 70
     0
300
3/8" = 1'-0"
140
0.375
141
12.0
290
     0
  0
SCALE
  5
62
102
{ACAD_REACTORS
330
47
102
}
330
47
100
AcDbScale
 70
     0
300
1/2" = 1'-0"
140
0.5
141
12.0
290
     0
  0
SCALE
  5
63
102
{ACAD_REACTORS
330
47
102
}
330
47
100
AcDbScale
 70
     0
300
3/4" = 1'-0"
140
0.75
141
12.0
290
     0
  0
SCALE
  5
64
102
{ACAD_REACTORS
330
47
102
}
330
47
100
AcDbScale
 70
     0
300
1" = 1'-0"
140
1.0
141
12.0
290
     0
  0
SCALE
  5
65
102
{ACAD_REACTORS
330
47
102
}
330
47
100
AcDbScale
 70
     0
300
1-1/2" = 1'-0"
140
1.5
141
12.0
290
     0
  0
SCALE
  5
66
102
{ACAD_REACTORS
330
47
102
}
330
47
100
AcDbScale
 70
     0
300
3" = 1'-0"
140
3.0
141
12.0
290
     0
  0
SCALE
  5
67
102
{ACAD_REACTORS
330
47
102
}
330
47
100
AcDbScale
 70
     0
300
6" = 1'-0"
140
6.0
141
12.0
290
     0
  0
SCALE
  5
68
102
{ACAD_REACTORS
330
47
102
}
330
47
100
AcDbScale
 70
     0
300
1'-0" = 1'-0"
140
12.0
141
12.0
290
     0
  0
TABLESTYLE
  5
6A
102
{ACAD_REACTORS
330
69
102
}
102
{ACAD_XDICTIONARY
360
22D
102
}
330
69
100
AcDbTableStyle
  3
Standard
 70
     0
 71
     0
 40
0.06
 41
0.06
280
     0
281
     0
  7
Standard
140
0.18
170
     2
 62
     0
 63
   257
283
     0
 90
        4
 91
        0
  1

274
    -2
284
     1
 64
     0
275
    -2
285
     1
 65
     0
276
    -2
286
     1
 66
     0
277
    -2
287
     1
 67
     0
278
    -2
288
     1
 68
     0
279
    -2
289
     1
 69
     0
  7
Standard
140
0.25
170
     5
 62
     0
 63
   257
283
     0
 90
        4
 91
        0
  1

274
    -2
284
     1
 64
     0
275
    -2
285
     1
 65
     0
276
    -2
286
     1
 66
     0
277
    -2
287
     1
 67
     0
278
    -2
288
     1
 68
     0
279
    -2
289
     1
 69
     0
  7
Standard
140
0.18
170
     5
 62
     0
 63
   257
283
     0
 90
        4
 91
        0
  1

274
    -2
284
     1
 64
     0
275
    -2
285
     1
 65
     0
276
    -2
286
     1
 66
     0
277
    -2
287
     1
 67
     0
278
    -2
288
     1
 68
     0
279
    -2
289
     1
 69
     0
  0
VISUALSTYLE
  5
2F
102
{ACAD_REACTORS
330
2A
102
}
330
2A
100
AcDbVisualStyle
  2
2dWireframe
 70
     4
177
     3
291
     0
 70
    58
 90
        0
176
     1
 90
        2
176
     1
 90
        0
176
     1
 90
        0
176
     1
 40
0.6
176
     1
 40
30.0
176
     1
 62
     7
420
 16777215
176
     1
 90
        1
176
     1
 90
        4
176
     1
 62
     7
176
     1
 62
   257
176
     1
 90
        1
176
     1
 90
        1
176
     1
 40
1.0
176
     1
 90
        0
176
     1
 62
   257
176
     1
 40
1.0
176
     1
 90
        1
176
     1
 90
        6
176
     1
 90
        2
176
     1
 62
     7
176
     1
 90
        5
176
     1
 90
        0
176
     1
 90
        0
176
     1
290
     0
176
     1
 90
        1
176
     1
 40
0.0
176
     1
 90
        0
176
     1
290
     1
176
     1
290
     1
176
     1
290
     0
176
     1
290
     0
176
     1
290
     0
176
     1
290
     0
176
     1
290
     0
176
     1
290
     0
176
     1
290
     0
176
     1
 90
       50
176
     1
 40
0.0
176
     1
 40
1.0
176
     1
 90
        0
176
     1
 62
    18
420
        0
176
     1
 90
       50
176
     1
 90
        3
176
     1
 62
     5
420
      255
176
     1
290
     0
176
     1
 90
       50
176
     1
 90
       50
176
     1
 90
       50
176
     1
290
     0
176
     1
 90
       50
176
     1
 62
   256
176
     0
 40
1.0
176
     0
 90
        2
176
     1
  1
strokes_ogs.tif
176
     1
290
     0
176
     1
 40
1.0
176
     1
 40
1.0
176
     1
  0
VISUALSTYLE
  5
32
102
{ACAD_REACTORS
330
2A
102
}
330
2A
100
AcDbVisualStyle
  2
Basic
 70
     7
177
     3
291
     1
 70
    58
 90
        1
176
     1
 90
        0
176
     1
 90
        1
176
     1
 90
        0
176
     1
 40
0.6
176
     1
 40
30.0
176
     1
 62
     7
420
 16777215
176
     1
 90
        0
176
     1
 90
        4
176
     1
 62
     7
176
     1
 62
   257
176
     1
 90
        1
176
     1
 90
        1
176
     1
 40
1.0
176
     1
 90
        8
176
     1
 62
     7
176
     1
 40
1.0
176
     1
 90
        1
176
     1
 90
        6
176
     1
 90
        2
176
     1
 62
     7
176
     1
 90
        5
176
     1
 90
        0
176
     1
 90
        0
176
     1
290
     0
176
     1
 90
        1
176
     1
 40
0.0
176
     1
 90
        0
176
     1
290
     0
176
     1
290
     1
176
     1
290
     1
176
     1
290
     0
176
     1
290
     0
176
     1
290
     0
176
     1
290
     0
176
     1
290
     0
176
     1
290
     0
176
     1
 90
       50
176
     1
 40
0.0
176
     1
 40
1.0
176
     1
 90
        0
176
     1
 62
    18
420
        0
176
     1
 90
       50
176
     1
 90
        3
176
     1
 62
     5
420
      255
176
     1
290
     0
176
     1
 90
       50
176
     1
 90
       50
176
     1
 90
       50
176
     1
290
     0
176
     1
 90
       50
176
     1
 62
   256
176
     0
 40
1.0
176
     0
 90
        2
176
     1
  1
strokes_ogs.tif
176
     1
290
     0
176
     1
 40
1.0
176
     1
 40
1.0
176
     1
  0
VISUALSTYLE
  5
36
102
{ACAD_REACTORS
330
2A
102
}
330
2A
100
AcDbVisualStyle
  2
Brighten
 70
    12
177
     3
291
     1
 70
    58
 90
        2
176
     1
 90
        2
176
     1
 90
        0
176
     1
 90
        0
176
     1
 40
0.6
176
     1
 40
30.0
176
     1
 62
     7
420
 16777215
176
     1
 90
        1
176
     1
 90
        4
176
     1
 62
     7
176
     1
 62
   257
176
     1
 90
        1
176
     1
 90
        1
176
     1
 40
1.0
176
     1
 90
        8
176
     1
 62
     7
176
     1
 40
1.0
176
     1
 90
        1
176
     1
 90
        6
176
     1
 90
        2
176
     1
 62
     7
176
     1
 90
        5
176
     1
 90
        0
176
     1
 90
        0
176
     1
290
     0
176
     1
 90
        1
176
     1
 40
50.0
176
     1
 90
        0
176
     1
290
     0
176
     1
290
     1
176
     1
290
     1
176
     1
290
     0
176
     1
290
     0
176
     1
290
     0
176
     1
290
     0
176
     1
290
     0
176
     1
290
     0
176
     1
 90
       50
176
     1
 40
0.0
176
     1
 40
1.0
176
     1
 90
        0
176
     1
 62
    18
420
        0
176
     1
 90
       50
176
     1
 90
        3
176
     1
 62
     5
420
      255
176
     1
290
     0
176
     1
 90
       50
176
     1
 90
       50
176
     1
 90
       50
176
     1
290
     0
176
     1
 90
       50
176
     1
 62
   256
176
     0
 40
1.0
176
     0
 90
        2
176
     1
  1
strokes_ogs.tif
176
     1
290
     0
176
     1
 40
1.0
176
     1
 40
1.0
176
     1
  0
VISUALSTYLE
  5
3A
102
{ACAD_REACTORS
330
2A
102
}
330
2A
100
AcDbVisualStyle
  2
ColorChange
 70
    16
177
     3
291
     1
 70
    58
 90
        2
176
     1
 90
        2
176
     1
 90
        3
176
     1
 90
        0
176
     1
 40
0.6
176
     1
 40
30.0
176
     1
 62
     8
420
  8421504
176
     1
 90
        1
176
     1
 90
        4
176
     1
 62
     7
176
     1
 62
   257
176
     1
 90
        1
176
     1
 90
        1
176
     1
 40
1.0
176
     1
 90
        8
176
     1
 62
     8
420
  8421504
176
     1
 40
1.0
176
     1
 90
        1
176
     1
 90
        6
176
     1
 90
        2
176
     1
 62
     7
176
     1
 90
        5
176
     1
 90
        0
176
     1
 90
        0
176
     1
290
     0
176
     1
 90
        1
176
     1
 40
0.0
176
     1
 90
        0
176
     1
290
     0
176
     1
290
     1
176
     1
290
     1
176
     1
290
     0
176
     1
290
     0
176
     1
290
     0
176
     1
290
     0
176
     1
290
     0
176
     1
290
     0
176
     1
 90
       50
176
     1
 40
0.0
176
     1
 40
1.0
176
     1
 90
        0
176
     1
 62
    18
420
        0
176
     1
 90
       50
176
     1
 90
        3
176
     1
 62
     5
420
      255
176
     1
290
     0
176
     1
 90
       50
176
     1
 90
       50
176
     1
 90
       50
176
     1
290
     0
176
     1
 90
       50
176
     1
 62
   256
176
     0
 40
1.0
176
     0
 90
        2
176
     1
  1
strokes_ogs.tif
176
     1
290
     0
176
     1
 40
1.0
176
     1
 40
1.0
176
     1
  0
VISUALSTYLE
  5
34
102
{ACAD_REACTORS
330
2A
102
}
330
2A
100
AcDbVisualStyle
  2
Conceptual
 70
     9
177
     3
291
     0
 70
    58
 90
        3
176
     1
 90
        2
176
     1
 90
        0
176
     1
 90
        0
176
     1
 40
0.6
176
     1
 40
30.0
176
     1
 62
     7
420
 16777215
176
     1
 90
        2
176
     1
 90
        2
176
     1
 62
     7
176
     1
 62
   257
176
     1
 90
        1
176
     1
 90
        1
176
     1
 40
179.0
176
     1
 90
        8
176
     1
 62
     7
176
     1
 40
1.0
176
     1
 90
        1
176
     1
 90
        6
176
     1
 90
        2
176
     1
 62
     7
176
     1
 90
        3
176
     1
 90
        0
176
     1
 90
        0
176
     1
290
     0
176
     1
 90
        1
176
     1
 40
0.0
176
     1
 90
        0
176
     1
290
     0
176
     1
290
     1
176
     1
290
     1
176
     1
290
     0
176
     1
290
     0
176
     1
290
     0
176
     1
290
     0
176
     1
290
     0
176
     1
290
     0
176
     1
 90
       50
176
     1
 40
0.0
176
     1
 40
1.0
176
     1
 90
        0
176
     1
 62
    18
420
        0
176
     1
 90
       50
176
     1
 90
        3
176
     1
 62
     5
420
      255
176
     1
290
     0
176
     1
 90
       50
176
     1
 90
       50
176
     1
 90
       50
176
     1
290
     0
176
     1
 90
       50
176
     1
 62
   256
176
     0
 40
1.0
176
     0
 90
        2
176
     1
  1
strokes_ogs.tif
176
     1
290
     0
176
     1
 40
1.0
176
     1
 40
1.0
176
     1
  0
VISUALSTYLE
  5
35
102
{ACAD_REACTORS
330
2A
102
}
330
2A
100
AcDbVisualStyle
  2
Dim
 70
    11
177
     3
291
     1
 70
    58
 90
        2
176
     1
 90
        2
176
     1
 90
        0
176
     1
 90
        0
176
     1
 40
0.6
176
     1
 40
30.0
176
     1
 62
     7
420
 16777215
176
     1
 90
        1
176
     1
 90
        4
176
     1
 62
     7
176
     1
 62
   257
176
     1
 90
        1
176
     1
 90
        1
176
     1
 40
1.0
176
     1
 90
        8
176
     1
 62
     7
176
     1
 40
1.0
176
     1
 90
        1
176
     1
 90
        6
176
     1
 90
        2
176
     1
 62
     7
176
     1
 90
        5
176
     1
 90
        0
176
     1
 90
        0
176
     1
290
     0
176
     1
 90
        1
176
     1
 40
-50.0
176
     1
 90
        0
176
     1
290
     0
176
     1
290
     1
176
     1
290
     1
176
     1
290
     0
176
     1
290
     0
176
     1
290
     0
176
     1
290
     0
176
     1
290
     0
176
     1
290
     0
176
     1
 90
       50
176
     1
 40
0.0
176
     1
 40
1.0
176
     1
 90
        0
176
     1
 62
    18
420
        0
176
     1
 90
       50
176
     1
 90
        3
176
     1
 62
     5
420
      255
176
     1
290
     0
176
     1
 90
       50
176
     1
 90
       50
176
     1
 90
       50
176
     1
290
     0
176
     1
 90
       50
176
     1
 62
   256
176
     0
 40
1.0
176
     0
 90
        2
176
     1
  1
strokes_ogs.tif
176
     1
290
     0
176
     1
 40
1.0
176
     1
 40
1.0
176
     1
  0
VISUALSTYLE
  5
3D
102
{ACAD_REACTORS
330
2A
102
}
330
2A
100
AcDbVisualStyle
  2
EdgeColorOff
 70
    22
177
     3
291
     1
 70
    58
 90
        2
176
     0
 90
        2
176
     0
 90
        0
176
     0
 90
        0
176
     0
 40
0.6
176
     0
 40
30.0
176
     0
 62
     7
420
 16777215
176
     0
 90
        1
176
     0
 90
        4
176
     0
 62
     7
176
     0
 62
   257
176
     0
 90
        1
176
     0
 90
        1
176
     0
 40
1.0
176
     0
 90
        8
176
     2
 62
     7
176
     0
 40
1.0
176
     0
 90
        1
176
     0
 90
        6
176
     0
 90
        2
176
     0
 62
     7
176
     0
 90
        5
176
     0
 90
        0
176
     0
 90
        0
176
     0
290
     0
176
     0
 90
        1
176
     0
 40
0.0
176
     0
 90
        0
176
     0
290
     0
176
     0
290
     1
176
     0
290
     1
176
     0
290
     0
176
     0
290
     0
176
     0
290
     0
176
     0
290
     0
176
     0
290
     0
176
     0
290
     0
176
     0
 90
       50
176
     0
 40
0.0
176
     0
 40
1.0
176
     0
 90
        0
176
     0
 62
    18
420
        0
176
     0
 90
       50
176
     0
 90
        3
176
     0
 62
     5
420
      255
176
     0
290
     0
176
     0
 90
       50
176
     0
 90
       50
176
     0
 90
       50
176
     0
290
     0
176
     0
 90
       50
176
     0
 62
   256
176
     0
 40
1.0
176
     0
 90
        2
176
     0
  1
strokes_ogs.tif
176
     0
290
     0
176
     0
 40
1.0
176
     0
 40
1.0
176
     0
  0
VISUALSTYLE
  5
39
102
{ACAD_REACTORS
330
2A
102
}
330
2A
100
AcDbVisualStyle
  2
Facepattern
 70
    15
177
     3
291
     1
 70
    58
 90
        2
176
     1
 90
        2
176
     1
 90
        0
176
     1
 90
        0
176
     1
 40
0.6
176
     1
 40
30.0
176
     1
 62
     7
420
 16777215
176
     1
 90
        1
176
     1
 90
        4
176
     1
 62
     7
176
     1
 62
   257
176
     1
 90
        1
176
     1
 90
        1
176
     1
 40
1.0
176
     1
 90
        8
176
     1
 62
     7
176
     1
 40
1.0
176
     1
 90
        1
176
     1
 90
        6
176
     1
 90
        2
176
     1
 62
     7
176
     1
 90
        5
176
     1
 90
        0
176
     1
 90
        0
176
     1
290
     0
176
     1
 90
        1
176
     1
 40
0.0
176
     1
 90
        0
176
     1
290
     0
176
     1
290
     1
176
     1
290
     1
176
     1
290
     0
176
     1
290
     0
176
     1
290
     0
176
     1
290
     0
176
     1
290
     0
176
     1
290
     0
176
     1
 90
       50
176
     1
 40
0.0
176
     1
 40
1.0
176
     1
 90
        0
176
     1
 62
    18
420
        0
176
     1
 90
       50
176
     1
 90
        3
176
     1
 62
     5
420
      255
176
     1
290
     0
176
     1
 90
       50
176
     1
 90
       50
176
     1
 90
       50
176
     1
290
     0
176
     1
 90
       50
176
     1
 62
   256
176
     0
 40
1.0
176
     0
 90
        2
176
     1
  1
strokes_ogs.tif
176
     1
290
     0
176
     1
 40
1.0
176
     1
 40
1.0
176
     1
  0
VISUALSTYLE
  5
2B
102
{ACAD_REACTORS
330
2A
102
}
330
2A
100
AcDbVisualStyle
  2
Flat
 70
     0
177
     3
291
     1
 70
    58
 90
        2
176
     1
 90
        1
176
     1
 90
        1
176
     1
 90
        2
176
     1
 40
0.6
176
     1
 40
30.0
176
     1
 62
     7
420
 16777215
176
     1
 90
        0
176
     1
 90
        0
176
     1
 62
     7
176
     1
 62
   257
176
     1
 90
        1
176
     1
 90
        1
176
     1
 40
1.0
176
     1
 90
        8
176
     1
 62
     7
176
     1
 40
1.0
176
     1
 90
        1
176
     1
 90
        6
176
     1
 90
        2
176
     1
 62
     7
176
     1
 90
        5
176
     1
 90
        0
176
     1
 90
        0
176
     1
290
     0
176
     1
 90
       13
176
     1
 40
0.0
176
     1
 90
        0
176
     1
290
     0
176
     1
290
     1
176
     1
290
     1
176
     1
290
     0
176
     1
290
     0
176
     1
290
     0
176
     1
290
     0
176
     1
290
     0
176
     1
290
     0
176
     1
 90
       50
176
     1
 40
0.0
176
     1
 40
1.0
176
     1
 90
        0
176
     1
 62
    18
420
        0
176
     1
 90
       50
176
     1
 90
        3
176
     1
 62
     5
420
      255
176
     1
290
     0
176
     1
 90
       50
176
     1
 90
       50
176
     1
 90
       50
176
     1
290
     0
176
     1
 90
       50
176
     1
 62
   256
176
     0
 40
1.0
176
     0
 90
        2
176
     1
  1
strokes_ogs.tif
176
     1
290
     0
176
     1
 40
1.0
176
     1
 40
1.0
176
     1
  0
VISUALSTYLE
  5
2C
102
{ACAD_REACTORS
330
2A
102
}
330
2A
100
AcDbVisualStyle
  2
FlatWithEdges
 70
     1
177
     3
291
     1
 70
    58
 90
        2
176
     1
 90
        1
176
     1
 90
        1
176
     1
 90
        2
176
     1
 40
0.6
176
     1
 40
30.0
176
     1
 62
     7
420
 16777215
176
     1
 90
        1
176
     1
 90
        0
176
     1
 62
     7
176
     1
 62
   257
176
     1
 90
        1
176
     1
 90
        1
176
     1
 40
1.0
176
     1
 90
        0
176
     1
 62
   257
176
     1
 40
1.0
176
     1
 90
        1
176
     1
 90
        6
176
     1
 90
        2
176
     1
 62
     7
176
     1
 90
        5
176
     1
 90
        0
176
     1
 90
        0
176
     1
290
     0
176
     1
 90
       13
176
     1
 40
0.0
176
     1
 90
        0
176
     1
290
     0
176
     1
290
     1
176
     1
290
     1
176
     1
290
     0
176
     1
290
     0
176
     1
290
     0
176
     1
290
     0
176
     1
290
     0
176
     1
290
     0
176
     1
 90
       50
176
     1
 40
0.0
176
     1
 40
1.0
176
     1
 90
        0
176
     1
 62
    18
420
        0
176
     1
 90
       50
176
     1
 90
        3
176
     1
 62
     5
420
      255
176
     1
290
     0
176
     1
 90
       50
176
     1
 90
       50
176
     1
 90
       50
176
     1
290
     0
176
     1
 90
       50
176
     1
 62
   256
176
     0
 40
1.0
176
     0
 90
        2
176
     1
  1
strokes_ogs.tif
176
     1
290
     0
176
     1
 40
1.0
176
     1
 40
1.0
176
     1
  0
VISUALSTYLE
  5
2D
102
{ACAD_REACTORS
330
2A
102
}
330
2A
100
AcDbVisualStyle
  2
Gouraud
 70
     2
177
     3
291
     1
 70
    58
 90
        2
176
     1
 90
        2
176
     1
 90
        1
176
     1
 90
        2
176
     1
 40
0.6
176
     1
 40
30.0
176
     1
 62
     7
420
 16777215
176
     1
 90
        0
176
     1
 90
        0
176
     1
 62
     7
176
     1
 62
   257
176
     1
 90
        1
176
     1
 90
        1
176
     1
 40
1.0
176
     1
 90
        0
176
     1
 62
     7
176
     1
 40
1.0
176
     1
 90
        1
176
     1
 90
        6
176
     1
 90
        2
176
     1
 62
     7
176
     1
 90
        5
176
     1
 90
        0
176
     1
 90
        0
176
     1
290
     0
176
     1
 90
       13
176
     1
 40
0.0
176
     1
 90
        0
176
     1
290
     0
176
     1
290
     1
176
     1
290
     1
176
     1
290
     0
176
     1
290
     0
176
     1
290
     0
176
     1
290
     0
176
     1
290
     0
176
     1
290
     0
176
     1
 90
       50
176
     1
 40
0.0
176
     1
 40
1.0
176
     1
 90
        0
176
     1
 62
    18
420
        0
176
     1
 90
       50
176
     1
 90
        3
176
     1
 62
     5
420
      255
176
     1
290
     0
176
     1
 90
       50
176
     1
 90
       50
176
     1
 90
       50
176
     1
290
     0
176
     1
 90
       50
176
     1
 62
   256
176
     0
 40
1.0
176
     0
 90
        2
176
     1
  1
strokes_ogs.tif
176
     1
290
     0
176
     1
 40
1.0
176
     1
 40
1.0
176
     1
  0
VISUALSTYLE
  5
2E
102
{ACAD_REACTORS
330
2A
102
}
330
2A
100
AcDbVisualStyle
  2
GouraudWithEdges
 70
     3
177
     3
291
     1
 70
    58
 90
        2
176
     1
 90
        2
176
     1
 90
        1
176
     1
 90
        2
176
     1
 40
0.6
176
     1
 40
30.0
176
     1
 62
     7
420
 16777215
176
     1
 90
        1
176
     1
 90
        0
176
     1
 62
     7
176
     1
 62
   257
176
     1
 90
        1
176
     1
 90
        1
176
     1
 40
1.0
176
     1
 90
        0
176
     1
 62
   257
176
     1
 40
1.0
176
     1
 90
        1
176
     1
 90
        6
176
     1
 90
        2
176
     1
 62
     7
176
     1
 90
        5
176
     1
 90
        0
176
     1
 90
        0
176
     1
290
     0
176
     1
 90
       13
176
     1
 40
0.0
176
     1
 90
        0
176
     1
290
     0
176
     1
290
     1
176
     1
290
     1
176
     1
290
     0
176
     1
290
     0
176
     1
290
     0
176
     1
290
     0
176
     1
290
     0
176
     1
290
     0
176
     1
 90
       50
176
     1
 40
0.0
176
     1
 40
1.0
176
     1
 90
        0
176
     1
 62
    18
420
        0
176
     1
 90
       50
176
     1
 90
        3
176
     1
 62
     5
420
      255
176
     1
290
     0
176
     1
 90
       50
176
     1
 90
       50
176
     1
 90
       50
176
     1
290
     0
176
     1
 90
       50
176
     1
 62
   256
176
     0
 40
1.0
176
     0
 90
        2
176
     1
  1
strokes_ogs.tif
176
     1
290
     0
176
     1
 40
1.0
176
     1
 40
1.0
176
     1
  0
VISUALSTYLE
  5
31
102
{ACAD_REACTORS
330
2A
102
}
330
2A
100
AcDbVisualStyle
  2
Hidden
 70
     6
177
     3
291
     0
 70
    58
 90
        1
176
     1
 90
        2
176
     1
 90
        2
176
     1
 90
        0
176
     1
 40
0.6
176
     1
 40
30.0
176
     1
 62
     7
420
 16777215
176
     1
 90
        2
176
     1
 90
        2
176
     1
 62
     7
176
     1
 62
   257
176
     1
 90
        2
176
     1
 90
        1
176
     1
 40
40.0
176
     1
 90
        0
176
     1
 62
   257
176
     1
 40
1.0
176
     1
 90
        1
176
     1
 90
        6
176
     1
 90
        2
176
     1
 62
     7
176
     1
 90
        3
176
     1
 90
        0
176
     1
 90
        0
176
     1
290
     0
176
     1
 90
        1
176
     1
 40
0.0
176
     1
 90
        0
176
     1
290
     0
176
     1
290
     1
176
     1
290
     1
176
     1
290
     0
176
     1
290
     0
176
     1
290
     0
176
     1
290
     0
176
     1
290
     0
176
     1
290
     0
176
     1
 90
       50
176
     1
 40
0.0
176
     1
 40
1.0
176
     1
 90
        0
176
     1
 62
    18
420
        0
176
     1
 90
       50
176
     1
 90
        3
176
     1
 62
     5
420
      255
176
     1
290
     0
176
     1
 90
       50
176
     1
 90
       50
176
     1
 90
       50
176
     1
290
     0
176
     1
 90
       50
176
     1
 62
   256
176
     0
 40
1.0
176
     0
 90
        2
176
     1
  1
strokes_ogs.tif
176
     1
290
     0
176
     1
 40
1.0
176
     1
 40
1.0
176
     1
  0
VISUALSTYLE
  5
3B
102
{ACAD_REACTORS
330
2A
102
}
330
2A
100
AcDbVisualStyle
  2
JitterOff
 70
    20
177
     3
291
     1
 70
    58
 90
        2
176
     0
 90
        2
176
     0
 90
        0
176
     0
 90
        0
176
     0
 40
0.6
176
     0
 40
30.0
176
     0
 62
     7
420
 16777215
176
     0
 90
        1
176
     0
 90
        4
176
     0
 62
     7
176
     0
 62
   257
176
     0
 90
        1
176
     0
 90
        1
176
     0
 40
1.0
176
     0
 90
       10
176
     2
 62
     7
176
     0
 40
1.0
176
     0
 90
        1
176
     0
 90
        6
176
     0
 90
        2
176
     0
 62
     7
176
     0
 90
        5
176
     0
 90
        0
176
     0
 90
        0
176
     0
290
     0
176
     0
 90
        1
176
     0
 40
0.0
176
     0
 90
        0
176
     0
290
     0
176
     0
290
     1
176
     0
290
     1
176
     0
290
     0
176
     0
290
     0
176
     0
290
     0
176
     0
290
     0
176
     0
290
     0
176
     0
290
     0
176
     0
 90
       50
176
     0
 40
0.0
176
     0
 40
1.0
176
     0
 90
        0
176
     0
 62
    18
420
        0
176
     0
 90
       50
176
     0
 90
        3
176
     0
 62
     5
420
      255
176
     0
290
     0
176
     0
 90
       50
176
     0
 90
       50
176
     0
 90
       50
176
     0
290
     0
176
     0
 90
       50
176
     0
 62
   256
176
     0
 40
1.0
176
     0
 90
        2
176
     0
  1
strokes_ogs.tif
176
     0
290
     0
176
     0
 40
1.0
176
     0
 40
1.0
176
     0
  0
VISUALSTYLE
  5
38
102
{ACAD_REACTORS
330
2A
102
}
330
2A
100
AcDbVisualStyle
  2
Linepattern
 70
    14
177
     3
291
     1
 70
    58
 90
        2
176
     1
 90
        2
176
     1
 90
        0
176
     1
 90
        0
176
     1
 40
0.6
176
     1
 40
30.0
176
     1
 62
     7
420
 16777215
176
     1
 90
        1
176
     1
 90
        4
176
     1
 62
     7
176
     1
 62
   257
176
     1
 90
        7
176
     1
 90
        7
176
     1
 40
1.0
176
     1
 90
        8
176
     1
 62
     7
176
     1
 40
1.0
176
     1
 90
        1
176
     1
 90
        6
176
     1
 90
        2
176
     1
 62
     7
176
     1
 90
        5
176
     1
 90
        0
176
     1
 90
        0
176
     1
290
     0
176
     1
 90
        1
176
     1
 40
0.0
176
     1
 90
        0
176
     1
290
     0
176
     1
290
     1
176
     1
290
     1
176
     1
290
     0
176
     1
290
     0
176
     1
290
     0
176
     1
290
     0
176
     1
290
     0
176
     1
290
     0
176
     1
 90
       50
176
     1
 40
0.0
176
     1
 40
1.0
176
     1
 90
        0
176
     1
 62
    18
420
        0
176
     1
 90
       50
176
     1
 90
        3
176
     1
 62
     5
420
      255
176
     1
290
     0
176
     1
 90
       50
176
     1
 90
       50
176
     1
 90
       50
176
     1
290
     0
176
     1
 90
       50
176
     1
 62
   256
176
     0
 40
1.0
176
     0
 90
        2
176
     1
  1
strokes_ogs.tif
176
     1
290
     0
176
     1
 40
1.0
176
     1
 40
1.0
176
     1
  0
VISUALSTYLE
  5
3C
102
{ACAD_REACTORS
330
2A
102
}
330
2A
100
AcDbVisualStyle
  2
OverhangOff
 70
    21
177
     3
291
     1
 70
    58
 90
        2
176
     0
 90
        2
176
     0
 90
        0
176
     0
 90
        0
176
     0
 40
0.6
176
     0
 40
30.0
176
     0
 62
     7
420
 16777215
176
     0
 90
        1
176
     0
 90
        4
176
     0
 62
     7
176
     0
 62
   257
176
     0
 90
        1
176
     0
 90
        1
176
     0
 40
1.0
176
     0
 90
        9
176
     2
 62
     7
176
     0
 40
1.0
176
     0
 90
        1
176
     0
 90
        6
176
     0
 90
        2
176
     0
 62
     7
176
     0
 90
        5
176
     0
 90
        0
176
     0
 90
        0
176
     0
290
     0
176
     0
 90
        1
176
     0
 40
0.0
176
     0
 90
        0
176
     0
290
     0
176
     0
290
     1
176
     0
290
     1
176
     0
290
     0
176
     0
290
     0
176
     0
290
     0
176
     0
290
     0
176
     0
290
     0
176
     0
290
     0
176
     0
 90
       50
176
     0
 40
0.0
176
     0
 40
1.0
176
     0
 90
        0
176
     0
 62
    18
420
        0
176
     0
 90
       50
176
     0
 90
        3
176
     0
 62
     5
420
      255
176
     0
290
     0
176
     0
 90
       50
176
     0
 90
       50
176
     0
 90
       50
176
     0
290
     0
176
     0
 90
       50
176
     0
 62
   256
176
     0
 40
1.0
176
     0
 90
        2
176
     0
  1
strokes_ogs.tif
176
     0
290
     0
176
     0
 40
1.0
176
     0
 40
1.0
176
     0
  0
VISUALSTYLE
  5
33
102
{ACAD_REACTORS
330
2A
102
}
330
2A
100
AcDbVisualStyle
  2
Realistic
 70
     8
177
     3
291
     0
 70
    58
 90
        2
176
     1
 90
        3
176
     1
 90
        0
176
     1
 90
        2
176
     1
 40
0.6
176
     1
 40
30.0
176
     1
 62
     7
420
 16777215
176
     1
 90
        0
176
     1
 90
        0
176
     1
 62
     7
176
     1
 62
   257
176
     1
 90
        1
176
     1
 90
        1
176
     1
 40
1.0
176
     1
 90
        8
176
     1
 62
   257
176
     1
 40
1.0
176
     1
 90
        1
176
     1
 90
        6
176
     1
 90
        2
176
     1
 62
     7
176
     1
 90
        3
176
     1
 90
        0
176
     1
 90
        0
176
     1
290
     0
176
     1
 90
       13
176
     1
 40
0.0
176
     1
 90
        0
176
     1
290
     0
176
     1
290
     1
176
     1
290
     1
176
     1
290
     0
176
     1
290
     0
176
     1
290
     0
176
     1
290
     0
176
     1
290
     0
176
     1
290
     0
176
     1
 90
       50
176
     1
 40
0.0
176
     1
 40
1.0
176
     1
 90
        0
176
     1
 62
    18
420
        0
176
     1
 90
       50
176
     1
 90
        3
176
     1
 62
     5
420
      255
176
     1
290
     0
176
     1
 90
       50
176
     1
 90
       50
176
     1
 90
       50
176
     1
290
     0
176
     1
 90
       50
176
     1
 62
   256
176
     0
 40
1.0
176
     0
 90
        2
176
     1
  1
strokes_ogs.tif
176
     1
290
     0
176
     1
 40
1.0
176
     1
 40
1.0
176
     1
  0
VISUALSTYLE
  5
42
102
{ACAD_REACTORS
330
2A
102
}
330
2A
100
AcDbVisualStyle
  2
Shaded
 70
    27
177
     3
291
     0
 70
    58
 90
        2
176
     1
 90
        2
176
     1
 90
        1
176
     1
 90
        2
176
     1
 40
0.6
176
     1
 40
30.0
176
     1
 62
     7
420
 16777215
176
     1
 90
        0
176
     1
 90
        4
176
     1
 62
     7
176
     1
 62
   257
176
     1
 90
        1
176
     1
 90
        1
176
     1
 40
1.0
176
     1
 90
        8
176
     1
 62
   257
176
     1
 40
1.0
176
     1
 90
        1
176
     1
 90
        6
176
     1
 90
        2
176
     1
 62
     8
420
  7895160
176
     1
 90
        3
176
     1
 90
        0
176
     1
 90
        0
176
     1
290
     0
176
     1
 90
        5
176
     1
 40
0.0
176
     1
 90
        0
176
     1
290
     0
176
     1
290
     1
176
     1
290
     1
176
     1
290
     0
176
     1
290
     0
176
     1
290
     0
176
     1
290
     0
176
     1
290
     0
176
     1
290
     0
176
     1
 90
       50
176
     1
 40
0.0
176
     1
 40
1.0
176
     1
 90
        0
176
     1
 62
    18
420
        0
176
     1
 90
       50
176
     1
 90
        3
176
     1
 62
     5
420
      255
176
     1
290
     0
176
     1
 90
       50
176
     1
 90
       50
176
     1
 90
       50
176
     1
290
     0
176
     1
 90
       50
176
     1
 62
   256
176
     0
 40
1.0
176
     0
 90
        2
176
     1
  1
strokes_ogs.tif
176
     1
290
     0
176
     1
 40
1.0
176
     1
 40
1.0
176
     1
  0
VISUALSTYLE
  5
41
102
{ACAD_REACTORS
330
2A
102
}
330
2A
100
AcDbVisualStyle
  2
Shaded with edges
 70
    26
177
     3
291
     0
 70
    58
 90
        2
176
     1
 90
        2
176
     1
 90
        1
176
     1
 90
        2
176
     1
 40
0.6
176
     1
 40
30.0
176
     1
 62
     7
420
 16777215
176
     1
 90
        1
176
     1
 90
       10
176
     1
 62
     7
176
     1
 62
   257
176
     1
 90
        2
176
     1
 90
        1
176
     1
 40
1.0
176
     1
 90
        8
176
     1
 62
   257
176
     1
 40
1.0
176
     1
 90
        1
176
     1
 90
        6
176
     1
 90
        2
176
     1
 62
     7
176
     1
 90
        3
176
     1
 90
        0
176
     1
 90
        0
176
     1
290
     0
176
     1
 90
        5
176
     1
 40
0.0
176
     1
 90
        0
176
     1
290
     0
176
     1
290
     1
176
     1
290
     1
176
     1
290
     0
176
     1
290
     0
176
     1
290
     0
176
     1
290
     0
176
     1
290
     0
176
     1
290
     0
176
     1
 90
       50
176
     1
 40
0.0
176
     1
 40
1.0
176
     1
 90
        0
176
     1
 62
    18
420
        0
176
     1
 90
       50
176
     1
 90
        3
176
     1
 62
     5
420
      255
176
     1
290
     0
176
     1
 90
       50
176
     1
 90
       50
176
     1
 90
       50
176
     1
290
     0
176
     1
 90
       50
176
     1
 62
   256
176
     0
 40
1.0
176
     0
 90
        2
176
     1
  1
strokes_ogs.tif
176
     1
290
     0
176
     1
 40
1.0
176
     1
 40
1.0
176
     1
  0
VISUALSTYLE
  5
3E
102
{ACAD_REACTORS
330
2A
102
}
330
2A
100
AcDbVisualStyle
  2
Shades of Gray
 70
    23
177
     3
291
     0
 70
    58
 90
        2
176
     1
 90
        2
176
     1
 90
        3
176
     1
 90
        0
176
     1
 40
0.6
176
     1
 40
30.0
176
     1
 62
     7
420
 16777215
176
     1
 90
        2
176
     1
 90
        2
176
     1
 62
     7
176
     1
 62
     7
176
     1
 90
        1
176
     1
 90
        1
176
     1
 40
40.0
176
     1
 90
        8
176
     1
 62
     7
176
     1
 40
1.0
176
     1
 90
        1
176
     1
 90
        6
176
     1
 90
        2
176
     1
 62
     7
176
     1
 90
        3
176
     1
 90
        0
176
     1
 90
        0
176
     1
290
     0
176
     1
 90
        1
176
     1
 40
0.0
176
     1
 90
        0
176
     1
290
     0
176
     1
290
     1
176
     1
290
     1
176
     1
290
     0
176
     1
290
     0
176
     1
290
     0
176
     1
290
     0
176
     1
290
     0
176
     1
290
     0
176
     1
 90
       50
176
     1
 40
0.0
176
     1
 40
1.0
176
     1
 90
        0
176
     1
 62
    18
420
        0
176
     1
 90
       50
176
     1
 90
        3
176
     1
 62
     5
420
      255
176
     1
290
     0
176
     1
 90
       50
176
     1
 90
       50
176
     1
 90
       50
176
     1
290
     0
176
     1
 90
       50
176
     1
 62
   256
176
     0
 40
1.0
176
     0
 90
        2
176
     1
  1
strokes_ogs.tif
176
     1
290
     0
176
     1
 40
1.0
176
     1
 40
1.0
176
     1
  0
VISUALSTYLE
  5
3F
102
{ACAD_REACTORS
330
2A
102
}
330
2A
100
AcDbVisualStyle
  2
Sketchy
 70
    24
177
     3
291
     0
 70
    58
 90
        1
176
     1
 90
        2
176
     1
 90
        2
176
     1
 90
        0
176
     1
 40
0.6
176
     1
 40
30.0
176
     1
 62
     7
420
 16777215
176
     1
 90
        2
176
     1
 90
        2
176
     1
 62
     7
176
     1
 62
     7
176
     1
 90
        1
176
     1
 90
        1
176
     1
 40
40.0
176
     1
 90
       11
176
     1
 62
     7
176
     1
 40
1.0
176
     1
 90
        1
176
     1
 90
        6
176
     1
 90
        2
176
     1
 62
     7
176
     1
 90
        6
176
     1
 90
        0
176
     1
 90
        0
176
     1
290
     0
176
     1
 90
        1
176
     1
 40
0.0
176
     1
 90
        0
176
     1
290
     0
176
     1
290
     1
176
     1
290
     1
176
     1
290
     0
176
     1
290
     0
176
     1
290
     0
176
     1
290
     0
176
     1
290
     0
176
     1
290
     0
176
     1
 90
       50
176
     1
 40
0.0
176
     1
 40
1.0
176
     1
 90
        0
176
     1
 62
    18
420
        0
176
     1
 90
       50
176
     1
 90
        3
176
     1
 62
     5
420
      255
176
     1
290
     0
176
     1
 90
       50
176
     1
 90
       50
176
     1
 90
       50
176
     1
290
     0
176
     1
 90
       50
176
     1
 62
   256
176
     0
 40
1.0
176
     0
 90
        2
176
     1
  1
strokes_ogs.tif
176
     1
290
     0
176
     1
 40
1.0
176
     1
 40
1.0
176
     1
  0
VISUALSTYLE
  5
37
102
{ACAD_REACTORS
330
2A
102
}
330
2A
100
AcDbVisualStyle
  2
Thicken
 70
    13
177
     3
291
     1
 70
    58
 90
        2
176
     1
 90
        2
176
     1
 90
        0
176
     1
 90
        0
176
     1
 40
0.6
176
     1
 40
30.0
176
     1
 62
     7
420
 16777215
176
     1
 90
        1
176
     1
 90
        4
176
     1
 62
     7
176
     1
 62
   257
176
     1
 90
        1
176
     1
 90
        1
176
     1
 40
1.0
176
     1
 90
       12
176
     1
 62
     7
176
     1
 40
1.0
176
     1
 90
        1
176
     1
 90
        6
176
     1
 90
        2
176
     1
 62
     7
176
     1
 90
        5
176
     1
 90
        0
176
     1
 90
        0
176
     1
290
     0
176
     1
 90
        1
176
     1
 40
0.0
176
     1
 90
        0
176
     1
290
     0
176
     1
290
     1
176
     1
290
     1
176
     1
290
     0
176
     1
290
     0
176
     1
290
     0
176
     1
290
     0
176
     1
290
     0
176
     1
290
     0
176
     1
 90
       50
176
     1
 40
0.0
176
     1
 40
1.0
176
     1
 90
        0
176
     1
 62
    18
420
        0
176
     1
 90
       50
176
     1
 90
        3
176
     1
 62
     5
420
      255
176
     1
290
     0
176
     1
 90
       50
176
     1
 90
       50
176
     1
 90
       50
176
     1
290
     0
176
     1
 90
       50
176
     1
 62
   256
176
     0
 40
1.0
176
     0
 90
        2
176
     1
  1
strokes_ogs.tif
176
     1
290
     0
176
     1
 40
1.0
176
     1
 40
1.0
176
     1
  0
VISUALSTYLE
  5
30
102
{ACAD_REACTORS
330
2A
102
}
330
2A
100
AcDbVisualStyle
  2
Wireframe
 70
     5
177
     3
291
     0
 70
    58
 90
        0
176
     1
 90
        2
176
     1
 90
        0
176
     1
 90
        0
176
     1
 40
0.6
176
     1
 40
30.0
176
     1
 62
     7
420
 16777215
176
     1
 90
        1
176
     1
 90
        4
176
     1
 62
     7
176
     1
 62
   257
176
     1
 90
        1
176
     1
 90
        1
176
     1
 40
1.0
176
     1
 90
        0
176
     1
 62
   257
176
     1
 40
1.0
176
     1
 90
        1
176
     1
 90
        6
176
     1
 90
        2
176
     1
 62
     7
176
     1
 90
        3
176
     1
 90
        0
176
     1
 90
        0
176
     1
290
     0
176
     1
 90
        1
176
     1
 40
0.0
176
     1
 90
        0
176
     1
290
     0
176
     1
290
     1
176
     1
290
     1
176
     1
290
     0
176
     1
290
     0
176
     1
290
     0
176
     1
290
     0
176
     1
290
     0
176
     1
290
     0
176
     1
 90
       50
176
     1
 40
0.0
176
     1
 40
1.0
176
     1
 90
        0
176
     1
 62
    18
420
        0
176
     1
 90
       50
176
     1
 90
        3
176
     1
 62
     5
420
      255
176
     1
290
     0
176
     1
 90
       50
176
     1
 90
       50
176
     1
 90
       50
176
     1
290
     0
176
     1
 90
       50
176
     1
 62
   256
176
     0
 40
1.0
176
     0
 90
        2
176
     1
  1
strokes_ogs.tif
176
     1
290
     0
176
     1
 40
1.0
176
     1
 40
1.0
176
     1
  0
VISUALSTYLE
  5
40
102
{ACAD_REACTORS
330
2A
102
}
330
2A
100
AcDbVisualStyle
  2
X-Ray
 70
    25
177
     3
291
     0
 70
    58
 90
        2
176
     1
 90
        2
176
     1
 90
        1
176
     1
 90
        1
176
     1
 40
0.5
176
     1
 40
30.0
176
     1
 62
     7
420
 16777215
176
     1
 90
        1
176
     1
 90
        0
176
     1
 62
     7
176
     1
 62
   257
176
     1
 90
        1
176
     1
 90
        1
176
     1
 40
1.0
176
     1
 90
        8
176
     1
 62
     7
176
     1
 40
1.0
176
     1
 90
        1
176
     1
 90
        6
176
     1
 90
        2
176
     1
 62
     7
176
     1
 90
        3
176
     1
 90
        0
176
     1
 90
        0
176
     1
290
     0
176
     1
 90
       13
176
     1
 40
0.0
176
     1
 90
        0
176
     1
290
     0
176
     1
290
     1
176
     1
290
     1
176
     1
290
     0
176
     1
290
     0
176
     1
290
     0
176
     1
290
     0
176
     1
290
     0
176
     1
290
     0
176
     1
 90
       50
176
     1
 40
0.0
176
     1
 40
1.0
176
     1
 90
        0
176
     1
 62
    18
420
        0
176
     1
 90
       50
176
     1
 90
        3
176
     1
 62
     5
420
      255
176
     1
290
     0
176
     1
 90
       50
176
     1
 90
       50
176
     1
 90
       50
176
     1
290
     0
176
     1
 90
       50
176
     1
 62
   256
176
     0
 40
1.0
176
     0
 90
        2
176
     1
  1
strokes_ogs.tif
176
     1
290
     0
176
     1
 40
1.0
176
     1
 40
1.0
176
     1
  0
DICTIONARYVAR
  5
22C
102
{ACAD_REACTORS
330
22B
102
}
330
22B
100
DictionaryVariables
280
     0
  1
1:1
  0
DICTIONARYVAR
  5
231
102
{ACAD_REACTORS
330
22B
102
}
330
22B
100
DictionaryVariables
280
     0
  1
Standard
  0
DICTIONARYVAR
  5
230
102
{ACAD_REACTORS
330
22B
102
}
330
22B
100
DictionaryVariables
280
     0
  1
Standard
  0
DICTIONARY
  5
22D
330
6A
100
AcDbDictionary
280
     1
281
     1
  3
ACAD_ROUNDTRIP_2008_TABLESTYLE_CELLSTYLEMAP
360
22E
  0
CELLSTYLEMAP
  5
22E
102
{ACAD_REACTORS
330
22D
102
}
330
22D
100
AcDbCellStyleMap
 90
        3
300
CELLSTYLE
  1
TABLEFORMAT_BEGIN
 90
        5
170
     1
 91
        0
 92
    32768
 62
   257
 93
        1
300
CONTENTFORMAT
  1
CONTENTFORMAT_BEGIN
 90
        0
 91
        0
 92
        4
 93
        0
300

 40
0.0
140
1.0
 94
        5
 62
     0
340
11
144
0.25
309
CONTENTFORMAT_END
171
     1
301
MARGIN
  1
CELLMARGIN_BEGIN
 40
0.06
 40
0.06
 40
0.06
 40
0.06
 40
0.06
 40
0.06
309
CELLMARGIN_END
 94
        6
 95
        1
302
GRIDFORMAT
  1
GRIDFORMAT_BEGIN
 90
        0
 91
        1
 62
     0
 92
       -2
340
14
 93
        0
 40
0.045
309
GRIDFORMAT_END
 95
        2
302
GRIDFORMAT
  1
GRIDFORMAT_BEGIN
 90
        0
 91
        1
 62
     0
 92
       -2
340
14
 93
        0
 40
0.045
309
GRIDFORMAT_END
 95
        4
302
GRIDFORMAT
  1
GRIDFORMAT_BEGIN
 90
        0
 91
        1
 62
     0
 92
       -2
340
14
 93
        0
 40
0.045
309
GRIDFORMAT_END
 95
        8
302
GRIDFORMAT
  1
GRIDFORMAT_BEGIN
 90
        0
 91
        1
 62
     0
 92
       -2
340
14
 93
        0
 40
0.045
309
GRIDFORMAT_END
 95
       16
302
GRIDFORMAT
  1
GRIDFORMAT_BEGIN
 90
        0
 91
        1
 62
     0
 92
       -2
340
14
 93
        0
 40
0.045
309
GRIDFORMAT_END
 95
       32
302
GRIDFORMAT
  1
GRIDFORMAT_BEGIN
 90
        0
 91
        1
 62
     0
 92
       -2
340
14
 93
        0
 40
0.045
309
GRIDFORMAT_END
309
TABLEFORMAT_END
  1
CELLSTYLE_BEGIN
 90
        1
 91
        1
300
_TITLE
309
CELLSTYLE_END
300
CELLSTYLE
  1
TABLEFORMAT_BEGIN
 90
        5
170
     1
 91
        0
 92
        0
 62
   257
 93
        1
300
CONTENTFORMAT
  1
CONTENTFORMAT_BEGIN
 90
        0
 91
        0
 92
        4
 93
        0
300

 40
0.0
140
1.0
 94
        5
 62
     0
340
11
144
0.18
309
CONTENTFORMAT_END
171
     1
301
MARGIN
  1
CELLMARGIN_BEGIN
 40
0.06
 40
0.06
 40
0.06
 40
0.06
 40
0.06
 40
0.06
309
CELLMARGIN_END
 94
        6
 95
        1
302
GRIDFORMAT
  1
GRIDFORMAT_BEGIN
 90
        0
 91
        1
 62
     0
 92
       -2
340
14
 93
        0
 40
0.045
309
GRIDFORMAT_END
 95
        2
302
GRIDFORMAT
  1
GRIDFORMAT_BEGIN
 90
        0
 91
        1
 62
     0
 92
       -2
340
14
 93
        0
 40
0.045
309
GRIDFORMAT_END
 95
        4
302
GRIDFORMAT
  1
GRIDFORMAT_BEGIN
 90
        0
 91
        1
 62
     0
 92
       -2
340
14
 93
        0
 40
0.045
309
GRIDFORMAT_END
 95
        8
302
GRIDFORMAT
  1
GRIDFORMAT_BEGIN
 90
        0
 91
        1
 62
     0
 92
       -2
340
14
 93
        0
 40
0.045
309
GRIDFORMAT_END
 95
       16
302
GRIDFORMAT
  1
GRIDFORMAT_BEGIN
 90
        0
 91
        1
 62
     0
 92
       -2
340
14
 93
        0
 40
0.045
309
GRIDFORMAT_END
 95
       32
302
GRIDFORMAT
  1
GRIDFORMAT_BEGIN
 90
        0
 91
        1
 62
     0
 92
       -2
340
14
 93
        0
 40
0.045
309
GRIDFORMAT_END
309
TABLEFORMAT_END
  1
CELLSTYLE_BEGIN
 90
        2
 91
        1
300
_HEADER
309
CELLSTYLE_END
300
CELLSTYLE
  1
TABLEFORMAT_BEGIN
 90
        5
170
     1
 91
        0
 92
        0
 62
   257
 93
        1
300
CONTENTFORMAT
  1
CONTENTFORMAT_BEGIN
 90
        0
 91
        0
 92
        4
 93
        0
300

 40
0.0
140
1.0
 94
        2
 62
     0
340
11
144
0.18
309
CONTENTFORMAT_END
171
     1
301
MARGIN
  1
CELLMARGIN_BEGIN
 40
0.06
 40
0.06
 40
0.06
 40
0.06
 40
0.06
 40
0.06
309
CELLMARGIN_END
 94
        6
 95
        1
302
GRIDFORMAT
  1
GRIDFORMAT_BEGIN
 90
        0
 91
        1
 62
     0
 92
       -2
340
14
 93
        0
 40
0.045
309
GRIDFORMAT_END
 95
        2
302
GRIDFORMAT
  1
GRIDFORMAT_BEGIN
 90
        0
 91
        1
 62
     0
 92
       -2
340
14
 93
        0
 40
0.045
309
GRIDFORMAT_END
 95
        4
302
GRIDFORMAT
  1
GRIDFORMAT_BEGIN
 90
        0
 91
        1
 62
     0
 92
       -2
340
14
 93
        0
 40
0.045
309
GRIDFORMAT_END
 95
        8
302
GRIDFORMAT
  1
GRIDFORMAT_BEGIN
 90
        0
 91
        1
 62
     0
 92
       -2
340
14
 93
        0
 40
0.045
309
GRIDFORMAT_END
 95
       16
302
GRIDFORMAT
  1
GRIDFORMAT_BEGIN
 90
        0
 91
        1
 62
     0
 92
       -2
340
14
 93
        0
 40
0.045
309
GRIDFORMAT_END
 95
       32
302
GRIDFORMAT
  1
GRIDFORMAT_BEGIN
 90
        0
 91
        1
 62
     0
 92
       -2
340
14
 93
        0
 40
0.045
309
GRIDFORMAT_END
309
TABLEFORMAT_END
  1
CELLSTYLE_BEGIN
 90
        3
 91
        2
300
_DATA
309
CELLSTYLE_END
  0
ENDSEC
  0
EOF