0
SECTION
  2
HEADER
  9
$ACADVER
  1
AC1027
  9
$ACADMAINTVER
 70
     8
  9
$DWGCODEPAGE
  3
ANSI_1252
  9
$REQUIREDVERSIONS
160
                 0
  9
$COMMENTS
  1
File was created by Cadenas
  9
$CUSTOMPROPERTYTAG
  1
NN
  9
$CUSTOMPROPERTY
  1
Imperial - IP Pillow Block with Type E Dimensions 2-1/4 thru 7 inch 4-Bolt Trident Seal Expansion
  9
$CUSTOMPROPERTYTAG
  1
NT
  9
$CUSTOMPROPERTY
  1
Imperial/E 4 Bolt Piliow Block Bearings
  9
$CUSTOMPROPERTYTAG
  1
NB
  9
$CUSTOMPROPERTY
  1
071618
  9
$CUSTOMPROPERTYTAG
  1
NBSYN
  9
$CUSTOMPROPERTY
  1
$PN.
  9
$CUSTOMPROPERTYTAG
  1
LINA
  9
$CUSTOMPROPERTY
  1
071618
  9
$CUSTOMPROPERTYTAG
  1
SS
  9
$CUSTOMPROPERTY
  1
5-7/16
  9
$CUSTOMPROPERTYTAG
  1
TYPE
  9
$CUSTOMPROPERTY
  1
Expansion
  9
$CUSTOMPROPERTYTAG
  1
PN
  9
$CUSTOMPROPERTY
  1
071618
  9
$CUSTOMPROPERTYTAG
  1
DESCRIPTION
  9
$CUSTOMPROPERTY
  1
EP4B-IP-507RE
  9
$CUSTOMPROPERTYTAG
  1
ST
  9
$CUSTOMPROPERTY
  1
Contact Seal
  9
$CUSTOMPROPERTYTAG
  1
A
  9
$CUSTOMPROPERTY
  1
6.17
  9
$CUSTOMPROPERTYTAG
  1
B
  9
$CUSTOMPROPERTY
  1
22
  9
$CUSTOMPROPERTYTAG
  1
C
  9
$CUSTOMPROPERTY
  1
6.25
  9
$CUSTOMPROPERTYTAG
  1
DMIN
  9
$CUSTOMPROPERTY
  1
17.38
  9
$CUSTOMPROPERTYTAG
  1
DMAX
  9
$CUSTOMPROPERTY
  1
19.12
  9
$CUSTOMPROPERTYTAG
  1
E
  9
$CUSTOMPROPERTY
  1
3.75
  9
$CUSTOMPROPERTYTAG
  1
F
  9
$CUSTOMPROPERTY
  1
1
  9
$CUSTOMPROPERTYTAG
  1
G
  9
$CUSTOMPROPERTY
  1
2
  9
$CUSTOMPROPERTYTAG
  1
H
  9
$CUSTOMPROPERTY
  1
3.25
  9
$CUSTOMPROPERTYTAG
  1
J
  9
$CUSTOMPROPERTY
  1
13.19
  9
$CUSTOMPROPERTYTAG
  1
L
  9
$CUSTOMPROPERTY
  1
8.75
  9
$CUSTOMPROPERTYTAG
  1
M
  9
$CUSTOMPROPERTY
  1
6.69
  9
$CUSTOMPROPERTYTAG
  1
R
  9
$CUSTOMPROPERTY
  1
1.4
  9
$CUSTOMPROPERTYTAG
  1
S
  9
$CUSTOMPROPERTY
  1
4.77
  9
$CUSTOMPROPERTYTAG
  1
X
  9
$CUSTOMPROPERTY
  1
0.38
  9
$CUSTOMPROPERTYTAG
  1
Y
  9
$CUSTOMPROPERTY
  1
0.036
  9
$CUSTOMPROPERTYTAG
  1
Z
  9
$CUSTOMPROPERTY
  1
5.92
  9
$CUSTOMPROPERTYTAG
  1
COMPANY
  9
$CUSTOMPROPERTY
  1
baldor
  9
$INSBASE
 10
0.0
 20
0.0
 30
0.0
  9
$EXTMIN
 10
1.000000000000000E+20
 20
1.000000000000000E+20
 30
1.000000000000000E+20
  9
$EXTMAX
 10
-1.000000000000000E+20
 20
-1.000000000000000E+20
 30
-1.000000000000000E+20
  9
$LIMMIN
 10
0.0
 20
0.0
  9
$LIMMAX
 10
12.0
 20
9.0
  9
$ORTHOMODE
 70
     0
  9
$REGENMODE
 70
     1
  9
$FILLMODE
 70
     1
  9
$QTEXTMODE
 70
     0
  9
$MIRRTEXT
 70
     1
  9
$LTSCALE
 40
1.0
  9
$ATTMODE
 70
     1
  9
$TEXTSIZE
 40
0.2
  9
$TRACEWID
 40
0.05
  9
$TEXTSTYLE
  7
Standard
  9
$CLAYER
  8
0
  9
$CELTYPE
  6
ByLayer
  9
$CECOLOR
 62
   256
  9
$CELTSCALE
 40
1.0
  9
$DISPSILH
 70
     0
  9
$DIMSCALE
 40
1.0
  9
$DIMASZ
 40
0.18
  9
$DIMEXO
 40
0.0625
  9
$DIMDLI
 40
0.38
  9
$DIMRND
 40
0.0
  9
$DIMDLE
 40
0.0
  9
$DIMEXE
 40
0.18
  9
$DIMTP
 40
0.0
  9
$DIMTM
 40
0.0
  9
$DIMTXT
 40
0.18
  9
$DIMCEN
 40
0.09
  9
$DIMTSZ
 40
0.0
  9
$DIMTOL
 70
     0
  9
$DIMLIM
 70
     0
  9
$DIMTIH
 70
     1
  9
$DIMTOH
 70
     1
  9
$DIMSE1
 70
     0
  9
$DIMSE2
 70
     0
  9
$DIMTAD
 70
     0
  9
$DIMZIN
 70
     0
  9
$DIMBLK
  1

  9
$DIMASO
 70
     1
  9
$DIMSHO
 70
     1
  9
$DIMPOST
  1

  9
$DIMAPOST
  1

  9
$DIMALT
 70
     0
  9
$DIMALTD
 70
     2
  9
$DIMALTF
 40
25.4
  9
$DIMLFAC
 40
1.0
  9
$DIMTOFL
 70
     0
  9
$DIMTVP
 40
0.0
  9
$DIMTIX
 70
     0
  9
$DIMSOXD
 70
     0
  9
$DIMSAH
 70
     0
  9
$DIMBLK1
  1

  9
$DIMBLK2
  1

  9
$DIMSTYLE
  2
Standard
  9
$DIMCLRD
 70
     0
  9
$DIMCLRE
 70
     0
  9
$DIMCLRT
 70
     0
  9
$DIMTFAC
 40
1.0
  9
$DIMGAP
 40
0.09
  9
$DIMJUST
 70
     0
  9
$DIMSD1
 70
     0
  9
$DIMSD2
 70
     0
  9
$DIMTOLJ
 70
     1
  9
$DIMTZIN
 70
     0
  9
$DIMALTZ
 70
     0
  9
$DIMALTTZ
 70
     0
  9
$DIMUPT
 70
     0
  9
$DIMDEC
 70
     4
  9
$DIMTDEC
 70
     4
  9
$DIMALTU
 70
     2
  9
$DIMALTTD
 70
     2
  9
$DIMTXSTY
  7
Standard
  9
$DIMAUNIT
 70
     0
  9
$DIMADEC
 70
     0
  9
$DIMALTRND
 40
0.0
  9
$DIMAZIN
 70
     0
  9
$DIMDSEP
 70
    46
  9
$DIMATFIT
 70
     3
  9
$DIMFRAC
 70
     0
  9
$DIMLDRBLK
  1

  9
$DIMLUNIT
 70
     2
  9
$DIMLWD
 70
    -2
  9
$DIMLWE
 70
    -2
  9
$DIMTMOVE
 70
     0
  9
$DIMFXL
 40
1.0
  9
$DIMFXLON
 70
     0
  9
$DIMJOGANG
 40
0.7853981633974483
  9
$DIMTFILL
 70
     0
  9
$DIMTFILLCLR
 70
     0
  9
$DIMARCSYM
 70
     0
  9
$DIMLTYPE
  6

  9
$DIMLTEX1
  6

  9
$DIMLTEX2
  6

  9
$DIMTXTDIRECTION
 70
     0
  9
$LUNITS
 70
     2
  9
$LUPREC
 70
     4
  9
$SKETCHINC
 40
0.1
  9
$FILLETRAD
 40
0.5
  9
$AUNITS
 70
     0
  9
$AUPREC
 70
     0
  9
$MENU
  1
.
  9
$ELEVATION
 40
0.0
  9
$PELEVATION
 40
0.0
  9
$THICKNESS
 40
0.0
  9
$LIMCHECK
 70
     0
  9
$CHAMFERA
 40
0.0
  9
$CHAMFERB
 40
0.0
  9
$CHAMFERC
 40
0.0
  9
$CHAMFERD
 40
0.0
  9
$SKPOLY
 70
     0
  9
$TDCREATE
 40
2458168.982177257
  9
$TDUCREATE
 40
2458168.94051059
  9
$TDUPDATE
 40
2458168.982177442
  9
$TDUUPDATE
 40
2458168.940510775
  9
$TDINDWG
 40
0.0000000116
  9
$TDUSRTIMER
 40
0.0000000116
  9
$USRTIMER
 70
     1
  9
$ANGBASE
 50
0.0
  9
$ANGDIR
 70
     0
  9
$PDMODE
 70
     0
  9
$PDSIZE
 40
0.0
  9
$PLINEWID
 40
0.0
  9
$SPLFRAME
 70
     0
  9
$SPLINETYPE
 70
     6
  9
$SPLINESEGS
 70
     8
  9
$HANDSEED
  5
273
  9
$SURFTAB1
 70
     6
  9
$SURFTAB2
 70
     6
  9
$SURFTYPE
 70
     6
  9
$SURFU
 70
     6
  9
$SURFV
 70
     6
  9
$UCSBASE
  2

  9
$UCSNAME
  2

  9
$UCSORG
 10
0.0
 20
0.0
 30
0.0
  9
$UCSXDIR
 10
1.0
 20
0.0
 30
0.0
  9
$UCSYDIR
 10
0.0
 20
1.0
 30
0.0
  9
$UCSORTHOREF
  2

  9
$UCSORTHOVIEW
 70
     0
  9
$UCSORGTOP
 10
0.0
 20
0.0
 30
0.0
  9
$UCSORGBOTTOM
 10
0.0
 20
0.0
 30
0.0
  9
$UCSORGLEFT
 10
0.0
 20
0.0
 30
0.0
  9
$UCSORGRIGHT
 10
0.0
 20
0.0
 30
0.0
  9
$UCSORGFRONT
 10
0.0
 20
0.0
 30
0.0
  9
$UCSORGBACK
 10
0.0
 20
0.0
 30
0.0
  9
$PUCSBASE
  2

  9
$PUCSNAME
  2

  9
$PUCSORG
 10
0.0
 20
0.0
 30
0.0
  9
$PUCSXDIR
 10
1.0
 20
0.0
 30
0.0
  9
$PUCSYDIR
 10
0.0
 20
1.0
 30
0.0
  9
$PUCSORTHOREF
  2

  9
$PUCSORTHOVIEW
 70
     0
  9
$PUCSORGTOP
 10
0.0
 20
0.0
 30
0.0
  9
$PUCSORGBOTTOM
 10
0.0
 20
0.0
 30
0.0
  9
$PUCSORGLEFT
 10
0.0
 20
0.0
 30
0.0
  9
$PUCSORGRIGHT
 10
0.0
 20
0.0
 30
0.0
  9
$PUCSORGFRONT
 10
0.0
 20
0.0
 30
0.0
  9
$PUCSORGBACK
 10
0.0
 20
0.0
 30
0.0
  9
$USERI1
 70
     0
  9
$USERI2
 70
     0
  9
$USERI3
 70
     0
  9
$USERI4
 70
     0
  9
$USERI5
 70
     0
  9
$USERR1
 40
0.0
  9
$USERR2
 40
0.0
  9
$USERR3
 40
0.0
  9
$USERR4
 40
0.0
  9
$USERR5
 40
0.0
  9
$WORLDVIEW
 70
     1
  9
$SHADEDGE
 70
     3
  9
$SHADEDIF
 70
    70
  9
$TILEMODE
 70
     1
  9
$MAXACTVP
 70
    64
  9
$PINSBASE
 10
0.0
 20
0.0
 30
0.0
  9
$PLIMCHECK
 70
     0
  9
$PEXTMIN
 10
1.000000000000000E+20
 20
1.000000000000000E+20
 30
1.000000000000000E+20
  9
$PEXTMAX
 10
-1.000000000000000E+20
 20
-1.000000000000000E+20
 30
-1.000000000000000E+20
  9
$PLIMMIN
 10
0.0
 20
0.0
  9
$PLIMMAX
 10
12.0
 20
9.0
  9
$UNITMODE
 70
     0
  9
$VISRETAIN
 70
     1
  9
$PLINEGEN
 70
     0
  9
$PSLTSCALE
 70
     1
  9
$TREEDEPTH
 70
  3020
  9
$CMLSTYLE
  2
Standard
  9
$CMLJUST
 70
     0
  9
$CMLSCALE
 40
1.0
  9
$PROXYGRAPHICS
 70
     1
  9
$MEASUREMENT
 70
     0
  9
$CELWEIGHT
370
    -1
  9
$ENDCAPS
280
     0
  9
$JOINSTYLE
280
     0
  9
$LWDISPLAY
290
     0
  9
$INSUNITS
 70
     1
  9
$HYPERLINKBASE
  1

  9
$STYLESHEET
  1

  9
$XEDIT
290
     1
  9
$CEPSNTYPE
380
     0
  9
$PSTYLEMODE
290
     1
  9
$FINGERPRINTGUID
  2
{95795BD9-CE38-4FB5-821C-498A31797E3A}
  9
$VERSIONGUID
  2
{FAEB1C32-E019-11D5-929B-00C0DF256EC4}
  9
$EXTNAMES
290
     1
  9
$PSVPSCALE
 40
0.0
  9
$OLESTARTUP
290
     0
  9
$SORTENTS
280
   127
  9
$INDEXCTL
280
     0
  9
$HIDETEXT
280
     1
  9
$XCLIPFRAME
280
     2
  9
$HALOGAP
280
     0
  9
$OBSCOLOR
 70
   257
  9
$OBSLTYPE
280
     0
  9
$INTERSECTIONDISPLAY
280
     0
  9
$INTERSECTIONCOLOR
 70
   257
  9
$DIMASSOC
280
     2
  9
$PROJECTNAME
  1

  9
$CAMERADISPLAY
290
     0
  9
$LENSLENGTH
 40
50.0
  9
$CAMERAHEIGHT
 40
0.0
  9
$STEPSPERSEC
 40
2.0
  9
$STEPSIZE
 40
6.0
  9
$3DDWFPREC
 40
2.0
  9
$PSOLWIDTH
 40
0.25
  9
$PSOLHEIGHT
 40
4.0
  9
$LOFTANG1
 40
1.570796326794897
  9
$LOFTANG2
 40
1.570796326794897
  9
$LOFTMAG1
 40
0.0
  9
$LOFTMAG2
 40
0.0
  9
$LOFTPARAM
 70
     7
  9
$LOFTNORMALS
280
     1
  9
$LATITUDE
 40
37.795
  9
$LONGITUDE
 40
-122.394
  9
$NORTHDIRECTION
 40
0.0
  9
$TIMEZONE
 70
 -8000
  9
$LIGHTGLYPHDISPLAY
280
     1
  9
$TILEMODELIGHTSYNCH
280
     1
  9
$CMATERIAL
347
44
  9
$SOLIDHIST
280
     0
  9
$SHOWHIST
280
     1
  9
$DWFFRAME
280
     2
  9
$DGNFRAME
280
     2
  9
$REALWORLDSCALE
290
     1
  9
$INTERFERECOLOR
 62
   256
  9
$CSHADOW
280
     0
  9
$SHADOWPLANELOCATION
 40
0.0
  0
ENDSEC
  0
SECTION
  2
CLASSES
  0
CLASS
  1
ACDBDICTIONARYWDFLT
  2
AcDbDictionaryWithDefault
  3
ObjectDBX Classes
 90
        0
 91
        4
280
     0
281
     0
  0
CLASS
  1
VISUALSTYLE
  2
AcDbVisualStyle
  3
ObjectDBX Classes
 90
     4095
 91
        4
280
     0
281
     0
  0
CLASS
  1
MATERIAL
  2
AcDbMaterial
  3
ObjectDBX Classes
 90
     1153
 91
        4
280
     0
281
     0
  0
CLASS
  1
SCALE
  2
AcDbScale
  3
ObjectDBX Classes
 90
     1153
 91
        4
280
     0
281
     0
  0
CLASS
  1
TABLESTYLE
  2
AcDbTableStyle
  3
ObjectDBX Classes
 90
     4095
 91
        4
280
     0
281
     0
  0
CLASS
  1
MLEADERSTYLE
  2
AcDbMLeaderStyle
  3
ACDB_MLEADERSTYLE_CLASS
 90
     4095
 91
        4
280
     0
281
     0
  0
CLASS
  1
SUN
  2
AcDbSun
  3
SCENEOE
 90
     1153
 91
        4
280
     0
281
     0
  0
CLASS
  1
DICTIONARYVAR
  2
AcDbDictionaryVar
  3
ObjectDBX Classes
 90
        0
 91
        4
280
     0
281
     0
  0
CLASS
  1
CELLSTYLEMAP
  2
AcDbCellStyleMap
  3
ObjectDBX Classes
 90
     1152
 91
        4
280
     0
281
     0
  0
ENDSEC
  0
SECTION
  2
TABLES
  0
TABLE
  2
VPORT
  5
8
330
0
100
AcDbSymbolTable
 70
     1
  0
VPORT
  5
29
330
8
100
AcDbSymbolTableRecord
100
AcDbViewportTableRecord
  2
*Active
 70
     0
 10
0.0
 20
0.0
 11
1.0
 21
1.0
 12
-0.6662499999999998
 22
-0.0950000000000006
 13
0.0
 23
0.0
 14
0.5
 24
0.5
 15
0.5
 25
0.5
 16
0.0
 26
0.0
 36
1.0
 17
0.0
 27
0.0
 37
0.0
 40
13.4538
 41
0.6222517058377559
 42
50.0
 43
0.0
 44
0.0
 50
0.0
 51
0.0
 71
     0
 72
   100
 73
     1
 74
     3
 75
     0
 76
     0
 77
     0
 78
     0
281
     0
 65
     1
110
0.0
120
0.0
130
0.0
111
1.0
121
0.0
131
0.0
112
0.0
122
1.0
132
0.0
 79
     0
146
0.0
348
2F
 60
     3
 61
     5
292
     1
282
     1
141
0.0
142
0.0
 63
   250
361
6D
  0
ENDTAB
  0
TABLE
  2
LTYPE
  5
5
330
0
100
AcDbSymbolTable
 70
     3
  0
LTYPE
  5
14
330
5
100
AcDbSymbolTableRecord
100
AcDbLinetypeTableRecord
  2
ByBlock
 70
     0
  3

 72
    65
 73
     0
 40
0.0
  0
LTYPE
  5
15
330
5
100
AcDbSymbolTableRecord
100
AcDbLinetypeTableRecord
  2
ByLayer
 70
     0
  3

 72
    65
 73
     0
 40
0.0
  0
LTYPE
  5
16
330
5
100
AcDbSymbolTableRecord
100
AcDbLinetypeTableRecord
  2
Continuous
 70
     0
  3
Solid line
 72
    65
 73
     0
 40
0.0
  0
LTYPE
  5
9B
330
5
100
AcDbSymbolTableRecord
100
AcDbLinetypeTableRecord
  2
Dashed
 70
     0
  3

 72
    65
 73
     2
 40
2.0
 49
1.0
 74
     0
 49
-1.0
 74
     0
  0
LTYPE
  5
1E0
330
5
100
AcDbSymbolTableRecord
100
AcDbLinetypeTableRecord
  2
Center
 70
     0
  3

 72
    65
 73
     4
 40
1.5
 49
0.45
 74
     0
 49
-0.5
 74
     0
 49
0.05
 74
     0
 49
-0.5
 74
     0
  0
ENDTAB
  0
TABLE
  2
LAYER
  5
2
330
0
100
AcDbSymbolTable
 70
     7
  0
LAYER
  5
10
330
2
100
AcDbSymbolTableRecord
100
AcDbLayerTableRecord
  2
0
 70
     0
 62
     7
  6
Continuous
370
    -3
390
F
347
46
348
0
  0
LAYER
  5
72
330
2
100
AcDbSymbolTableRecord
100
AcDbLayerTableRecord
  2
AM_6
 70
     0
 62
    -2
  6
Continuous
370
    35
390
F
347
46
348
0
  0
LAYER
  5
9C
330
2
100
AcDbSymbolTableRecord
100
AcDbLayerTableRecord
  2
AM_9
 70
     0
 62
     6
  6
Dashed
370
    25
390
F
347
46
348
0
  0
LAYER
  5
104
330
2
100
AcDbSymbolTableRecord
100
AcDbLayerTableRecord
  2
AM_5
 70
     0
 62
     3
  6
Continuous
370
    25
390
F
347
46
348
0
  0
LAYER
  5
108
330
2
100
AcDbSymbolTableRecord
100
AcDbLayerTableRecord
  2
AM_4
 70
     0
 62
     7
  6
Continuous
370
    50
390
F
347
46
348
0
  0
LAYER
  5
1E1
330
2
100
AcDbSymbolTableRecord
100
AcDbLayerTableRecord
  2
AM_7
 70
     0
 62
     7
  6
Center
370
    25
390
F
347
46
348
0
  0
LAYER
  5
25E
330
2
100
AcDbSymbolTableRecord
100
AcDbLayerTableRecord
  2
ConnectionPoints
 70
     0
 62
     7
  6
Continuous
370
    50
390
F
347
46
348
0
  0
ENDTAB
  0
TABLE
  2
STYLE
  5
3
330
0
100
AcDbSymbolTable
 70
     1
  0
STYLE
  5
11
330
3
100
AcDbSymbolTableRecord
100
AcDbTextStyleTableRecord
  2
Standard
 70
     0
 40
0.0
 41
1.0
 50
0.0
 71
     0
 42
0.2
  3
txt
  4

  0
ENDTAB
  0
TABLE
  2
VIEW
  5
6
330
0
100
AcDbSymbolTable
 70
     0
  0
ENDTAB
  0
TABLE
  2
UCS
  5
7
330
0
100
AcDbSymbolTable
 70
     0
  0
ENDTAB
  0
TABLE
  2
APPID
  5
9
330
0
100
AcDbSymbolTable
 70
     1
  0
APPID
  5
12
330
9
100
AcDbSymbolTableRecord
100
AcDbRegAppTableRecord
  2
ACAD
 70
     0
  0
ENDTAB
  0
TABLE
  2
DIMSTYLE
  5
A
330
0
100
AcDbSymbolTable
 70
     1
100
AcDbDimStyleTable
  0
DIMSTYLE
105
27
330
A
100
AcDbSymbolTableRecord
100
AcDbDimStyleTableRecord
  2
Standard
 70
     0
178
     0
340
11
  0
ENDTAB
  0
TABLE
  2
BLOCK_RECORD
  5
1
330
0
100
AcDbSymbolTable
 70
     8
  0
BLOCK_RECORD
  5
1F
330
1
100
AcDbSymbolTableRecord
100
AcDbBlockTableRecord
  2
*Model_Space
340
22
 70
     0
280
     1
281
     0
  0
BLOCK_RECORD
  5
1B
330
1
100
AcDbSymbolTableRecord
100
AcDbBlockTableRecord
  2
*Paper_Space
340
1E
 70
     0
280
     1
281
     0
  0
BLOCK_RECORD
  5
23
330
1
100
AcDbSymbolTableRecord
100
AcDbBlockTableRecord
  2
*Paper_Space0
340
26
 70
     0
280
     1
281
     0
  0
BLOCK_RECORD
  5
6E
330
1
100
AcDbSymbolTableRecord
100
AcDbBlockTableRecord
  2
1_071618_2
340
0
102
{BLKREFS
331
6F
102
}
 70
     0
280
     1
281
     0
  0
BLOCK_RECORD
  5
8F
330
1
100
AcDbSymbolTableRecord
100
AcDbBlockTableRecord
  2
2_405015E_Inch_0_in_071618_2
340
0
102
{BLKREFS
331
90
102
}
 70
     0
280
     1
281
     0
  0
BLOCK_RECORD
  5
E9
330
1
100
AcDbSymbolTableRecord
100
AcDbBlockTableRecord
  2
3_ASME_B18_3_5_16_1_0_in_071618_2
340
0
102
{BLKREFS
331
EA
102
}
 70
     0
280
     1
281
     0
  0
BLOCK_RECORD
  5
10F
330
1
100
AcDbSymbolTableRecord
100
AcDbBlockTableRecord
  2
4_ASME_B18_3_5_16_2_0_in_071618_2
340
0
102
{BLKREFS
331
110
102
}
 70
     0
280
     1
281
     0
  0
BLOCK_RECORD
  5
133
330
1
100
AcDbSymbolTableRecord
100
AcDbBlockTableRecord
  2
5_037925LWE_0_in_071618_2
340
0
102
{BLKREFS
331
134
102
}
 70
     0
280
     1
281
     0
  0
BLOCK_RECORD
  5
16C
330
1
100
AcDbSymbolTableRecord
100
AcDbBlockTableRecord
  2
6_037933E_0_in_071618_2
340
0
102
{BLKREFS
331
16D
102
}
 70
     0
280
     1
281
     0
  0
BLOCK_RECORD
  5
1F4
330
1
100
AcDbSymbolTableRecord
100
AcDbBlockTableRecord
  2
7_071618H_0_in_071618_2
340
0
102
{BLKREFS
331
1F5
102
}
 70
     0
280
     1
281
     0
  0
ENDTAB
  0
ENDSEC
  0
SECTION
  2
BLOCKS
  0
BLOCK
  5
20
330
1F
100
AcDbEntity
  8
0
100
AcDbBlockBegin
  2
*Model_Space
 70
     0
 10
0.0
 20
0.0
 30
0.0
  3
*Model_Space
  1

  0
ENDBLK
  5
21
330
1F
100
AcDbEntity
  8
0
100
AcDbBlockEnd
  0
BLOCK
  5
1C
330
1B
100
AcDbEntity
 67
     1
  8
0
100
AcDbBlockBegin
  2
*Paper_Space
 70
     0
 10
0.0
 20
0.0
 30
0.0
  3
*Paper_Space
  1

  0
ENDBLK
  5
1D
330
1B
100
AcDbEntity
 67
     1
  8
0
100
AcDbBlockEnd
  0
BLOCK
  5
24
330
23
100
AcDbEntity
  8
0
100
AcDbBlockBegin
  2
*Paper_Space0
 70
     0
 10
0.0
 20
0.0
 30
0.0
  3
*Paper_Space0
  1

  0
ENDBLK
  5
25
330
23
100
AcDbEntity
  8
0
100
AcDbBlockEnd
  0
BLOCK
  5
70
330
6E
100
AcDbEntity
  8
0
100
AcDbBlockBegin
  2
1_071618_2
 70
     2
 10
0.0
 20
0.0
 30
0.0
  3
1_071618_2
  1

  0
ATTDEF
  5
73
330
6E
100
AcDbEntity
  8
AM_6
100
AcDbText
 10
8.4375
 20
6.499999999999999
 30
0.0
 40
0.5
  1
Imperial - IP Pillow Block with Type E Dimensions 2-1/4 thru 7 inch 4-Bolt Trident Seal Expansion
100
AcDbAttributeDefinition
  3

  2
NN
 70
     8
280
     0
  0
ATTDEF
  5
74
330
6E
100
AcDbEntity
  8
AM_6
100
AcDbText
 10
8.4375
 20
5.999999999999999
 30
0.0
 40
0.5
  1
Imperial/E 4 Bolt Piliow Block Bearings
100
AcDbAttributeDefinition
  3

  2
NT
 70
     8
280
     0
  0
ATTDEF
  5
75
330
6E
100
AcDbEntity
  8
AM_6
100
AcDbText
 10
8.4375
 20
5.499999999999999
 30
0.0
 40
0.5
  1
071618
100
AcDbAttributeDefinition
  3

  2
NB
 70
     8
280
     0
  0
ATTDEF
  5
76
330
6E
100
AcDbEntity
  8
AM_6
100
AcDbText
 10
8.4375
 20
4.999999999999999
 30
0.0
 40
0.5
  1
$PN.
100
AcDbAttributeDefinition
  3

  2
NBSYN
 70
     8
280
     0
  0
ATTDEF
  5
77
330
6E
100
AcDbEntity
  8
AM_6
100
AcDbText
 10
8.4375
 20
4.499999999999999
 30
0.0
 40
0.5
  1
071618
100
AcDbAttributeDefinition
  3

  2
LINA
 70
     8
280
     0
  0
ATTDEF
  5
78
330
6E
100
AcDbEntity
  8
AM_6
100
AcDbText
 10
8.4375
 20
3.999999999999999
 30
0.0
 40
0.5
  1
5-7/16
100
AcDbAttributeDefinition
  3

  2
SS
 70
     8
280
     0
  0
ATTDEF
  5
79
330
6E
100
AcDbEntity
  8
AM_6
100
AcDbText
 10
8.4375
 20
3.499999999999999
 30
0.0
 40
0.5
  1
Expansion
100
AcDbAttributeDefinition
  3

  2
TYPE
 70
     8
280
     0
  0
ATTDEF
  5
7A
330
6E
100
AcDbEntity
  8
AM_6
100
AcDbText
 10
8.4375
 20
2.999999999999999
 30
0.0
 40
0.5
  1
071618
100
AcDbAttributeDefinition
  3

  2
PN
 70
     8
280
     0
  0
ATTDEF
  5
7B
330
6E
100
AcDbEntity
  8
AM_6
100
AcDbText
 10
8.4375
 20
2.499999999999999
 30
0.0
 40
0.5
  1
EP4B-IP-507RE
100
AcDbAttributeDefinition
  3

  2
DESCRIPTION
 70
     8
280
     0
  0
ATTDEF
  5
7C
330
6E
100
AcDbEntity
  8
AM_6
100
AcDbText
 10
8.4375
 20
1.999999999999999
 30
0.0
 40
0.5
  1
Contact Seal
100
AcDbAttributeDefinition
  3

  2
ST
 70
     8
280
     0
  0
ATTDEF
  5
7D
330
6E
100
AcDbEntity
  8
AM_6
100
AcDbText
 10
8.4375
 20
1.499999999999999
 30
0.0
 40
0.5
  1
6.17
100
AcDbAttributeDefinition
  3

  2
A
 70
     8
280
     0
  0
ATTDEF
  5
7E
330
6E
100
AcDbEntity
  8
AM_6
100
AcDbText
 10
8.4375
 20
0.9999999999999991
 30
0.0
 40
0.5
  1
22
100
AcDbAttributeDefinition
  3

  2
B
 70
     8
280
     0
  0
ATTDEF
  5
7F
330
6E
100
AcDbEntity
  8
AM_6
100
AcDbText
 10
8.4375
 20
0.4999999999999991
 30
0.0
 40
0.5
  1
6.25
100
AcDbAttributeDefinition
  3

  2
C
 70
     8
280
     0
  0
ATTDEF
  5
80
330
6E
100
AcDbEntity
  8
AM_6
100
AcDbText
 10
8.4375
 20
-0.0000000000000009
 30
0.0
 40
0.5
  1
17.38
100
AcDbAttributeDefinition
  3

  2
DMIN
 70
     8
280
     0
  0
ATTDEF
  5
81
330
6E
100
AcDbEntity
  8
AM_6
100
AcDbText
 10
8.4375
 20
-0.5000000000000009
 30
0.0
 40
0.5
  1
19.12
100
AcDbAttributeDefinition
  3

  2
DMAX
 70
     8
280
     0
  0
ATTDEF
  5
82
330
6E
100
AcDbEntity
  8
AM_6
100
AcDbText
 10
8.4375
 20
-1.000000000000001
 30
0.0
 40
0.5
  1
3.75
100
AcDbAttributeDefinition
  3

  2
E
 70
     8
280
     0
  0
ATTDEF
  5
83
330
6E
100
AcDbEntity
  8
AM_6
100
AcDbText
 10
8.4375
 20
-1.500000000000001
 30
0.0
 40
0.5
  1
1
100
AcDbAttributeDefinition
  3

  2
F
 70
     8
280
     0
  0
ATTDEF
  5
84
330
6E
100
AcDbEntity
  8
AM_6
100
AcDbText
 10
8.4375
 20
-2.000000000000001
 30
0.0
 40
0.5
  1
2
100
AcDbAttributeDefinition
  3

  2
G
 70
     8
280
     0
  0
ATTDEF
  5
85
330
6E
100
AcDbEntity
  8
AM_6
100
AcDbText
 10
8.4375
 20
-2.500000000000001
 30
0.0
 40
0.5
  1
3.25
100
AcDbAttributeDefinition
  3

  2
H
 70
     8
280
     0
  0
ATTDEF
  5
86
330
6E
100
AcDbEntity
  8
AM_6
100
AcDbText
 10
8.4375
 20
-3.000000000000001
 30
0.0
 40
0.5
  1
13.19
100
AcDbAttributeDefinition
  3

  2
J
 70
     8
280
     0
  0
ATTDEF
  5
87
330
6E
100
AcDbEntity
  8
AM_6
100
AcDbText
 10
8.4375
 20
-3.500000000000001
 30
0.0
 40
0.5
  1
8.75
100
AcDbAttributeDefinition
  3

  2
L
 70
     8
280
     0
  0
ATTDEF
  5
88
330
6E
100
AcDbEntity
  8
AM_6
100
AcDbText
 10
8.4375
 20
-4.000000000000001
 30
0.0
 40
0.5
  1
6.69
100
AcDbAttributeDefinition
  3

  2
M
 70
     8
280
     0
  0
ATTDEF
  5
89
330
6E
100
AcDbEntity
  8
AM_6
100
AcDbText
 10
8.4375
 20
-4.500000000000001
 30
0.0
 40
0.5
  1
1.4
100
AcDbAttributeDefinition
  3

  2
R
 70
     8
280
     0
  0
ATTDEF
  5
8A
330
6E
100
AcDbEntity
  8
AM_6
100
AcDbText
 10
8.4375
 20
-5.000000000000001
 30
0.0
 40
0.5
  1
4.77
100
AcDbAttributeDefinition
  3

  2
S
 70
     8
280
     0
  0
ATTDEF
  5
8B
330
6E
100
AcDbEntity
  8
AM_6
100
AcDbText
 10
8.4375
 20
-5.500000000000001
 30
0.0
 40
0.5
  1
0.38
100
AcDbAttributeDefinition
  3

  2
X
 70
     8
280
     0
  0
ATTDEF
  5
8C
330
6E
100
AcDbEntity
  8
AM_6
100
AcDbText
 10
8.4375
 20
-6.000000000000001
 30
0.0
 40
0.5
  1
0.036
100
AcDbAttributeDefinition
  3

  2
Y
 70
     8
280
     0
  0
ATTDEF
  5
8D
330
6E
100
AcDbEntity
  8
AM_6
100
AcDbText
 10
8.4375
 20
-6.500000000000001
 30
0.0
 40
0.5
  1
5.92
100
AcDbAttributeDefinition
  3

  2
Z
 70
     8
280
     0
  0
ATTDEF
  5
8E
330
6E
100
AcDbEntity
  8
AM_6
100
AcDbText
 10
8.4375
 20
-7.000000000000001
 30
0.0
 40
0.5
  1
baldor
100
AcDbAttributeDefinition
  3

  2
COMPANY
 70
     8
280
     0
  0
INSERT
  5
90
330
6E
100
AcDbEntity
  8
0
100
AcDbBlockReference
  2
2_405015E_Inch_0_in_071618_2
 10
0.0
 20
0.0
 30
0.0
  0
INSERT
  5
EA
330
6E
100
AcDbEntity
  8
0
100
AcDbBlockReference
  2
3_ASME_B18_3_5_16_1_0_in_071618_2
 10
0.0
 20
0.0
 30
0.0
  0
INSERT
  5
110
330
6E
100
AcDbEntity
  8
0
100
AcDbBlockReference
  2
4_ASME_B18_3_5_16_2_0_in_071618_2
 10
0.0
 20
0.0
 30
0.0
  0
INSERT
  5
134
330
6E
100
AcDbEntity
  8
0
100
AcDbBlockReference
  2
5_037925LWE_0_in_071618_2
 10
0.0
 20
0.0
 30
0.0
  0
INSERT
  5
16D
330
6E
100
AcDbEntity
  8
0
100
AcDbBlockReference
  2
6_037933E_0_in_071618_2
 10
0.0
 20
0.0
 30
0.0
  0
INSERT
  5
1F5
330
6E
100
AcDbEntity
  8
0
100
AcDbBlockReference
  2
7_071618H_0_in_071618_2
 10
0.0
 20
0.0
 30
0.0
  0
ENDBLK
  5
71
330
6E
100
AcDbEntity
  8
0
100
AcDbBlockEnd
  0
BLOCK
  5
91
330
8F
100
AcDbEntity
  8
0
100
AcDbBlockBegin
  2
2_405015E_Inch_0_in_071618_2
 70
     2
 10
0.0
 20
0.0
 30
0.0
  3
2_405015E_Inch_0_in_071618_2
  1

  0
ATTDEF
  5
93
330
8F
100
AcDbEntity
  8
AM_6
100
AcDbText
 10
5.252590742770461
 20
6.091848299144655
 30
0.0
 40
0.5
  1
405015E -Inch
100
AcDbAttributeDefinition
  3

  2
NN
 70
     8
280
     0
  0
ATTDEF
  5
94
330
8F
100
AcDbEntity
  8
AM_6
100
AcDbText
 10
5.252590742770461
 20
5.591848299144655
 30
0.0
 40
0.5
  1
Grease Fitting
100
AcDbAttributeDefinition
  3

  2
NT
 70
     8
280
     0
  0
ATTDEF
  5
95
330
8F
100
AcDbEntity
  8
AM_6
100
AcDbText
 10
5.252590742770461
 20
5.091848299144655
 30
0.0
 40
0.5
  1
405015E-Inch
100
AcDbAttributeDefinition
  3

  2
NB
 70
     8
280
     0
  0
ATTDEF
  5
96
330
8F
100
AcDbEntity
  8
AM_6
100
AcDbText
 10
5.252590742770461
 20
4.591848299144655
 30
0.0
 40
0.5
  1
$MN.-Inch
100
AcDbAttributeDefinition
  3

  2
NBSYN
 70
     8
280
     0
  0
ATTDEF
  5
97
330
8F
100
AcDbEntity
  8
AM_6
100
AcDbText
 10
5.252590742770461
 20
4.091848299144655
 30
0.0
 40
0.5
  1
405015E
100
AcDbAttributeDefinition
  3

  2
LINA
 70
     8
280
     0
  0
ATTDEF
  5
98
330
8F
100
AcDbEntity
  8
AM_6
100
AcDbText
 10
5.252590742770461
 20
3.591848299144655
 30
0.0
 40
0.5
  1
405015E
100
AcDbAttributeDefinition
  3

  2
MN
 70
     8
280
     0
  0
ATTDEF
  5
99
330
8F
100
AcDbEntity
  8
AM_6
100
AcDbText
 10
5.252590742770461
 20
3.091848299144655
 30
0.0
 40
0.5
  1
1/8 x 27PTF
100
AcDbAttributeDefinition
  3

  2
T
 70
     8
280
     0
  0
ATTDEF
  5
9A
330
8F
100
AcDbEntity
  8
AM_6
100
AcDbText
 10
5.252590742770461
 20
2.591848299144655
 30
0.0
 40
0.5
  1
baldor
100
AcDbAttributeDefinition
  3

  2
COMPANY
 70
     8
280
     0
  0
LINE
  5
9D
330
8F
100
AcDbEntity
  8
AM_9
100
AcDbLine
 10
0.1262953713852304
 20
5.685142433667122
 30
0.0
 11
0.1262953713852304
 21
5.61424543666591
 31
0.0
  0
LINE
  5
9E
330
8F
100
AcDbEntity
  8
AM_9
100
AcDbLine
 10
-0.1262953713852309
 20
5.685142433667122
 30
0.0
 11
-0.1262953713852309
 21
5.61424543666591
 31
0.0
  0
LWPOLYLINE
  5
9F
330
8F
100
AcDbEntity
  8
AM_9
100
AcDbPolyline
 90
        3
 70
     0
 43
0.0
 10
0.1262953713852304
 20
5.685142433667122
 10
0.0634316146914365
 20
5.690904165411296
 10
-0.0000000000000002
 20
5.692995205355738
  0
LWPOLYLINE
  5
A0
330
8F
100
AcDbEntity
  8
AM_9
100
AcDbPolyline
 90
        4
 70
     0
 43
0.0
 10
-0.0000000000000002
 20
5.692995205355738
 10
-0.0483998160558991
 20
5.69176756176329
 10
-0.096799632111798
 20
5.68824729684126
 10
-0.1262953713852309
 20
5.685142433667122
  0
ELLIPSE
  5
A1
330
8F
100
AcDbEntity
  8
AM_9
100
AcDbEllipse
 10
-0.0000000000000021
 20
5.802370205355734
 30
0.0
 11
0.2187499999999958
 21
0.0
 31
0.0
210
0.0
220
0.0
230
1.0
 40
0.4999999999999973
 41
3.665191429188063
 42
4.71238898038469
  0
LWPOLYLINE
  5
A2
330
8F
100
AcDbEntity
  8
AM_9
100
AcDbPolyline
 90
        3
 70
     0
 43
0.0
 10
-0.1262953713852309
 20
5.685142433667122
 10
-0.1577272497321278
 20
5.71812497054837
 10
-0.1894430570778462
 20
5.747682705355738
  0
LWPOLYLINE
  5
A3
330
8F
100
AcDbEntity
  8
AM_9
100
AcDbPolyline
 90
        3
 70
     0
 43
0.0
 10
0.1894430570778458
 20
5.747682705355738
 10
0.1578692142315381
 20
5.718266226794968
 10
0.1262953713852304
 20
5.685142433667122
  0
LWPOLYLINE
  5
A4
330
8F
100
AcDbEntity
  8
AM_9
100
AcDbPolyline
 90
        3
 70
     0
 43
0.0
 10
0.1262953713852304
 20
5.61424543666591
 10
0.1577272497321274
 20
5.635704510058811
 10
0.1894430570778458
 20
5.661080164977293
  0
LWPOLYLINE
  5
A5
330
8F
100
AcDbEntity
  8
AM_9
100
AcDbPolyline
 90
        3
 70
     0
 43
0.0
 10
0.0141308614837522
 20
5.606498466018711
 10
0.0631476856926151
 20
5.608465393538064
 10
0.1262953713852304
 20
5.61424543666591
  0
LINE
  5
A6
330
8F
100
AcDbEntity
  8
AM_9
100
AcDbLine
 10
-0.0000000000000002
 20
5.606392664977294
 30
0.0
 11
0.0141308614837522
 21
5.606498466018711
 31
0.0
  0
LWPOLYLINE
  5
A7
330
8F
100
AcDbEntity
  8
AM_9
100
AcDbPolyline
 90
        3
 70
     0
 43
0.0
 10
-0.1894430570778462
 20
5.661080164977293
 10
-0.1578692142315385
 20
5.635809143538063
 10
-0.1262953713852309
 20
5.61424543666591
  0
LWPOLYLINE
  5
A8
330
8F
100
AcDbEntity
  8
AM_9
100
AcDbPolyline
 90
        4
 70
     0
 43
0.0
 10
-0.1262953713852309
 20
5.61424543666591
 10
-0.096799632111798
 20
5.611140573491773
 10
-0.0485424412477546
 20
5.607627468457228
 10
-0.0000000000000002
 20
5.606392664977294
  0
ELLIPSE
  5
A9
330
8F
100
AcDbEntity
  8
AM_9
100
AcDbEllipse
 10
-0.0000000000000003
 20
6.040527191396458
 30
0.0
 11
0.1026779019331871
 21
1.530019967752503E-9
 31
0.0
210
0.0
220
0.0
230
1.0
 40
0.4999999999999937
 41
2.906159020462103
 42
6.28318702669927
  0
LINE
  5
AA
330
8F
100
AcDbEntity
  8
AM_9
100
AcDbLine
 10
-0.09984535623788
 20
6.052502753837657
 30
0.0
 11
-0.1312757938985221
 21
5.986990522985281
 31
0.0
  0
LINE
  5
AB
330
8F
100
AcDbEntity
  8
AM_9
100
AcDbLine
 10
0.1312757938985217
 20
5.986990522985281
 30
0.0
 11
0.0998453562378795
 21
6.052502753837657
 31
0.0
  0
ELLIPSE
  5
AC
330
8F
100
AcDbEntity
  8
AM_9
100
AcDbEllipse
 10
-0.0000000000000002
 20
6.040527191396459
 30
0.0
 11
0.1026779019331872
 21
0.0
 31
0.0
210
0.0
220
0.0
230
1.0
 40
0.4999999999999932
 41
0.2354336045415613
 42
2.906159049048232
  0
ELLIPSE
  5
AD
330
8F
100
AcDbEntity
  8
AM_9
100
AcDbEllipse
 10
0.0000000000000029
 20
6.04052719139642
 30
0.0
 11
0.1026779019331844
 21
0.0
 31
0.0
210
0.0
220
0.0
230
1.0
 40
0.5000000000000417
 41
0.0
 42
0.2354336045422867
  0
LINE
  5
AE
330
8F
100
AcDbEntity
  8
AM_9
100
AcDbLine
 10
0.1049999999999998
 20
5.893922518339994
 30
0.0
 11
0.1049999999999998
 21
5.919283634866637
 31
0.0
  0
LINE
  5
AF
330
8F
100
AcDbEntity
  8
AM_9
100
AcDbLine
 10
-0.1050000000000002
 20
5.919283634866637
 30
0.0
 11
-0.1050000000000002
 21
5.893922518339995
 31
0.0
  0
ELLIPSE
  5
B0
330
8F
100
AcDbEntity
  8
AM_9
100
AcDbEllipse
 10
-0.0000000000000002
 20
5.919283634866637
 30
0.0
 11
0.1049999999999999
 21
0.0
 31
0.0
210
0.0
220
0.0
230
1.0
 40
0.4999999999999942
 41
0.0
 42
3.434435425318367
  0
ELLIPSE
  5
B1
330
8F
100
AcDbEntity
  8
AM_9
100
AcDbEllipse
 10
-0.0000000000000145
 20
5.893302872753059
 30
0.0
 11
0.1049999999999857
 21
0.0
 31
0.0
210
0.0
220
0.0
230
1.0
 40
0.5000000000000617
 41
2.891559760490144
 42
3.141592653589793
  0
ELLIPSE
  5
B2
330
8F
100
AcDbEntity
  8
AM_9
100
AcDbEllipse
 10
0.0000000000000047
 20
5.971245159093756
 30
0.0
 11
0.1349999999999951
 21
2.011656761169361E-9
 31
0.0
210
0.0
220
0.0
230
1.0
 40
0.5000000000000435
 41
3.434435397379394
 42
9.189344327642488
  0
ELLIPSE
  5
B3
330
8F
100
AcDbEntity
  8
AM_9
100
AcDbEllipse
 10
-0.0000000000000117
 20
5.919283634866611
 30
0.0
 11
0.1050000000000116
 21
0.0
 31
0.0
210
0.0
220
0.0
230
1.0
 40
0.499999999999947
 41
3.43443542531795
 42
6.283185307179586
  0
LINE
  5
B4
330
8F
100
AcDbEntity
  8
AM_9
100
AcDbLine
 10
0.1005298463144153
 20
5.904128190300409
 30
0.0
 11
0.1292526595471054
 21
5.951759587508554
 31
0.0
  0
LINE
  5
B5
330
8F
100
AcDbEntity
  8
AM_9
100
AcDbLine
 10
-0.1292526595471059
 20
5.951759587508554
 30
0.0
 11
-0.1005298463144157
 21
5.904128190300409
 31
0.0
  0
ELLIPSE
  5
B6
330
8F
100
AcDbEntity
  8
AM_9
100
AcDbEllipse
 10
-0.0000000000000013
 20
5.971245159093709
 30
0.0
 11
0.1349999999999989
 21
0.0
 31
0.0
210
0.0
220
0.0
230
1.0
 40
0.5000000000000032
 41
2.906159049048304
 42
3.434435425318438
  0
LWPOLYLINE
  5
B7
330
8F
100
AcDbEntity
  8
AM_9
100
AcDbPolyline
 90
        3
 70
     0
 43
0.0
 10
-0.1894430570778462
 20
5.747682705355738
 10
-0.2210168999241538
 20
5.772953726794968
 10
-0.2525907427704614
 20
5.794517433667123
  0
LWPOLYLINE
  5
B8
330
8F
100
AcDbEntity
  8
AM_9
100
AcDbPolyline
 90
        3
 70
     0
 43
0.0
 10
0.252590742770461
 20
5.794517433667123
 10
0.2211588644235641
 20
5.77305836027422
 10
0.1894430570778458
 20
5.747682705355738
  0
ELLIPSE
  5
B9
330
8F
100
AcDbEntity
  8
AM_9
100
AcDbEllipse
 10
-0.0000000000000002
 20
5.893302872753105
 30
0.0
 11
0.1050000000000003
 21
0.0
 31
0.0
210
0.0
220
0.0
230
1.0
 40
0.4999999999999921
 41
3.141592653589793
 42
6.283185307179586
  0
LINE
  5
BA
330
8F
100
AcDbEntity
  8
AM_9
100
AcDbLine
 10
-0.1017349497468793
 20
5.906293253809871
 30
0.0
 11
-0.115125294855566
 21
5.88007643074724
 31
0.0
  0
LINE
  5
BB
330
8F
100
AcDbEntity
  8
AM_9
100
AcDbLine
 10
0.1151252948555656
 20
5.88007643074724
 30
0.0
 11
0.1017349497468788
 21
5.906293253809871
 31
0.0
  0
ELLIPSE
  5
BC
330
8F
100
AcDbEntity
  8
AM_9
100
AcDbEllipse
 10
-0.0000000000000002
 20
5.893302872753104
 30
0.0
 11
0.1050000000000002
 21
0.0
 31
0.0
210
0.0
220
0.0
230
1.0
 40
0.4999999999999925
 41
0.2500328930988127
 42
2.89155976049098
  0
ELLIPSE
  5
BD
330
8F
100
AcDbEntity
  8
AM_9
100
AcDbEllipse
 10
0.0000000000000134
 20
5.893302872753059
 30
0.0
 11
0.1049999999999863
 21
0.0
 31
0.0
210
0.0
220
0.0
230
1.0
 40
0.5000000000000671
 41
0.0
 42
0.2500328930996441
  0
ELLIPSE
  5
BE
330
8F
100
AcDbEntity
  8
AM_9
100
AcDbEllipse
 10
0.000000000000005
 20
5.865376256882072
 30
0.0
 11
0.1188200907349028
 21
1.770557325108392E-9
 31
0.0
210
0.0
220
0.0
230
1.0
 40
0.4999999999998906
 41
2.535447490847268
 42
2.89155973205762
  0
ELLIPSE
  5
BF
330
8F
100
AcDbEntity
  8
AM_9
100
AcDbEllipse
 10
0.0000000000000004
 20
5.865376256882027
 30
0.0
 11
0.1188200907348969
 21
0.0
 31
0.0
210
0.0
220
0.0
230
1.0
 40
0.5000000000000128
 41
2.891559760490781
 42
6.889330447374855
  0
ELLIPSE
  5
C0
330
8F
100
AcDbEntity
  8
AM_9
100
AcDbEllipse
 10
-0.000000000000001
 20
5.802370205355738
 30
0.0
 11
0.2187499999999992
 21
0.0
 31
0.0
210
0.0
220
0.0
230
1.0
 40
0.5000000000000018
 41
1.629991834554797
 42
3.665191429188091
  0
LINE
  5
C1
330
8F
100
AcDbEntity
  8
AM_9
100
AcDbLine
 10
-0.0976523208201059
 20
5.899222372614487
 30
0.0
 11
-0.141797154162902
 21
5.86738086484578
 31
0.0
  0
LINE
  5
C2
330
8F
100
AcDbEntity
  8
AM_9
100
AcDbLine
 10
0.1417971541629015
 20
5.86738086484578
 30
0.0
 11
0.0976523208201055
 21
5.899222372614487
 31
0.0
  0
ELLIPSE
  5
C3
330
8F
100
AcDbEntity
  8
AM_9
100
AcDbEllipse
 10
-0.0000000000000002
 20
5.86537625688204
 30
0.0
 11
0.1188200907348982
 21
0.0
 31
0.0
210
0.0
220
0.0
230
1.0
 40
0.4999999999999925
 41
0.6061451401951068
 42
2.535447513394687
  0
LWPOLYLINE
  5
C4
330
8F
100
AcDbEntity
  8
AM_9
100
AcDbPolyline
 90
        3
 70
     0
 43
0.0
 10
-0.2525907427704614
 20
5.723620436665911
 10
-0.2211588644235645
 20
5.690637899784662
 10
-0.1894430570778462
 20
5.661080164977293
  0
LWPOLYLINE
  5
C5
330
8F
100
AcDbEntity
  8
AM_9
100
AcDbPolyline
 90
        3
 70
     0
 43
0.0
 10
0.1894430570778458
 20
5.661080164977293
 10
0.2210168999241534
 20
5.690496643538064
 10
0.252590742770461
 20
5.723620436665911
  0
ELLIPSE
  5
C6
330
8F
100
AcDbEntity
  8
AM_9
100
AcDbEllipse
 10
-0.0000000000000002
 20
5.802370205355738
 30
0.0
 11
-0.21375
 21
3.185123231361761E-9
 31
0.0
210
0.0
220
0.0
230
1.0
 40
0.5000000000000023
 41
0.0
 42
6.283185307179586
  0
ELLIPSE
  5
C7
330
8F
100
AcDbEntity
  8
AM_9
100
AcDbEllipse
 10
-0.0000000000000016
 20
5.802370205355738
 30
0.0
 11
0.2187500000000018
 21
0.0
 31
0.0
210
0.0
220
0.0
230
1.0
 40
0.4999999999999959
 41
4.71238898038469
 42
7.853981633974483
  0
ELLIPSE
  5
C8
330
8F
100
AcDbEntity
  8
AM_9
100
AcDbEllipse
 10
0.0000000000000605
 20
5.802370205355847
 30
0.0
 11
0.2187500000018021
 21
0.0
 31
0.0
210
0.0
220
0.0
230
1.0
 40
0.4999999999953855
 41
1.570796326794897
 42
1.629991834554591
  0
LWPOLYLINE
  5
C9
330
8F
100
AcDbEntity
  8
AM_9
100
AcDbPolyline
 90
        3
 70
     0
 43
0.0
 10
-0.0000000000000002
 20
5.911745205355738
 10
0.0631476856926151
 20
5.909672476794968
 10
0.1262953713852304
 20
5.903892433667122
  0
LINE
  5
CA
330
8F
100
AcDbEntity
  8
AM_9
100
AcDbLine
 10
-0.0129004937919055
 20
5.911657011043302
 30
0.0
 11
-0.0000000000000002
 21
5.911745205355738
 31
0.0
  0
LWPOLYLINE
  5
CB
330
8F
100
AcDbEntity
  8
AM_9
100
AcDbPolyline
 90
        4
 70
     0
 43
0.0
 10
-0.1262953713852308
 20
5.903892433667122
 10
-0.096799632111798
 20
5.90699729684126
 10
-0.0485424412477546
 20
5.910510401875804
 10
-0.0129004937919055
 20
5.911657011043302
  0
ELLIPSE
  5
CC
330
8F
100
AcDbEntity
  8
AM_9
100
AcDbEllipse
 10
0.0000000000000004
 20
5.715767664977292
 30
0.0
 11
0.2187500000000006
 21
0.0
 31
0.0
210
0.0
220
0.0
230
1.0
 40
0.5000000000000028
 41
2.617993877991485
 42
4.77735804819252
  0
ELLIPSE
  5
CD
330
8F
100
AcDbEntity
  8
AM_9
100
AcDbEllipse
 10
0.0000000000000016
 20
5.71576766497729
 30
0.0
 11
0.2187499999999977
 21
0.0
 31
0.0
210
0.0
220
0.0
230
1.0
 40
0.4999999999999849
 41
4.777358048192514
 42
6.806784082777934
  0
ELLIPSE
  5
CE
330
8F
100
AcDbEntity
  8
AM_9
100
AcDbEllipse
 10
-0.0000000000000024
 20
5.715767664977294
 30
0.0
 11
0.2187499999999964
 21
0.0
 31
0.0
210
0.0
220
0.0
230
1.0
 40
0.5000000000000082
 41
1.570796326794897
 42
2.617993877991496
  0
LWPOLYLINE
  5
CF
330
8F
100
AcDbEntity
  8
AM_9
100
AcDbPolyline
 90
        4
 70
     0
 43
0.0
 10
-0.0000000000000002
 20
5.825142664977294
 10
-0.0483998160558991
 20
5.826370308569742
 10
-0.096799632111798
 20
5.829890573491772
 10
-0.1262953713852308
 20
5.83299543666591
  0
LINE
  5
D0
330
8F
100
AcDbEntity
  8
AM_9
100
AcDbLine
 10
-0.1262953713852308
 20
5.903892433667122
 30
0.0
 11
-0.1262953713852308
 21
5.83299543666591
 31
0.0
  0
LWPOLYLINE
  5
D1
330
8F
100
AcDbEntity
  8
AM_9
100
AcDbPolyline
 90
        3
 70
     0
 43
0.0
 10
-0.1894430570778462
 20
5.857057705355738
 10
-0.1578692142315385
 20
5.882328726794968
 10
-0.1262953713852308
 20
5.903892433667122
  0
LWPOLYLINE
  5
D2
330
8F
100
AcDbEntity
  8
AM_9
100
AcDbPolyline
 90
        3
 70
     0
 43
0.0
 10
-0.2525907427704614
 20
5.794517433667123
 10
-0.2211588644235645
 20
5.827499970548371
 10
-0.1894430570778462
 20
5.857057705355738
  0
LINE
  5
D3
330
8F
100
AcDbEntity
  8
AM_9
100
AcDbLine
 10
-0.2525907427704614
 20
5.794517433667123
 30
0.0
 11
-0.2525907427704614
 21
5.723620436665911
 31
0.0
  0
LWPOLYLINE
  5
D4
330
8F
100
AcDbEntity
  8
AM_9
100
AcDbPolyline
 90
        3
 70
     0
 43
0.0
 10
-0.1894430570778462
 20
5.770455164977294
 10
-0.2210168999241538
 20
5.745184143538063
 10
-0.2525907427704614
 20
5.723620436665911
  0
LWPOLYLINE
  5
D5
330
8F
100
AcDbEntity
  8
AM_9
100
AcDbPolyline
 90
        3
 70
     0
 43
0.0
 10
-0.1262953713852308
 20
5.83299543666591
 10
-0.1577272497321278
 20
5.800012899784662
 10
-0.1894430570778462
 20
5.770455164977294
  0
LINE
  5
D6
330
8F
100
AcDbEntity
  8
AM_9
100
AcDbLine
 10
0.252590742770461
 20
5.794517433667123
 30
0.0
 11
0.252590742770461
 21
5.723620436665911
 31
0.0
  0
LWPOLYLINE
  5
D7
330
8F
100
AcDbEntity
  8
AM_9
100
AcDbPolyline
 90
        3
 70
     0
 43
0.0
 10
0.1894430570778458
 20
5.857057705355738
 10
0.2210168999241534
 20
5.827641226794968
 10
0.252590742770461
 20
5.794517433667123
  0
LWPOLYLINE
  5
D8
330
8F
100
AcDbEntity
  8
AM_9
100
AcDbPolyline
 90
        3
 70
     0
 43
0.0
 10
0.1262953713852304
 20
5.903892433667122
 10
0.1577272497321274
 20
5.882433360274221
 10
0.1894430570778458
 20
5.857057705355738
  0
LINE
  5
D9
330
8F
100
AcDbEntity
  8
AM_9
100
AcDbLine
 10
0.1262953713852304
 20
5.903892433667122
 30
0.0
 11
0.1262953713852304
 21
5.83299543666591
 31
0.0
  0
LWPOLYLINE
  5
DA
330
8F
100
AcDbEntity
  8
AM_9
100
AcDbPolyline
 90
        3
 70
     0
 43
0.0
 10
0.252590742770461
 20
5.723620436665911
 10
0.2211588644235641
 20
5.745079510058812
 10
0.1894430570778458
 20
5.770455164977294
  0
LWPOLYLINE
  5
DB
330
8F
100
AcDbEntity
  8
AM_9
100
AcDbPolyline
 90
        3
 70
     0
 43
0.0
 10
0.1894430570778458
 20
5.770455164977294
 10
0.1578692142315381
 20
5.799871643538064
 10
0.1262953713852304
 20
5.83299543666591
  0
LWPOLYLINE
  5
DC
330
8F
100
AcDbEntity
  8
AM_9
100
AcDbPolyline
 90
        3
 70
     0
 43
0.0
 10
0.1262953713852304
 20
5.83299543666591
 10
0.0634316146914365
 20
5.827233704921736
 10
-0.0000000000000002
 20
5.825142664977294
  0
ELLIPSE
  5
DD
330
8F
100
AcDbEntity
  8
AM_9
100
AcDbEllipse
 10
0.0000000000000021
 20
5.715767664977294
 30
0.0
 11
0.2187499999999964
 21
0.0
 31
0.0
210
0.0
220
0.0
230
1.0
 40
0.5000000000000083
 41
0.5235987755982974
 42
1.570796326794897
  0
LINE
  5
DE
330
8F
100
AcDbEntity
  8
AM_9
100
AcDbLine
 10
0.1985852938306406
 20
5.51627500429085
 30
0.0
 11
0.2057184028850725
 21
5.713911464199664
 31
0.0
  0
LINE
  5
DF
330
8F
100
AcDbEntity
  8
AM_9
100
AcDbLine
 10
-0.205718402885073
 20
5.713911464199664
 30
0.0
 11
-0.198585293830641
 21
5.51627500429085
 31
0.0
  0
ELLIPSE
  5
E0
330
8F
100
AcDbEntity
  8
AM_9
100
AcDbEllipse
 10
-0.0000000000000002
 20
5.518066842899678
 30
0.0
 11
0.1986176267812156
 21
0.0
 31
0.0
210
0.0
220
0.0
230
1.0
 40
0.5000000000000097
 41
3.757072362260239
 42
6.265141230475051
  0
ELLIPSE
  5
E1
330
8F
100
AcDbEntity
  8
AM_9
100
AcDbEllipse
 10
0.0
 20
5.518066842899669
 30
0.0
 11
0.1986176267812154
 21
0.0
 31
0.0
210
0.0
220
0.0
230
1.0
 40
0.500000000000037
 41
0.0
 42
3.159636730294235
  0
ELLIPSE
  5
E2
330
8F
100
AcDbEntity
  8
AM_9
100
AcDbEllipse
 10
-0.0000000000011275
 20
5.518066842886983
 30
0.0
 11
0.1986176267823427
 21
0.0
 31
0.0
210
0.0
220
0.0
230
1.0
 40
0.4999999999994081
 41
6.265141230602952
 42
6.283185307179586
  0
LINE
  5
E3
330
8F
100
AcDbEntity
  8
AM_9
100
AcDbLine
 10
0.1321931418159851
 20
5.439533599472199
 30
0.0
 11
0.1621706131788413
 21
5.4607308727557
 31
0.0
  0
LINE
  5
E4
330
8F
100
AcDbEntity
  8
AM_9
100
AcDbLine
 10
-0.1621706131788417
 20
5.4607308727557
 30
0.0
 11
-0.1321931418159855
 21
5.439533599472199
 31
0.0
  0
ELLIPSE
  5
E5
330
8F
100
AcDbEntity
  8
AM_9
100
AcDbEllipse
 10
-0.0000000000000009
 20
5.518066842899678
 30
0.0
 11
0.1986176267812148
 21
0.0
 31
0.0
210
0.0
220
0.0
230
1.0
 40
0.5000000000000072
 41
3.159636730294327
 42
3.757072362260244
  0
ELLIPSE
  5
E6
330
8F
100
AcDbEntity
  8
AM_9
100
AcDbEllipse
 10
-0.0000000000000002
 20
5.818234230643709
 30
0.0
 11
0.1725340532830155
 21
0.0
 31
0.0
210
0.0
220
0.0
230
1.0
 40
0.5000000000000014
 41
0.0
 42
6.283185307179586
  0
ELLIPSE
  5
E7
330
8F
100
AcDbEntity
  8
AM_9
100
AcDbEllipse
 10
-0.0000000000003823
 20
5.715767664961129
 30
0.0
 11
0.2057518972234517
 21
0.0
 31
0.0
210
0.0
220
0.0
230
1.0
 40
0.4999999999993968
 41
0.0
 42
6.283185307179586
  0
ELLIPSE
  5
E8
330
8F
100
AcDbEntity
  8
AM_9
100
AcDbEllipse
 10
0.0000000000000023
 20
5.486270932974419
 30
0.0
 11
0.1619028724722665
 21
0.0
 31
0.0
210
0.0
220
0.0
230
1.0
 40
0.4999999999999997
 41
0.0
 42
6.283185307179586
  0
ENDBLK
  5
92
330
8F
100
AcDbEntity
  8
0
100
AcDbBlockEnd
  0
BLOCK
  5
EB
330
E9
100
AcDbEntity
  8
0
100
AcDbBlockBegin
  2
3_ASME_B18_3_5_16_1_0_in_071618_2
 70
     2
 10
0.0
 20
0.0
 30
0.0
  3
3_ASME_B18_3_5_16_1_0_in_071618_2
  1

  0
ATTDEF
  5
ED
330
E9
100
AcDbEntity
  8
AM_6
100
AcDbText
 10
1.9995
 20
-3.424416666666666
 30
0.0
 40
0.5
  1
ANSI/ASME B18.3-1998
100
AcDbAttributeDefinition
  3

  2
NN
 70
     8
280
     0
  0
ATTDEF
  5
EE
330
E9
100
AcDbEntity
  8
AM_6
100
AcDbText
 10
1.9995
 20
-3.924416666666666
 30
0.0
 40
0.5
  1
Socket Button Head Cap Screws
100
AcDbAttributeDefinition
  3

  2
NT
 70
     8
280
     0
  0
ATTDEF
  5
EF
330
E9
100
AcDbEntity
  8
AM_6
100
AcDbText
 10
1.9995
 20
-4.424416666666666
 30
0.0
 40
0.5
  1
ASME B18.3-5/16
100
AcDbAttributeDefinition
  3

  2
NB
 70
     8
280
     0
  0
ATTDEF
  5
F0
330
E9
100
AcDbEntity
  8
AM_6
100
AcDbText
 10
1.9995
 20
-4.924416666666666
 30
0.0
 40
0.5
  1
ASME B18.3-$NS.
100
AcDbAttributeDefinition
  3

  2
NBSYN
 70
     8
280
     0
  0
ATTDEF
  5
F1
330
E9
100
AcDbEntity
  8
AM_6
100
AcDbText
 10
1.9995
 20
-5.424416666666666
 30
0.0
 40
0.5
  1
ASME B18.3-5/16
100
AcDbAttributeDefinition
  3

  2
LINA
 70
     8
280
     0
  0
ATTDEF
  5
F2
330
E9
100
AcDbEntity
  8
AM_6
100
AcDbText
 10
1.9995
 20
-5.924416666666666
 30
0.0
 40
0.5
  1
5/16
100
AcDbAttributeDefinition
  3

  2
NS
 70
     8
280
     0
  0
ATTDEF
  5
F3
330
E9
100
AcDbEntity
  8
AM_6
100
AcDbText
 10
1.9995
 20
-6.424416666666666
 30
0.0
 40
0.5
  1
0.547
100
AcDbAttributeDefinition
  3

  2
A
 70
     8
280
     0
  0
ATTDEF
  5
F4
330
E9
100
AcDbEntity
  8
AM_6
100
AcDbText
 10
1.9995
 20
-6.924416666666666
 30
0.0
 40
0.5
  1
0.166
100
AcDbAttributeDefinition
  3

  2
H
 70
     8
280
     0
  0
ATTDEF
  5
F5
330
E9
100
AcDbEntity
  8
AM_6
100
AcDbText
 10
1.9995
 20
-7.424416666666666
 30
0.0
 40
0.5
  1
1.000
100
AcDbAttributeDefinition
  3

  2
L
 70
     8
280
     0
  0
ATTDEF
  5
F6
330
E9
100
AcDbEntity
  8
AM_6
100
AcDbText
 10
1.9995
 20
-7.924416666666666
 30
0.0
 40
0.5
  1
0.031
100
AcDbAttributeDefinition
  3

  2
S
 70
     8
280
     0
  0
ATTDEF
  5
F7
330
E9
100
AcDbEntity
  8
AM_6
100
AcDbText
 10
1.9995
 20
-8.424416666666666
 30
0.0
 40
0.5
  1
0.187500
100
AcDbAttributeDefinition
  3

  2
J
 70
     8
280
     0
  0
ATTDEF
  5
F8
330
E9
100
AcDbEntity
  8
AM_6
100
AcDbText
 10
1.9995
 20
-8.924416666666666
 30
0.0
 40
0.5
  1
baldor
100
AcDbAttributeDefinition
  3

  2
COMPANY
 70
     8
280
     0
  0
LINE
  5
F9
330
E9
100
AcDbEntity
  8
AM_9
100
AcDbLine
 10
-4.0625
 20
-3.806169842139722
 30
0.0
 11
-4.166499999999999
 21
-3.806169842139722
 31
0.0
  0
LINE
  5
FA
330
E9
100
AcDbEntity
  8
AM_9
100
AcDbLine
 10
-4.0625
 20
-3.589663491193611
 30
0.0
 11
-4.166499999999999
 21
-3.589663491193611
 31
0.0
  0
LINE
  5
FB
330
E9
100
AcDbEntity
  8
AM_9
100
AcDbLine
 10
-4.0625
 20
-3.752043254403194
 30
0.0
 11
-4.166499999999999
 21
-3.752043254403194
 31
0.0
  0
LINE
  5
FC
330
E9
100
AcDbEntity
  8
AM_9
100
AcDbLine
 10
-4.0625
 20
-3.589663491193611
 30
0.0
 11
-4.0625
 21
-3.806169842139722
 31
0.0
  0
LINE
  5
FD
330
E9
100
AcDbEntity
  8
AM_9
100
AcDbLine
 10
-4.0625
 20
-3.643790078930139
 30
0.0
 11
-4.166499999999999
 21
-3.643790078930139
 31
0.0
  0
LINE
  5
FE
330
E9
100
AcDbEntity
  8
AM_9
100
AcDbLine
 10
-3.0005
 20
-3.560266666666666
 30
0.0
 11
-3.0005
 21
-3.835566666666667
 31
0.0
  0
LINE
  5
FF
330
E9
100
AcDbEntity
  8
AM_9
100
AcDbLine
 10
-3.0005
 20
-3.560266666666666
 30
0.0
 11
-3.019099999999999
 21
-3.541666666666667
 31
0.0
  0
LINE
  5
100
330
E9
100
AcDbEntity
  8
AM_9
100
AcDbLine
 10
-3.019099999999999
 20
-3.854166666666666
 30
0.0
 11
-3.0005
 21
-3.835566666666667
 31
0.0
  0
LINE
  5
101
330
E9
100
AcDbEntity
  8
AM_9
100
AcDbLine
 10
-3.019099999999999
 20
-3.541666666666667
 30
0.0
 11
-3.019099999999999
 21
-3.854166666666666
 31
0.0
  0
LINE
  5
102
330
E9
100
AcDbEntity
  8
AM_9
100
AcDbLine
 10
-4.0005
 20
-3.854166666666666
 30
0.0
 11
-3.019099999999999
 21
-3.854166666666666
 31
0.0
  0
LINE
  5
103
330
E9
100
AcDbEntity
  8
AM_9
100
AcDbLine
 10
-3.019099999999999
 20
-3.541666666666667
 30
0.0
 11
-4.0005
 21
-3.541666666666667
 31
0.0
  0
LINE
  5
105
330
E9
100
AcDbEntity
  8
AM_5
100
AcDbLine
 10
-3.9205
 20
-3.835566666666667
 30
0.0
 11
-3.952716145020781
 21
-3.854166666666667
 31
0.0
  0
LINE
  5
106
330
E9
100
AcDbEntity
  8
AM_5
100
AcDbLine
 10
-3.920499999999999
 20
-3.541666666666667
 30
0.0
 11
-3.9205
 21
-3.854166666666665
 31
0.0
  0
LINE
  5
107
330
E9
100
AcDbEntity
  8
AM_5
100
AcDbLine
 10
-3.920499999999999
 20
-3.560266666666666
 30
0.0
 11
-3.952716145020782
 21
-3.541666666666667
 31
0.0
  0
LINE
  5
109
330
E9
100
AcDbEntity
  8
AM_4
100
AcDbLine
 10
-4.031499999999999
 20
-3.971416666666667
 30
0.0
 11
-4.0005
 21
-3.971416666666667
 31
0.0
  0
LINE
  5
10A
330
E9
100
AcDbEntity
  8
AM_4
100
AcDbLine
 10
-4.0005
 20
-3.424416666666666
 30
0.0
 11
-4.031499999999999
 21
-3.424416666666666
 31
0.0
  0
LINE
  5
10B
330
E9
100
AcDbEntity
  8
AM_4
100
AcDbLine
 10
-4.166499999999999
 20
-3.559416666666666
 30
0.0
 11
-4.166499999999999
 21
-3.836416666666667
 31
0.0
  0
LINE
  5
10C
330
E9
100
AcDbEntity
  8
AM_4
100
AcDbLine
 10
-4.031499999999999
 20
-3.424416666666666
 30
0.0
 11
-4.031499999999999
 21
-3.971416666666667
 31
0.0
  0
ARC
  5
10D
330
E9
100
AcDbEntity
  8
AM_4
100
AcDbCircle
 10
-4.031499999999999
 20
-3.836416666666667
 30
0.0
 40
0.1349999999999998
100
AcDbArc
 50
180.0
 51
270.0
  0
ARC
  5
10E
330
E9
100
AcDbEntity
  8
AM_4
100
AcDbCircle
 10
-4.031499999999999
 20
-3.559416666666667
 30
0.0
 40
0.1350000000000007
100
AcDbArc
 50
90.0
 51
180.0
  0
ENDBLK
  5
EC
330
E9
100
AcDbEntity
  8
0
100
AcDbBlockEnd
  0
BLOCK
  5
111
330
10F
100
AcDbEntity
  8
0
100
AcDbBlockBegin
  2
4_ASME_B18_3_5_16_2_0_in_071618_2
 70
     2
 10
0.0
 20
0.0
 30
0.0
  3
4_ASME_B18_3_5_16_2_0_in_071618_2
  1

  0
ATTDEF
  5
113
330
10F
100
AcDbEntity
  8
AM_6
100
AcDbText
 10
1.9995
 20
3.971416666666667
 30
0.0
 40
0.5
  1
ANSI/ASME B18.3-1998
100
AcDbAttributeDefinition
  3

  2
NN
 70
     8
280
     0
  0
ATTDEF
  5
114
330
10F
100
AcDbEntity
  8
AM_6
100
AcDbText
 10
1.9995
 20
3.471416666666667
 30
0.0
 40
0.5
  1
Socket Button Head Cap Screws
100
AcDbAttributeDefinition
  3

  2
NT
 70
     8
280
     0
  0
ATTDEF
  5
115
330
10F
100
AcDbEntity
  8
AM_6
100
AcDbText
 10
1.9995
 20
2.971416666666667
 30
0.0
 40
0.5
  1
ASME B18.3-5/16
100
AcDbAttributeDefinition
  3

  2
NB
 70
     8
280
     0
  0
ATTDEF
  5
116
330
10F
100
AcDbEntity
  8
AM_6
100
AcDbText
 10
1.9995
 20
2.471416666666667
 30
0.0
 40
0.5
  1
ASME B18.3-$NS.
100
AcDbAttributeDefinition
  3

  2
NBSYN
 70
     8
280
     0
  0
ATTDEF
  5
117
330
10F
100
AcDbEntity
  8
AM_6
100
AcDbText
 10
1.9995
 20
1.971416666666667
 30
0.0
 40
0.5
  1
ASME B18.3-5/16
100
AcDbAttributeDefinition
  3

  2
LINA
 70
     8
280
     0
  0
ATTDEF
  5
118
330
10F
100
AcDbEntity
  8
AM_6
100
AcDbText
 10
1.9995
 20
1.471416666666667
 30
0.0
 40
0.5
  1
5/16
100
AcDbAttributeDefinition
  3

  2
NS
 70
     8
280
     0
  0
ATTDEF
  5
119
330
10F
100
AcDbEntity
  8
AM_6
100
AcDbText
 10
1.9995
 20
0.9714166666666668
 30
0.0
 40
0.5
  1
0.547
100
AcDbAttributeDefinition
  3

  2
A
 70
     8
280
     0
  0
ATTDEF
  5
11A
330
10F
100
AcDbEntity
  8
AM_6
100
AcDbText
 10
1.9995
 20
0.4714166666666668
 30
0.0
 40
0.5
  1
0.166
100
AcDbAttributeDefinition
  3

  2
H
 70
     8
280
     0
  0
ATTDEF
  5
11B
330
10F
100
AcDbEntity
  8
AM_6
100
AcDbText
 10
1.9995
 20
-0.0285833333333332
 30
0.0
 40
0.5
  1
1.000
100
AcDbAttributeDefinition
  3

  2
L
 70
     8
280
     0
  0
ATTDEF
  5
11C
330
10F
100
AcDbEntity
  8
AM_6
100
AcDbText
 10
1.9995
 20
-0.5285833333333332
 30
0.0
 40
0.5
  1
0.031
100
AcDbAttributeDefinition
  3

  2
S
 70
     8
280
     0
  0
ATTDEF
  5
11D
330
10F
100
AcDbEntity
  8
AM_6
100
AcDbText
 10
1.9995
 20
-1.028583333333333
 30
0.0
 40
0.5
  1
0.187500
100
AcDbAttributeDefinition
  3

  2
J
 70
     8
280
     0
  0
ATTDEF
  5
11E
330
10F
100
AcDbEntity
  8
AM_6
100
AcDbText
 10
1.9995
 20
-1.528583333333333
 30
0.0
 40
0.5
  1
baldor
100
AcDbAttributeDefinition
  3

  2
COMPANY
 70
     8
280
     0
  0
LINE
  5
11F
330
10F
100
AcDbEntity
  8
AM_9
100
AcDbLine
 10
-4.0625
 20
3.589663491193611
 30
0.0
 11
-4.166499999999999
 21
3.589663491193611
 31
0.0
  0
LINE
  5
120
330
10F
100
AcDbEntity
  8
AM_9
100
AcDbLine
 10
-4.0625
 20
3.806169842139722
 30
0.0
 11
-4.166499999999999
 21
3.806169842139722
 31
0.0
  0
LINE
  5
121
330
10F
100
AcDbEntity
  8
AM_9
100
AcDbLine
 10
-4.0625
 20
3.643790078930139
 30
0.0
 11
-4.166499999999999
 21
3.643790078930139
 31
0.0
  0
LINE
  5
122
330
10F
100
AcDbEntity
  8
AM_9
100
AcDbLine
 10
-4.0625
 20
3.806169842139722
 30
0.0
 11
-4.0625
 21
3.589663491193611
 31
0.0
  0
LINE
  5
123
330
10F
100
AcDbEntity
  8
AM_9
100
AcDbLine
 10
-4.0625
 20
3.752043254403194
 30
0.0
 11
-4.166499999999999
 21
3.752043254403194
 31
0.0
  0
LINE
  5
124
330
10F
100
AcDbEntity
  8
AM_9
100
AcDbLine
 10
-3.0005
 20
3.835566666666667
 30
0.0
 11
-3.0005
 21
3.560266666666666
 31
0.0
  0
LINE
  5
125
330
10F
100
AcDbEntity
  8
AM_9
100
AcDbLine
 10
-3.0005
 20
3.835566666666667
 30
0.0
 11
-3.019099999999999
 21
3.854166666666666
 31
0.0
  0
LINE
  5
126
330
10F
100
AcDbEntity
  8
AM_9
100
AcDbLine
 10
-3.019099999999999
 20
3.541666666666667
 30
0.0
 11
-3.0005
 21
3.560266666666666
 31
0.0
  0
LINE
  5
127
330
10F
100
AcDbEntity
  8
AM_9
100
AcDbLine
 10
-3.019099999999999
 20
3.854166666666666
 30
0.0
 11
-3.019099999999999
 21
3.541666666666667
 31
0.0
  0
LINE
  5
128
330
10F
100
AcDbEntity
  8
AM_9
100
AcDbLine
 10
-4.0005
 20
3.541666666666667
 30
0.0
 11
-3.019099999999999
 21
3.541666666666667
 31
0.0
  0
LINE
  5
129
330
10F
100
AcDbEntity
  8
AM_9
100
AcDbLine
 10
-3.019099999999999
 20
3.854166666666666
 30
0.0
 11
-4.0005
 21
3.854166666666666
 31
0.0
  0
LINE
  5
12A
330
10F
100
AcDbEntity
  8
AM_5
100
AcDbLine
 10
-3.9205
 20
3.560266666666666
 30
0.0
 11
-3.952716145020781
 21
3.541666666666666
 31
0.0
  0
LINE
  5
12B
330
10F
100
AcDbEntity
  8
AM_5
100
AcDbLine
 10
-3.920499999999999
 20
3.854166666666666
 30
0.0
 11
-3.9205
 21
3.541666666666667
 31
0.0
  0
LINE
  5
12C
330
10F
100
AcDbEntity
  8
AM_5
100
AcDbLine
 10
-3.920499999999999
 20
3.835566666666667
 30
0.0
 11
-3.952716145020781
 21
3.854166666666666
 31
0.0
  0
LINE
  5
12D
330
10F
100
AcDbEntity
  8
AM_4
100
AcDbLine
 10
-4.031499999999999
 20
3.424416666666666
 30
0.0
 11
-4.0005
 21
3.424416666666666
 31
0.0
  0
LINE
  5
12E
330
10F
100
AcDbEntity
  8
AM_4
100
AcDbLine
 10
-4.0005
 20
3.971416666666667
 30
0.0
 11
-4.031499999999999
 21
3.971416666666667
 31
0.0
  0
LINE
  5
12F
330
10F
100
AcDbEntity
  8
AM_4
100
AcDbLine
 10
-4.166499999999999
 20
3.836416666666667
 30
0.0
 11
-4.166499999999999
 21
3.559416666666666
 31
0.0
  0
LINE
  5
130
330
10F
100
AcDbEntity
  8
AM_4
100
AcDbLine
 10
-4.031499999999999
 20
3.971416666666667
 30
0.0
 11
-4.031499999999999
 21
3.424416666666666
 31
0.0
  0
ARC
  5
131
330
10F
100
AcDbEntity
  8
AM_4
100
AcDbCircle
 10
-4.031499999999999
 20
3.559416666666667
 30
0.0
 40
0.1350000000000007
100
AcDbArc
 50
180.0
 51
270.0
  0
ARC
  5
132
330
10F
100
AcDbEntity
  8
AM_4
100
AcDbCircle
 10
-4.031499999999999
 20
3.836416666666666
 30
0.0
 40
0.1350000000000007
100
AcDbArc
 50
90.0
 51
180.0
  0
ENDBLK
  5
112
330
10F
100
AcDbEntity
  8
0
100
AcDbBlockEnd
  0
BLOCK
  5
135
330
133
100
AcDbEntity
  8
0
100
AcDbBlockBegin
  2
5_037925LWE_0_in_071618_2
 70
     2
 10
0.0
 20
0.0
 30
0.0
  3
5_037925LWE_0_in_071618_2
  1

  0
ATTDEF
  5
137
330
133
100
AcDbEntity
  8
AM_6
100
AcDbText
 10
1.9995
 20
4.375
 30
0.0
 40
0.5
  1
Imperial/E Insert Lockwasher -Inch
100
AcDbAttributeDefinition
  3

  2
NN
 70
     8
280
     0
  0
ATTDEF
  5
138
330
133
100
AcDbEntity
  8
AM_6
100
AcDbText
 10
1.9995
 20
3.875
 30
0.0
 40
0.5
  1
Imperial/E Bearings
100
AcDbAttributeDefinition
  3

  2
NT
 70
     8
280
     0
  0
ATTDEF
  5
139
330
133
100
AcDbEntity
  8
AM_6
100
AcDbText
 10
1.9995
 20
3.375
 30
0.0
 40
0.5
  1
037925LWE
100
AcDbAttributeDefinition
  3

  2
NB
 70
     8
280
     0
  0
ATTDEF
  5
13A
330
133
100
AcDbEntity
  8
AM_6
100
AcDbText
 10
1.9995
 20
2.875
 30
0.0
 40
0.5
  1
$PN.LWE
100
AcDbAttributeDefinition
  3

  2
NBSYN
 70
     8
280
     0
  0
ATTDEF
  5
13B
330
133
100
AcDbEntity
  8
AM_6
100
AcDbText
 10
1.9995
 20
2.375
 30
0.0
 40
0.5
  1
037925
100
AcDbAttributeDefinition
  3

  2
LINA
 70
     8
280
     0
  0
ATTDEF
  5
13C
330
133
100
AcDbEntity
  8
AM_6
100
AcDbText
 10
1.9995
 20
1.875
 30
0.0
 40
0.5
  1
5-7/16
100
AcDbAttributeDefinition
  3

  2
SS
 70
     8
280
     0
  0
ATTDEF
  5
13D
330
133
100
AcDbEntity
  8
AM_6
100
AcDbText
 10
1.9995
 20
1.375
 30
0.0
 40
0.5
  1
8.750000
100
AcDbAttributeDefinition
  3

  2
E1
 70
     8
280
     0
  0
ATTDEF
  5
13E
330
133
100
AcDbEntity
  8
AM_6
100
AcDbText
 10
1.9995
 20
0.875
 30
0.0
 40
0.5
  1
5.437500
100
AcDbAttributeDefinition
  3

  2
SS1
 70
     8
280
     0
  0
ATTDEF
  5
13F
330
133
100
AcDbEntity
  8
AM_6
100
AcDbText
 10
1.9995
 20
0.375
 30
0.0
 40
0.5
  1
037925
100
AcDbAttributeDefinition
  3

  2
PN
 70
     8
280
     0
  0
ATTDEF
  5
140
330
133
100
AcDbEntity
  8
AM_6
100
AcDbText
 10
1.9995
 20
-0.125
 30
0.0
 40
0.5
  1
INS-IP-507R
100
AcDbAttributeDefinition
  3

  2
DESCRIPTION
 70
     8
280
     0
  0
ATTDEF
  5
141
330
133
100
AcDbEntity
  8
AM_6
100
AcDbText
 10
1.9995
 20
-0.625
 30
0.0
 40
0.5
  1
9.8425
100
AcDbAttributeDefinition
  3

  2
A
 70
     8
280
     0
  0
ATTDEF
  5
142
330
133
100
AcDbEntity
  8
AM_6
100
AcDbText
 10
1.9995
 20
-1.125
 30
0.0
 40
0.5
  1
2-3/4
100
AcDbAttributeDefinition
  3

  2
B
 70
     8
280
     0
  0
ATTDEF
  5
143
330
133
100
AcDbEntity
  8
AM_6
100
AcDbText
 10
1.9995
 20
-1.625
 30
0.0
 40
0.5
  1
2.750000
100
AcDbAttributeDefinition
  3

  2
B1
 70
     8
280
     0
  0
ATTDEF
  5
144
330
133
100
AcDbEntity
  8
AM_6
100
AcDbText
 10
1.9995
 20
-2.125
 30
0.0
 40
0.5
  1
6-11/64
100
AcDbAttributeDefinition
  3

  2
C
 70
     8
280
     0
  0
ATTDEF
  5
145
330
133
100
AcDbEntity
  8
AM_6
100
AcDbText
 10
1.9995
 20
-2.625
 30
0.0
 40
0.5
  1
6.171875
100
AcDbAttributeDefinition
  3

  2
C1
 70
     8
280
     0
  0
ATTDEF
  5
146
330
133
100
AcDbEntity
  8
AM_6
100
AcDbText
 10
1.9995
 20
-3.125
 30
0.0
 40
0.5
  1
2.337
100
AcDbAttributeDefinition
  3

  2
D
 70
     8
280
     0
  0
ATTDEF
  5
147
330
133
100
AcDbEntity
  8
AM_6
100
AcDbText
 10
1.9995
 20
-3.625
 30
0.0
 40
0.5
  1
8-3/4
100
AcDbAttributeDefinition
  3

  2
E
 70
     8
280
     0
  0
ATTDEF
  5
148
330
133
100
AcDbEntity
  8
AM_6
100
AcDbText
 10
1.9995
 20
-4.125
 30
0.0
 40
0.5
  1
0.3125
100
AcDbAttributeDefinition
  3

  2
NDM
 70
     8
280
     0
  0
ATTDEF
  5
149
330
133
100
AcDbEntity
  8
AM_6
100
AcDbText
 10
1.9995
 20
-4.625
 30
0.0
 40
0.5
  1
0.2580
100
AcDbAttributeDefinition
  3

  2
KDM
 70
     8
280
     0
  0
ATTDEF
  5
14A
330
133
100
AcDbEntity
  8
AM_6
100
AcDbText
 10
1.9995
 20
-5.125
 30
0.0
 40
0.5
  1
6.80
100
AcDbAttributeDefinition
  3

  2
AL
 70
     8
280
     0
  0
ATTDEF
  5
14B
330
133
100
AcDbEntity
  8
AM_6
100
AcDbText
 10
1.9995
 20
-5.625
 30
0.0
 40
0.5
  1
0.75
100
AcDbAttributeDefinition
  3

  2
BL
 70
     8
280
     0
  0
ATTDEF
  5
14C
330
133
100
AcDbEntity
  8
AM_6
100
AcDbText
 10
1.9995
 20
-6.125
 30
0.0
 40
0.5
  1
0.07
100
AcDbAttributeDefinition
  3

  2
CL
 70
     8
280
     0
  0
ATTDEF
  5
14D
330
133
100
AcDbEntity
  8
AM_6
100
AcDbText
 10
1.9995
 20
-6.625
 30
0.0
 40
0.5
  1
1.00
100
AcDbAttributeDefinition
  3

  2
DL
 70
     8
280
     0
  0
ATTDEF
  5
14E
330
133
100
AcDbEntity
  8
AM_6
100
AcDbText
 10
1.9995
 20
-7.125
 30
0.0
 40
0.5
  1
baldor
100
AcDbAttributeDefinition
  3

  2
COMPANY
 70
     8
280
     0
  0
LINE
  5
14F
330
133
100
AcDbEntity
  8
AM_9
100
AcDbLine
 10
-3.930499999999999
 20
2.638172600473233
 30
0.0
 11
-4.0005
 21
2.638172600473233
 31
0.0
  0
LINE
  5
150
330
133
100
AcDbEntity
  8
AM_9
100
AcDbLine
 10
-3.0005
 20
2.566563408898426
 30
0.0
 11
-3.930499999999999
 21
2.566563408898427
 31
0.0
  0
LINE
  5
151
330
133
100
AcDbEntity
  8
AM_9
100
AcDbLine
 10
-3.0005
 20
2.434063856772627
 30
0.0
 11
-3.0005
 21
2.710069696035335
 31
0.0
  0
LINE
  5
152
330
133
100
AcDbEntity
  8
AM_9
100
AcDbLine
 10
-3.0005
 20
2.434063856772627
 30
0.0
 11
-4.0005
 21
2.434063856772627
 31
0.0
  0
LINE
  5
153
330
133
100
AcDbEntity
  8
AM_9
100
AcDbLine
 10
-3.930499999999999
 20
2.710069696035335
 30
0.0
 11
-3.0005
 21
2.710069696035335
 31
0.0
  0
LINE
  5
154
330
133
100
AcDbEntity
  8
AM_9
100
AcDbLine
 10
-3.0005
 20
2.577570143909534
 30
0.0
 11
-4.0005
 21
2.577570143909534
 31
0.0
  0
LINE
  5
155
330
133
100
AcDbEntity
  8
AM_9
100
AcDbLine
 10
-3.930499999999999
 20
2.781678887610141
 30
0.0
 11
-4.0005
 21
2.781678887610141
 31
0.0
  0
LINE
  5
156
330
133
100
AcDbEntity
  8
AM_9
100
AcDbLine
 10
-3.930499999999999
 20
3.697916666666666
 30
0.0
 11
-4.0005
 21
3.697916666666666
 31
0.0
  0
LINE
  5
157
330
133
100
AcDbEntity
  8
AM_9
100
AcDbLine
 10
-3.930499999999999
 20
3.854201564245815
 30
0.0
 11
-4.0005
 21
3.854201564245815
 31
0.0
  0
LINE
  5
158
330
133
100
AcDbEntity
  8
AM_9
100
AcDbLine
 10
-3.930499999999999
 20
-3.697916666666666
 30
0.0
 11
-4.0005
 21
-3.697916666666666
 31
0.0
  0
LINE
  5
159
330
133
100
AcDbEntity
  8
AM_9
100
AcDbLine
 10
-4.0005
 20
-3.854201564245815
 30
0.0
 11
-3.930499999999999
 21
-3.854201564245815
 31
0.0
  0
LINE
  5
15A
330
133
100
AcDbEntity
  8
AM_9
100
AcDbLine
 10
-3.930499999999999
 20
2.935033053876327
 30
0.0
 11
-4.0005
 21
2.935033053876327
 31
0.0
  0
LINE
  5
15B
330
133
100
AcDbEntity
  8
AM_9
100
AcDbLine
 10
-3.930499999999999
 20
-2.935033053876328
 30
0.0
 11
-4.0005
 21
-2.935033053876328
 31
0.0
  0
LINE
  5
15C
330
133
100
AcDbEntity
  8
AM_9
100
AcDbLine
 10
-3.930499999999999
 20
-2.18586720996301
 30
0.0
 11
-4.0005
 21
-2.18586720996301
 31
0.0
  0
LINE
  5
15D
330
133
100
AcDbEntity
  8
AM_9
100
AcDbLine
 10
-3.930499999999999
 20
2.185867209963011
 30
0.0
 11
-4.0005
 21
2.185867209963016
 31
0.0
  0
LINE
  5
15E
330
133
100
AcDbEntity
  8
AM_9
100
AcDbLine
 10
-3.930499999999999
 20
1.964896340842215
 30
0.0
 11
-4.0005
 21
1.964896340842215
 31
0.0
  0
LINE
  5
15F
330
133
100
AcDbEntity
  8
AM_9
100
AcDbLine
 10
-3.930499999999999
 20
-1.964896340842213
 30
0.0
 11
-4.0005
 21
-1.964896340842213
 31
0.0
  0
LINE
  5
160
330
133
100
AcDbEntity
  8
AM_9
100
AcDbLine
 10
-3.930499999999999
 20
2.725307385823151
 30
0.0
 11
-4.0005
 21
2.725307385823151
 31
0.0
  0
LINE
  5
161
330
133
100
AcDbEntity
  8
AM_9
100
AcDbLine
 10
-3.930499999999999
 20
2.504336516702355
 30
0.0
 11
-4.0005
 21
2.504336516702355
 31
0.0
  0
LINE
  5
162
330
133
100
AcDbEntity
  8
AM_9
100
AcDbLine
 10
-3.930499999999999
 20
2.771096628718793
 30
0.0
 11
-4.0005
 21
2.771096628718793
 31
0.0
  0
LINE
  5
163
330
133
100
AcDbEntity
  8
AM_9
100
AcDbLine
 10
-3.930499999999999
 20
-2.504336516702355
 30
0.0
 11
-4.0005
 21
-2.504336516702355
 31
0.0
  0
LINE
  5
164
330
133
100
AcDbEntity
  8
AM_9
100
AcDbLine
 10
-3.930499999999999
 20
-2.725307385823147
 30
0.0
 11
-4.0005
 21
-2.725307385823147
 31
0.0
  0
LINE
  5
165
330
133
100
AcDbEntity
  8
AM_9
100
AcDbLine
 10
-4.0005
 20
-2.771096628718793
 30
0.0
 11
-3.930499999999999
 21
-2.771096628718793
 31
0.0
  0
LINE
  5
166
330
133
100
AcDbEntity
  8
AM_9
100
AcDbLine
 10
-3.930499999999999
 20
0.1562500000000003
 30
0.0
 11
-4.0005
 21
0.1562500000000003
 31
0.0
  0
LINE
  5
167
330
133
100
AcDbEntity
  8
AM_9
100
AcDbLine
 10
-3.930499999999999
 20
-0.15625
 30
0.0
 11
-4.0005
 21
-0.15625
 31
0.0
  0
LINE
  5
168
330
133
100
AcDbEntity
  8
AM_4
100
AcDbLine
 10
-3.930499999999999
 20
4.375
 30
0.0
 11
-4.0005
 21
4.375
 31
0.0
  0
LINE
  5
169
330
133
100
AcDbEntity
  8
AM_4
100
AcDbLine
 10
-4.0005
 20
-4.375
 30
0.0
 11
-3.930499999999999
 21
-4.375
 31
0.0
  0
LINE
  5
16A
330
133
100
AcDbEntity
  8
AM_4
100
AcDbLine
 10
-4.0005
 20
4.375
 30
0.0
 11
-4.0005
 21
-4.375
 31
0.0
  0
LINE
  5
16B
330
133
100
AcDbEntity
  8
AM_4
100
AcDbLine
 10
-3.930499999999999
 20
4.375
 30
0.0
 11
-3.930499999999999
 21
-4.375
 31
0.0
  0
ENDBLK
  5
136
330
133
100
AcDbEntity
  8
0
100
AcDbBlockEnd
  0
BLOCK
  5
16E
330
16C
100
AcDbEntity
  8
0
100
AcDbBlockBegin
  2
6_037933E_0_in_071618_2
 70
     2
 10
0.0
 20
0.0
 30
0.0
  3
6_037933E_0_in_071618_2
  1

  0
ATTDEF
  5
170
330
16C
100
AcDbEntity
  8
AM_6
100
AcDbText
 10
6.817875000000001
 20
4.92125
 30
0.0
 40
0.5
  1
Imperial/E Insert -Inch
100
AcDbAttributeDefinition
  3

  2
NN
 70
     8
280
     0
  0
ATTDEF
  5
171
330
16C
100
AcDbEntity
  8
AM_6
100
AcDbText
 10
6.817875000000001
 20
4.42125
 30
0.0
 40
0.5
  1
Imperial Bearings
100
AcDbAttributeDefinition
  3

  2
NT
 70
     8
280
     0
  0
ATTDEF
  5
172
330
16C
100
AcDbEntity
  8
AM_6
100
AcDbText
 10
6.817875000000001
 20
3.92125
 30
0.0
 40
0.5
  1
037933E
100
AcDbAttributeDefinition
  3

  2
NB
 70
     8
280
     0
  0
ATTDEF
  5
173
330
16C
100
AcDbEntity
  8
AM_6
100
AcDbText
 10
6.817875000000001
 20
3.42125
 30
0.0
 40
0.5
  1
$PN.
100
AcDbAttributeDefinition
  3

  2
NBSYN
 70
     8
280
     0
  0
ATTDEF
  5
174
330
16C
100
AcDbEntity
  8
AM_6
100
AcDbText
 10
6.817875000000001
 20
2.92125
 30
0.0
 40
0.5
  1
037933E
100
AcDbAttributeDefinition
  3

  2
LINA
 70
     8
280
     0
  0
ATTDEF
  5
175
330
16C
100
AcDbEntity
  8
AM_6
100
AcDbText
 10
6.817875000000001
 20
2.42125
 30
0.0
 40
0.5
  1
5-7/16
100
AcDbAttributeDefinition
  3

  2
SS
 70
     8
280
     0
  0
ATTDEF
  5
176
330
16C
100
AcDbEntity
  8
AM_6
100
AcDbText
 10
6.817875000000001
 20
1.92125
 30
0.0
 40
0.5
  1
5.437500
100
AcDbAttributeDefinition
  3

  2
SS1
 70
     8
280
     0
  0
ATTDEF
  5
177
330
16C
100
AcDbEntity
  8
AM_6
100
AcDbText
 10
6.817875000000001
 20
1.42125
 30
0.0
 40
0.5
  1
037933E
100
AcDbAttributeDefinition
  3

  2
PN
 70
     8
280
     0
  0
ATTDEF
  5
178
330
16C
100
AcDbEntity
  8
AM_6
100
AcDbText
 10
6.817875000000001
 20
0.9212499999999997
 30
0.0
 40
0.5
  1
INS-IP-507L
100
AcDbAttributeDefinition
  3

  2
DESCRIPTION
 70
     8
280
     0
  0
ATTDEF
  5
179
330
16C
100
AcDbEntity
  8
AM_6
100
AcDbText
 10
6.817875000000001
 20
0.4212499999999997
 30
0.0
 40
0.5
  1
Contact Seal
100
AcDbAttributeDefinition
  3

  2
ST
 70
     8
280
     0
  0
ATTDEF
  5
17A
330
16C
100
AcDbEntity
  8
AM_6
100
AcDbText
 10
6.817875000000001
 20
-0.0787500000000003
 30
0.0
 40
0.5
  1
2
100
AcDbAttributeDefinition
  3

  2
ST1
 70
     8
280
     0
  0
ATTDEF
  5
17B
330
16C
100
AcDbEntity
  8
AM_6
100
AcDbText
 10
6.817875000000001
 20
-0.5787500000000003
 30
0.0
 40
0.5
  1
9.8425
100
AcDbAttributeDefinition
  3

  2
A
 70
     8
280
     0
  0
ATTDEF
  5
17C
330
16C
100
AcDbEntity
  8
AM_6
100
AcDbText
 10
6.817875000000001
 20
-1.07875
 30
0.0
 40
0.5
  1
2-3/4
100
AcDbAttributeDefinition
  3

  2
B
 70
     8
280
     0
  0
ATTDEF
  5
17D
330
16C
100
AcDbEntity
  8
AM_6
100
AcDbText
 10
6.817875000000001
 20
-1.57875
 30
0.0
 40
0.5
  1
2.750000
100
AcDbAttributeDefinition
  3

  2
B1
 70
     8
280
     0
  0
ATTDEF
  5
17E
330
16C
100
AcDbEntity
  8
AM_6
100
AcDbText
 10
6.817875000000001
 20
-2.07875
 30
0.0
 40
0.5
  1
6-11/64
100
AcDbAttributeDefinition
  3

  2
C
 70
     8
280
     0
  0
ATTDEF
  5
17F
330
16C
100
AcDbEntity
  8
AM_6
100
AcDbText
 10
6.817875000000001
 20
-2.57875
 30
0.0
 40
0.5
  1
6.171875
100
AcDbAttributeDefinition
  3

  2
C1
 70
     8
280
     0
  0
ATTDEF
  5
180
330
16C
100
AcDbEntity
  8
AM_6
100
AcDbText
 10
6.817875000000001
 20
-3.07875
 30
0.0
 40
0.5
  1
6.17188
100
AcDbAttributeDefinition
  3

  2
CR
 70
     8
280
     0
  0
ATTDEF
  5
181
330
16C
100
AcDbEntity
  8
AM_6
100
AcDbText
 10
6.817875000000001
 20
-3.57875
 30
0.0
 40
0.5
  1
2.337
100
AcDbAttributeDefinition
  3

  2
D
 70
     8
280
     0
  0
ATTDEF
  5
182
330
16C
100
AcDbEntity
  8
AM_6
100
AcDbText
 10
6.817875000000001
 20
-4.07875
 30
0.0
 40
0.5
  1
8-3/4
100
AcDbAttributeDefinition
  3

  2
E
 70
     8
280
     0
  0
ATTDEF
  5
183
330
16C
100
AcDbEntity
  8
AM_6
100
AcDbText
 10
6.817875000000001
 20
-4.57875
 30
0.0
 40
0.5
  1
8.750000
100
AcDbAttributeDefinition
  3

  2
E1
 70
     8
280
     0
  0
ATTDEF
  5
184
330
16C
100
AcDbEntity
  8
AM_6
100
AcDbText
 10
6.817875000000001
 20
-5.07875
 30
0.0
 40
0.5
  1
0.3125
100
AcDbAttributeDefinition
  3

  2
NDM
 70
     8
280
     0
  0
ATTDEF
  5
185
330
16C
100
AcDbEntity
  8
AM_6
100
AcDbText
 10
6.817875000000001
 20
-5.57875
 30
0.0
 40
0.5
  1
0.2580
100
AcDbAttributeDefinition
  3

  2
KDM
 70
     8
280
     0
  0
ATTDEF
  5
186
330
16C
100
AcDbEntity
  8
AM_6
100
AcDbText
 10
6.817875000000001
 20
-6.07875
 30
0.0
 40
0.5
  1
7.97
100
AcDbAttributeDefinition
  3

  2
AL
 70
     8
280
     0
  0
ATTDEF
  5
187
330
16C
100
AcDbEntity
  8
AM_6
100
AcDbText
 10
6.817875000000001
 20
-6.57875
 30
0.0
 40
0.5
  1
0.75
100
AcDbAttributeDefinition
  3

  2
BL
 70
     8
280
     0
  0
ATTDEF
  5
188
330
16C
100
AcDbEntity
  8
AM_6
100
AcDbText
 10
6.817875000000001
 20
-7.07875
 30
0.0
 40
0.5
  1
0.07
100
AcDbAttributeDefinition
  3

  2
CL
 70
     8
280
     0
  0
ATTDEF
  5
189
330
16C
100
AcDbEntity
  8
AM_6
100
AcDbText
 10
6.817875000000001
 20
-7.57875
 30
0.0
 40
0.5
  1
1.00
100
AcDbAttributeDefinition
  3

  2
DL
 70
     8
280
     0
  0
ATTDEF
  5
18A
330
16C
100
AcDbEntity
  8
AM_6
100
AcDbText
 10
6.817875000000001
 20
-8.07875
 30
0.0
 40
0.5
  1
1.0000
100
AcDbAttributeDefinition
  3

  2
LL
 70
     8
280
     0
  0
ATTDEF
  5
18B
330
16C
100
AcDbEntity
  8
AM_6
100
AcDbText
 10
6.817875000000001
 20
-8.57875
 30
0.0
 40
0.5
  1
0.036
100
AcDbAttributeDefinition
  3

  2
Y
 70
     8
280
     0
  0
ATTDEF
  5
18C
330
16C
100
AcDbEntity
  8
AM_6
100
AcDbText
 10
6.817875000000001
 20
-9.07875
 30
0.0
 40
0.5
  1
0.036000
100
AcDbAttributeDefinition
  3

  2
Y1
 70
     8
280
     0
  0
ATTDEF
  5
18D
330
16C
100
AcDbEntity
  8
AM_6
100
AcDbText
 10
6.817875000000001
 20
-9.57875
 30
0.0
 40
0.5
  1
5-59/64
100
AcDbAttributeDefinition
  3

  2
Z
 70
     8
280
     0
  0
ATTDEF
  5
18E
330
16C
100
AcDbEntity
  8
AM_6
100
AcDbText
 10
6.817875000000001
 20
-10.07875
 30
0.0
 40
0.5
  1
5.921875
100
AcDbAttributeDefinition
  3

  2
Z1
 70
     8
280
     0
  0
ATTDEF
  5
18F
330
16C
100
AcDbEntity
  8
AM_6
100
AcDbText
 10
6.817875000000001
 20
-10.57875
 30
0.0
 40
0.5
  1
0.00000
100
AcDbAttributeDefinition
  3

  2
P1
 70
     8
280
     0
  0
ATTDEF
  5
190
330
16C
100
AcDbEntity
  8
AM_6
100
AcDbText
 10
6.817875000000001
 20
-11.07875
 30
0.0
 40
0.5
  1
0.00000
100
AcDbAttributeDefinition
  3

  2
H1
 70
     8
280
     0
  0
ATTDEF
  5
191
330
16C
100
AcDbEntity
  8
AM_6
100
AcDbText
 10
6.817875000000001
 20
-11.57875
 30
0.0
 40
0.5
  1
0.00000
100
AcDbAttributeDefinition
  3

  2
G1
 70
     8
280
     0
  0
ATTDEF
  5
192
330
16C
100
AcDbEntity
  8
AM_6
100
AcDbText
 10
6.817875000000001
 20
-12.07875
 30
0.0
 40
0.5
  1
0.16600
100
AcDbAttributeDefinition
  3

  2
CW
 70
     8
280
     0
  0
ATTDEF
  5
193
330
16C
100
AcDbEntity
  8
AM_6
100
AcDbText
 10
6.817875000000001
 20
-12.57875
 30
0.0
 40
0.5
  1
8.75000
100
AcDbAttributeDefinition
  3

  2
L1
 70
     8
280
     0
  0
ATTDEF
  5
194
330
16C
100
AcDbEntity
  8
AM_6
100
AcDbText
 10
6.817875000000001
 20
-13.07875
 30
0.0
 40
0.5
  1
baldor
100
AcDbAttributeDefinition
  3

  2
COMPANY
 70
     8
280
     0
  0
LINE
  5
195
330
16C
100
AcDbEntity
  8
AM_9
100
AcDbLine
 10
0.8198750000000011
 20
2.717060923850955
 30
0.0
 11
-3.930499999999999
 21
2.717060923850955
 31
0.0
  0
LINE
  5
196
330
16C
100
AcDbEntity
  8
AM_9
100
AcDbLine
 10
0.8198750000000011
 20
2.573554636714046
 30
0.0
 11
-3.930499999999999
 21
2.573554636714046
 31
0.0
  0
LINE
  5
197
330
16C
100
AcDbEntity
  8
AM_9
100
AcDbLine
 10
-2.8805
 20
3.697916666666667
 30
0.0
 11
-2.953361603971731
 21
3.824116666666666
 31
0.0
  0
LINE
  5
198
330
16C
100
AcDbEntity
  8
AM_9
100
AcDbLine
 10
-2.953361603971731
 20
3.571716666666667
 30
0.0
 11
-2.8805
 21
3.697916666666667
 31
0.0
  0
LINE
  5
199
330
16C
100
AcDbEntity
  8
AM_9
100
AcDbLine
 10
-2.880500000000016
 20
-3.697916666666667
 30
0.0
 11
-2.953361603971733
 21
-3.571716666666667
 31
0.0
  0
LINE
  5
19A
330
16C
100
AcDbEntity
  8
AM_9
100
AcDbLine
 10
-2.953361603971733
 20
-3.824116666666666
 30
0.0
 11
-2.880500000000016
 21
-3.697916666666667
 31
0.0
  0
LINE
  5
19B
330
16C
100
AcDbEntity
  8
AM_9
100
AcDbLine
 10
-2.953361603971731
 20
3.571716666666667
 30
0.0
 11
-2.953361603971731
 21
3.824116666666666
 31
0.0
  0
LINE
  5
19C
330
16C
100
AcDbEntity
  8
AM_9
100
AcDbLine
 10
-2.953361603971731
 20
3.824116666666666
 30
0.0
 11
-3.90045
 21
3.824116666666666
 31
0.0
  0
LINE
  5
19D
330
16C
100
AcDbEntity
  8
AM_9
100
AcDbLine
 10
-3.90045
 20
3.571716666666667
 30
0.0
 11
-2.953361603971731
 21
3.571716666666667
 31
0.0
  0
LINE
  5
19E
330
16C
100
AcDbEntity
  8
AM_9
100
AcDbLine
 10
-3.900450000000005
 20
-3.824116666666666
 30
0.0
 11
-2.953361603971733
 21
-3.824116666666666
 31
0.0
  0
LINE
  5
19F
330
16C
100
AcDbEntity
  8
AM_9
100
AcDbLine
 10
-2.953361603971733
 20
-3.571716666666667
 30
0.0
 11
-3.900450000000005
 21
-3.571716666666667
 31
0.0
  0
LINE
  5
1A0
330
16C
100
AcDbEntity
  8
AM_9
100
AcDbLine
 10
-2.953361603971733
 20
-3.571716666666667
 30
0.0
 11
-2.953361603971733
 21
-3.824116666666666
 31
0.0
  0
LINE
  5
1A1
330
16C
100
AcDbEntity
  8
AM_9
100
AcDbLine
 10
-3.90045
 20
3.571716666666667
 30
0.0
 11
-3.90045
 21
3.824116666666666
 31
0.0
  0
LINE
  5
1A2
330
16C
100
AcDbEntity
  8
AM_9
100
AcDbLine
 10
-3.90045
 20
3.824116666666666
 30
0.0
 11
-3.930499999999999
 21
3.854166666666666
 31
0.0
  0
LINE
  5
1A3
330
16C
100
AcDbEntity
  8
AM_9
100
AcDbLine
 10
-3.930499999999999
 20
3.541666666666667
 30
0.0
 11
-3.90045
 21
3.571716666666667
 31
0.0
  0
LINE
  5
1A4
330
16C
100
AcDbEntity
  8
AM_9
100
AcDbLine
 10
-3.900450000000005
 20
-3.571716666666667
 30
0.0
 11
-3.930499999999996
 21
-3.541666666666667
 31
0.0
  0
LINE
  5
1A5
330
16C
100
AcDbEntity
  8
AM_9
100
AcDbLine
 10
-3.930499999999996
 20
-3.854166666666666
 30
0.0
 11
-3.900450000000005
 21
-3.824116666666666
 31
0.0
  0
LINE
  5
1A6
330
16C
100
AcDbEntity
  8
AM_9
100
AcDbLine
 10
-3.900450000000005
 20
-3.571716666666667
 30
0.0
 11
-3.900450000000005
 21
-3.824116666666666
 31
0.0
  0
LINE
  5
1A7
330
16C
100
AcDbEntity
  8
AM_9
100
AcDbLine
 10
0.8198750000000011
 20
2.577570143909535
 30
0.0
 11
-4.39
 21
2.577570143909535
 31
0.0
  0
LINE
  5
1A8
330
16C
100
AcDbEntity
  8
AM_9
100
AcDbLine
 10
-4.39
 20
2.434063856772626
 30
0.0
 11
0.8198750000000011
 21
2.434063856772625
 31
0.0
  0
LINE
  5
1A9
330
16C
100
AcDbEntity
  8
AM_9
100
AcDbLine
 10
0.8198750000000001
 20
2.71875
 30
0.0
 11
-4.39
 21
2.71875
 31
0.0
  0
LINE
  5
1AA
330
16C
100
AcDbEntity
  8
AM_9
100
AcDbLine
 10
-4.39
 20
-2.71875
 30
0.0
 11
0.8198750000000001
 21
-2.71875
 31
0.0
  0
LINE
  5
1AB
330
16C
100
AcDbEntity
  8
AM_9
100
AcDbLine
 10
-4.39
 20
2.710069696035335
 30
0.0
 11
-3.930499999999999
 21
2.710069696035335
 31
0.0
  0
LINE
  5
1AC
330
16C
100
AcDbEntity
  8
AM_9
100
AcDbLine
 10
-3.930499999999999
 20
2.566563408898427
 30
0.0
 11
-4.39
 21
2.566563408898426
 31
0.0
  0
LINE
  5
1AD
330
16C
100
AcDbEntity
  8
AM_9
100
AcDbLine
 10
-3.930499999999999
 20
2.861842105263158
 30
0.0
 11
-4.0005
 21
2.861842105263158
 31
0.0
  0
LINE
  5
1AE
330
16C
100
AcDbEntity
  8
AM_9
100
AcDbLine
 10
-4.0005
 20
-2.861842105263158
 30
0.0
 11
-3.930499999999999
 21
-2.861842105263158
 31
0.0
  0
LINE
  5
1AF
330
16C
100
AcDbEntity
  8
AM_9
100
AcDbLine
 10
1.781875000000001
 20
2.861842105263158
 30
0.0
 11
0.8198750000000001
 21
2.861842105263158
 31
0.0
  0
LINE
  5
1B0
330
16C
100
AcDbEntity
  8
AM_9
100
AcDbLine
 10
0.8198750000000001
 20
-2.861842105263158
 30
0.0
 11
1.781875000000001
 21
-2.861842105263158
 31
0.0
  0
LINE
  5
1B1
330
16C
100
AcDbEntity
  8
AM_9
100
AcDbLine
 10
1.781875000000001
 20
-2.9609375
 30
0.0
 11
1.781875000000001
 21
2.9609375
 31
0.0
  0
LINE
  5
1B2
330
16C
100
AcDbEntity
  8
AM_9
100
AcDbLine
 10
1.817875000000001
 20
2.9609375
 30
0.0
 11
1.781875000000001
 21
2.9609375
 31
0.0
  0
LINE
  5
1B3
330
16C
100
AcDbEntity
  8
AM_9
100
AcDbLine
 10
1.781875000000001
 20
-2.9609375
 30
0.0
 11
1.817875000000001
 21
-2.9609375
 31
0.0
  0
LINE
  5
1B4
330
16C
100
AcDbEntity
  8
AM_9
100
AcDbLine
 10
-2.930499999999999
 20
2.552655480083437
 30
0.0
 11
-3.930499999999999
 21
2.552655480083437
 31
0.0
  0
LINE
  5
1B5
330
16C
100
AcDbEntity
  8
AM_9
100
AcDbLine
 10
-2.930499999999999
 20
-2.552655480083437
 30
0.0
 11
-3.930499999999999
 21
-2.552655480083437
 31
0.0
  0
LINE
  5
1B6
330
16C
100
AcDbEntity
  8
AM_9
100
AcDbLine
 10
-2.930499999999999
 20
-2.552655480083437
 30
0.0
 11
-2.930499999999999
 21
-2.82942996265865
 31
0.0
  0
LINE
  5
1B7
330
16C
100
AcDbEntity
  8
AM_9
100
AcDbLine
 10
-2.930499999999999
 20
2.82942996265865
 30
0.0
 11
-2.930499999999999
 21
2.552655480083437
 31
0.0
  0
LINE
  5
1B8
330
16C
100
AcDbEntity
  8
AM_9
100
AcDbLine
 10
1.817874999999998
 20
3.947916666666667
 30
0.0
 11
1.369875000000001
 21
3.947916666666667
 31
0.0
  0
LINE
  5
1B9
330
16C
100
AcDbEntity
  8
AM_9
100
AcDbLine
 10
1.369875000000001
 20
-3.947916666666667
 30
0.0
 11
1.817874999999998
 21
-3.947916666666667
 31
0.0
  0
LINE
  5
1BA
330
16C
100
AcDbEntity
  8
AM_9
100
AcDbLine
 10
1.817874999999998
 20
-3.947916666666667
 30
0.0
 11
1.817874999999998
 21
3.947916666666667
 31
0.0
  0
LINE
  5
1BB
330
16C
100
AcDbEntity
  8
AM_9
100
AcDbLine
 10
-3.125
 20
-4.389060054799679
 30
0.0
 11
-1.979252379678135
 21
-4.409059153903748
 31
0.0
  0
LINE
  5
1BC
330
16C
100
AcDbEntity
  8
AM_9
100
AcDbLine
 10
-1.979252379678135
 20
4.409059153903748
 30
0.0
 11
-2.8125
 21
4.394514762589747
 31
0.0
  0
LINE
  5
1BD
330
16C
100
AcDbEntity
  8
AM_9
100
AcDbLine
 10
1.369875
 20
-4.345972326516858
 30
0.0
 11
1.369875
 21
4.345972326516858
 31
0.0
  0
ARC
  5
1BE
330
16C
100
AcDbEntity
  8
AM_9
100
AcDbCircle
 10
1.269875000000002
 20
4.345972325026745
 30
0.0
 40
0.0999999999999974
100
AcDbArc
 50
0.0
 51
60.00000000000043
  0
ARC
  5
1BF
330
16C
100
AcDbEntity
  8
AM_9
100
AcDbCircle
 10
1.269875000000002
 20
-4.345972325026745
 30
0.0
 40
0.099999999999997
100
AcDbArc
 50
299.9999999999995
 51
0.0
  0
ARC
  5
1C0
330
16C
100
AcDbEntity
  8
AM_9
100
AcDbCircle
 10
-1.980125
 20
4.459051538661568
 30
0.0
 40
0.0500000000000012
100
AcDbArc
 50
271.0000000000006
 51
0.0
  0
ARC
  5
1C1
330
16C
100
AcDbEntity
  8
AM_9
100
AcDbCircle
 10
-1.980124999999999
 20
-4.459051538661567
 30
0.0
 40
0.0499999999999998
100
AcDbArc
 50
0.0
 51
89.0000000000001
  0
LINE
  5
1C2
330
16C
100
AcDbEntity
  8
AM_9
100
AcDbLine
 10
-1.979252379678135
 20
-4.409059153903748
 30
0.0
 11
-1.979252379678135
 21
4.409059153903748
 31
0.0
  0
LINE
  5
1C3
330
16C
100
AcDbEntity
  8
AM_9
100
AcDbLine
 10
1.319875
 20
4.432574865405186
 30
0.0
 11
0.8198750000000001
 21
4.72125
 31
0.0
  0
LINE
  5
1C4
330
16C
100
AcDbEntity
  8
AM_9
100
AcDbLine
 10
0.8198750000000001
 20
-4.72125
 30
0.0
 11
1.319875
 21
-4.432574865405186
 31
0.0
  0
LINE
  5
1C5
330
16C
100
AcDbEntity
  8
AM_9
100
AcDbLine
 10
1.319875
 20
-4.432574865405186
 30
0.0
 11
1.319875
 21
4.432574865405186
 31
0.0
  0
LINE
  5
1C6
330
16C
100
AcDbEntity
  8
AM_9
100
AcDbLine
 10
-0.4957393379864264
 20
4.783749999999999
 30
0.0
 11
-0.6545106620135729
 21
4.783749999999999
 31
0.0
  0
LINE
  5
1C7
330
16C
100
AcDbEntity
  8
AM_9
100
AcDbLine
 10
-0.6545106620135729
 20
-4.783749999999999
 30
0.0
 11
-0.4957393379864264
 21
-4.783749999999999
 31
0.0
  0
LINE
  5
1C8
330
16C
100
AcDbEntity
  8
AM_9
100
AcDbLine
 10
0.8198750000000001
 20
-4.87125
 30
0.0
 11
0.8198750000000001
 21
4.87125
 31
0.0
  0
ARC
  5
1C9
330
16C
100
AcDbEntity
  8
AM_9
100
AcDbCircle
 10
0.7698750000000008
 20
4.87125
 30
0.0
 40
0.0499999999999994
100
AcDbArc
 50
0.0
 51
90.0
  0
ARC
  5
1CA
330
16C
100
AcDbEntity
  8
AM_9
100
AcDbCircle
 10
0.7698750000000008
 20
-4.87125
 30
0.0
 40
0.0499999999999998
100
AcDbArc
 50
270.0
 51
0.0
  0
LINE
  5
1CB
330
16C
100
AcDbEntity
  8
AM_9
100
AcDbLine
 10
-1.930125
 20
-4.911250000000003
 30
0.0
 11
-1.930125
 21
4.911250000000003
 31
0.0
  0
ARC
  5
1CC
330
16C
100
AcDbEntity
  8
AM_9
100
AcDbCircle
 10
-1.920125000000002
 20
4.911250000000002
 30
0.0
 40
0.009999999999998
100
AcDbArc
 50
90.0
 51
180.0
  0
ARC
  5
1CD
330
16C
100
AcDbEntity
  8
AM_9
100
AcDbCircle
 10
-1.920125000000002
 20
-4.911250000000002
 30
0.0
 40
0.009999999999998
100
AcDbArc
 50
180.0
 51
270.0
  0
LINE
  5
1CE
330
16C
100
AcDbEntity
  8
AM_9
100
AcDbLine
 10
-0.6545106620135729
 20
4.783749999999999
 30
0.0
 11
-0.7338963240271473
 21
4.92125
 31
0.0
  0
LINE
  5
1CF
330
16C
100
AcDbEntity
  8
AM_9
100
AcDbLine
 10
-0.7338963240271473
 20
-4.92125
 30
0.0
 11
-0.6545106620135729
 21
-4.783749999999999
 31
0.0
  0
LINE
  5
1D0
330
16C
100
AcDbEntity
  8
AM_9
100
AcDbLine
 10
-0.6545106620135729
 20
-4.783749999999999
 30
0.0
 11
-0.6545106620135729
 21
4.783749999999999
 31
0.0
  0
LINE
  5
1D1
330
16C
100
AcDbEntity
  8
AM_9
100
AcDbLine
 10
-0.7338963240271473
 20
4.92125
 30
0.0
 11
-1.920125000000001
 21
4.92125
 31
0.0
  0
LINE
  5
1D2
330
16C
100
AcDbEntity
  8
AM_9
100
AcDbLine
 10
-1.920125000000001
 20
-4.92125
 30
0.0
 11
-0.7338963240271473
 21
-4.92125
 31
0.0
  0
LINE
  5
1D3
330
16C
100
AcDbEntity
  8
AM_9
100
AcDbLine
 10
-0.7338963240271473
 20
-4.92125
 30
0.0
 11
-0.7338963240271473
 21
4.92125
 31
0.0
  0
LINE
  5
1D4
330
16C
100
AcDbEntity
  8
AM_9
100
AcDbLine
 10
-1.920125000000001
 20
-4.92125
 30
0.0
 11
-1.920125000000001
 21
4.92125
 31
0.0
  0
LINE
  5
1D5
330
16C
100
AcDbEntity
  8
AM_9
100
AcDbLine
 10
0.7698750000000003
 20
4.92125
 30
0.0
 11
-0.416353675972852
 21
4.92125
 31
0.0
  0
LINE
  5
1D6
330
16C
100
AcDbEntity
  8
AM_9
100
AcDbLine
 10
-0.416353675972852
 20
-4.92125
 30
0.0
 11
0.7698750000000003
 21
-4.92125
 31
0.0
  0
LINE
  5
1D7
330
16C
100
AcDbEntity
  8
AM_9
100
AcDbLine
 10
0.7698750000000003
 20
-4.92125
 30
0.0
 11
0.7698750000000003
 21
4.92125
 31
0.0
  0
LINE
  5
1D8
330
16C
100
AcDbEntity
  8
AM_9
100
AcDbLine
 10
-0.4957393379864264
 20
-4.78375
 30
0.0
 11
-0.416353675972852
 21
-4.92125
 31
0.0
  0
LINE
  5
1D9
330
16C
100
AcDbEntity
  8
AM_9
100
AcDbLine
 10
-0.416353675972852
 20
4.92125
 30
0.0
 11
-0.4957393379864264
 21
4.78375
 31
0.0
  0
LINE
  5
1DA
330
16C
100
AcDbEntity
  8
AM_9
100
AcDbLine
 10
-0.416353675972852
 20
-4.92125
 30
0.0
 11
-0.416353675972852
 21
4.92125
 31
0.0
  0
LINE
  5
1DB
330
16C
100
AcDbEntity
  8
AM_9
100
AcDbLine
 10
-0.4957393379864264
 20
-4.78375
 30
0.0
 11
-0.4957393379864264
 21
4.78375
 31
0.0
  0
LINE
  5
1DC
330
16C
100
AcDbEntity
  8
AM_5
100
AcDbLine
 10
-3.930499999999999
 20
3.854166666666666
 30
0.0
 11
-3.230499999999999
 21
3.854166666666666
 31
0.0
  0
LINE
  5
1DD
330
16C
100
AcDbEntity
  8
AM_5
100
AcDbLine
 10
-3.9305
 20
3.541666666666666
 30
0.0
 11
-3.230499999999999
 21
3.541666666666666
 31
0.0
  0
LINE
  5
1DE
330
16C
100
AcDbEntity
  8
AM_5
100
AcDbLine
 10
-3.930499999999999
 20
-3.854166666666666
 30
0.0
 11
-3.230500000000005
 21
-3.854166666666666
 31
0.0
  0
LINE
  5
1DF
330
16C
100
AcDbEntity
  8
AM_5
100
AcDbLine
 10
-3.930499999999999
 20
-3.541666666666666
 30
0.0
 11
-3.230500000000005
 21
-3.541666666666666
 31
0.0
  0
LINE
  5
1E2
330
16C
100
AcDbEntity
  8
AM_7
100
AcDbLine
 10
-2.828
 20
3.697916666666667
 30
0.0
 11
-4.224799999999999
 21
3.697916666666667
 31
0.0
  0
LINE
  5
1E3
330
16C
100
AcDbEntity
  8
AM_7
100
AcDbLine
 10
-2.828000000000017
 20
-3.697916666666667
 30
0.0
 11
-4.224799999999999
 21
-3.697916666666667
 31
0.0
  0
LINE
  5
1E4
330
16C
100
AcDbEntity
  8
AM_4
100
AcDbLine
 10
-4.0005
 20
2.861842105263158
 30
0.0
 11
-4.39
 21
2.861842105263158
 31
0.0
  0
LINE
  5
1E5
330
16C
100
AcDbEntity
  8
AM_4
100
AcDbLine
 10
-4.39
 20
-2.861842105263158
 30
0.0
 11
-4.0005
 21
-2.861842105263158
 31
0.0
  0
LINE
  5
1E6
330
16C
100
AcDbEntity
  8
AM_4
100
AcDbLine
 10
-4.39
 20
-2.861842105263158
 30
0.0
 11
-4.39
 21
2.861842105263158
 31
0.0
  0
LINE
  5
1E7
330
16C
100
AcDbEntity
  8
AM_4
100
AcDbLine
 10
-2.930499999999999
 20
3.082985565973346
 30
0.0
 11
-3.930499999999999
 21
3.082985565973346
 31
0.0
  0
LINE
  5
1E8
330
16C
100
AcDbEntity
  8
AM_4
100
AcDbLine
 10
-2.930499999999999
 20
-3.082985565973348
 30
0.0
 11
-3.930499999999999
 21
-3.082985565973348
 31
0.0
  0
LINE
  5
1E9
330
16C
100
AcDbEntity
  8
AM_4
100
AcDbLine
 10
-3.930499999999999
 20
-2.817041958539533
 30
0.0
 11
-3.930499999999999
 21
2.817041958539534
 31
0.0
  0
LINE
  5
1EA
330
16C
100
AcDbEntity
  8
AM_4
100
AcDbLine
 10
-3.930499999999999
 20
-2.817041958539533
 30
0.0
 11
-2.930499999999999
 21
-2.82942996265865
 31
0.0
  0
LINE
  5
1EB
330
16C
100
AcDbEntity
  8
AM_4
100
AcDbLine
 10
-2.930499999999999
 20
-2.82942996265865
 30
0.0
 11
-2.930499999999999
 21
-3.359760048548561
 31
0.0
  0
LINE
  5
1EC
330
16C
100
AcDbEntity
  8
AM_4
100
AcDbLine
 10
-2.930499999999999
 20
-3.359760048548561
 30
0.0
 11
-3.930499999999999
 21
-3.347372044429445
 31
0.0
  0
LINE
  5
1ED
330
16C
100
AcDbEntity
  8
AM_4
100
AcDbLine
 10
-3.930499999999999
 20
3.347372044429443
 30
0.0
 11
-3.930499999999999
 21
4.375
 31
0.0
  0
LINE
  5
1EE
330
16C
100
AcDbEntity
  8
AM_4
100
AcDbLine
 10
-3.930499999999999
 20
3.347372044429443
 30
0.0
 11
-2.930499999999999
 21
3.35976004854856
 31
0.0
  0
LINE
  5
1EF
330
16C
100
AcDbEntity
  8
AM_4
100
AcDbLine
 10
-2.930499999999999
 20
3.35976004854856
 30
0.0
 11
-2.930499999999999
 21
2.82942996265865
 31
0.0
  0
LINE
  5
1F0
330
16C
100
AcDbEntity
  8
AM_4
100
AcDbLine
 10
-2.930499999999999
 20
2.82942996265865
 30
0.0
 11
-3.930499999999999
 21
2.817041958539534
 31
0.0
  0
LINE
  5
1F1
330
16C
100
AcDbEntity
  8
AM_4
100
AcDbLine
 10
-3.930499999999999
 20
-4.375
 30
0.0
 11
-3.125
 21
-4.389060054799679
 31
0.0
  0
LINE
  5
1F2
330
16C
100
AcDbEntity
  8
AM_4
100
AcDbLine
 10
-2.8125
 20
4.394514762589747
 30
0.0
 11
-3.930499999999999
 21
4.375
 31
0.0
  0
LINE
  5
1F3
330
16C
100
AcDbEntity
  8
AM_4
100
AcDbLine
 10
-3.930499999999999
 20
-4.375
 30
0.0
 11
-3.930499999999999
 21
-3.347372044429445
 31
0.0
  0
ENDBLK
  5
16F
330
16C
100
AcDbEntity
  8
0
100
AcDbBlockEnd
  0
BLOCK
  5
1F6
330
1F4
100
AcDbEntity
  8
0
100
AcDbBlockBegin
  2
7_071618H_0_in_071618_2
 70
     2
 10
0.0
 20
0.0
 30
0.0
  3
7_071618H_0_in_071618_2
  1

  0
ATTDEF
  5
1F8
330
1F4
100
AcDbEntity
  8
AM_6
100
AcDbText
 10
8.4375
 20
6.499999999999999
 30
0.0
 40
0.5
  1
EP4B-IP -(Contact Seal)-Housing -Inch
100
AcDbAttributeDefinition
  3

  2
NN
 70
     8
280
     0
  0
ATTDEF
  5
1F9
330
1F4
100
AcDbEntity
  8
AM_6
100
AcDbText
 10
8.4375
 20
5.999999999999999
 30
0.0
 40
0.5
  1
Imperial/E 4 Bolt Piliow Block Bearings
100
AcDbAttributeDefinition
  3

  2
NT
 70
     8
280
     0
  0
ATTDEF
  5
1FA
330
1F4
100
AcDbEntity
  8
AM_6
100
AcDbText
 10
8.4375
 20
5.499999999999999
 30
0.0
 40
0.5
  1
071618H
100
AcDbAttributeDefinition
  3

  2
NB
 70
     8
280
     0
  0
ATTDEF
  5
1FB
330
1F4
100
AcDbEntity
  8
AM_6
100
AcDbText
 10
8.4375
 20
4.999999999999999
 30
0.0
 40
0.5
  1
$PN.H
100
AcDbAttributeDefinition
  3

  2
NBSYN
 70
     8
280
     0
  0
ATTDEF
  5
1FC
330
1F4
100
AcDbEntity
  8
AM_6
100
AcDbText
 10
8.4375
 20
4.499999999999999
 30
0.0
 40
0.5
  1
071618
100
AcDbAttributeDefinition
  3

  2
LINA
 70
     8
280
     0
  0
ATTDEF
  5
1FD
330
1F4
100
AcDbEntity
  8
AM_6
100
AcDbText
 10
8.4375
 20
3.999999999999999
 30
0.0
 40
0.5
  1
5-7/16
100
AcDbAttributeDefinition
  3

  2
SS
 70
     8
280
     0
  0
ATTDEF
  5
1FE
330
1F4
100
AcDbEntity
  8
AM_6
100
AcDbText
 10
8.4375
 20
3.499999999999999
 30
0.0
 40
0.5
  1
5.437500
100
AcDbAttributeDefinition
  3

  2
SS1
 70
     8
280
     0
  0
ATTDEF
  5
1FF
330
1F4
100
AcDbEntity
  8
AM_6
100
AcDbText
 10
8.4375
 20
2.999999999999999
 30
0.0
 40
0.5
  1
Expansion
100
AcDbAttributeDefinition
  3

  2
TYPE
 70
     8
280
     0
  0
ATTDEF
  5
200
330
1F4
100
AcDbEntity
  8
AM_6
100
AcDbText
 10
8.4375
 20
2.499999999999999
 30
0.0
 40
0.5
  1
071610
100
AcDbAttributeDefinition
  3

  2
PN1
 70
     8
280
     0
  0
ATTDEF
  5
201
330
1F4
100
AcDbEntity
  8
AM_6
100
AcDbText
 10
8.4375
 20
1.999999999999999
 30
0.0
 40
0.5
  1
071618
100
AcDbAttributeDefinition
  3

  2
PN2
 70
     8
280
     0
  0
ATTDEF
  5
202
330
1F4
100
AcDbEntity
  8
AM_6
100
AcDbText
 10
8.4375
 20
1.499999999999999
 30
0.0
 40
0.5
  1
EP4B-IP-507R
100
AcDbAttributeDefinition
  3

  2
DESCRIPTION
 70
     8
280
     0
  0
ATTDEF
  5
203
330
1F4
100
AcDbEntity
  8
AM_6
100
AcDbText
 10
8.4375
 20
0.9999999999999991
 30
0.0
 40
0.5
  1
Non-Expansion Type
100
AcDbAttributeDefinition
  3

  2
EF
 70
     8
280
     0
  0
ATTDEF
  5
204
330
1F4
100
AcDbEntity
  8
AM_6
100
AcDbText
 10
8.4375
 20
0.4999999999999991
 30
0.0
 40
0.5
  1
1
100
AcDbAttributeDefinition
  3

  2
EF1
 70
     8
280
     0
  0
ATTDEF
  5
205
330
1F4
100
AcDbEntity
  8
AM_6
100
AcDbText
 10
8.4375
 20
-0.0000000000000009
 30
0.0
 40
0.5
  1
Contact Seal
100
AcDbAttributeDefinition
  3

  2
ST
 70
     8
280
     0
  0
ATTDEF
  5
206
330
1F4
100
AcDbEntity
  8
AM_6
100
AcDbText
 10
8.4375
 20
-0.5000000000000009
 30
0.0
 40
0.5
  1
1
100
AcDbAttributeDefinition
  3

  2
ST1
 70
     8
280
     0
  0
ATTDEF
  5
207
330
1F4
100
AcDbEntity
  8
AM_6
100
AcDbText
 10
8.4375
 20
-1.000000000000001
 30
0.0
 40
0.5
  1
6.17
100
AcDbAttributeDefinition
  3

  2
A
 70
     8
280
     0
  0
ATTDEF
  5
208
330
1F4
100
AcDbEntity
  8
AM_6
100
AcDbText
 10
8.4375
 20
-1.500000000000001
 30
0.0
 40
0.5
  1
6.1700000
100
AcDbAttributeDefinition
  3

  2
A1
 70
     8
280
     0
  0
ATTDEF
  5
209
330
1F4
100
AcDbEntity
  8
AM_6
100
AcDbText
 10
8.4375
 20
-2.000000000000001
 30
0.0
 40
0.5
  1
22
100
AcDbAttributeDefinition
  3

  2
B
 70
     8
280
     0
  0
ATTDEF
  5
20A
330
1F4
100
AcDbEntity
  8
AM_6
100
AcDbText
 10
8.4375
 20
-2.500000000000001
 30
0.0
 40
0.5
  1
22.0000000
100
AcDbAttributeDefinition
  3

  2
B1
 70
     8
280
     0
  0
ATTDEF
  5
20B
330
1F4
100
AcDbEntity
  8
AM_6
100
AcDbText
 10
8.4375
 20
-3.000000000000001
 30
0.0
 40
0.5
  1
6.25
100
AcDbAttributeDefinition
  3

  2
C
 70
     8
280
     0
  0
ATTDEF
  5
20C
330
1F4
100
AcDbEntity
  8
AM_6
100
AcDbText
 10
8.4375
 20
-3.500000000000001
 30
0.0
 40
0.5
  1
6.2500000
100
AcDbAttributeDefinition
  3

  2
C1
 70
     8
280
     0
  0
ATTDEF
  5
20D
330
1F4
100
AcDbEntity
  8
AM_6
100
AcDbText
 10
8.4375
 20
-4.000000000000001
 30
0.0
 40
0.5
  1
17.38
100
AcDbAttributeDefinition
  3

  2
DMIN
 70
     8
280
     0
  0
ATTDEF
  5
20E
330
1F4
100
AcDbEntity
  8
AM_6
100
AcDbText
 10
8.4375
 20
-4.500000000000001
 30
0.0
 40
0.5
  1
17.3800000
100
AcDbAttributeDefinition
  3

  2
DMIN1
 70
     8
280
     0
  0
ATTDEF
  5
20F
330
1F4
100
AcDbEntity
  8
AM_6
100
AcDbText
 10
8.4375
 20
-5.000000000000001
 30
0.0
 40
0.5
  1
19.12
100
AcDbAttributeDefinition
  3

  2
DMAX
 70
     8
280
     0
  0
ATTDEF
  5
210
330
1F4
100
AcDbEntity
  8
AM_6
100
AcDbText
 10
8.4375
 20
-5.500000000000001
 30
0.0
 40
0.5
  1
19.1200000
100
AcDbAttributeDefinition
  3

  2
DMAX1
 70
     8
280
     0
  0
ATTDEF
  5
211
330
1F4
100
AcDbEntity
  8
AM_6
100
AcDbText
 10
8.4375
 20
-6.000000000000001
 30
0.0
 40
0.5
  1
3.75
100
AcDbAttributeDefinition
  3

  2
E
 70
     8
280
     0
  0
ATTDEF
  5
212
330
1F4
100
AcDbEntity
  8
AM_6
100
AcDbText
 10
8.4375
 20
-6.500000000000001
 30
0.0
 40
0.5
  1
3.750000
100
AcDbAttributeDefinition
  3

  2
E1
 70
     8
280
     0
  0
ATTDEF
  5
213
330
1F4
100
AcDbEntity
  8
AM_6
100
AcDbText
 10
8.4375
 20
-7.000000000000001
 30
0.0
 40
0.5
  1
1
100
AcDbAttributeDefinition
  3

  2
F
 70
     8
280
     0
  0
ATTDEF
  5
214
330
1F4
100
AcDbEntity
  8
AM_6
100
AcDbText
 10
8.4375
 20
-7.500000000000001
 30
0.0
 40
0.5
  1
1.0000000
100
AcDbAttributeDefinition
  3

  2
F1
 70
     8
280
     0
  0
ATTDEF
  5
215
330
1F4
100
AcDbEntity
  8
AM_6
100
AcDbText
 10
8.4375
 20
-8.0
 30
0.0
 40
0.5
  1
2
100
AcDbAttributeDefinition
  3

  2
G
 70
     8
280
     0
  0
ATTDEF
  5
216
330
1F4
100
AcDbEntity
  8
AM_6
100
AcDbText
 10
8.4375
 20
-8.5
 30
0.0
 40
0.5
  1
2.000000
100
AcDbAttributeDefinition
  3

  2
G1
 70
     8
280
     0
  0
ATTDEF
  5
217
330
1F4
100
AcDbEntity
  8
AM_6
100
AcDbText
 10
8.4375
 20
-9.0
 30
0.0
 40
0.5
  1
3.25
100
AcDbAttributeDefinition
  3

  2
H
 70
     8
280
     0
  0
ATTDEF
  5
218
330
1F4
100
AcDbEntity
  8
AM_6
100
AcDbText
 10
8.4375
 20
-9.5
 30
0.0
 40
0.5
  1
3.2500000
100
AcDbAttributeDefinition
  3

  2
H1
 70
     8
280
     0
  0
ATTDEF
  5
219
330
1F4
100
AcDbEntity
  8
AM_6
100
AcDbText
 10
8.4375
 20
-10.0
 30
0.0
 40
0.5
  1
13.19
100
AcDbAttributeDefinition
  3

  2
J
 70
     8
280
     0
  0
ATTDEF
  5
21A
330
1F4
100
AcDbEntity
  8
AM_6
100
AcDbText
 10
8.4375
 20
-10.5
 30
0.0
 40
0.5
  1
13.190000
100
AcDbAttributeDefinition
  3

  2
J1
 70
     8
280
     0
  0
ATTDEF
  5
21B
330
1F4
100
AcDbEntity
  8
AM_6
100
AcDbText
 10
8.4375
 20
-11.0
 30
0.0
 40
0.5
  1
8.75
100
AcDbAttributeDefinition
  3

  2
L
 70
     8
280
     0
  0
ATTDEF
  5
21C
330
1F4
100
AcDbEntity
  8
AM_6
100
AcDbText
 10
8.4375
 20
-11.5
 30
0.0
 40
0.5
  1
8.7500000
100
AcDbAttributeDefinition
  3

  2
L1
 70
     8
280
     0
  0
ATTDEF
  5
21D
330
1F4
100
AcDbEntity
  8
AM_6
100
AcDbText
 10
8.4375
 20
-12.0
 30
0.0
 40
0.5
  1
6.69
100
AcDbAttributeDefinition
  3

  2
M
 70
     8
280
     0
  0
ATTDEF
  5
21E
330
1F4
100
AcDbEntity
  8
AM_6
100
AcDbText
 10
8.4375
 20
-12.5
 30
0.0
 40
0.5
  1
6.690000
100
AcDbAttributeDefinition
  3

  2
M1
 70
     8
280
     0
  0
ATTDEF
  5
21F
330
1F4
100
AcDbEntity
  8
AM_6
100
AcDbText
 10
8.4375
 20
-13.0
 30
0.0
 40
0.5
  1
1.4
100
AcDbAttributeDefinition
  3

  2
R
 70
     8
280
     0
  0
ATTDEF
  5
220
330
1F4
100
AcDbEntity
  8
AM_6
100
AcDbText
 10
8.4375
 20
-13.5
 30
0.0
 40
0.5
  1
1.400000
100
AcDbAttributeDefinition
  3

  2
R1
 70
     8
280
     0
  0
ATTDEF
  5
221
330
1F4
100
AcDbEntity
  8
AM_6
100
AcDbText
 10
8.4375
 20
-14.0
 30
0.0
 40
0.5
  1
4.77
100
AcDbAttributeDefinition
  3

  2
S
 70
     8
280
     0
  0
ATTDEF
  5
222
330
1F4
100
AcDbEntity
  8
AM_6
100
AcDbText
 10
8.4375
 20
-14.5
 30
0.0
 40
0.5
  1
4.770000
100
AcDbAttributeDefinition
  3

  2
S1
 70
     8
280
     0
  0
ATTDEF
  5
223
330
1F4
100
AcDbEntity
  8
AM_6
100
AcDbText
 10
8.4375
 20
-15.0
 30
0.0
 40
0.5
  1
0.38
100
AcDbAttributeDefinition
  3

  2
X
 70
     8
280
     0
  0
ATTDEF
  5
224
330
1F4
100
AcDbEntity
  8
AM_6
100
AcDbText
 10
8.4375
 20
-15.5
 30
0.0
 40
0.5
  1
0.380000
100
AcDbAttributeDefinition
  3

  2
X1
 70
     8
280
     0
  0
ATTDEF
  5
225
330
1F4
100
AcDbEntity
  8
AM_6
100
AcDbText
 10
8.4375
 20
-16.0
 30
0.0
 40
0.5
  1
0.036
100
AcDbAttributeDefinition
  3

  2
Y
 70
     8
280
     0
  0
ATTDEF
  5
226
330
1F4
100
AcDbEntity
  8
AM_6
100
AcDbText
 10
8.4375
 20
-16.5
 30
0.0
 40
0.5
  1
5.92
100
AcDbAttributeDefinition
  3

  2
Z
 70
     8
280
     0
  0
ATTDEF
  5
227
330
1F4
100
AcDbEntity
  8
AM_6
100
AcDbText
 10
8.4375
 20
-17.0
 30
0.0
 40
0.5
  1
5.920000
100
AcDbAttributeDefinition
  3

  2
Z1
 70
     8
280
     0
  0
ATTDEF
  5
228
330
1F4
100
AcDbEntity
  8
AM_6
100
AcDbText
 10
8.4375
 20
-17.5
 30
0.0
 40
0.5
  1
9.8425
100
AcDbAttributeDefinition
  3

  2
BORE
 70
     8
280
     0
  0
ATTDEF
  5
229
330
1F4
100
AcDbEntity
  8
AM_6
100
AcDbText
 10
8.4375
 20
-18.0
 30
0.0
 40
0.5
  1
0.07000
100
AcDbAttributeDefinition
  3

  2
CR
 70
     8
280
     0
  0
ATTDEF
  5
22A
330
1F4
100
AcDbEntity
  8
AM_6
100
AcDbText
 10
8.4375
 20
-18.5
 30
0.0
 40
0.5
  1
baldor
100
AcDbAttributeDefinition
  3

  2
COMPANY
 70
     8
280
     0
  0
LWPOLYLINE
  5
22B
330
1F4
100
AcDbEntity
  8
AM_9
100
AcDbPolyline
 90
        4
 70
     0
 43
0.0
 10
-0.4776322357077625
 20
5.553769954920203
 10
-0.4876716413659409
 20
5.573180613127277
 10
-0.4968985419355325
 20
5.601199856092332
 10
-0.5000000000000019
 20
5.629165124598847
  0
LWPOLYLINE
  5
22C
330
1F4
100
AcDbEntity
  8
AM_9
100
AcDbPolyline
 90
       17
 70
     0
 43
0.0
 10
0.4856364975077774
 20
5.568729931038071
 10
0.4709338568218391
 20
5.543288796713988
 10
0.4361193689582461
 20
5.502959739776033
 10
0.3890903965216256
 20
5.465582158512507
 10
0.3308511247274283
 20
5.432388901186147
 10
0.2632916349459409
 20
5.404585084945976
 10
0.1881039329901782
 20
5.383248504036612
 10
0.1075858066465001
 20
5.369115331336271
 10
-0.0000000000000002
 20
5.36248608016091
 10
-0.0837952950295839
 20
5.366523041463836
 10
-0.1652252252097499
 20
5.378353964724774
 10
-0.2419240980208241
 20
5.39763995126327
 10
-0.3118190283586708
 20
5.423550543623525
 10
-0.3729413658543494
 20
5.455290592327873
 10
-0.4235653484076871
 20
5.491614333578718
 10
-0.462141354638524
 20
5.531375382941859
 10
-0.4776322357077625
 20
5.553769954920203
  0
LWPOLYLINE
  5
22D
330
1F4
100
AcDbEntity
  8
AM_9
100
AcDbPolyline
 90
        4
 70
     0
 43
0.0
 10
0.5
 20
5.629165124598847
 10
0.4999906721438049
 20
5.627637433367581
 10
0.4923666128789687
 20
5.58528471084799
 10
0.4856364975077774
 20
5.568729931038071
  0
ELLIPSE
  5
22E
330
1F4
100
AcDbEntity
  8
AM_9
100
AcDbEllipse
 10
0.00000000000006
 20
5.629165124598841
 30
0.0
 11
0.5000000000000618
 21
0.0
 31
0.0
210
0.0
220
0.0
230
1.0
 40
0.4999999999999861
 41
3.141592653589793
 42
3.447893621240395
  0
ELLIPSE
  5
22F
330
1F4
100
AcDbEntity
  8
AM_9
100
AcDbEllipse
 10
-0.0000000000000002
 20
5.715767664977294
 30
0.0
 11
-0.4000000000000001
 21
4.898587196589414E-17
 31
0.0
210
0.0
220
0.0
230
1.0
 40
0.5000000000000003
 41
0.0
 42
6.283185307179586
  0
LINE
  5
230
330
1F4
100
AcDbEntity
  8
AM_9
100
AcDbLine
 10
-0.4999730095634823
 20
5.632450808594426
 30
0.0
 11
-0.4999999130612693
 21
5.628978642729178
 31
0.0
  0
LINE
  5
231
330
1F4
100
AcDbEntity
  8
AM_9
100
AcDbLine
 10
-0.4998910019149261
 20
5.635767533975438
 30
0.0
 11
-0.4999730095634823
 21
5.632450808594426
 31
0.0
  0
LWPOLYLINE
  5
232
330
1F4
100
AcDbEntity
  8
AM_9
100
AcDbPolyline
 90
       32
 70
     0
 43
0.0
 10
0.4996761216118125
 20
5.64054430815482
 10
0.4991371522833915
 20
5.647730528490444
 10
0.4934708471070562
 20
5.680010106456905
 10
0.4828282388283027
 20
5.710944823980357
 10
0.4674256769212587
 20
5.740476105546104
 10
0.4472893444593
 20
5.768612134288828
 10
0.4222948528646687
 20
5.795333112183027
 10
0.3923172723163617
 20
5.820481625942413
 10
0.357469578422415
 20
5.843709466507319
 10
0.3182482050593708
 20
5.864567428153106
 10
0.2754513505772955
 20
5.882670798012005
 10
0.2298914621219575
 20
5.897820750515389
 10
0.1821550256922019
 20
5.909986300658709
 10
0.1327500817101791
 20
5.919171933517273
 10
0.0821516514086292
 20
5.925386687042893
 10
0.0308272702590595
 20
5.928636599772864
 10
-0.0207545207969011
 20
5.928925702207419
 10
-0.0721252247447743
 20
5.926257894466723
 10
-0.1227914362787377
 20
5.920640935722584
 10
-0.1723008300816767
 20
5.912080273806401
 10
-0.2202229856044918
 20
5.90056968606295
 10
-0.2661468741666177
 20
5.886079596479511
 10
-0.3096712562362127
 20
5.868542737732856
 10
-0.3503739020398383
 20
5.847844904229758
 10
-0.3877450218788137
 20
5.823844335595472
 10
-0.4210136941113638
 20
5.796537565243034
 10
-0.4463497014922111
 20
5.769749860864996
 10
-0.4667493848165506
 20
5.741567571631824
 10
-0.4822516133982898
 20
5.712269563834384
 10
-0.4929247823475089
 20
5.682071154223921
 10
-0.4990857623410483
 20
5.64827463025509
 10
-0.4998910019149261
 20
5.635767533975438
  0
LINE
  5
233
330
1F4
100
AcDbEntity
  8
AM_9
100
AcDbLine
 10
0.4999999551035793
 20
5.62929913417704
 30
0.0
 11
0.4996761216118125
 21
5.64054430815482
 31
0.0
  0
LWPOLYLINE
  5
234
330
1F4
100
AcDbEntity
  8
AM_9
100
AcDbPolyline
 90
        4
 70
     0
 43
0.0
 10
0.4682229080828985
 20
5.714818177127435
 10
0.472808202989536
 20
5.70872363388789
 10
0.4931076227589365
 20
5.669930056350146
 10
0.5
 20
5.629165124598847
  0
LWPOLYLINE
  5
235
330
1F4
100
AcDbEntity
  8
AM_9
100
AcDbPolyline
 90
       16
 70
     0
 43
0.0
 10
-0.4706856685747589
 20
5.711612260435659
 10
-0.4500106495276769
 20
5.734962028634842
 10
-0.4071081592264982
 20
5.768646676868006
 10
-0.3527893638545728
 20
5.797953669449738
 10
-0.2882556144785302
 20
5.82228006772653
 10
-0.2155821227681594
 20
5.841158871232373
 10
-0.1367142984190417
 20
5.854187402514422
 10
-0.0539706326529392
 20
5.861220016596269
 10
0.0301103828404995
 20
5.86207424197785
 10
0.1133409250951307
 20
5.856836549875518
 10
0.1932317517800354
 20
5.845534602360381
 10
0.2676927100919265
 20
5.82842395099879
 10
0.334667504929136
 20
5.805673471960108
 10
0.3922327841321904
 20
5.777799082767491
 10
0.4387099850749767
 20
5.745208284366489
 10
0.4682229080828985
 20
5.714818177127435
  0
LWPOLYLINE
  5
236
330
1F4
100
AcDbEntity
  8
AM_9
100
AcDbPolyline
 90
        4
 70
     0
 43
0.0
 10
-0.5000000000000019
 20
5.629165124598847
 10
-0.4967193446696985
 20
5.657538776343511
 10
-0.4800888459505527
 20
5.697620360371672
 10
-0.4706856685747589
 20
5.711612260435659
  0
ELLIPSE
  5
237
330
1F4
100
AcDbEntity
  8
AM_9
100
AcDbEllipse
 10
0.0000000000000012
 20
5.629165124598858
 30
0.0
 11
0.4999999999999988
 21
0.0
 31
0.0
210
0.0
220
0.0
230
1.0
 40
0.5000000000000066
 41
3.447893621240482
 42
9.088196653903488
  0
ELLIPSE
  5
238
330
1F4
100
AcDbEntity
  8
AM_9
100
AcDbEllipse
 10
0.0000000000000592
 20
5.629165124598889
 30
0.0
 11
0.5000000000000611
 21
0.0
 31
0.0
210
0.0
220
0.0
230
1.0
 40
0.499999999999994
 41
2.805011346724052
 42
3.141592653589793
  0
LINE
  5
239
330
1F4
100
AcDbEntity
  8
AM_9
100
AcDbLine
 10
-2.44
 20
-6.489643672806698
 30
0.0
 11
2.44
 21
-6.489643672806698
 31
0.0
  0
LINE
  5
23A
330
1F4
100
AcDbEntity
  8
AM_9
100
AcDbLine
 10
-2.8125
 20
-4.92125
 30
0.0
 11
2.8125
 21
-4.92125
 31
0.0
  0
LINE
  5
23B
330
1F4
100
AcDbEntity
  8
AM_9
100
AcDbLine
 10
2.8125
 20
4.92125
 30
0.0
 11
-2.8125
 21
4.92125
 31
0.0
  0
LINE
  5
23C
330
1F4
100
AcDbEntity
  8
AM_9
100
AcDbLine
 10
-2.439999999999999
 20
-4.912683923705721
 30
0.0
 11
2.44
 21
-4.912683923705721
 31
0.0
  0
LINE
  5
23D
330
1F4
100
AcDbEntity
  8
AM_9
100
AcDbLine
 10
2.8125
 20
-3.245002930799386
 30
0.0
 11
2.8125
 21
-6.689999999999999
 31
0.0
  0
LINE
  5
23E
330
1F4
100
AcDbEntity
  8
AM_9
100
AcDbLine
 10
-2.8125
 20
-3.245002930799386
 30
0.0
 11
-2.8125
 21
-6.689999999999999
 31
0.0
  0
LINE
  5
23F
330
1F4
100
AcDbEntity
  8
AM_9
100
AcDbLine
 10
2.44
 20
-4.74
 30
0.0
 11
-2.439999999999998
 21
-4.74
 31
0.0
  0
LINE
  5
240
330
1F4
100
AcDbEntity
  8
AM_9
100
AcDbLine
 10
1.875000000000001
 20
-4.74
 30
0.0
 11
1.875000000000001
 21
-6.69
 31
0.0
  0
LINE
  5
241
330
1F4
100
AcDbEntity
  8
AM_9
100
AcDbLine
 10
2.44
 20
-6.69
 30
0.0
 11
2.44
 21
-3.44
 31
0.0
  0
LINE
  5
242
330
1F4
100
AcDbEntity
  8
AM_9
100
AcDbLine
 10
1.310000000000001
 20
-3.44
 30
0.0
 11
1.310000000000001
 21
-4.74
 31
0.0
  0
LINE
  5
243
330
1F4
100
AcDbEntity
  8
AM_9
100
AcDbLine
 10
-1.874999999999999
 20
-4.74
 30
0.0
 11
-1.875000000000004
 21
-6.69
 31
0.0
  0
LINE
  5
244
330
1F4
100
AcDbEntity
  8
AM_9
100
AcDbLine
 10
-2.439999999999999
 20
-6.69
 30
0.0
 11
-2.439999999999999
 21
-3.44
 31
0.0
  0
LINE
  5
245
330
1F4
100
AcDbEntity
  8
AM_9
100
AcDbLine
 10
-1.309999999999999
 20
-3.44
 30
0.0
 11
-1.309999999999999
 21
-4.74
 31
0.0
  0
LINE
  5
246
330
1F4
100
AcDbEntity
  8
AM_7
100
AcDbLine
 10
3.4375
 20
0.0
 30
0.0
 11
-4.700393750000001
 21
0.0
 31
0.0
  0
LINE
  5
247
330
1F4
100
AcDbEntity
  8
AM_4
100
AcDbLine
 10
-2.8125
 20
6.499999999999999
 30
0.0
 11
2.8125
 21
6.499999999999999
 31
0.0
  0
LINE
  5
248
330
1F4
100
AcDbEntity
  8
AM_4
100
AcDbLine
 10
-2.8125
 20
6.337499999999999
 30
0.0
 11
2.8125
 21
6.337499999999998
 31
0.0
  0
LINE
  5
249
330
1F4
100
AcDbEntity
  8
AM_4
100
AcDbLine
 10
1.875
 20
0.9169378386782779
 30
0.0
 11
-1.875
 21
0.9169378386782779
 31
0.0
  0
LINE
  5
24A
330
1F4
100
AcDbEntity
  8
AM_4
100
AcDbLine
 10
-2.8125
 20
6.289597217606403
 30
0.0
 11
2.8125
 21
6.289597217606403
 31
0.0
  0
LINE
  5
24B
330
1F4
100
AcDbEntity
  8
AM_4
100
AcDbLine
 10
-1.875
 20
-3.277499999999999
 30
0.0
 11
1.875
 21
-3.277499999999999
 31
0.0
  0
LINE
  5
24C
330
1F4
100
AcDbEntity
  8
AM_4
100
AcDbLine
 10
-2.8125
 20
0.5652450930426587
 30
0.0
 11
-1.875
 21
0.5652450930426592
 31
0.0
  0
LINE
  5
24D
330
1F4
100
AcDbEntity
  8
AM_4
100
AcDbLine
 10
1.875
 20
0.5652450930426592
 30
0.0
 11
2.812500000000001
 21
0.5652450930426587
 31
0.0
  0
LWPOLYLINE
  5
24E
330
1F4
100
AcDbEntity
  8
AM_4
100
AcDbPolyline
 90
       15
 70
     0
 43
0.0
 10
2.8125
 20
-3.245002930799386
 10
2.824963972588133
 20
-3.270468975161263
 10
2.839600028008794
 20
-3.294751806747428
 10
2.856296777042743
 20
-3.317666618547137
 10
2.874927147348058
 20
-3.339039015006251
 10
2.89534935055739
 20
-3.358706339282713
 10
2.917407961373053
 20
-3.376518911163322
 10
2.940935100447386
 20
-3.392341166220543
 10
2.965751712045959
 20
-3.40605268753965
 10
2.991668926769827
 20
-3.417549122164163
 10
3.018489498965698
 20
-3.426742975284852
 10
3.046009307884459
 20
-3.433564276128068
 10
3.074018911163322
 20
-3.43796111047558
 10
3.102305138808674
 20
-3.439900015763123
 10
3.110366141049249
 20
-3.44
  0
LINE
  5
24F
330
1F4
100
AcDbEntity
  8
AM_4
100
AcDbLine
 10
1.875
 20
0.9169378386782779
 30
0.0
 11
1.874999999999998
 21
-3.44
 31
0.0
  0
LINE
  5
250
330
1F4
100
AcDbEntity
  8
AM_4
100
AcDbLine
 10
1.875000000000001
 20
-3.143262254652133
 30
0.0
 11
2.812500000000001
 21
-3.143262254652133
 31
0.0
  0
LINE
  5
251
330
1F4
100
AcDbEntity
  8
AM_4
100
AcDbLine
 10
2.8125
 20
6.499999999999999
 30
0.0
 11
2.8125
 21
-3.245002930799386
 31
0.0
  0
LWPOLYLINE
  5
252
330
1F4
100
AcDbEntity
  8
AM_4
100
AcDbPolyline
 90
       15
 70
     0
 43
0.0
 10
-3.110366141049248
 20
-3.44
 10
-3.082040524656259
 20
-3.438763276879818
 10
-3.053930483307496
 20
-3.435062519728968
 10
-3.026249951390929
 20
-3.428925893543948
 10
-2.999209594468406
 20
-3.420400101755421
 10
-2.973015205983521
 20
-3.409550030786912
 10
-2.947866141049248
 20
-3.396458256229944
 10
-2.923953799235158
 20
-3.381224414393924
 10
-2.901460167901123
 20
-3.36396444401367
 10
-2.88055643716362
 20
-3.34480970388563
 10
-2.86140169703558
 20
-3.323905973148127
 10
-2.844141726655326
 20
-3.301412341814093
 10
-2.828907884819305
 20
-3.277500000000003
 10
-2.815816110262337
 20
-3.25235093506573
 10
-2.8125
 20
-3.245002930799386
  0
LINE
  5
253
330
1F4
100
AcDbEntity
  8
AM_4
100
AcDbLine
 10
-1.875
 20
0.9169378386782779
 30
0.0
 11
-1.875
 21
-3.44
 31
0.0
  0
LINE
  5
254
330
1F4
100
AcDbEntity
  8
AM_4
100
AcDbLine
 10
-2.8125
 20
-3.143262254652133
 30
0.0
 11
-1.875
 21
-3.143262254652133
 31
0.0
  0
LINE
  5
255
330
1F4
100
AcDbEntity
  8
AM_4
100
AcDbLine
 10
-2.8125
 20
-3.245002930799386
 30
0.0
 11
-2.8125
 21
6.499999999999999
 31
0.0
  0
LINE
  5
256
330
1F4
100
AcDbEntity
  8
AM_4
100
AcDbLine
 10
-3.124999999999997
 20
-3.44
 30
0.0
 11
-3.125
 21
-6.689999999999999
 31
0.0
  0
LINE
  5
257
330
1F4
100
AcDbEntity
  8
AM_4
100
AcDbLine
 10
3.124999999999997
 20
-3.44
 30
0.0
 11
3.125000000000001
 21
-6.69
 31
0.0
  0
LINE
  5
258
330
1F4
100
AcDbEntity
  8
AM_4
100
AcDbLine
 10
-3.124999999999997
 20
-3.44
 30
0.0
 11
3.124999999999997
 21
-3.44
 31
0.0
  0
LWPOLYLINE
  5
259
330
1F4
100
AcDbEntity
  8
AM_4
100
AcDbPolyline
 90
       16
 70
     0
 43
0.0
 10
2.062224007508128
 20
-3.440000000000002
 10
1.743679345448617
 20
-3.446503240611031
 10
1.422748055272527
 20
-3.462402264929307
 10
1.191705537309835
 20
-3.476924105778142
 10
0.9600021303641479
 20
-3.492227665126038
 10
0.7271209772486729
 20
-3.506748954338107
 10
0.4936745521502534
 20
-3.518879415888458
 10
0.2578309741024105
 20
-3.527164429795011
 10
0.0217138835837974
 20
-3.530455563564391
 10
-0.2154649049398061
 20
-3.528143236055898
 10
-0.4524096846555815
 20
-3.520656751183472
 10
-0.856023911664843
 20
-3.498914233827945
 10
-1.258636397276542
 20
-3.472571204650925
 10
-1.66117571934997
 20
-3.449902735974549
 10
-1.862077066521095
 20
-3.44270964148122
 10
-2.062224007508127
 20
-3.439999999999991
  0
LINE
  5
25A
330
1F4
100
AcDbEntity
  8
AM_4
100
AcDbLine
 10
-2.5
 20
-5.065
 30
0.0
 11
-2.5
 21
-6.689999999999999
 31
0.0
  0
LINE
  5
25B
330
1F4
100
AcDbEntity
  8
AM_4
100
AcDbLine
 10
3.125000000000001
 20
-6.69
 30
0.0
 11
-3.125
 21
-6.689999999999999
 31
0.0
  0
LINE
  5
25C
330
1F4
100
AcDbEntity
  8
AM_4
100
AcDbLine
 10
-3.125
 20
-5.065
 30
0.0
 11
3.124999999999997
 21
-5.065
 31
0.0
  0
LINE
  5
25D
330
1F4
100
AcDbEntity
  8
AM_4
100
AcDbLine
 10
2.5
 20
-5.065
 30
0.0
 11
2.5
 21
-6.689999999999999
 31
0.0
  0
ENDBLK
  5
1F7
330
1F4
100
AcDbEntity
  8
0
100
AcDbBlockEnd
  0
ENDSEC
  0
SECTION
  2
ENTITIES
  0
INSERT
  5
6F
330
1F
100
AcDbEntity
  8
0
100
AcDbBlockReference
  2
1_071618_2
 10
0.0
 20
0.0
 30
0.0
  0
POINT
  5
25F
330
1F
100
AcDbEntity
  8
ConnectionPoints
100
AcDbPoint
 10
-4.0005
 20
-3.697916666666667
 30
0.0000000000000002
  0
POINT
  5
260
330
1F
100
AcDbEntity
  8
ConnectionPoints
100
AcDbPoint
 10
-4.0005
 20
3.697916666666667
 30
0.0000000000000002
  0
POINT
  5
261
330
1F
100
AcDbEntity
  8
ConnectionPoints
100
AcDbPoint
 10
-3.9305
 20
0.0
 30
0.0000000000000002
  0
POINT
  5
262
330
1F
100
AcDbEntity
  8
ConnectionPoints
100
AcDbPoint
 10
-4.39
 20
0.0
 30
0.0000000000000003
  0
POINT
  5
263
330
1F
100
AcDbEntity
  8
ConnectionPoints
100
AcDbPoint
 10
-4.1295
 20
0.0
 30
0.0000000000000003
  0
POINT
  5
264
330
1F
100
AcDbEntity
  8
ConnectionPoints
100
AcDbPoint
 10
-3.9305
 20
3.697916666666667
 30
0.0000000000000002
  0
POINT
  5
265
330
1F
100
AcDbEntity
  8
ConnectionPoints
100
AcDbPoint
 10
-3.9305
 20
-3.697916666666667
 30
0.0000000000000002
  0
POINT
  5
266
330
1F
100
AcDbEntity
  8
ConnectionPoints
100
AcDbPoint
 10
-3.9305
 20
0.0
 30
0.0000000000000002
  0
POINT
  5
267
330
1F
100
AcDbEntity
  8
ConnectionPoints
100
AcDbPoint
 10
-0.0000000000000002
 20
5.715767664977294
 30
-3.299999999999999
  0
POINT
  5
268
330
1F
100
AcDbEntity
  8
ConnectionPoints
100
AcDbPoint
 10
-4.39
 20
0.0
 30
0.0000000000000003
  0
POINT
  5
269
330
1F
100
AcDbEntity
  8
ConnectionPoints
100
AcDbPoint
 10
-4.77
 20
0.0
 30
0.0000000000000003
  0
ENDSEC
  0
SECTION
  2
OBJECTS
  0
DICTIONARY
  5
C
330
0
100
AcDbDictionary
281
     1
  3
ACAD_DETAILVIEWSTYLE
350
271
  3
ACAD_GROUP
350
D
  3
ACAD_LAYOUT
350
1A
  3
ACAD_MATERIAL
350
43
  3
ACAD_MLEADERSTYLE
350
6B
  3
ACAD_MLINESTYLE
350
17
  3
ACAD_PLOTSETTINGS
350
19
  3
ACAD_PLOTSTYLENAME
350
E
  3
ACAD_SCALELIST
350
47
  3
ACAD_SECTIONVIEWSTYLE
350
272
  3
ACAD_TABLESTYLE
350
69
  3
ACAD_VISUALSTYLE
350
2A
  3
ACDB_RECOMPOSE_DATA
350
26E
  3
AcDbVariableDictionary
350
26A
  0
SUN
  5
6D
330
29
100
AcDbSun
 90
        1
290
     0
 63
     7
421
 16777215
 40
1.0
291
     1
 91
  2455826
 92
 54000000
292
     0
 70
     2
 71
   256
280
     1
  0
DICTIONARY
  5
271
102
{ACAD_REACTORS
330
C
102
}
330
C
100
AcDbDictionary
281
     1
  0
DICTIONARY
  5
D
102
{ACAD_REACTORS
330
C
102
}
330
C
100
AcDbDictionary
281
     1
  0
DICTIONARY
  5
1A
102
{ACAD_REACTORS
330
C
102
}
330
C
100
AcDbDictionary
281
     1
  3
Layout1
350
1E
  3
Layout2
350
26
  3
Model
350
22
  0
DICTIONARY
  5
43
102
{ACAD_REACTORS
330
C
102
}
330
C
100
AcDbDictionary
281
     1
  3
ByBlock
350
45
  3
ByLayer
350
44
  3
Global
350
46
  0
DICTIONARY
  5
6B
102
{ACAD_REACTORS
330
C
102
}
330
C
100
AcDbDictionary
281
     1
  3
Standard
350
6C
  0
DICTIONARY
  5
17
102
{ACAD_REACTORS
330
C
102
}
330
C
100
AcDbDictionary
281
     1
  3
Standard
350
18
  0
DICTIONARY
  5
19
102
{ACAD_REACTORS
330
C
102
}
330
C
100
AcDbDictionary
281
     1
  0
ACDBDICTIONARYWDFLT
  5
E
102
{ACAD_REACTORS
330
C
102
}
330
C
100
AcDbDictionary
281
     1
  3
Normal
350
F
100
AcDbDictionaryWithDefault
340
F
  0
DICTIONARY
  5
47
102
{ACAD_REACTORS
330
C
102
}
330
C
100
AcDbDictionary
281
     1
  3
A0
350
48
  3
A1
350
49
  3
A2
350
4A
  3
A3
350
4B
  3
A4
350
4C
  3
A5
350
4D
  3
A6
350
4E
  3
A7
350
4F
  3
A8
350
50
  3
A9
350
51
  3
B0
350
52
  3
B1
350
53
  3
B2
350
54
  3
B3
350
55
  3
B4
350
56
  3
B5
350
57
  3
B6
350
58
  3
B7
350
59
  3
B8
350
5A
  3
B9
350
5B
  3
C0
350
5C
  3
C1
350
5D
  3
C2
350
5E
  3
C3
350
5F
  3
C4
350
60
  3
C5
350
61
  3
C6
350
62
  3
C7
350
63
  3
C8
350
64
  3
C9
350
65
  3
D0
350
66
  3
D1
350
67
  3
D2
350
68
  0
DICTIONARY
  5
272
102
{ACAD_REACTORS
330
C
102
}
330
C
100
AcDbDictionary
281
     1
  0
DICTIONARY
  5
69
102
{ACAD_REACTORS
330
C
102
}
330
C
100
AcDbDictionary
281
     1
  3
Standard
350
6A
  0
DICTIONARY
  5
2A
102
{ACAD_REACTORS
330
C
102
}
330
C
100
AcDbDictionary
281
     1
  3
2dWireframe
350
2F
  3
Basic
350
32
  3
Brighten
350
36
  3
ColorChange
350
3A
  3
Conceptual
350
34
  3
Dim
350
35
  3
EdgeColorOff
350
3D
  3
Facepattern
350
39
  3
Flat
350
2B
  3
FlatWithEdges
350
2C
  3
Gouraud
350
2D
  3
GouraudWithEdges
350
2E
  3
Hidden
350
31
  3
JitterOff
350
3B
  3
Linepattern
350
38
  3
OverhangOff
350
3C
  3
Realistic
350
33
  3
Shaded
350
42
  3
Shaded with edges
350
41
  3
Shades of Gray
350
3E
  3
Sketchy
350
3F
  3
Thicken
350
37
  3
Wireframe
350
30
  3
X-Ray
350
40
  0
XRECORD
  5
26E
102
{ACAD_REACTORS
330
C
102
}
330
C
100
AcDbXrecord
280
     1
 90
        1
330
6A
  0
DICTIONARY
  5
26A
102
{ACAD_REACTORS
330
C
102
}
330
C
100
AcDbDictionary
281
     1
  3
CANNOSCALE
350
26B
  3
CMLEADERSTYLE
350
270
  3
CTABLESTYLE
350
26F
  0
LAYOUT
  5
1E
102
{ACAD_REACTORS
330
1A
102
}
330
1A
100
AcDbPlotSettings
  1

  2
none_device
  4

  6

 40
0.0
 41
0.0
 42
0.0
 43
0.0
 44
0.0
 45
0.0
 46
0.0
 47
0.0
 48
0.0
 49
0.0
140
0.0
141
0.0
142
1.0
143
1.0
 70
   688
 72
     0
 73
     0
 74
     5
  7

 75
    16
 76
     0
 77
     2
 78
   300
147
1.0
148
0.0
149
0.0
100
AcDbLayout
  1
Layout1
 70
     1
 71
     1
 10
0.0
 20
0.0
 11
12.0
 21
9.0
 12
0.0
 22
0.0
 32
0.0
 14
1.000000000000000E+20
 24
1.000000000000000E+20
 34
1.000000000000000E+20
 15
-1.000000000000000E+20
 25
-1.000000000000000E+20
 35
-1.000000000000000E+20
146
0.0
 13
0.0
 23
0.0
 33
0.0
 16
1.0
 26
0.0
 36
0.0
 17
0.0
 27
1.0
 37
0.0
 76
     0
330
1B
  0
LAYOUT
  5
26
102
{ACAD_REACTORS
330
1A
102
}
330
1A
100
AcDbPlotSettings
  1

  2
none_device
  4

  6

 40
0.0
 41
0.0
 42
0.0
 43
0.0
 44
0.0
 45
0.0
 46
0.0
 47
0.0
 48
0.0
 49
0.0
140
0.0
141
0.0
142
1.0
143
1.0
 70
   688
 72
     0
 73
     0
 74
     5
  7

 75
    16
 76
     0
 77
     2
 78
   300
147
1.0
148
0.0
149
0.0
100
AcDbLayout
  1
Layout2
 70
     1
 71
     2
 10
0.0
 20
0.0
 11
0.0
 21
0.0
 12
0.0
 22
0.0
 32
0.0
 14
0.0
 24
0.0
 34
0.0
 15
0.0
 25
0.0
 35
0.0
146
0.0
 13
0.0
 23
0.0
 33
0.0
 16
1.0
 26
0.0
 36
0.0
 17
0.0
 27
1.0
 37
0.0
 76
     0
330
23
  0
LAYOUT
  5
22
102
{ACAD_REACTORS
330
1A
102
}
330
1A
100
AcDbPlotSettings
  1

  2
none_device
  4
Letter_(8.50_x_11.00_Inches)
  6

 40
6.35
 41
6.35
 42
6.35000508
 43
6.35000508
 44
215.9
 45
279.4
 46
0.0
 47
0.0
 48
0.0
 49
0.0
140
0.0
141
0.0
142
1.0
143
1.0
 70
  1712
 72
     0
 73
     0
 74
     0
  7

 75
     0
 76
     0
 77
     2
 78
   300
147
1.0
148
0.0
149
0.0
100
AcDbLayout
  1
Model
 70
     1
 71
     0
 10
0.0
 20
0.0
 11
12.0
 21
9.0
 12
0.0
 22
0.0
 32
0.0
 14
1.000000000000000E+20
 24
1.000000000000000E+20
 34
1.000000000000000E+20
 15
-1.000000000000000E+20
 25
-1.000000000000000E+20
 35
-1.000000000000000E+20
146
0.0
 13
0.0
 23
0.0
 33
0.0
 16
1.0
 26
0.0
 36
0.0
 17
0.0
 27
1.0
 37
0.0
 76
     0
330
1F
331
29
  0
MATERIAL
  5
45
102
{ACAD_REACTORS
330
43
102
}
330
43
100
AcDbMaterial
  1
ByBlock
 72
     1
 94
      127
  0
MATERIAL
  5
44
102
{ACAD_REACTORS
330
43
102
}
330
43
100
AcDbMaterial
  1
ByLayer
 72
     1
 94
      127
  0
MATERIAL
  5
46
102
{ACAD_REACTORS
330
43
102
}
330
43
100
AcDbMaterial
  1
Global
 72
     1
 94
      127
  0
MLEADERSTYLE
  5
6C
102
{ACAD_REACTORS
330
6B
102
}
330
6B
100
AcDbMLeaderStyle
179
     2
170
     2
171
     1
172
     0
 90
        2
 40
0.0
 41
0.0
173
     1
 91
-1056964608
340
14
 92
       -2
290
     1
 42
0.09
291
     1
 43
0.36
  3
Standard
341
0
 44
0.18
300

342
11
174
     1
178
     6
175
     1
176
     0
 93
-1056964608
 45
0.18
292
     0
297
     0
 46
0.18
343
0
 94
-1056964608
 47
1.0
 49
1.0
140
1.0
293
     1
141
0.0
294
     1
177
     0
142
1.0
295
     0
296
     0
143
0.125
271
     0
272
     9
273
     9
298
     0
  0
MLINESTYLE
  5
18
102
{ACAD_REACTORS
330
17
102
}
330
17
100
AcDbMlineStyle
  2
Standard
 70
     0
  3

 62
   256
 51
90.0
 52
90.0
 71
     2
 49
0.5
 62
   256
  6
BYLAYER
 49
-0.5
 62
   256
  6
BYLAYER
  0
ACDBPLACEHOLDER
  5
F
102
{ACAD_REACTORS
330
E
102
}
330
E
  0
SCALE
  5
48
102
{ACAD_REACTORS
330
47
102
}
330
47
100
AcDbScale
 70
     0
300
1:1
140
1.0
141
1.0
290
     1
  0
SCALE
  5
49
102
{ACAD_REACTORS
330
47
102
}
330
47
100
AcDbScale
 70
     0
300
1:2
140
1.0
141
2.0
290
     0
  0
SCALE
  5
4A
102
{ACAD_REACTORS
330
47
102
}
330
47
100
AcDbScale
 70
     0
300
1:4
140
1.0
141
4.0
290
     0
  0
SCALE
  5
4B
102
{ACAD_REACTORS
330
47
102
}
330
47
100
AcDbScale
 70
     0
300
1:5
140
1.0
141
5.0
290
     0
  0
SCALE
  5
4C
102
{ACAD_REACTORS
330
47
102
}
330
47
100
AcDbScale
 70
     0
300
1:8
140
1.0
141
8.0
290
     0
  0
SCALE
  5
4D
102
{ACAD_REACTORS
330
47
102
}
330
47
100
AcDbScale
 70
     0
300
1:10
140
1.0
141
10.0
290
     0
  0
SCALE
  5
4E
102
{ACAD_REACTORS
330
47
102
}
330
47
100
AcDbScale
 70
     0
300
1:16
140
1.0
141
16.0
290
     0
  0
SCALE
  5
4F
102
{ACAD_REACTORS
330
47
102
}
330
47
100
AcDbScale
 70
     0
300
1:20
140
1.0
141
20.0
290
     0
  0
SCALE
  5
50
102
{ACAD_REACTORS
330
47
102
}
330
47
100
AcDbScale
 70
     0
300
1:30
140
1.0
141
30.0
290
     0
  0
SCALE
  5
51
102
{ACAD_REACTORS
330
47
102
}
330
47
100
AcDbScale
 70
     0
300
1:40
140
1.0
141
40.0
290
     0
  0
SCALE
  5
52
102
{ACAD_REACTORS
330
47
102
}
330
47
100
AcDbScale
 70
     0
300
1:50
140
1.0
141
50.0
290
     0
  0
SCALE
  5
53
102
{ACAD_REACTORS
330
47
102
}
330
47
100
AcDbScale
 70
     0
300
1:100
140
1.0
141
100.0
290
     0
  0
SCALE
  5
54
102
{ACAD_REACTORS
330
47
102
}
330
47
100
AcDbScale
 70
     0
300
2:1
140
2.0
141
1.0
290
     0
  0
SCALE
  5
55
102
{ACAD_REACTORS
330
47
102
}
330
47
100
AcDbScale
 70
     0
300
4:1
140
4.0
141
1.0
290
     0
  0
SCALE
  5
56
102
{ACAD_REACTORS
330
47
102
}
330
47
100
AcDbScale
 70
     0
300
8:1
140
8.0
141
1.0
290
     0
  0
SCALE
  5
57
102
{ACAD_REACTORS
330
47
102
}
330
47
100
AcDbScale
 70
     0
300
10:1
140
10.0
141
1.0
290
     0
  0
SCALE
  5
58
102
{ACAD_REACTORS
330
47
102
}
330
47
100
AcDbScale
 70
     0
300
100:1
140
100.0
141
1.0
290
     0
  0
SCALE
  5
59
102
{ACAD_REACTORS
330
47
102
}
330
47
100
AcDbScale
 70
     0
300
1/128" = 1'-0"
140
0.0078125
141
12.0
290
     0
  0
SCALE
  5
5A
102
{ACAD_REACTORS
330
47
102
}
330
47
100
AcDbScale
 70
     0
300
1/64" = 1'-0"
140
0.015625
141
12.0
290
     0
  0
SCALE
  5
5B
102
{ACAD_REACTORS
330
47
102
}
330
47
100
AcDbScale
 70
     0
300
1/32" = 1'-0"
140
0.03125
141
12.0
290
     0
  0
SCALE
  5
5C
102
{ACAD_REACTORS
330
47
102
}
330
47
100
AcDbScale
 70
     0
300
1/16" = 1'-0"
140
0.0625
141
12.0
290
     0
  0
SCALE
  5
5D
102
{ACAD_REACTORS
330
47
102
}
330
47
100
AcDbScale
 70
     0
300
3/32" = 1'-0"
140
0.09375
141
12.0
290
     0
  0
SCALE
  5
5E
102
{ACAD_REACTORS
330
47
102
}
330
47
100
AcDbScale
 70
     0
300
1/8" = 1'-0"
140
0.125
141
12.0
290
     0
  0
SCALE
  5
5F
102
{ACAD_REACTORS
330
47
102
}
330
47
100
AcDbScale
 70
     0
300
3/16" = 1'-0"
140
0.1875
141
12.0
290
     0
  0
SCALE
  5
60
102
{ACAD_REACTORS
330
47
102
}
330
47
100
AcDbScale
 70
     0
300
1/4" = 1'-0"
140
0.25
141
12.0
290
     0
  0
SCALE
  5
61
102
{ACAD_REACTORS
330
47
102
}
330
47
100
AcDbScale
 70
     0
300
3/8" = 1'-0"
140
0.375
141
12.0
290
     0
  0
SCALE
  5
62
102
{ACAD_REACTORS
330
47
102
}
330
47
100
AcDbScale
 70
     0
300
1/2" = 1'-0"
140
0.5
141
12.0
290
     0
  0
SCALE
  5
63
102
{ACAD_REACTORS
330
47
102
}
330
47
100
AcDbScale
 70
     0
300
3/4" = 1'-0"
140
0.75
141
12.0
290
     0
  0
SCALE
  5
64
102
{ACAD_REACTORS
330
47
102
}
330
47
100
AcDbScale
 70
     0
300
1" = 1'-0"
140
1.0
141
12.0
290
     0
  0
SCALE
  5
65
102
{ACAD_REACTORS
330
47
102
}
330
47
100
AcDbScale
 70
     0
300
1-1/2" = 1'-0"
140
1.5
141
12.0
290
     0
  0
SCALE
  5
66
102
{ACAD_REACTORS
330
47
102
}
330
47
100
AcDbScale
 70
     0
300
3" = 1'-0"
140
3.0
141
12.0
290
     0
  0
SCALE
  5
67
102
{ACAD_REACTORS
330
47
102
}
330
47
100
AcDbScale
 70
     0
300
6" = 1'-0"
140
6.0
141
12.0
290
     0
  0
SCALE
  5
68
102
{ACAD_REACTORS
330
47
102
}
330
47
100
AcDbScale
 70
     0
300
1'-0" = 1'-0"
140
12.0
141
12.0
290
     0
  0
TABLESTYLE
  5
6A
102
{ACAD_REACTORS
330
69
102
}
102
{ACAD_XDICTIONARY
360
26C
102
}
330
69
100
AcDbTableStyle
  3
Standard
 70
     0
 71
     0
 40
0.06
 41
0.06
280
     0
281
     0
  7
Standard
140
0.18
170
     2
 62
     0
 63
   257
283
     0
 90
        4
 91
        0
  1

274
    -2
284
     1
 64
     0
275
    -2
285
     1
 65
     0
276
    -2
286
     1
 66
     0
277
    -2
287
     1
 67
     0
278
    -2
288
     1
 68
     0
279
    -2
289
     1
 69
     0
  7
Standard
140
0.25
170
     5
 62
     0
 63
   257
283
     0
 90
        4
 91
        0
  1

274
    -2
284
     1
 64
     0
275
    -2
285
     1
 65
     0
276
    -2
286
     1
 66
     0
277
    -2
287
     1
 67
     0
278
    -2
288
     1
 68
     0
279
    -2
289
     1
 69
     0
  7
Standard
140
0.18
170
     5
 62
     0
 63
   257
283
     0
 90
        4
 91
        0
  1

274
    -2
284
     1
 64
     0
275
    -2
285
     1
 65
     0
276
    -2
286
     1
 66
     0
277
    -2
287
     1
 67
     0
278
    -2
288
     1
 68
     0
279
    -2
289
     1
 69
     0
  0
VISUALSTYLE
  5
2F
102
{ACAD_REACTORS
330
2A
102
}
330
2A
100
AcDbVisualStyle
  2
2dWireframe
 70
     4
177
     3
291
     0
 70
    58
 90
        0
176
     1
 90
        2
176
     1
 90
        0
176
     1
 90
        0
176
     1
 40
0.6
176
     1
 40
30.0
176
     1
 62
     7
420
 16777215
176
     1
 90
        1
176
     1
 90
        4
176
     1
 62
     7
176
     1
 62
   257
176
     1
 90
        1
176
     1
 90
        1
176
     1
 40
1.0
176
     1
 90
        0
176
     1
 62
   257
176
     1
 40
1.0
176
     1
 90
        1
176
     1
 90
        6
176
     1
 90
        2
176
     1
 62
     7
176
     1
 90
        5
176
     1
 90
        0
176
     1
 90
        0
176
     1
290
     0
176
     1
 90
        1
176
     1
 40
0.0
176
     1
 90
        0
176
     1
290
     1
176
     1
290
     1
176
     1
290
     0
176
     1
290
     0
176
     1
290
     0
176
     1
290
     0
176
     1
290
     0
176
     1
290
     0
176
     1
290
     0
176
     1
 90
       50
176
     1
 40
0.0
176
     1
 40
1.0
176
     1
 90
        0
176
     1
 62
    18
420
        0
176
     1
 90
       50
176
     1
 90
        3
176
     1
 62
     5
420
      255
176
     1
290
     0
176
     1
 90
       50
176
     1
 90
       50
176
     1
 90
       50
176
     1
290
     0
176
     1
 90
       50
176
     1
 62
   256
176
     0
 40
1.0
176
     0
 90
        2
176
     1
  1
strokes_ogs.tif
176
     1
290
     0
176
     1
 40
1.0
176
     1
 40
1.0
176
     1
  0
VISUALSTYLE
  5
32
102
{ACAD_REACTORS
330
2A
102
}
330
2A
100
AcDbVisualStyle
  2
Basic
 70
     7
177
     3
291
     1
 70
    58
 90
        1
176
     1
 90
        0
176
     1
 90
        1
176
     1
 90
        0
176
     1
 40
0.6
176
     1
 40
30.0
176
     1
 62
     7
420
 16777215
176
     1
 90
        0
176
     1
 90
        4
176
     1
 62
     7
176
     1
 62
   257
176
     1
 90
        1
176
     1
 90
        1
176
     1
 40
1.0
176
     1
 90
        8
176
     1
 62
     7
176
     1
 40
1.0
176
     1
 90
        1
176
     1
 90
        6
176
     1
 90
        2
176
     1
 62
     7
176
     1
 90
        5
176
     1
 90
        0
176
     1
 90
        0
176
     1
290
     0
176
     1
 90
        1
176
     1
 40
0.0
176
     1
 90
        0
176
     1
290
     0
176
     1
290
     1
176
     1
290
     1
176
     1
290
     0
176
     1
290
     0
176
     1
290
     0
176
     1
290
     0
176
     1
290
     0
176
     1
290
     0
176
     1
 90
       50
176
     1
 40
0.0
176
     1
 40
1.0
176
     1
 90
        0
176
     1
 62
    18
420
        0
176
     1
 90
       50
176
     1
 90
        3
176
     1
 62
     5
420
      255
176
     1
290
     0
176
     1
 90
       50
176
     1
 90
       50
176
     1
 90
       50
176
     1
290
     0
176
     1
 90
       50
176
     1
 62
   256
176
     0
 40
1.0
176
     0
 90
        2
176
     1
  1
strokes_ogs.tif
176
     1
290
     0
176
     1
 40
1.0
176
     1
 40
1.0
176
     1
  0
VISUALSTYLE
  5
36
102
{ACAD_REACTORS
330
2A
102
}
330
2A
100
AcDbVisualStyle
  2
Brighten
 70
    12
177
     3
291
     1
 70
    58
 90
        2
176
     1
 90
        2
176
     1
 90
        0
176
     1
 90
        0
176
     1
 40
0.6
176
     1
 40
30.0
176
     1
 62
     7
420
 16777215
176
     1
 90
        1
176
     1
 90
        4
176
     1
 62
     7
176
     1
 62
   257
176
     1
 90
        1
176
     1
 90
        1
176
     1
 40
1.0
176
     1
 90
        8
176
     1
 62
     7
176
     1
 40
1.0
176
     1
 90
        1
176
     1
 90
        6
176
     1
 90
        2
176
     1
 62
     7
176
     1
 90
        5
176
     1
 90
        0
176
     1
 90
        0
176
     1
290
     0
176
     1
 90
        1
176
     1
 40
50.0
176
     1
 90
        0
176
     1
290
     0
176
     1
290
     1
176
     1
290
     1
176
     1
290
     0
176
     1
290
     0
176
     1
290
     0
176
     1
290
     0
176
     1
290
     0
176
     1
290
     0
176
     1
 90
       50
176
     1
 40
0.0
176
     1
 40
1.0
176
     1
 90
        0
176
     1
 62
    18
420
        0
176
     1
 90
       50
176
     1
 90
        3
176
     1
 62
     5
420
      255
176
     1
290
     0
176
     1
 90
       50
176
     1
 90
       50
176
     1
 90
       50
176
     1
290
     0
176
     1
 90
       50
176
     1
 62
   256
176
     0
 40
1.0
176
     0
 90
        2
176
     1
  1
strokes_ogs.tif
176
     1
290
     0
176
     1
 40
1.0
176
     1
 40
1.0
176
     1
  0
VISUALSTYLE
  5
3A
102
{ACAD_REACTORS
330
2A
102
}
330
2A
100
AcDbVisualStyle
  2
ColorChange
 70
    16
177
     3
291
     1
 70
    58
 90
        2
176
     1
 90
        2
176
     1
 90
        3
176
     1
 90
        0
176
     1
 40
0.6
176
     1
 40
30.0
176
     1
 62
     8
420
  8421504
176
     1
 90
        1
176
     1
 90
        4
176
     1
 62
     7
176
     1
 62
   257
176
     1
 90
        1
176
     1
 90
        1
176
     1
 40
1.0
176
     1
 90
        8
176
     1
 62
     8
420
  8421504
176
     1
 40
1.0
176
     1
 90
        1
176
     1
 90
        6
176
     1
 90
        2
176
     1
 62
     7
176
     1
 90
        5
176
     1
 90
        0
176
     1
 90
        0
176
     1
290
     0
176
     1
 90
        1
176
     1
 40
0.0
176
     1
 90
        0
176
     1
290
     0
176
     1
290
     1
176
     1
290
     1
176
     1
290
     0
176
     1
290
     0
176
     1
290
     0
176
     1
290
     0
176
     1
290
     0
176
     1
290
     0
176
     1
 90
       50
176
     1
 40
0.0
176
     1
 40
1.0
176
     1
 90
        0
176
     1
 62
    18
420
        0
176
     1
 90
       50
176
     1
 90
        3
176
     1
 62
     5
420
      255
176
     1
290
     0
176
     1
 90
       50
176
     1
 90
       50
176
     1
 90
       50
176
     1
290
     0
176
     1
 90
       50
176
     1
 62
   256
176
     0
 40
1.0
176
     0
 90
        2
176
     1
  1
strokes_ogs.tif
176
     1
290
     0
176
     1
 40
1.0
176
     1
 40
1.0
176
     1
  0
VISUALSTYLE
  5
34
102
{ACAD_REACTORS
330
2A
102
}
330
2A
100
AcDbVisualStyle
  2
Conceptual
 70
     9
177
     3
291
     0
 70
    58
 90
        3
176
     1
 90
        2
176
     1
 90
        0
176
     1
 90
        0
176
     1
 40
0.6
176
     1
 40
30.0
176
     1
 62
     7
420
 16777215
176
     1
 90
        2
176
     1
 90
        2
176
     1
 62
     7
176
     1
 62
   257
176
     1
 90
        1
176
     1
 90
        1
176
     1
 40
179.0
176
     1
 90
        8
176
     1
 62
     7
176
     1
 40
1.0
176
     1
 90
        1
176
     1
 90
        6
176
     1
 90
        2
176
     1
 62
     7
176
     1
 90
        3
176
     1
 90
        0
176
     1
 90
        0
176
     1
290
     0
176
     1
 90
        1
176
     1
 40
0.0
176
     1
 90
        0
176
     1
290
     0
176
     1
290
     1
176
     1
290
     1
176
     1
290
     0
176
     1
290
     0
176
     1
290
     0
176
     1
290
     0
176
     1
290
     0
176
     1
290
     0
176
     1
 90
       50
176
     1
 40
0.0
176
     1
 40
1.0
176
     1
 90
        0
176
     1
 62
    18
420
        0
176
     1
 90
       50
176
     1
 90
        3
176
     1
 62
     5
420
      255
176
     1
290
     0
176
     1
 90
       50
176
     1
 90
       50
176
     1
 90
       50
176
     1
290
     0
176
     1
 90
       50
176
     1
 62
   256
176
     0
 40
1.0
176
     0
 90
        2
176
     1
  1
strokes_ogs.tif
176
     1
290
     0
176
     1
 40
1.0
176
     1
 40
1.0
176
     1
  0
VISUALSTYLE
  5
35
102
{ACAD_REACTORS
330
2A
102
}
330
2A
100
AcDbVisualStyle
  2
Dim
 70
    11
177
     3
291
     1
 70
    58
 90
        2
176
     1
 90
        2
176
     1
 90
        0
176
     1
 90
        0
176
     1
 40
0.6
176
     1
 40
30.0
176
     1
 62
     7
420
 16777215
176
     1
 90
        1
176
     1
 90
        4
176
     1
 62
     7
176
     1
 62
   257
176
     1
 90
        1
176
     1
 90
        1
176
     1
 40
1.0
176
     1
 90
        8
176
     1
 62
     7
176
     1
 40
1.0
176
     1
 90
        1
176
     1
 90
        6
176
     1
 90
        2
176
     1
 62
     7
176
     1
 90
        5
176
     1
 90
        0
176
     1
 90
        0
176
     1
290
     0
176
     1
 90
        1
176
     1
 40
-50.0
176
     1
 90
        0
176
     1
290
     0
176
     1
290
     1
176
     1
290
     1
176
     1
290
     0
176
     1
290
     0
176
     1
290
     0
176
     1
290
     0
176
     1
290
     0
176
     1
290
     0
176
     1
 90
       50
176
     1
 40
0.0
176
     1
 40
1.0
176
     1
 90
        0
176
     1
 62
    18
420
        0
176
     1
 90
       50
176
     1
 90
        3
176
     1
 62
     5
420
      255
176
     1
290
     0
176
     1
 90
       50
176
     1
 90
       50
176
     1
 90
       50
176
     1
290
     0
176
     1
 90
       50
176
     1
 62
   256
176
     0
 40
1.0
176
     0
 90
        2
176
     1
  1
strokes_ogs.tif
176
     1
290
     0
176
     1
 40
1.0
176
     1
 40
1.0
176
     1
  0
VISUALSTYLE
  5
3D
102
{ACAD_REACTORS
330
2A
102
}
330
2A
100
AcDbVisualStyle
  2
EdgeColorOff
 70
    22
177
     3
291
     1
 70
    58
 90
        2
176
     0
 90
        2
176
     0
 90
        0
176
     0
 90
        0
176
     0
 40
0.6
176
     0
 40
30.0
176
     0
 62
     7
420
 16777215
176
     0
 90
        1
176
     0
 90
        4
176
     0
 62
     7
176
     0
 62
   257
176
     0
 90
        1
176
     0
 90
        1
176
     0
 40
1.0
176
     0
 90
        8
176
     2
 62
     7
176
     0
 40
1.0
176
     0
 90
        1
176
     0
 90
        6
176
     0
 90
        2
176
     0
 62
     7
176
     0
 90
        5
176
     0
 90
        0
176
     0
 90
        0
176
     0
290
     0
176
     0
 90
        1
176
     0
 40
0.0
176
     0
 90
        0
176
     0
290
     0
176
     0
290
     1
176
     0
290
     1
176
     0
290
     0
176
     0
290
     0
176
     0
290
     0
176
     0
290
     0
176
     0
290
     0
176
     0
290
     0
176
     0
 90
       50
176
     0
 40
0.0
176
     0
 40
1.0
176
     0
 90
        0
176
     0
 62
    18
420
        0
176
     0
 90
       50
176
     0
 90
        3
176
     0
 62
     5
420
      255
176
     0
290
     0
176
     0
 90
       50
176
     0
 90
       50
176
     0
 90
       50
176
     0
290
     0
176
     0
 90
       50
176
     0
 62
   256
176
     0
 40
1.0
176
     0
 90
        2
176
     0
  1
strokes_ogs.tif
176
     0
290
     0
176
     0
 40
1.0
176
     0
 40
1.0
176
     0
  0
VISUALSTYLE
  5
39
102
{ACAD_REACTORS
330
2A
102
}
330
2A
100
AcDbVisualStyle
  2
Facepattern
 70
    15
177
     3
291
     1
 70
    58
 90
        2
176
     1
 90
        2
176
     1
 90
        0
176
     1
 90
        0
176
     1
 40
0.6
176
     1
 40
30.0
176
     1
 62
     7
420
 16777215
176
     1
 90
        1
176
     1
 90
        4
176
     1
 62
     7
176
     1
 62
   257
176
     1
 90
        1
176
     1
 90
        1
176
     1
 40
1.0
176
     1
 90
        8
176
     1
 62
     7
176
     1
 40
1.0
176
     1
 90
        1
176
     1
 90
        6
176
     1
 90
        2
176
     1
 62
     7
176
     1
 90
        5
176
     1
 90
        0
176
     1
 90
        0
176
     1
290
     0
176
     1
 90
        1
176
     1
 40
0.0
176
     1
 90
        0
176
     1
290
     0
176
     1
290
     1
176
     1
290
     1
176
     1
290
     0
176
     1
290
     0
176
     1
290
     0
176
     1
290
     0
176
     1
290
     0
176
     1
290
     0
176
     1
 90
       50
176
     1
 40
0.0
176
     1
 40
1.0
176
     1
 90
        0
176
     1
 62
    18
420
        0
176
     1
 90
       50
176
     1
 90
        3
176
     1
 62
     5
420
      255
176
     1
290
     0
176
     1
 90
       50
176
     1
 90
       50
176
     1
 90
       50
176
     1
290
     0
176
     1
 90
       50
176
     1
 62
   256
176
     0
 40
1.0
176
     0
 90
        2
176
     1
  1
strokes_ogs.tif
176
     1
290
     0
176
     1
 40
1.0
176
     1
 40
1.0
176
     1
  0
VISUALSTYLE
  5
2B
102
{ACAD_REACTORS
330
2A
102
}
330
2A
100
AcDbVisualStyle
  2
Flat
 70
     0
177
     3
291
     1
 70
    58
 90
        2
176
     1
 90
        1
176
     1
 90
        1
176
     1
 90
        2
176
     1
 40
0.6
176
     1
 40
30.0
176
     1
 62
     7
420
 16777215
176
     1
 90
        0
176
     1
 90
        0
176
     1
 62
     7
176
     1
 62
   257
176
     1
 90
        1
176
     1
 90
        1
176
     1
 40
1.0
176
     1
 90
        8
176
     1
 62
     7
176
     1
 40
1.0
176
     1
 90
        1
176
     1
 90
        6
176
     1
 90
        2
176
     1
 62
     7
176
     1
 90
        5
176
     1
 90
        0
176
     1
 90
        0
176
     1
290
     0
176
     1
 90
       13
176
     1
 40
0.0
176
     1
 90
        0
176
     1
290
     0
176
     1
290
     1
176
     1
290
     1
176
     1
290
     0
176
     1
290
     0
176
     1
290
     0
176
     1
290
     0
176
     1
290
     0
176
     1
290
     0
176
     1
 90
       50
176
     1
 40
0.0
176
     1
 40
1.0
176
     1
 90
        0
176
     1
 62
    18
420
        0
176
     1
 90
       50
176
     1
 90
        3
176
     1
 62
     5
420
      255
176
     1
290
     0
176
     1
 90
       50
176
     1
 90
       50
176
     1
 90
       50
176
     1
290
     0
176
     1
 90
       50
176
     1
 62
   256
176
     0
 40
1.0
176
     0
 90
        2
176
     1
  1
strokes_ogs.tif
176
     1
290
     0
176
     1
 40
1.0
176
     1
 40
1.0
176
     1
  0
VISUALSTYLE
  5
2C
102
{ACAD_REACTORS
330
2A
102
}
330
2A
100
AcDbVisualStyle
  2
FlatWithEdges
 70
     1
177
     3
291
     1
 70
    58
 90
        2
176
     1
 90
        1
176
     1
 90
        1
176
     1
 90
        2
176
     1
 40
0.6
176
     1
 40
30.0
176
     1
 62
     7
420
 16777215
176
     1
 90
        1
176
     1
 90
        0
176
     1
 62
     7
176
     1
 62
   257
176
     1
 90
        1
176
     1
 90
        1
176
     1
 40
1.0
176
     1
 90
        0
176
     1
 62
   257
176
     1
 40
1.0
176
     1
 90
        1
176
     1
 90
        6
176
     1
 90
        2
176
     1
 62
     7
176
     1
 90
        5
176
     1
 90
        0
176
     1
 90
        0
176
     1
290
     0
176
     1
 90
       13
176
     1
 40
0.0
176
     1
 90
        0
176
     1
290
     0
176
     1
290
     1
176
     1
290
     1
176
     1
290
     0
176
     1
290
     0
176
     1
290
     0
176
     1
290
     0
176
     1
290
     0
176
     1
290
     0
176
     1
 90
       50
176
     1
 40
0.0
176
     1
 40
1.0
176
     1
 90
        0
176
     1
 62
    18
420
        0
176
     1
 90
       50
176
     1
 90
        3
176
     1
 62
     5
420
      255
176
     1
290
     0
176
     1
 90
       50
176
     1
 90
       50
176
     1
 90
       50
176
     1
290
     0
176
     1
 90
       50
176
     1
 62
   256
176
     0
 40
1.0
176
     0
 90
        2
176
     1
  1
strokes_ogs.tif
176
     1
290
     0
176
     1
 40
1.0
176
     1
 40
1.0
176
     1
  0
VISUALSTYLE
  5
2D
102
{ACAD_REACTORS
330
2A
102
}
330
2A
100
AcDbVisualStyle
  2
Gouraud
 70
     2
177
     3
291
     1
 70
    58
 90
        2
176
     1
 90
        2
176
     1
 90
        1
176
     1
 90
        2
176
     1
 40
0.6
176
     1
 40
30.0
176
     1
 62
     7
420
 16777215
176
     1
 90
        0
176
     1
 90
        0
176
     1
 62
     7
176
     1
 62
   257
176
     1
 90
        1
176
     1
 90
        1
176
     1
 40
1.0
176
     1
 90
        0
176
     1
 62
     7
176
     1
 40
1.0
176
     1
 90
        1
176
     1
 90
        6
176
     1
 90
        2
176
     1
 62
     7
176
     1
 90
        5
176
     1
 90
        0
176
     1
 90
        0
176
     1
290
     0
176
     1
 90
       13
176
     1
 40
0.0
176
     1
 90
        0
176
     1
290
     0
176
     1
290
     1
176
     1
290
     1
176
     1
290
     0
176
     1
290
     0
176
     1
290
     0
176
     1
290
     0
176
     1
290
     0
176
     1
290
     0
176
     1
 90
       50
176
     1
 40
0.0
176
     1
 40
1.0
176
     1
 90
        0
176
     1
 62
    18
420
        0
176
     1
 90
       50
176
     1
 90
        3
176
     1
 62
     5
420
      255
176
     1
290
     0
176
     1
 90
       50
176
     1
 90
       50
176
     1
 90
       50
176
     1
290
     0
176
     1
 90
       50
176
     1
 62
   256
176
     0
 40
1.0
176
     0
 90
        2
176
     1
  1
strokes_ogs.tif
176
     1
290
     0
176
     1
 40
1.0
176
     1
 40
1.0
176
     1
  0
VISUALSTYLE
  5
2E
102
{ACAD_REACTORS
330
2A
102
}
330
2A
100
AcDbVisualStyle
  2
GouraudWithEdges
 70
     3
177
     3
291
     1
 70
    58
 90
        2
176
     1
 90
        2
176
     1
 90
        1
176
     1
 90
        2
176
     1
 40
0.6
176
     1
 40
30.0
176
     1
 62
     7
420
 16777215
176
     1
 90
        1
176
     1
 90
        0
176
     1
 62
     7
176
     1
 62
   257
176
     1
 90
        1
176
     1
 90
        1
176
     1
 40
1.0
176
     1
 90
        0
176
     1
 62
   257
176
     1
 40
1.0
176
     1
 90
        1
176
     1
 90
        6
176
     1
 90
        2
176
     1
 62
     7
176
     1
 90
        5
176
     1
 90
        0
176
     1
 90
        0
176
     1
290
     0
176
     1
 90
       13
176
     1
 40
0.0
176
     1
 90
        0
176
     1
290
     0
176
     1
290
     1
176
     1
290
     1
176
     1
290
     0
176
     1
290
     0
176
     1
290
     0
176
     1
290
     0
176
     1
290
     0
176
     1
290
     0
176
     1
 90
       50
176
     1
 40
0.0
176
     1
 40
1.0
176
     1
 90
        0
176
     1
 62
    18
420
        0
176
     1
 90
       50
176
     1
 90
        3
176
     1
 62
     5
420
      255
176
     1
290
     0
176
     1
 90
       50
176
     1
 90
       50
176
     1
 90
       50
176
     1
290
     0
176
     1
 90
       50
176
     1
 62
   256
176
     0
 40
1.0
176
     0
 90
        2
176
     1
  1
strokes_ogs.tif
176
     1
290
     0
176
     1
 40
1.0
176
     1
 40
1.0
176
     1
  0
VISUALSTYLE
  5
31
102
{ACAD_REACTORS
330
2A
102
}
330
2A
100
AcDbVisualStyle
  2
Hidden
 70
     6
177
     3
291
     0
 70
    58
 90
        1
176
     1
 90
        2
176
     1
 90
        2
176
     1
 90
        0
176
     1
 40
0.6
176
     1
 40
30.0
176
     1
 62
     7
420
 16777215
176
     1
 90
        2
176
     1
 90
        2
176
     1
 62
     7
176
     1
 62
   257
176
     1
 90
        2
176
     1
 90
        1
176
     1
 40
40.0
176
     1
 90
        0
176
     1
 62
   257
176
     1
 40
1.0
176
     1
 90
        1
176
     1
 90
        6
176
     1
 90
        2
176
     1
 62
     7
176
     1
 90
        3
176
     1
 90
        0
176
     1
 90
        0
176
     1
290
     0
176
     1
 90
        1
176
     1
 40
0.0
176
     1
 90
        0
176
     1
290
     0
176
     1
290
     1
176
     1
290
     1
176
     1
290
     0
176
     1
290
     0
176
     1
290
     0
176
     1
290
     0
176
     1
290
     0
176
     1
290
     0
176
     1
 90
       50
176
     1
 40
0.0
176
     1
 40
1.0
176
     1
 90
        0
176
     1
 62
    18
420
        0
176
     1
 90
       50
176
     1
 90
        3
176
     1
 62
     5
420
      255
176
     1
290
     0
176
     1
 90
       50
176
     1
 90
       50
176
     1
 90
       50
176
     1
290
     0
176
     1
 90
       50
176
     1
 62
   256
176
     0
 40
1.0
176
     0
 90
        2
176
     1
  1
strokes_ogs.tif
176
     1
290
     0
176
     1
 40
1.0
176
     1
 40
1.0
176
     1
  0
VISUALSTYLE
  5
3B
102
{ACAD_REACTORS
330
2A
102
}
330
2A
100
AcDbVisualStyle
  2
JitterOff
 70
    20
177
     3
291
     1
 70
    58
 90
        2
176
     0
 90
        2
176
     0
 90
        0
176
     0
 90
        0
176
     0
 40
0.6
176
     0
 40
30.0
176
     0
 62
     7
420
 16777215
176
     0
 90
        1
176
     0
 90
        4
176
     0
 62
     7
176
     0
 62
   257
176
     0
 90
        1
176
     0
 90
        1
176
     0
 40
1.0
176
     0
 90
       10
176
     2
 62
     7
176
     0
 40
1.0
176
     0
 90
        1
176
     0
 90
        6
176
     0
 90
        2
176
     0
 62
     7
176
     0
 90
        5
176
     0
 90
        0
176
     0
 90
        0
176
     0
290
     0
176
     0
 90
        1
176
     0
 40
0.0
176
     0
 90
        0
176
     0
290
     0
176
     0
290
     1
176
     0
290
     1
176
     0
290
     0
176
     0
290
     0
176
     0
290
     0
176
     0
290
     0
176
     0
290
     0
176
     0
290
     0
176
     0
 90
       50
176
     0
 40
0.0
176
     0
 40
1.0
176
     0
 90
        0
176
     0
 62
    18
420
        0
176
     0
 90
       50
176
     0
 90
        3
176
     0
 62
     5
420
      255
176
     0
290
     0
176
     0
 90
       50
176
     0
 90
       50
176
     0
 90
       50
176
     0
290
     0
176
     0
 90
       50
176
     0
 62
   256
176
     0
 40
1.0
176
     0
 90
        2
176
     0
  1
strokes_ogs.tif
176
     0
290
     0
176
     0
 40
1.0
176
     0
 40
1.0
176
     0
  0
VISUALSTYLE
  5
38
102
{ACAD_REACTORS
330
2A
102
}
330
2A
100
AcDbVisualStyle
  2
Linepattern
 70
    14
177
     3
291
     1
 70
    58
 90
        2
176
     1
 90
        2
176
     1
 90
        0
176
     1
 90
        0
176
     1
 40
0.6
176
     1
 40
30.0
176
     1
 62
     7
420
 16777215
176
     1
 90
        1
176
     1
 90
        4
176
     1
 62
     7
176
     1
 62
   257
176
     1
 90
        7
176
     1
 90
        7
176
     1
 40
1.0
176
     1
 90
        8
176
     1
 62
     7
176
     1
 40
1.0
176
     1
 90
        1
176
     1
 90
        6
176
     1
 90
        2
176
     1
 62
     7
176
     1
 90
        5
176
     1
 90
        0
176
     1
 90
        0
176
     1
290
     0
176
     1
 90
        1
176
     1
 40
0.0
176
     1
 90
        0
176
     1
290
     0
176
     1
290
     1
176
     1
290
     1
176
     1
290
     0
176
     1
290
     0
176
     1
290
     0
176
     1
290
     0
176
     1
290
     0
176
     1
290
     0
176
     1
 90
       50
176
     1
 40
0.0
176
     1
 40
1.0
176
     1
 90
        0
176
     1
 62
    18
420
        0
176
     1
 90
       50
176
     1
 90
        3
176
     1
 62
     5
420
      255
176
     1
290
     0
176
     1
 90
       50
176
     1
 90
       50
176
     1
 90
       50
176
     1
290
     0
176
     1
 90
       50
176
     1
 62
   256
176
     0
 40
1.0
176
     0
 90
        2
176
     1
  1
strokes_ogs.tif
176
     1
290
     0
176
     1
 40
1.0
176
     1
 40
1.0
176
     1
  0
VISUALSTYLE
  5
3C
102
{ACAD_REACTORS
330
2A
102
}
330
2A
100
AcDbVisualStyle
  2
OverhangOff
 70
    21
177
     3
291
     1
 70
    58
 90
        2
176
     0
 90
        2
176
     0
 90
        0
176
     0
 90
        0
176
     0
 40
0.6
176
     0
 40
30.0
176
     0
 62
     7
420
 16777215
176
     0
 90
        1
176
     0
 90
        4
176
     0
 62
     7
176
     0
 62
   257
176
     0
 90
        1
176
     0
 90
        1
176
     0
 40
1.0
176
     0
 90
        9
176
     2
 62
     7
176
     0
 40
1.0
176
     0
 90
        1
176
     0
 90
        6
176
     0
 90
        2
176
     0
 62
     7
176
     0
 90
        5
176
     0
 90
        0
176
     0
 90
        0
176
     0
290
     0
176
     0
 90
        1
176
     0
 40
0.0
176
     0
 90
        0
176
     0
290
     0
176
     0
290
     1
176
     0
290
     1
176
     0
290
     0
176
     0
290
     0
176
     0
290
     0
176
     0
290
     0
176
     0
290
     0
176
     0
290
     0
176
     0
 90
       50
176
     0
 40
0.0
176
     0
 40
1.0
176
     0
 90
        0
176
     0
 62
    18
420
        0
176
     0
 90
       50
176
     0
 90
        3
176
     0
 62
     5
420
      255
176
     0
290
     0
176
     0
 90
       50
176
     0
 90
       50
176
     0
 90
       50
176
     0
290
     0
176
     0
 90
       50
176
     0
 62
   256
176
     0
 40
1.0
176
     0
 90
        2
176
     0
  1
strokes_ogs.tif
176
     0
290
     0
176
     0
 40
1.0
176
     0
 40
1.0
176
     0
  0
VISUALSTYLE
  5
33
102
{ACAD_REACTORS
330
2A
102
}
330
2A
100
AcDbVisualStyle
  2
Realistic
 70
     8
177
     3
291
     0
 70
    58
 90
        2
176
     1
 90
        3
176
     1
 90
        0
176
     1
 90
        2
176
     1
 40
0.6
176
     1
 40
30.0
176
     1
 62
     7
420
 16777215
176
     1
 90
        0
176
     1
 90
        0
176
     1
 62
     7
176
     1
 62
   257
176
     1
 90
        1
176
     1
 90
        1
176
     1
 40
1.0
176
     1
 90
        8
176
     1
 62
   257
176
     1
 40
1.0
176
     1
 90
        1
176
     1
 90
        6
176
     1
 90
        2
176
     1
 62
     7
176
     1
 90
        3
176
     1
 90
        0
176
     1
 90
        0
176
     1
290
     0
176
     1
 90
       13
176
     1
 40
0.0
176
     1
 90
        0
176
     1
290
     0
176
     1
290
     1
176
     1
290
     1
176
     1
290
     0
176
     1
290
     0
176
     1
290
     0
176
     1
290
     0
176
     1
290
     0
176
     1
290
     0
176
     1
 90
       50
176
     1
 40
0.0
176
     1
 40
1.0
176
     1
 90
        0
176
     1
 62
    18
420
        0
176
     1
 90
       50
176
     1
 90
        3
176
     1
 62
     5
420
      255
176
     1
290
     0
176
     1
 90
       50
176
     1
 90
       50
176
     1
 90
       50
176
     1
290
     0
176
     1
 90
       50
176
     1
 62
   256
176
     0
 40
1.0
176
     0
 90
        2
176
     1
  1
strokes_ogs.tif
176
     1
290
     0
176
     1
 40
1.0
176
     1
 40
1.0
176
     1
  0
VISUALSTYLE
  5
42
102
{ACAD_REACTORS
330
2A
102
}
330
2A
100
AcDbVisualStyle
  2
Shaded
 70
    27
177
     3
291
     0
 70
    58
 90
        2
176
     1
 90
        2
176
     1
 90
        1
176
     1
 90
        2
176
     1
 40
0.6
176
     1
 40
30.0
176
     1
 62
     7
420
 16777215
176
     1
 90
        0
176
     1
 90
        4
176
     1
 62
     7
176
     1
 62
   257
176
     1
 90
        1
176
     1
 90
        1
176
     1
 40
1.0
176
     1
 90
        8
176
     1
 62
   257
176
     1
 40
1.0
176
     1
 90
        1
176
     1
 90
        6
176
     1
 90
        2
176
     1
 62
     8
420
  7895160
176
     1
 90
        3
176
     1
 90
        0
176
     1
 90
        0
176
     1
290
     0
176
     1
 90
        5
176
     1
 40
0.0
176
     1
 90
        0
176
     1
290
     0
176
     1
290
     1
176
     1
290
     1
176
     1
290
     0
176
     1
290
     0
176
     1
290
     0
176
     1
290
     0
176
     1
290
     0
176
     1
290
     0
176
     1
 90
       50
176
     1
 40
0.0
176
     1
 40
1.0
176
     1
 90
        0
176
     1
 62
    18
420
        0
176
     1
 90
       50
176
     1
 90
        3
176
     1
 62
     5
420
      255
176
     1
290
     0
176
     1
 90
       50
176
     1
 90
       50
176
     1
 90
       50
176
     1
290
     0
176
     1
 90
       50
176
     1
 62
   256
176
     0
 40
1.0
176
     0
 90
        2
176
     1
  1
strokes_ogs.tif
176
     1
290
     0
176
     1
 40
1.0
176
     1
 40
1.0
176
     1
  0
VISUALSTYLE
  5
41
102
{ACAD_REACTORS
330
2A
102
}
330
2A
100
AcDbVisualStyle
  2
Shaded with edges
 70
    26
177
     3
291
     0
 70
    58
 90
        2
176
     1
 90
        2
176
     1
 90
        1
176
     1
 90
        2
176
     1
 40
0.6
176
     1
 40
30.0
176
     1
 62
     7
420
 16777215
176
     1
 90
        1
176
     1
 90
       10
176
     1
 62
     7
176
     1
 62
   257
176
     1
 90
        2
176
     1
 90
        1
176
     1
 40
1.0
176
     1
 90
        8
176
     1
 62
   257
176
     1
 40
1.0
176
     1
 90
        1
176
     1
 90
        6
176
     1
 90
        2
176
     1
 62
     7
176
     1
 90
        3
176
     1
 90
        0
176
     1
 90
        0
176
     1
290
     0
176
     1
 90
        5
176
     1
 40
0.0
176
     1
 90
        0
176
     1
290
     0
176
     1
290
     1
176
     1
290
     1
176
     1
290
     0
176
     1
290
     0
176
     1
290
     0
176
     1
290
     0
176
     1
290
     0
176
     1
290
     0
176
     1
 90
       50
176
     1
 40
0.0
176
     1
 40
1.0
176
     1
 90
        0
176
     1
 62
    18
420
        0
176
     1
 90
       50
176
     1
 90
        3
176
     1
 62
     5
420
      255
176
     1
290
     0
176
     1
 90
       50
176
     1
 90
       50
176
     1
 90
       50
176
     1
290
     0
176
     1
 90
       50
176
     1
 62
   256
176
     0
 40
1.0
176
     0
 90
        2
176
     1
  1
strokes_ogs.tif
176
     1
290
     0
176
     1
 40
1.0
176
     1
 40
1.0
176
     1
  0
VISUALSTYLE
  5
3E
102
{ACAD_REACTORS
330
2A
102
}
330
2A
100
AcDbVisualStyle
  2
Shades of Gray
 70
    23
177
     3
291
     0
 70
    58
 90
        2
176
     1
 90
        2
176
     1
 90
        3
176
     1
 90
        0
176
     1
 40
0.6
176
     1
 40
30.0
176
     1
 62
     7
420
 16777215
176
     1
 90
        2
176
     1
 90
        2
176
     1
 62
     7
176
     1
 62
     7
176
     1
 90
        1
176
     1
 90
        1
176
     1
 40
40.0
176
     1
 90
        8
176
     1
 62
     7
176
     1
 40
1.0
176
     1
 90
        1
176
     1
 90
        6
176
     1
 90
        2
176
     1
 62
     7
176
     1
 90
        3
176
     1
 90
        0
176
     1
 90
        0
176
     1
290
     0
176
     1
 90
        1
176
     1
 40
0.0
176
     1
 90
        0
176
     1
290
     0
176
     1
290
     1
176
     1
290
     1
176
     1
290
     0
176
     1
290
     0
176
     1
290
     0
176
     1
290
     0
176
     1
290
     0
176
     1
290
     0
176
     1
 90
       50
176
     1
 40
0.0
176
     1
 40
1.0
176
     1
 90
        0
176
     1
 62
    18
420
        0
176
     1
 90
       50
176
     1
 90
        3
176
     1
 62
     5
420
      255
176
     1
290
     0
176
     1
 90
       50
176
     1
 90
       50
176
     1
 90
       50
176
     1
290
     0
176
     1
 90
       50
176
     1
 62
   256
176
     0
 40
1.0
176
     0
 90
        2
176
     1
  1
strokes_ogs.tif
176
     1
290
     0
176
     1
 40
1.0
176
     1
 40
1.0
176
     1
  0
VISUALSTYLE
  5
3F
102
{ACAD_REACTORS
330
2A
102
}
330
2A
100
AcDbVisualStyle
  2
Sketchy
 70
    24
177
     3
291
     0
 70
    58
 90
        1
176
     1
 90
        2
176
     1
 90
        2
176
     1
 90
        0
176
     1
 40
0.6
176
     1
 40
30.0
176
     1
 62
     7
420
 16777215
176
     1
 90
        2
176
     1
 90
        2
176
     1
 62
     7
176
     1
 62
     7
176
     1
 90
        1
176
     1
 90
        1
176
     1
 40
40.0
176
     1
 90
       11
176
     1
 62
     7
176
     1
 40
1.0
176
     1
 90
        1
176
     1
 90
        6
176
     1
 90
        2
176
     1
 62
     7
176
     1
 90
        6
176
     1
 90
        0
176
     1
 90
        0
176
     1
290
     0
176
     1
 90
        1
176
     1
 40
0.0
176
     1
 90
        0
176
     1
290
     0
176
     1
290
     1
176
     1
290
     1
176
     1
290
     0
176
     1
290
     0
176
     1
290
     0
176
     1
290
     0
176
     1
290
     0
176
     1
290
     0
176
     1
 90
       50
176
     1
 40
0.0
176
     1
 40
1.0
176
     1
 90
        0
176
     1
 62
    18
420
        0
176
     1
 90
       50
176
     1
 90
        3
176
     1
 62
     5
420
      255
176
     1
290
     0
176
     1
 90
       50
176
     1
 90
       50
176
     1
 90
       50
176
     1
290
     0
176
     1
 90
       50
176
     1
 62
   256
176
     0
 40
1.0
176
     0
 90
        2
176
     1
  1
strokes_ogs.tif
176
     1
290
     0
176
     1
 40
1.0
176
     1
 40
1.0
176
     1
  0
VISUALSTYLE
  5
37
102
{ACAD_REACTORS
330
2A
102
}
330
2A
100
AcDbVisualStyle
  2
Thicken
 70
    13
177
     3
291
     1
 70
    58
 90
        2
176
     1
 90
        2
176
     1
 90
        0
176
     1
 90
        0
176
     1
 40
0.6
176
     1
 40
30.0
176
     1
 62
     7
420
 16777215
176
     1
 90
        1
176
     1
 90
        4
176
     1
 62
     7
176
     1
 62
   257
176
     1
 90
        1
176
     1
 90
        1
176
     1
 40
1.0
176
     1
 90
       12
176
     1
 62
     7
176
     1
 40
1.0
176
     1
 90
        1
176
     1
 90
        6
176
     1
 90
        2
176
     1
 62
     7
176
     1
 90
        5
176
     1
 90
        0
176
     1
 90
        0
176
     1
290
     0
176
     1
 90
        1
176
     1
 40
0.0
176
     1
 90
        0
176
     1
290
     0
176
     1
290
     1
176
     1
290
     1
176
     1
290
     0
176
     1
290
     0
176
     1
290
     0
176
     1
290
     0
176
     1
290
     0
176
     1
290
     0
176
     1
 90
       50
176
     1
 40
0.0
176
     1
 40
1.0
176
     1
 90
        0
176
     1
 62
    18
420
        0
176
     1
 90
       50
176
     1
 90
        3
176
     1
 62
     5
420
      255
176
     1
290
     0
176
     1
 90
       50
176
     1
 90
       50
176
     1
 90
       50
176
     1
290
     0
176
     1
 90
       50
176
     1
 62
   256
176
     0
 40
1.0
176
     0
 90
        2
176
     1
  1
strokes_ogs.tif
176
     1
290
     0
176
     1
 40
1.0
176
     1
 40
1.0
176
     1
  0
VISUALSTYLE
  5
30
102
{ACAD_REACTORS
330
2A
102
}
330
2A
100
AcDbVisualStyle
  2
Wireframe
 70
     5
177
     3
291
     0
 70
    58
 90
        0
176
     1
 90
        2
176
     1
 90
        0
176
     1
 90
        0
176
     1
 40
0.6
176
     1
 40
30.0
176
     1
 62
     7
420
 16777215
176
     1
 90
        1
176
     1
 90
        4
176
     1
 62
     7
176
     1
 62
   257
176
     1
 90
        1
176
     1
 90
        1
176
     1
 40
1.0
176
     1
 90
        0
176
     1
 62
   257
176
     1
 40
1.0
176
     1
 90
        1
176
     1
 90
        6
176
     1
 90
        2
176
     1
 62
     7
176
     1
 90
        3
176
     1
 90
        0
176
     1
 90
        0
176
     1
290
     0
176
     1
 90
        1
176
     1
 40
0.0
176
     1
 90
        0
176
     1
290
     0
176
     1
290
     1
176
     1
290
     1
176
     1
290
     0
176
     1
290
     0
176
     1
290
     0
176
     1
290
     0
176
     1
290
     0
176
     1
290
     0
176
     1
 90
       50
176
     1
 40
0.0
176
     1
 40
1.0
176
     1
 90
        0
176
     1
 62
    18
420
        0
176
     1
 90
       50
176
     1
 90
        3
176
     1
 62
     5
420
      255
176
     1
290
     0
176
     1
 90
       50
176
     1
 90
       50
176
     1
 90
       50
176
     1
290
     0
176
     1
 90
       50
176
     1
 62
   256
176
     0
 40
1.0
176
     0
 90
        2
176
     1
  1
strokes_ogs.tif
176
     1
290
     0
176
     1
 40
1.0
176
     1
 40
1.0
176
     1
  0
VISUALSTYLE
  5
40
102
{ACAD_REACTORS
330
2A
102
}
330
2A
100
AcDbVisualStyle
  2
X-Ray
 70
    25
177
     3
291
     0
 70
    58
 90
        2
176
     1
 90
        2
176
     1
 90
        1
176
     1
 90
        1
176
     1
 40
0.5
176
     1
 40
30.0
176
     1
 62
     7
420
 16777215
176
     1
 90
        1
176
     1
 90
        0
176
     1
 62
     7
176
     1
 62
   257
176
     1
 90
        1
176
     1
 90
        1
176
     1
 40
1.0
176
     1
 90
        8
176
     1
 62
     7
176
     1
 40
1.0
176
     1
 90
        1
176
     1
 90
        6
176
     1
 90
        2
176
     1
 62
     7
176
     1
 90
        3
176
     1
 90
        0
176
     1
 90
        0
176
     1
290
     0
176
     1
 90
       13
176
     1
 40
0.0
176
     1
 90
        0
176
     1
290
     0
176
     1
290
     1
176
     1
290
     1
176
     1
290
     0
176
     1
290
     0
176
     1
290
     0
176
     1
290
     0
176
     1
290
     0
176
     1
290
     0
176
     1
 90
       50
176
     1
 40
0.0
176
     1
 40
1.0
176
     1
 90
        0
176
     1
 62
    18
420
        0
176
     1
 90
       50
176
     1
 90
        3
176
     1
 62
     5
420
      255
176
     1
290
     0
176
     1
 90
       50
176
     1
 90
       50
176
     1
 90
       50
176
     1
290
     0
176
     1
 90
       50
176
     1
 62
   256
176
     0
 40
1.0
176
     0
 90
        2
176
     1
  1
strokes_ogs.tif
176
     1
290
     0
176
     1
 40
1.0
176
     1
 40
1.0
176
     1
  0
DICTIONARYVAR
  5
26B
102
{ACAD_REACTORS
330
26A
102
}
330
26A
100
DictionaryVariables
280
     0
  1
1:1
  0
DICTIONARYVAR
  5
270
102
{ACAD_REACTORS
330
26A
102
}
330
26A
100
DictionaryVariables
280
     0
  1
Standard
  0
DICTIONARYVAR
  5
26F
102
{ACAD_REACTORS
330
26A
102
}
330
26A
100
DictionaryVariables
280
     0
  1
Standard
  0
DICTIONARY
  5
26C
330
6A
100
AcDbDictionary
280
     1
281
     1
  3
ACAD_ROUNDTRIP_2008_TABLESTYLE_CELLSTYLEMAP
360
26D
  0
CELLSTYLEMAP
  5
26D
102
{ACAD_REACTORS
330
26C
102
}
330
26C
100
AcDbCellStyleMap
 90
        3
300
CELLSTYLE
  1
TABLEFORMAT_BEGIN
 90
        5
170
     1
 91
        0
 92
    32768
 62
   257
 93
        1
300
CONTENTFORMAT
  1
CONTENTFORMAT_BEGIN
 90
        0
 91
        0
 92
        4
 93
        0
300

 40
0.0
140
1.0
 94
        5
 62
     0
340
11
144
0.25
309
CONTENTFORMAT_END
171
     1
301
MARGIN
  1
CELLMARGIN_BEGIN
 40
0.06
 40
0.06
 40
0.06
 40
0.06
 40
0.06
 40
0.06
309
CELLMARGIN_END
 94
        6
 95
        1
302
GRIDFORMAT
  1
GRIDFORMAT_BEGIN
 90
        0
 91
        1
 62
     0
 92
       -2
340
14
 93
        0
 40
0.045
309
GRIDFORMAT_END
 95
        2
302
GRIDFORMAT
  1
GRIDFORMAT_BEGIN
 90
        0
 91
        1
 62
     0
 92
       -2
340
14
 93
        0
 40
0.045
309
GRIDFORMAT_END
 95
        4
302
GRIDFORMAT
  1
GRIDFORMAT_BEGIN
 90
        0
 91
        1
 62
     0
 92
       -2
340
14
 93
        0
 40
0.045
309
GRIDFORMAT_END
 95
        8
302
GRIDFORMAT
  1
GRIDFORMAT_BEGIN
 90
        0
 91
        1
 62
     0
 92
       -2
340
14
 93
        0
 40
0.045
309
GRIDFORMAT_END
 95
       16
302
GRIDFORMAT
  1
GRIDFORMAT_BEGIN
 90
        0
 91
        1
 62
     0
 92
       -2
340
14
 93
        0
 40
0.045
309
GRIDFORMAT_END
 95
       32
302
GRIDFORMAT
  1
GRIDFORMAT_BEGIN
 90
        0
 91
        1
 62
     0
 92
       -2
340
14
 93
        0
 40
0.045
309
GRIDFORMAT_END
309
TABLEFORMAT_END
  1
CELLSTYLE_BEGIN
 90
        1
 91
        1
300
_TITLE
309
CELLSTYLE_END
300
CELLSTYLE
  1
TABLEFORMAT_BEGIN
 90
        5
170
     1
 91
        0
 92
        0
 62
   257
 93
        1
300
CONTENTFORMAT
  1
CONTENTFORMAT_BEGIN
 90
        0
 91
        0
 92
        4
 93
        0
300

 40
0.0
140
1.0
 94
        5
 62
     0
340
11
144
0.18
309
CONTENTFORMAT_END
171
     1
301
MARGIN
  1
CELLMARGIN_BEGIN
 40
0.06
 40
0.06
 40
0.06
 40
0.06
 40
0.06
 40
0.06
309
CELLMARGIN_END
 94
        6
 95
        1
302
GRIDFORMAT
  1
GRIDFORMAT_BEGIN
 90
        0
 91
        1
 62
     0
 92
       -2
340
14
 93
        0
 40
0.045
309
GRIDFORMAT_END
 95
        2
302
GRIDFORMAT
  1
GRIDFORMAT_BEGIN
 90
        0
 91
        1
 62
     0
 92
       -2
340
14
 93
        0
 40
0.045
309
GRIDFORMAT_END
 95
        4
302
GRIDFORMAT
  1
GRIDFORMAT_BEGIN
 90
        0
 91
        1
 62
     0
 92
       -2
340
14
 93
        0
 40
0.045
309
GRIDFORMAT_END
 95
        8
302
GRIDFORMAT
  1
GRIDFORMAT_BEGIN
 90
        0
 91
        1
 62
     0
 92
       -2
340
14
 93
        0
 40
0.045
309
GRIDFORMAT_END
 95
       16
302
GRIDFORMAT
  1
GRIDFORMAT_BEGIN
 90
        0
 91
        1
 62
     0
 92
       -2
340
14
 93
        0
 40
0.045
309
GRIDFORMAT_END
 95
       32
302
GRIDFORMAT
  1
GRIDFORMAT_BEGIN
 90
        0
 91
        1
 62
     0
 92
       -2
340
14
 93
        0
 40
0.045
309
GRIDFORMAT_END
309
TABLEFORMAT_END
  1
CELLSTYLE_BEGIN
 90
        2
 91
        1
300
_HEADER
309
CELLSTYLE_END
300
CELLSTYLE
  1
TABLEFORMAT_BEGIN
 90
        5
170
     1
 91
        0
 92
        0
 62
   257
 93
        1
300
CONTENTFORMAT
  1
CONTENTFORMAT_BEGIN
 90
        0
 91
        0
 92
        4
 93
        0
300

 40
0.0
140
1.0
 94
        2
 62
     0
340
11
144
0.18
309
CONTENTFORMAT_END
171
     1
301
MARGIN
  1
CELLMARGIN_BEGIN
 40
0.06
 40
0.06
 40
0.06
 40
0.06
 40
0.06
 40
0.06
309
CELLMARGIN_END
 94
        6
 95
        1
302
GRIDFORMAT
  1
GRIDFORMAT_BEGIN
 90
        0
 91
        1
 62
     0
 92
       -2
340
14
 93
        0
 40
0.045
309
GRIDFORMAT_END
 95
        2
302
GRIDFORMAT
  1
GRIDFORMAT_BEGIN
 90
        0
 91
        1
 62
     0
 92
       -2
340
14
 93
        0
 40
0.045
309
GRIDFORMAT_END
 95
        4
302
GRIDFORMAT
  1
GRIDFORMAT_BEGIN
 90
        0
 91
        1
 62
     0
 92
       -2
340
14
 93
        0
 40
0.045
309
GRIDFORMAT_END
 95
        8
302
GRIDFORMAT
  1
GRIDFORMAT_BEGIN
 90
        0
 91
        1
 62
     0
 92
       -2
340
14
 93
        0
 40
0.045
309
GRIDFORMAT_END
 95
       16
302
GRIDFORMAT
  1
GRIDFORMAT_BEGIN
 90
        0
 91
        1
 62
     0
 92
       -2
340
14
 93
        0
 40
0.045
309
GRIDFORMAT_END
 95
       32
302
GRIDFORMAT
  1
GRIDFORMAT_BEGIN
 90
        0
 91
        1
 62
     0
 92
       -2
340
14
 93
        0
 40
0.045
309
GRIDFORMAT_END
309
TABLEFORMAT_END
  1
CELLSTYLE_BEGIN
 90
        3
 91
        2
300
_DATA
309
CELLSTYLE_END
  0
ENDSEC
  0
EOF