0
SECTION
  2
HEADER
  9
$ACADVER
  1
AC1027
  9
$ACADMAINTVER
 70
     8
  9
$DWGCODEPAGE
  3
ANSI_1252
  9
$REQUIREDVERSIONS
160
                 0
  9
$COMMENTS
  1
File was created by Cadenas
  9
$CUSTOMPROPERTYTAG
  1
NN
  9
$CUSTOMPROPERTY
  1
Imperial - IP Pillow Block with Type E Dimensions 2-1/4 thru 7 inch 4-Bolt Trident Seal Expansion
  9
$CUSTOMPROPERTYTAG
  1
NT
  9
$CUSTOMPROPERTY
  1
Imperial/E 4 Bolt Piliow Block Bearings
  9
$CUSTOMPROPERTYTAG
  1
NB
  9
$CUSTOMPROPERTY
  1
071617
  9
$CUSTOMPROPERTYTAG
  1
NBSYN
  9
$CUSTOMPROPERTY
  1
$PN.
  9
$CUSTOMPROPERTYTAG
  1
LINA
  9
$CUSTOMPROPERTY
  1
071617
  9
$CUSTOMPROPERTYTAG
  1
SS
  9
$CUSTOMPROPERTY
  1
7
  9
$CUSTOMPROPERTYTAG
  1
TYPE
  9
$CUSTOMPROPERTY
  1
Non-Expansion
  9
$CUSTOMPROPERTYTAG
  1
PN
  9
$CUSTOMPROPERTY
  1
071617
  9
$CUSTOMPROPERTYTAG
  1
DESCRIPTION
  9
$CUSTOMPROPERTY
  1
EP4B-IP-700R
  9
$CUSTOMPROPERTYTAG
  1
ST
  9
$CUSTOMPROPERTY
  1
Contact Seal
  9
$CUSTOMPROPERTYTAG
  1
A
  9
$CUSTOMPROPERTY
  1
7.39
  9
$CUSTOMPROPERTYTAG
  1
B
  9
$CUSTOMPROPERTY
  1
26
  9
$CUSTOMPROPERTYTAG
  1
C
  9
$CUSTOMPROPERTY
  1
7.12
  9
$CUSTOMPROPERTYTAG
  1
DMIN
  9
$CUSTOMPROPERTY
  1
21.25
  9
$CUSTOMPROPERTYTAG
  1
DMAX
  9
$CUSTOMPROPERTY
  1
23.25
  9
$CUSTOMPROPERTYTAG
  1
E
  9
$CUSTOMPROPERTY
  1
4.62
  9
$CUSTOMPROPERTYTAG
  1
F
  9
$CUSTOMPROPERTY
  1
1
  9
$CUSTOMPROPERTYTAG
  1
G
  9
$CUSTOMPROPERTY
  1
2
  9
$CUSTOMPROPERTYTAG
  1
H
  9
$CUSTOMPROPERTY
  1
3.69
  9
$CUSTOMPROPERTYTAG
  1
J
  9
$CUSTOMPROPERTY
  1
14.94
  9
$CUSTOMPROPERTYTAG
  1
L
  9
$CUSTOMPROPERTY
  1
11.41
  9
$CUSTOMPROPERTYTAG
  1
M
  9
$CUSTOMPROPERTY
  1
7.5
  9
$CUSTOMPROPERTYTAG
  1
R
  9
$CUSTOMPROPERTY
  1
2.46
  9
$CUSTOMPROPERTYTAG
  1
S
  9
$CUSTOMPROPERTY
  1
4.94
  9
$CUSTOMPROPERTYTAG
  1
X
  9
$CUSTOMPROPERTY
  1
0.38
  9
$CUSTOMPROPERTYTAG
  1
Y
  9
$CUSTOMPROPERTY
  1
0.036
  9
$CUSTOMPROPERTYTAG
  1
Z
  9
$CUSTOMPROPERTY
  1
7.89
  9
$CUSTOMPROPERTYTAG
  1
COMPANY
  9
$CUSTOMPROPERTY
  1
baldor
  9
$INSBASE
 10
0.0
 20
0.0
 30
0.0
  9
$EXTMIN
 10
1.000000000000000E+20
 20
1.000000000000000E+20
 30
1.000000000000000E+20
  9
$EXTMAX
 10
-1.000000000000000E+20
 20
-1.000000000000000E+20
 30
-1.000000000000000E+20
  9
$LIMMIN
 10
0.0
 20
0.0
  9
$LIMMAX
 10
12.0
 20
9.0
  9
$ORTHOMODE
 70
     0
  9
$REGENMODE
 70
     1
  9
$FILLMODE
 70
     1
  9
$QTEXTMODE
 70
     0
  9
$MIRRTEXT
 70
     1
  9
$LTSCALE
 40
1.0
  9
$ATTMODE
 70
     1
  9
$TEXTSIZE
 40
0.2
  9
$TRACEWID
 40
0.05
  9
$TEXTSTYLE
  7
Standard
  9
$CLAYER
  8
0
  9
$CELTYPE
  6
ByLayer
  9
$CECOLOR
 62
   256
  9
$CELTSCALE
 40
1.0
  9
$DISPSILH
 70
     0
  9
$DIMSCALE
 40
1.0
  9
$DIMASZ
 40
0.18
  9
$DIMEXO
 40
0.0625
  9
$DIMDLI
 40
0.38
  9
$DIMRND
 40
0.0
  9
$DIMDLE
 40
0.0
  9
$DIMEXE
 40
0.18
  9
$DIMTP
 40
0.0
  9
$DIMTM
 40
0.0
  9
$DIMTXT
 40
0.18
  9
$DIMCEN
 40
0.09
  9
$DIMTSZ
 40
0.0
  9
$DIMTOL
 70
     0
  9
$DIMLIM
 70
     0
  9
$DIMTIH
 70
     1
  9
$DIMTOH
 70
     1
  9
$DIMSE1
 70
     0
  9
$DIMSE2
 70
     0
  9
$DIMTAD
 70
     0
  9
$DIMZIN
 70
     0
  9
$DIMBLK
  1

  9
$DIMASO
 70
     1
  9
$DIMSHO
 70
     1
  9
$DIMPOST
  1

  9
$DIMAPOST
  1

  9
$DIMALT
 70
     0
  9
$DIMALTD
 70
     2
  9
$DIMALTF
 40
25.4
  9
$DIMLFAC
 40
1.0
  9
$DIMTOFL
 70
     0
  9
$DIMTVP
 40
0.0
  9
$DIMTIX
 70
     0
  9
$DIMSOXD
 70
     0
  9
$DIMSAH
 70
     0
  9
$DIMBLK1
  1

  9
$DIMBLK2
  1

  9
$DIMSTYLE
  2
Standard
  9
$DIMCLRD
 70
     0
  9
$DIMCLRE
 70
     0
  9
$DIMCLRT
 70
     0
  9
$DIMTFAC
 40
1.0
  9
$DIMGAP
 40
0.09
  9
$DIMJUST
 70
     0
  9
$DIMSD1
 70
     0
  9
$DIMSD2
 70
     0
  9
$DIMTOLJ
 70
     1
  9
$DIMTZIN
 70
     0
  9
$DIMALTZ
 70
     0
  9
$DIMALTTZ
 70
     0
  9
$DIMUPT
 70
     0
  9
$DIMDEC
 70
     4
  9
$DIMTDEC
 70
     4
  9
$DIMALTU
 70
     2
  9
$DIMALTTD
 70
     2
  9
$DIMTXSTY
  7
Standard
  9
$DIMAUNIT
 70
     0
  9
$DIMADEC
 70
     0
  9
$DIMALTRND
 40
0.0
  9
$DIMAZIN
 70
     0
  9
$DIMDSEP
 70
    46
  9
$DIMATFIT
 70
     3
  9
$DIMFRAC
 70
     0
  9
$DIMLDRBLK
  1

  9
$DIMLUNIT
 70
     2
  9
$DIMLWD
 70
    -2
  9
$DIMLWE
 70
    -2
  9
$DIMTMOVE
 70
     0
  9
$DIMFXL
 40
1.0
  9
$DIMFXLON
 70
     0
  9
$DIMJOGANG
 40
0.7853981633974483
  9
$DIMTFILL
 70
     0
  9
$DIMTFILLCLR
 70
     0
  9
$DIMARCSYM
 70
     0
  9
$DIMLTYPE
  6

  9
$DIMLTEX1
  6

  9
$DIMLTEX2
  6

  9
$DIMTXTDIRECTION
 70
     0
  9
$LUNITS
 70
     2
  9
$LUPREC
 70
     4
  9
$SKETCHINC
 40
0.1
  9
$FILLETRAD
 40
0.5
  9
$AUNITS
 70
     0
  9
$AUPREC
 70
     0
  9
$MENU
  1
.
  9
$ELEVATION
 40
0.0
  9
$PELEVATION
 40
0.0
  9
$THICKNESS
 40
0.0
  9
$LIMCHECK
 70
     0
  9
$CHAMFERA
 40
0.0
  9
$CHAMFERB
 40
0.0
  9
$CHAMFERC
 40
0.0
  9
$CHAMFERD
 40
0.0
  9
$SKPOLY
 70
     0
  9
$TDCREATE
 40
2458168.982883715
  9
$TDUCREATE
 40
2458168.941217049
  9
$TDUPDATE
 40
2458168.9828839
  9
$TDUUPDATE
 40
2458168.941217234
  9
$TDINDWG
 40
0.0000000116
  9
$TDUSRTIMER
 40
0.0000000116
  9
$USRTIMER
 70
     1
  9
$ANGBASE
 50
0.0
  9
$ANGDIR
 70
     0
  9
$PDMODE
 70
     0
  9
$PDSIZE
 40
0.0
  9
$PLINEWID
 40
0.0
  9
$SPLFRAME
 70
     0
  9
$SPLINETYPE
 70
     6
  9
$SPLINESEGS
 70
     8
  9
$HANDSEED
  5
272
  9
$SURFTAB1
 70
     6
  9
$SURFTAB2
 70
     6
  9
$SURFTYPE
 70
     6
  9
$SURFU
 70
     6
  9
$SURFV
 70
     6
  9
$UCSBASE
  2

  9
$UCSNAME
  2

  9
$UCSORG
 10
0.0
 20
0.0
 30
0.0
  9
$UCSXDIR
 10
1.0
 20
0.0
 30
0.0
  9
$UCSYDIR
 10
0.0
 20
1.0
 30
0.0
  9
$UCSORTHOREF
  2

  9
$UCSORTHOVIEW
 70
     0
  9
$UCSORGTOP
 10
0.0
 20
0.0
 30
0.0
  9
$UCSORGBOTTOM
 10
0.0
 20
0.0
 30
0.0
  9
$UCSORGLEFT
 10
0.0
 20
0.0
 30
0.0
  9
$UCSORGRIGHT
 10
0.0
 20
0.0
 30
0.0
  9
$UCSORGFRONT
 10
0.0
 20
0.0
 30
0.0
  9
$UCSORGBACK
 10
0.0
 20
0.0
 30
0.0
  9
$PUCSBASE
  2

  9
$PUCSNAME
  2

  9
$PUCSORG
 10
0.0
 20
0.0
 30
0.0
  9
$PUCSXDIR
 10
1.0
 20
0.0
 30
0.0
  9
$PUCSYDIR
 10
0.0
 20
1.0
 30
0.0
  9
$PUCSORTHOREF
  2

  9
$PUCSORTHOVIEW
 70
     0
  9
$PUCSORGTOP
 10
0.0
 20
0.0
 30
0.0
  9
$PUCSORGBOTTOM
 10
0.0
 20
0.0
 30
0.0
  9
$PUCSORGLEFT
 10
0.0
 20
0.0
 30
0.0
  9
$PUCSORGRIGHT
 10
0.0
 20
0.0
 30
0.0
  9
$PUCSORGFRONT
 10
0.0
 20
0.0
 30
0.0
  9
$PUCSORGBACK
 10
0.0
 20
0.0
 30
0.0
  9
$USERI1
 70
     0
  9
$USERI2
 70
     0
  9
$USERI3
 70
     0
  9
$USERI4
 70
     0
  9
$USERI5
 70
     0
  9
$USERR1
 40
0.0
  9
$USERR2
 40
0.0
  9
$USERR3
 40
0.0
  9
$USERR4
 40
0.0
  9
$USERR5
 40
0.0
  9
$WORLDVIEW
 70
     1
  9
$SHADEDGE
 70
     3
  9
$SHADEDIF
 70
    70
  9
$TILEMODE
 70
     1
  9
$MAXACTVP
 70
    64
  9
$PINSBASE
 10
0.0
 20
0.0
 30
0.0
  9
$PLIMCHECK
 70
     0
  9
$PEXTMIN
 10
1.000000000000000E+20
 20
1.000000000000000E+20
 30
1.000000000000000E+20
  9
$PEXTMAX
 10
-1.000000000000000E+20
 20
-1.000000000000000E+20
 30
-1.000000000000000E+20
  9
$PLIMMIN
 10
0.0
 20
0.0
  9
$PLIMMAX
 10
12.0
 20
9.0
  9
$UNITMODE
 70
     0
  9
$VISRETAIN
 70
     1
  9
$PLINEGEN
 70
     0
  9
$PSLTSCALE
 70
     1
  9
$TREEDEPTH
 70
  3020
  9
$CMLSTYLE
  2
Standard
  9
$CMLJUST
 70
     0
  9
$CMLSCALE
 40
1.0
  9
$PROXYGRAPHICS
 70
     1
  9
$MEASUREMENT
 70
     0
  9
$CELWEIGHT
370
    -1
  9
$ENDCAPS
280
     0
  9
$JOINSTYLE
280
     0
  9
$LWDISPLAY
290
     0
  9
$INSUNITS
 70
     1
  9
$HYPERLINKBASE
  1

  9
$STYLESHEET
  1

  9
$XEDIT
290
     1
  9
$CEPSNTYPE
380
     0
  9
$PSTYLEMODE
290
     1
  9
$FINGERPRINTGUID
  2
{05129280-00B1-4449-8748-9023B90A5CE2}
  9
$VERSIONGUID
  2
{FAEB1C32-E019-11D5-929B-00C0DF256EC4}
  9
$EXTNAMES
290
     1
  9
$PSVPSCALE
 40
0.0
  9
$OLESTARTUP
290
     0
  9
$SORTENTS
280
   127
  9
$INDEXCTL
280
     0
  9
$HIDETEXT
280
     1
  9
$XCLIPFRAME
280
     2
  9
$HALOGAP
280
     0
  9
$OBSCOLOR
 70
   257
  9
$OBSLTYPE
280
     0
  9
$INTERSECTIONDISPLAY
280
     0
  9
$INTERSECTIONCOLOR
 70
   257
  9
$DIMASSOC
280
     2
  9
$PROJECTNAME
  1

  9
$CAMERADISPLAY
290
     0
  9
$LENSLENGTH
 40
50.0
  9
$CAMERAHEIGHT
 40
0.0
  9
$STEPSPERSEC
 40
2.0
  9
$STEPSIZE
 40
6.0
  9
$3DDWFPREC
 40
2.0
  9
$PSOLWIDTH
 40
0.25
  9
$PSOLHEIGHT
 40
4.0
  9
$LOFTANG1
 40
1.570796326794897
  9
$LOFTANG2
 40
1.570796326794897
  9
$LOFTMAG1
 40
0.0
  9
$LOFTMAG2
 40
0.0
  9
$LOFTPARAM
 70
     7
  9
$LOFTNORMALS
280
     1
  9
$LATITUDE
 40
37.795
  9
$LONGITUDE
 40
-122.394
  9
$NORTHDIRECTION
 40
0.0
  9
$TIMEZONE
 70
 -8000
  9
$LIGHTGLYPHDISPLAY
280
     1
  9
$TILEMODELIGHTSYNCH
280
     1
  9
$CMATERIAL
347
44
  9
$SOLIDHIST
280
     0
  9
$SHOWHIST
280
     1
  9
$DWFFRAME
280
     2
  9
$DGNFRAME
280
     2
  9
$REALWORLDSCALE
290
     1
  9
$INTERFERECOLOR
 62
   256
  9
$CSHADOW
280
     0
  9
$SHADOWPLANELOCATION
 40
0.0
  0
ENDSEC
  0
SECTION
  2
CLASSES
  0
CLASS
  1
ACDBDICTIONARYWDFLT
  2
AcDbDictionaryWithDefault
  3
ObjectDBX Classes
 90
        0
 91
        4
280
     0
281
     0
  0
CLASS
  1
VISUALSTYLE
  2
AcDbVisualStyle
  3
ObjectDBX Classes
 90
     4095
 91
        4
280
     0
281
     0
  0
CLASS
  1
MATERIAL
  2
AcDbMaterial
  3
ObjectDBX Classes
 90
     1153
 91
        4
280
     0
281
     0
  0
CLASS
  1
SCALE
  2
AcDbScale
  3
ObjectDBX Classes
 90
     1153
 91
        4
280
     0
281
     0
  0
CLASS
  1
TABLESTYLE
  2
AcDbTableStyle
  3
ObjectDBX Classes
 90
     4095
 91
        4
280
     0
281
     0
  0
CLASS
  1
MLEADERSTYLE
  2
AcDbMLeaderStyle
  3
ACDB_MLEADERSTYLE_CLASS
 90
     4095
 91
        4
280
     0
281
     0
  0
CLASS
  1
SUN
  2
AcDbSun
  3
SCENEOE
 90
     1153
 91
        4
280
     0
281
     0
  0
CLASS
  1
DICTIONARYVAR
  2
AcDbDictionaryVar
  3
ObjectDBX Classes
 90
        0
 91
        4
280
     0
281
     0
  0
CLASS
  1
CELLSTYLEMAP
  2
AcDbCellStyleMap
  3
ObjectDBX Classes
 90
     1152
 91
        4
280
     0
281
     0
  0
ENDSEC
  0
SECTION
  2
TABLES
  0
TABLE
  2
VPORT
  5
8
330
0
100
AcDbSymbolTable
 70
     1
  0
VPORT
  5
29
330
8
100
AcDbSymbolTableRecord
100
AcDbViewportTableRecord
  2
*Active
 70
     0
 10
0.0
 20
0.0
 11
1.0
 21
1.0
 12
-0.6976656249999991
 22
-0.0300000000000011
 13
0.0
 23
0.0
 14
0.5
 24
0.5
 15
0.5
 25
0.5
 16
0.0
 26
0.0
 36
1.0
 17
0.0
 27
0.0
 37
0.0
 40
15.2388
 41
0.6176259203480587
 42
50.0
 43
0.0
 44
0.0
 50
0.0
 51
0.0
 71
     0
 72
   100
 73
     1
 74
     3
 75
     0
 76
     0
 77
     0
 78
     0
281
     0
 65
     1
110
0.0
120
0.0
130
0.0
111
1.0
121
0.0
131
0.0
112
0.0
122
1.0
132
0.0
 79
     0
146
0.0
348
2F
 60
     3
 61
     5
292
     1
282
     1
141
0.0
142
0.0
 63
   250
361
6D
  0
ENDTAB
  0
TABLE
  2
LTYPE
  5
5
330
0
100
AcDbSymbolTable
 70
     3
  0
LTYPE
  5
14
330
5
100
AcDbSymbolTableRecord
100
AcDbLinetypeTableRecord
  2
ByBlock
 70
     0
  3

 72
    65
 73
     0
 40
0.0
  0
LTYPE
  5
15
330
5
100
AcDbSymbolTableRecord
100
AcDbLinetypeTableRecord
  2
ByLayer
 70
     0
  3

 72
    65
 73
     0
 40
0.0
  0
LTYPE
  5
16
330
5
100
AcDbSymbolTableRecord
100
AcDbLinetypeTableRecord
  2
Continuous
 70
     0
  3
Solid line
 72
    65
 73
     0
 40
0.0
  0
LTYPE
  5
9B
330
5
100
AcDbSymbolTableRecord
100
AcDbLinetypeTableRecord
  2
Dashed
 70
     0
  3

 72
    65
 73
     2
 40
2.0
 49
1.0
 74
     0
 49
-1.0
 74
     0
  0
LTYPE
  5
1E1
330
5
100
AcDbSymbolTableRecord
100
AcDbLinetypeTableRecord
  2
Center
 70
     0
  3

 72
    65
 73
     4
 40
1.5
 49
0.45
 74
     0
 49
-0.5
 74
     0
 49
0.05
 74
     0
 49
-0.5
 74
     0
  0
ENDTAB
  0
TABLE
  2
LAYER
  5
2
330
0
100
AcDbSymbolTable
 70
     7
  0
LAYER
  5
10
330
2
100
AcDbSymbolTableRecord
100
AcDbLayerTableRecord
  2
0
 70
     0
 62
     7
  6
Continuous
370
    -3
390
F
347
46
348
0
  0
LAYER
  5
72
330
2
100
AcDbSymbolTableRecord
100
AcDbLayerTableRecord
  2
AM_6
 70
     0
 62
    -2
  6
Continuous
370
    35
390
F
347
46
348
0
  0
LAYER
  5
9C
330
2
100
AcDbSymbolTableRecord
100
AcDbLayerTableRecord
  2
AM_9
 70
     0
 62
     6
  6
Dashed
370
    25
390
F
347
46
348
0
  0
LAYER
  5
102
330
2
100
AcDbSymbolTableRecord
100
AcDbLayerTableRecord
  2
AM_5
 70
     0
 62
     3
  6
Continuous
370
    25
390
F
347
46
348
0
  0
LAYER
  5
106
330
2
100
AcDbSymbolTableRecord
100
AcDbLayerTableRecord
  2
AM_4
 70
     0
 62
     7
  6
Continuous
370
    50
390
F
347
46
348
0
  0
LAYER
  5
1E2
330
2
100
AcDbSymbolTableRecord
100
AcDbLayerTableRecord
  2
AM_7
 70
     0
 62
     7
  6
Center
370
    25
390
F
347
46
348
0
  0
LAYER
  5
25D
330
2
100
AcDbSymbolTableRecord
100
AcDbLayerTableRecord
  2
ConnectionPoints
 70
     0
 62
     7
  6
Continuous
370
    50
390
F
347
46
348
0
  0
ENDTAB
  0
TABLE
  2
STYLE
  5
3
330
0
100
AcDbSymbolTable
 70
     1
  0
STYLE
  5
11
330
3
100
AcDbSymbolTableRecord
100
AcDbTextStyleTableRecord
  2
Standard
 70
     0
 40
0.0
 41
1.0
 50
0.0
 71
     0
 42
0.2
  3
txt
  4

  0
ENDTAB
  0
TABLE
  2
VIEW
  5
6
330
0
100
AcDbSymbolTable
 70
     0
  0
ENDTAB
  0
TABLE
  2
UCS
  5
7
330
0
100
AcDbSymbolTable
 70
     0
  0
ENDTAB
  0
TABLE
  2
APPID
  5
9
330
0
100
AcDbSymbolTable
 70
     1
  0
APPID
  5
12
330
9
100
AcDbSymbolTableRecord
100
AcDbRegAppTableRecord
  2
ACAD
 70
     0
  0
ENDTAB
  0
TABLE
  2
DIMSTYLE
  5
A
330
0
100
AcDbSymbolTable
 70
     1
100
AcDbDimStyleTable
  0
DIMSTYLE
105
27
330
A
100
AcDbSymbolTableRecord
100
AcDbDimStyleTableRecord
  2
Standard
 70
     0
178
     0
340
11
  0
ENDTAB
  0
TABLE
  2
BLOCK_RECORD
  5
1
330
0
100
AcDbSymbolTable
 70
     8
  0
BLOCK_RECORD
  5
1F
330
1
100
AcDbSymbolTableRecord
100
AcDbBlockTableRecord
  2
*Model_Space
340
22
 70
     0
280
     1
281
     0
  0
BLOCK_RECORD
  5
1B
330
1
100
AcDbSymbolTableRecord
100
AcDbBlockTableRecord
  2
*Paper_Space
340
1E
 70
     0
280
     1
281
     0
  0
BLOCK_RECORD
  5
23
330
1
100
AcDbSymbolTableRecord
100
AcDbBlockTableRecord
  2
*Paper_Space0
340
26
 70
     0
280
     1
281
     0
  0
BLOCK_RECORD
  5
6E
330
1
100
AcDbSymbolTableRecord
100
AcDbBlockTableRecord
  2
1_071617_2
340
0
102
{BLKREFS
331
6F
102
}
 70
     0
280
     1
281
     0
  0
BLOCK_RECORD
  5
8F
330
1
100
AcDbSymbolTableRecord
100
AcDbBlockTableRecord
  2
2_405015E_Inch_0_in_071617_2
340
0
102
{BLKREFS
331
90
102
}
 70
     0
280
     1
281
     0
  0
BLOCK_RECORD
  5
E7
330
1
100
AcDbSymbolTableRecord
100
AcDbBlockTableRecord
  2
3_ASME_B18_3_3_8_1_0_in_071617_2
340
0
102
{BLKREFS
331
E8
102
}
 70
     0
280
     1
281
     0
  0
BLOCK_RECORD
  5
10D
330
1
100
AcDbSymbolTableRecord
100
AcDbBlockTableRecord
  2
4_ASME_B18_3_3_8_2_0_in_071617_2
340
0
102
{BLKREFS
331
10E
102
}
 70
     0
280
     1
281
     0
  0
BLOCK_RECORD
  5
131
330
1
100
AcDbSymbolTableRecord
100
AcDbBlockTableRecord
  2
5_037932LWE_0_in_071617_2
340
0
102
{BLKREFS
331
132
102
}
 70
     0
280
     1
281
     0
  0
BLOCK_RECORD
  5
16A
330
1
100
AcDbSymbolTableRecord
100
AcDbBlockTableRecord
  2
6_037940E_0_in_071617_2
340
0
102
{BLKREFS
331
16B
102
}
 70
     0
280
     1
281
     0
  0
BLOCK_RECORD
  5
1F4
330
1
100
AcDbSymbolTableRecord
100
AcDbBlockTableRecord
  2
7_071617H_0_in_071617_2
340
0
102
{BLKREFS
331
1F5
102
}
 70
     0
280
     1
281
     0
  0
ENDTAB
  0
ENDSEC
  0
SECTION
  2
BLOCKS
  0
BLOCK
  5
20
330
1F
100
AcDbEntity
  8
0
100
AcDbBlockBegin
  2
*Model_Space
 70
     0
 10
0.0
 20
0.0
 30
0.0
  3
*Model_Space
  1

  0
ENDBLK
  5
21
330
1F
100
AcDbEntity
  8
0
100
AcDbBlockEnd
  0
BLOCK
  5
1C
330
1B
100
AcDbEntity
 67
     1
  8
0
100
AcDbBlockBegin
  2
*Paper_Space
 70
     0
 10
0.0
 20
0.0
 30
0.0
  3
*Paper_Space
  1

  0
ENDBLK
  5
1D
330
1B
100
AcDbEntity
 67
     1
  8
0
100
AcDbBlockEnd
  0
BLOCK
  5
24
330
23
100
AcDbEntity
  8
0
100
AcDbBlockBegin
  2
*Paper_Space0
 70
     0
 10
0.0
 20
0.0
 30
0.0
  3
*Paper_Space0
  1

  0
ENDBLK
  5
25
330
23
100
AcDbEntity
  8
0
100
AcDbBlockEnd
  0
BLOCK
  5
70
330
6E
100
AcDbEntity
  8
0
100
AcDbBlockBegin
  2
1_071617_2
 70
     2
 10
0.0
 20
0.0
 30
0.0
  3
1_071617_2
  1

  0
ATTDEF
  5
73
330
6E
100
AcDbEntity
  8
AM_6
100
AcDbText
 10
8.916
 20
7.44
 30
0.0
 40
0.5
  1
Imperial - IP Pillow Block with Type E Dimensions 2-1/4 thru 7 inch 4-Bolt Trident Seal Expansion
100
AcDbAttributeDefinition
  3

  2
NN
 70
     8
280
     0
  0
ATTDEF
  5
74
330
6E
100
AcDbEntity
  8
AM_6
100
AcDbText
 10
8.916
 20
6.94
 30
0.0
 40
0.5
  1
Imperial/E 4 Bolt Piliow Block Bearings
100
AcDbAttributeDefinition
  3

  2
NT
 70
     8
280
     0
  0
ATTDEF
  5
75
330
6E
100
AcDbEntity
  8
AM_6
100
AcDbText
 10
8.916
 20
6.44
 30
0.0
 40
0.5
  1
071617
100
AcDbAttributeDefinition
  3

  2
NB
 70
     8
280
     0
  0
ATTDEF
  5
76
330
6E
100
AcDbEntity
  8
AM_6
100
AcDbText
 10
8.916
 20
5.94
 30
0.0
 40
0.5
  1
$PN.
100
AcDbAttributeDefinition
  3

  2
NBSYN
 70
     8
280
     0
  0
ATTDEF
  5
77
330
6E
100
AcDbEntity
  8
AM_6
100
AcDbText
 10
8.916
 20
5.44
 30
0.0
 40
0.5
  1
071617
100
AcDbAttributeDefinition
  3

  2
LINA
 70
     8
280
     0
  0
ATTDEF
  5
78
330
6E
100
AcDbEntity
  8
AM_6
100
AcDbText
 10
8.916
 20
4.94
 30
0.0
 40
0.5
  1
7
100
AcDbAttributeDefinition
  3

  2
SS
 70
     8
280
     0
  0
ATTDEF
  5
79
330
6E
100
AcDbEntity
  8
AM_6
100
AcDbText
 10
8.916
 20
4.44
 30
0.0
 40
0.5
  1
Non-Expansion
100
AcDbAttributeDefinition
  3

  2
TYPE
 70
     8
280
     0
  0
ATTDEF
  5
7A
330
6E
100
AcDbEntity
  8
AM_6
100
AcDbText
 10
8.916
 20
3.94
 30
0.0
 40
0.5
  1
071617
100
AcDbAttributeDefinition
  3

  2
PN
 70
     8
280
     0
  0
ATTDEF
  5
7B
330
6E
100
AcDbEntity
  8
AM_6
100
AcDbText
 10
8.916
 20
3.44
 30
0.0
 40
0.5
  1
EP4B-IP-700R
100
AcDbAttributeDefinition
  3

  2
DESCRIPTION
 70
     8
280
     0
  0
ATTDEF
  5
7C
330
6E
100
AcDbEntity
  8
AM_6
100
AcDbText
 10
8.916
 20
2.94
 30
0.0
 40
0.5
  1
Contact Seal
100
AcDbAttributeDefinition
  3

  2
ST
 70
     8
280
     0
  0
ATTDEF
  5
7D
330
6E
100
AcDbEntity
  8
AM_6
100
AcDbText
 10
8.916
 20
2.44
 30
0.0
 40
0.5
  1
7.39
100
AcDbAttributeDefinition
  3

  2
A
 70
     8
280
     0
  0
ATTDEF
  5
7E
330
6E
100
AcDbEntity
  8
AM_6
100
AcDbText
 10
8.916
 20
1.94
 30
0.0
 40
0.5
  1
26
100
AcDbAttributeDefinition
  3

  2
B
 70
     8
280
     0
  0
ATTDEF
  5
7F
330
6E
100
AcDbEntity
  8
AM_6
100
AcDbText
 10
8.916
 20
1.44
 30
0.0
 40
0.5
  1
7.12
100
AcDbAttributeDefinition
  3

  2
C
 70
     8
280
     0
  0
ATTDEF
  5
80
330
6E
100
AcDbEntity
  8
AM_6
100
AcDbText
 10
8.916
 20
0.9399999999999995
 30
0.0
 40
0.5
  1
21.25
100
AcDbAttributeDefinition
  3

  2
DMIN
 70
     8
280
     0
  0
ATTDEF
  5
81
330
6E
100
AcDbEntity
  8
AM_6
100
AcDbText
 10
8.916
 20
0.4399999999999995
 30
0.0
 40
0.5
  1
23.25
100
AcDbAttributeDefinition
  3

  2
DMAX
 70
     8
280
     0
  0
ATTDEF
  5
82
330
6E
100
AcDbEntity
  8
AM_6
100
AcDbText
 10
8.916
 20
-0.0600000000000005
 30
0.0
 40
0.5
  1
4.62
100
AcDbAttributeDefinition
  3

  2
E
 70
     8
280
     0
  0
ATTDEF
  5
83
330
6E
100
AcDbEntity
  8
AM_6
100
AcDbText
 10
8.916
 20
-0.5600000000000005
 30
0.0
 40
0.5
  1
1
100
AcDbAttributeDefinition
  3

  2
F
 70
     8
280
     0
  0
ATTDEF
  5
84
330
6E
100
AcDbEntity
  8
AM_6
100
AcDbText
 10
8.916
 20
-1.06
 30
0.0
 40
0.5
  1
2
100
AcDbAttributeDefinition
  3

  2
G
 70
     8
280
     0
  0
ATTDEF
  5
85
330
6E
100
AcDbEntity
  8
AM_6
100
AcDbText
 10
8.916
 20
-1.56
 30
0.0
 40
0.5
  1
3.69
100
AcDbAttributeDefinition
  3

  2
H
 70
     8
280
     0
  0
ATTDEF
  5
86
330
6E
100
AcDbEntity
  8
AM_6
100
AcDbText
 10
8.916
 20
-2.06
 30
0.0
 40
0.5
  1
14.94
100
AcDbAttributeDefinition
  3

  2
J
 70
     8
280
     0
  0
ATTDEF
  5
87
330
6E
100
AcDbEntity
  8
AM_6
100
AcDbText
 10
8.916
 20
-2.56
 30
0.0
 40
0.5
  1
11.41
100
AcDbAttributeDefinition
  3

  2
L
 70
     8
280
     0
  0
ATTDEF
  5
88
330
6E
100
AcDbEntity
  8
AM_6
100
AcDbText
 10
8.916
 20
-3.06
 30
0.0
 40
0.5
  1
7.5
100
AcDbAttributeDefinition
  3

  2
M
 70
     8
280
     0
  0
ATTDEF
  5
89
330
6E
100
AcDbEntity
  8
AM_6
100
AcDbText
 10
8.916
 20
-3.56
 30
0.0
 40
0.5
  1
2.46
100
AcDbAttributeDefinition
  3

  2
R
 70
     8
280
     0
  0
ATTDEF
  5
8A
330
6E
100
AcDbEntity
  8
AM_6
100
AcDbText
 10
8.916
 20
-4.06
 30
0.0
 40
0.5
  1
4.94
100
AcDbAttributeDefinition
  3

  2
S
 70
     8
280
     0
  0
ATTDEF
  5
8B
330
6E
100
AcDbEntity
  8
AM_6
100
AcDbText
 10
8.916
 20
-4.56
 30
0.0
 40
0.5
  1
0.38
100
AcDbAttributeDefinition
  3

  2
X
 70
     8
280
     0
  0
ATTDEF
  5
8C
330
6E
100
AcDbEntity
  8
AM_6
100
AcDbText
 10
8.916
 20
-5.06
 30
0.0
 40
0.5
  1
0.036
100
AcDbAttributeDefinition
  3

  2
Y
 70
     8
280
     0
  0
ATTDEF
  5
8D
330
6E
100
AcDbEntity
  8
AM_6
100
AcDbText
 10
8.916
 20
-5.56
 30
0.0
 40
0.5
  1
7.89
100
AcDbAttributeDefinition
  3

  2
Z
 70
     8
280
     0
  0
ATTDEF
  5
8E
330
6E
100
AcDbEntity
  8
AM_6
100
AcDbText
 10
8.916
 20
-6.06
 30
0.0
 40
0.5
  1
baldor
100
AcDbAttributeDefinition
  3

  2
COMPANY
 70
     8
280
     0
  0
INSERT
  5
90
330
6E
100
AcDbEntity
  8
0
100
AcDbBlockReference
  2
2_405015E_Inch_0_in_071617_2
 10
0.0
 20
0.0
 30
0.0
  0
INSERT
  5
E8
330
6E
100
AcDbEntity
  8
0
100
AcDbBlockReference
  2
3_ASME_B18_3_3_8_1_0_in_071617_2
 10
0.0
 20
0.0
 30
0.0
  0
INSERT
  5
10E
330
6E
100
AcDbEntity
  8
0
100
AcDbBlockReference
  2
4_ASME_B18_3_3_8_2_0_in_071617_2
 10
0.0
 20
0.0
 30
0.0
  0
INSERT
  5
132
330
6E
100
AcDbEntity
  8
0
100
AcDbBlockReference
  2
5_037932LWE_0_in_071617_2
 10
0.0
 20
0.0
 30
0.0
  0
INSERT
  5
16B
330
6E
100
AcDbEntity
  8
0
100
AcDbBlockReference
  2
6_037940E_0_in_071617_2
 10
0.0
 20
0.0
 30
0.0
  0
INSERT
  5
1F5
330
6E
100
AcDbEntity
  8
0
100
AcDbBlockReference
  2
7_071617H_0_in_071617_2
 10
0.0
 20
0.0
 30
0.0
  0
ENDBLK
  5
71
330
6E
100
AcDbEntity
  8
0
100
AcDbBlockEnd
  0
BLOCK
  5
91
330
8F
100
AcDbEntity
  8
0
100
AcDbBlockBegin
  2
2_405015E_Inch_0_in_071617_2
 70
     2
 10
0.0
 20
0.0
 30
0.0
  3
2_405015E_Inch_0_in_071617_2
  1

  0
ATTDEF
  5
93
330
8F
100
AcDbEntity
  8
AM_6
100
AcDbText
 10
5.252590742770461
 20
6.905912178702027
 30
0.0
 40
0.5
  1
405015E -Inch
100
AcDbAttributeDefinition
  3

  2
NN
 70
     8
280
     0
  0
ATTDEF
  5
94
330
8F
100
AcDbEntity
  8
AM_6
100
AcDbText
 10
5.252590742770461
 20
6.405912178702027
 30
0.0
 40
0.5
  1
Grease Fitting
100
AcDbAttributeDefinition
  3

  2
NT
 70
     8
280
     0
  0
ATTDEF
  5
95
330
8F
100
AcDbEntity
  8
AM_6
100
AcDbText
 10
5.252590742770461
 20
5.905912178702027
 30
0.0
 40
0.5
  1
405015E-Inch
100
AcDbAttributeDefinition
  3

  2
NB
 70
     8
280
     0
  0
ATTDEF
  5
96
330
8F
100
AcDbEntity
  8
AM_6
100
AcDbText
 10
5.252590742770461
 20
5.405912178702027
 30
0.0
 40
0.5
  1
$MN.-Inch
100
AcDbAttributeDefinition
  3

  2
NBSYN
 70
     8
280
     0
  0
ATTDEF
  5
97
330
8F
100
AcDbEntity
  8
AM_6
100
AcDbText
 10
5.252590742770461
 20
4.905912178702027
 30
0.0
 40
0.5
  1
405015E
100
AcDbAttributeDefinition
  3

  2
LINA
 70
     8
280
     0
  0
ATTDEF
  5
98
330
8F
100
AcDbEntity
  8
AM_6
100
AcDbText
 10
5.252590742770461
 20
4.405912178702027
 30
0.0
 40
0.5
  1
405015E
100
AcDbAttributeDefinition
  3

  2
MN
 70
     8
280
     0
  0
ATTDEF
  5
99
330
8F
100
AcDbEntity
  8
AM_6
100
AcDbText
 10
5.252590742770461
 20
3.905912178702027
 30
0.0
 40
0.5
  1
1/8 x 27PTF
100
AcDbAttributeDefinition
  3

  2
T
 70
     8
280
     0
  0
ATTDEF
  5
9A
330
8F
100
AcDbEntity
  8
AM_6
100
AcDbText
 10
5.252590742770461
 20
3.405912178702027
 30
0.0
 40
0.5
  1
baldor
100
AcDbAttributeDefinition
  3

  2
COMPANY
 70
     8
280
     0
  0
LINE
  5
9D
330
8F
100
AcDbEntity
  8
AM_9
100
AcDbLine
 10
0.1262953713852304
 20
6.499206313224494
 30
0.0
 11
0.1262953713852304
 21
6.428309316223283
 31
0.0
  0
LINE
  5
9E
330
8F
100
AcDbEntity
  8
AM_9
100
AcDbLine
 10
-0.1262953713852309
 20
6.499206313224494
 30
0.0
 11
-0.1262953713852309
 21
6.428309316223283
 31
0.0
  0
LWPOLYLINE
  5
9F
330
8F
100
AcDbEntity
  8
AM_9
100
AcDbPolyline
 90
        3
 70
     0
 43
0.0
 10
0.1262953713852304
 20
6.499206313224494
 10
0.0634316146914365
 20
6.504968044968669
 10
-0.0000000000000002
 20
6.507059084913111
  0
LWPOLYLINE
  5
A0
330
8F
100
AcDbEntity
  8
AM_9
100
AcDbPolyline
 90
        4
 70
     0
 43
0.0
 10
-0.0000000000000002
 20
6.507059084913111
 10
-0.0483998160558992
 20
6.505831441320662
 10
-0.0967996321117981
 20
6.502311176398632
 10
-0.1262953713852309
 20
6.499206313224494
  0
ELLIPSE
  5
A1
330
8F
100
AcDbEntity
  8
AM_9
100
AcDbEllipse
 10
-0.0000000000000005
 20
6.616434084913115
 30
0.0
 11
0.2187499999999997
 21
3.259629011154171E-9
 31
0.0
210
0.0
220
0.0
230
1.0
 40
0.500000000000017
 41
3.665191404973719
 42
4.71238898038469
  0
LWPOLYLINE
  5
A2
330
8F
100
AcDbEntity
  8
AM_9
100
AcDbPolyline
 90
        3
 70
     0
 43
0.0
 10
-0.1262953713852309
 20
6.499206313224494
 10
-0.1577272497321278
 20
6.532188850105743
 10
-0.1894430570778462
 20
6.561746584913111
  0
LWPOLYLINE
  5
A3
330
8F
100
AcDbEntity
  8
AM_9
100
AcDbPolyline
 90
        3
 70
     0
 43
0.0
 10
0.1894430570778457
 20
6.561746584913111
 10
0.1578692142315381
 20
6.532330106352341
 10
0.1262953713852304
 20
6.499206313224494
  0
LWPOLYLINE
  5
A4
330
8F
100
AcDbEntity
  8
AM_9
100
AcDbPolyline
 90
        3
 70
     0
 43
0.0
 10
-0.1894430570778462
 20
6.475144044534667
 10
-0.1578692142315385
 20
6.449873023095436
 10
-0.1262953713852309
 20
6.428309316223283
  0
LWPOLYLINE
  5
A5
330
8F
100
AcDbEntity
  8
AM_9
100
AcDbPolyline
 90
        4
 70
     0
 43
0.0
 10
-0.1262953713852309
 20
6.428309316223283
 10
-0.096799632111798
 20
6.425204453049146
 10
-0.0485424412477546
 20
6.4216913480146
 10
-0.0000000000000002
 20
6.420456544534667
  0
LWPOLYLINE
  5
A6
330
8F
100
AcDbEntity
  8
AM_9
100
AcDbPolyline
 90
        3
 70
     0
 43
0.0
 10
0.1262953713852304
 20
6.428309316223283
 10
0.1577272497321274
 20
6.449768389616183
 10
0.1894430570778457
 20
6.475144044534667
  0
LWPOLYLINE
  5
A7
330
8F
100
AcDbEntity
  8
AM_9
100
AcDbPolyline
 90
        3
 70
     0
 43
0.0
 10
-0.0000000000000002
 20
6.420456544534667
 10
0.0631476856926151
 20
6.422529273095437
 10
0.1262953713852304
 20
6.428309316223283
  0
ELLIPSE
  5
A8
330
8F
100
AcDbEntity
  8
AM_9
100
AcDbEllipse
 10
-0.0000000000000002
 20
6.854591070953831
 30
0.0
 11
0.1026779019331875
 21
0.0
 31
0.0
210
0.0
220
0.0
230
1.0
 40
0.499999999999983
 41
2.906159049048228
 42
6.283185307179586
  0
LINE
  5
A9
330
8F
100
AcDbEntity
  8
AM_9
100
AcDbLine
 10
-0.09984535623788
 20
6.866566633395029
 30
0.0
 11
-0.1312757938985221
 21
6.801054402542654
 31
0.0
  0
LINE
  5
AA
330
8F
100
AcDbEntity
  8
AM_9
100
AcDbLine
 10
0.1312757938985217
 20
6.801054402542654
 30
0.0
 11
0.0998453562378795
 21
6.866566633395029
 31
0.0
  0
ELLIPSE
  5
AB
330
8F
100
AcDbEntity
  8
AM_9
100
AcDbEllipse
 10
-0.0000000000000003
 20
6.854591070953832
 30
0.0
 11
0.1026779019331875
 21
0.0
 31
0.0
210
0.0
220
0.0
230
1.0
 40
0.4999999999999834
 41
0.2354336045415479
 42
2.906159049048246
  0
ELLIPSE
  5
AC
330
8F
100
AcDbEntity
  8
AM_9
100
AcDbEllipse
 10
0.0000000000000064
 20
6.854591070953821
 30
0.0
 11
0.1026779019331809
 21
0.0
 31
0.0
210
0.0
220
0.0
230
1.0
 40
0.4999999999999981
 41
0.0
 42
0.235433604541775
  0
ELLIPSE
  5
AD
330
8F
100
AcDbEntity
  8
AM_9
100
AcDbEllipse
 10
-0.0000000000000002
 20
6.785309038651075
 30
0.0
 11
0.1350000000000001
 21
0.0
 31
0.0
210
0.0
220
0.0
230
1.0
 40
0.5000000000000188
 41
0.235433604541571
 42
2.906159049048223
  0
ELLIPSE
  5
AE
330
8F
100
AcDbEntity
  8
AM_9
100
AcDbEllipse
 10
0.0000000000000022
 20
6.785309038651029
 30
0.0
 11
0.1349999999999976
 21
0.0
 31
0.0
210
0.0
220
0.0
230
1.0
 40
0.5000000000000541
 41
5.990342535451714
 42
6.51861891172181
  0
LINE
  5
AF
330
8F
100
AcDbEntity
  8
AM_9
100
AcDbLine
 10
0.1049999999999998
 20
6.707986397897368
 30
0.0
 11
0.1049999999999998
 21
6.733347514424009
 31
0.0
  0
LINE
  5
B0
330
8F
100
AcDbEntity
  8
AM_9
100
AcDbLine
 10
-0.1050000000000002
 20
6.733347514424009
 30
0.0
 11
-0.1050000000000002
 21
6.707986397897367
 31
0.0
  0
ELLIPSE
  5
B1
330
8F
100
AcDbEntity
  8
AM_9
100
AcDbEllipse
 10
-0.0000000000000002
 20
6.733347514424008
 30
0.0
 11
0.1050000000000007
 21
0.0
 31
0.0
210
0.0
220
0.0
230
1.0
 40
0.4999999999999988
 41
0.0
 42
3.434435425318345
  0
ELLIPSE
  5
B2
330
8F
100
AcDbEntity
  8
AM_9
100
AcDbEllipse
 10
-0.000000000000012
 20
6.707366752310419
 30
0.0
 11
0.1049999999999882
 21
0.0
 31
0.0
210
0.0
220
0.0
230
1.0
 40
0.5000000000000835
 41
2.891559760489931
 42
3.141592653589793
  0
ELLIPSE
  5
B3
330
8F
100
AcDbEntity
  8
AM_9
100
AcDbEllipse
 10
0.0000000000000102
 20
6.733347514423965
 30
0.0
 11
0.1049999999999895
 21
0.0
 31
0.0
210
0.0
220
0.0
230
1.0
 40
0.4999999999999336
 41
3.434435425317567
 42
6.283185307179586
  0
LINE
  5
B4
330
8F
100
AcDbEntity
  8
AM_9
100
AcDbLine
 10
0.1005298463144152
 20
6.718192069857782
 30
0.0
 11
0.1292526595471054
 21
6.765823467065927
 31
0.0
  0
LINE
  5
B5
330
8F
100
AcDbEntity
  8
AM_9
100
AcDbLine
 10
-0.1292526595471059
 20
6.765823467065927
 30
0.0
 11
-0.1005298463144157
 21
6.718192069857782
 31
0.0
  0
ELLIPSE
  5
B6
330
8F
100
AcDbEntity
  8
AM_9
100
AcDbEllipse
 10
-0.0000000000000003
 20
6.785309038651077
 30
0.0
 11
0.1350000000000003
 21
0.0
 31
0.0
210
0.0
220
0.0
230
1.0
 40
0.4999999999999916
 41
3.43443542531838
 42
5.990342535450999
  0
ELLIPSE
  5
B7
330
8F
100
AcDbEntity
  8
AM_9
100
AcDbEllipse
 10
0.0000000000000019
 20
6.785309038651085
 30
0.0
 11
0.1350000000000021
 21
0.0
 31
0.0
210
0.0
220
0.0
230
1.0
 40
0.4999999999999978
 41
2.906159049048359
 42
3.434435425318485
  0
LWPOLYLINE
  5
B8
330
8F
100
AcDbEntity
  8
AM_9
100
AcDbPolyline
 90
        3
 70
     0
 43
0.0
 10
-0.1894430570778462
 20
6.561746584913111
 10
-0.2210168999241538
 20
6.587017606352341
 10
-0.2525907427704615
 20
6.608581313224495
  0
LWPOLYLINE
  5
B9
330
8F
100
AcDbEntity
  8
AM_9
100
AcDbPolyline
 90
        3
 70
     0
 43
0.0
 10
0.252590742770461
 20
6.608581313224495
 10
0.2211588644235641
 20
6.587122239831595
 10
0.1894430570778457
 20
6.561746584913111
  0
ELLIPSE
  5
BA
330
8F
100
AcDbEntity
  8
AM_9
100
AcDbEllipse
 10
-0.0000000000000002
 20
6.707366752310477
 30
0.0
 11
0.1049999999999998
 21
1.564621925354002E-9
 31
0.0
210
0.0
220
0.0
230
1.0
 40
0.4999999999999942
 41
3.141592627780224
 42
6.28318702669927
  0
LINE
  5
BB
330
8F
100
AcDbEntity
  8
AM_9
100
AcDbLine
 10
-0.1017349497468793
 20
6.720357133367243
 30
0.0
 11
-0.115125294855566
 21
6.694140310304612
 31
0.0
  0
LINE
  5
BC
330
8F
100
AcDbEntity
  8
AM_9
100
AcDbLine
 10
0.1151252948555655
 20
6.694140310304612
 30
0.0
 11
0.1017349497468788
 21
6.720357133367243
 31
0.0
  0
ELLIPSE
  5
BD
330
8F
100
AcDbEntity
  8
AM_9
100
AcDbEllipse
 10
-0.0000000000000002
 20
6.707366752310477
 30
0.0
 11
0.1050000000000003
 21
0.0
 31
0.0
210
0.0
220
0.0
230
1.0
 40
0.5000000000000006
 41
0.2500328930988083
 42
2.891559760490985
  0
ELLIPSE
  5
BE
330
8F
100
AcDbEntity
  8
AM_9
100
AcDbEllipse
 10
0.0000000000000121
 20
6.707366752310419
 30
0.0
 11
0.1049999999999876
 21
0.0
 31
0.0
210
0.0
220
0.0
230
1.0
 40
0.5000000000000864
 41
0.0
 42
0.2500328930998622
  0
ELLIPSE
  5
BF
330
8F
100
AcDbEntity
  8
AM_9
100
AcDbEllipse
 10
0.0000000000000067
 20
6.679440136439445
 30
0.0
 11
0.1188200907349046
 21
1.770557325108419E-9
 31
0.0
210
0.0
220
0.0
230
1.0
 40
0.4999999999998905
 41
2.535447490847279
 42
2.891559732057624
  0
ELLIPSE
  5
C0
330
8F
100
AcDbEntity
  8
AM_9
100
AcDbEllipse
 10
-0.0000000000000016
 20
6.6794401364394
 30
0.0
 11
0.1188200907348989
 21
0.0
 31
0.0
210
0.0
220
0.0
230
1.0
 40
0.5000000000000122
 41
2.891559760490769
 42
6.889330447374845
  0
ELLIPSE
  5
C1
330
8F
100
AcDbEntity
  8
AM_9
100
AcDbEllipse
 10
-0.0000000000000011
 20
6.616434084913111
 30
0.0
 11
0.2187499999999992
 21
0.0
 31
0.0
210
0.0
220
0.0
230
1.0
 40
0.5000000000000019
 41
2.617993877991495
 42
3.665191429188091
  0
LINE
  5
C2
330
8F
100
AcDbEntity
  8
AM_9
100
AcDbLine
 10
-0.097652320820106
 20
6.713286252171859
 30
0.0
 11
-0.1417971541629021
 21
6.681444744403152
 31
0.0
  0
LINE
  5
C3
330
8F
100
AcDbEntity
  8
AM_9
100
AcDbLine
 10
0.1417971541629016
 20
6.681444744403152
 30
0.0
 11
0.0976523208201056
 21
6.713286252171859
 31
0.0
  0
ELLIPSE
  5
C4
330
8F
100
AcDbEntity
  8
AM_9
100
AcDbEllipse
 10
-0.0000000000000002
 20
6.679440136439414
 30
0.0
 11
0.1188200907348978
 21
0.0
 31
0.0
210
0.0
220
0.0
230
1.0
 40
0.4999999999999942
 41
0.6061451401950881
 42
2.535447513394705
  0
LWPOLYLINE
  5
C5
330
8F
100
AcDbEntity
  8
AM_9
100
AcDbPolyline
 90
        3
 70
     0
 43
0.0
 10
-0.2525907427704615
 20
6.537684316223284
 10
-0.2211588644235645
 20
6.504701779342035
 10
-0.1894430570778462
 20
6.475144044534667
  0
LWPOLYLINE
  5
C6
330
8F
100
AcDbEntity
  8
AM_9
100
AcDbPolyline
 90
        3
 70
     0
 43
0.0
 10
0.1894430570778457
 20
6.475144044534667
 10
0.2210168999241534
 20
6.504560523095437
 10
0.252590742770461
 20
6.537684316223284
  0
ELLIPSE
  5
C7
330
8F
100
AcDbEntity
  8
AM_9
100
AcDbEllipse
 10
-0.0000000000000002
 20
6.61643408491311
 30
0.0
 11
-0.21375
 21
3.185123231361761E-9
 31
0.0
210
0.0
220
0.0
230
1.0
 40
0.4999999999999982
 41
0.0
 42
6.283185307179586
  0
ELLIPSE
  5
C8
330
8F
100
AcDbEntity
  8
AM_9
100
AcDbEllipse
 10
-0.0000000000000002
 20
6.616434084913113
 30
0.0
 11
0.2187500000000001
 21
0.0
 31
0.0
210
0.0
220
0.0
230
1.0
 40
0.4999999999999916
 41
4.71238898038469
 42
7.853981633974483
  0
ELLIPSE
  5
C9
330
8F
100
AcDbEntity
  8
AM_9
100
AcDbEllipse
 10
-0.0000000000000003
 20
6.616434084913113
 30
0.0
 11
0.2187499999999998
 21
0.0
 31
0.0
210
0.0
220
0.0
230
1.0
 40
0.4999999999999923
 41
1.570796326794897
 42
2.617993877991501
  0
ELLIPSE
  5
CA
330
8F
100
AcDbEntity
  8
AM_9
100
AcDbEllipse
 10
-0.0000000000000007
 20
6.529831544534668
 30
0.0
 11
0.218750000000001
 21
0.0
 31
0.0
210
0.0
220
0.0
230
1.0
 40
0.4999999999999937
 41
2.617993877991493
 42
7.853981633974483
  0
LINE
  5
CB
330
8F
100
AcDbEntity
  8
AM_9
100
AcDbLine
 10
0.252590742770461
 20
6.608581313224495
 30
0.0
 11
0.252590742770461
 21
6.537684316223284
 31
0.0
  0
LWPOLYLINE
  5
CC
330
8F
100
AcDbEntity
  8
AM_9
100
AcDbPolyline
 90
        3
 70
     0
 43
0.0
 10
0.1894430570778457
 20
6.671121584913111
 10
0.2210168999241533
 20
6.641705106352341
 10
0.252590742770461
 20
6.608581313224495
  0
LWPOLYLINE
  5
CD
330
8F
100
AcDbEntity
  8
AM_9
100
AcDbPolyline
 90
        3
 70
     0
 43
0.0
 10
0.1262953713852304
 20
6.717956313224494
 10
0.1577272497321273
 20
6.696497239831594
 10
0.1894430570778457
 20
6.671121584913111
  0
LWPOLYLINE
  5
CE
330
8F
100
AcDbEntity
  8
AM_9
100
AcDbPolyline
 90
        3
 70
     0
 43
0.0
 10
0.1894430570778457
 20
6.584519044534667
 10
0.157869214231538
 20
6.613935523095437
 10
0.1262953713852304
 20
6.647059316223283
  0
LWPOLYLINE
  5
CF
330
8F
100
AcDbEntity
  8
AM_9
100
AcDbPolyline
 90
        3
 70
     0
 43
0.0
 10
0.252590742770461
 20
6.537684316223284
 10
0.221158864423564
 20
6.559143389616184
 10
0.1894430570778457
 20
6.584519044534667
  0
LINE
  5
D0
330
8F
100
AcDbEntity
  8
AM_9
100
AcDbLine
 10
0.1262953713852304
 20
6.717956313224494
 30
0.0
 11
0.1262953713852304
 21
6.647059316223283
 31
0.0
  0
LWPOLYLINE
  5
D1
330
8F
100
AcDbEntity
  8
AM_9
100
AcDbPolyline
 90
        3
 70
     0
 43
0.0
 10
-0.0000000000000002
 20
6.725809084913111
 10
0.0631476856926151
 20
6.723736356352342
 10
0.1262953713852304
 20
6.717956313224494
  0
LWPOLYLINE
  5
D2
330
8F
100
AcDbEntity
  8
AM_9
100
AcDbPolyline
 90
        4
 70
     0
 43
0.0
 10
-0.1262953713852309
 20
6.717956313224494
 10
-0.096799632111798
 20
6.721061176398632
 10
-0.0485424412477546
 20
6.724574281433178
 10
-0.0000000000000002
 20
6.725809084913111
  0
LWPOLYLINE
  5
D3
330
8F
100
AcDbEntity
  8
AM_9
100
AcDbPolyline
 90
        3
 70
     0
 43
0.0
 10
0.1262953713852304
 20
6.647059316223283
 10
0.0634316146914365
 20
6.641297584479108
 10
-0.0000000000000002
 20
6.639206544534667
  0
ELLIPSE
  5
D4
330
8F
100
AcDbEntity
  8
AM_9
100
AcDbEllipse
 10
0.0000000000000002
 20
6.529831544534668
 30
0.0
 11
0.2187500000000009
 21
0.0
 31
0.0
210
0.0
220
0.0
230
1.0
 40
0.4999999999999938
 41
1.570796326794897
 42
2.617993877991498
  0
LWPOLYLINE
  5
D5
330
8F
100
AcDbEntity
  8
AM_9
100
AcDbPolyline
 90
        4
 70
     0
 43
0.0
 10
-0.0000000000000002
 20
6.639206544534667
 10
-0.0483998160558991
 20
6.640434188127115
 10
-0.096799632111798
 20
6.643954453049145
 10
-0.1262953713852309
 20
6.647059316223283
  0
LINE
  5
D6
330
8F
100
AcDbEntity
  8
AM_9
100
AcDbLine
 10
-0.1262953713852309
 20
6.717956313224494
 30
0.0
 11
-0.1262953713852309
 21
6.647059316223283
 31
0.0
  0
LWPOLYLINE
  5
D7
330
8F
100
AcDbEntity
  8
AM_9
100
AcDbPolyline
 90
        3
 70
     0
 43
0.0
 10
-0.1894430570778462
 20
6.671121584913111
 10
-0.1578692142315386
 20
6.696392606352341
 10
-0.1262953713852309
 20
6.717956313224494
  0
LWPOLYLINE
  5
D8
330
8F
100
AcDbEntity
  8
AM_9
100
AcDbPolyline
 90
        3
 70
     0
 43
0.0
 10
-0.2525907427704615
 20
6.608581313224495
 10
-0.2211588644235646
 20
6.641563850105744
 10
-0.1894430570778462
 20
6.671121584913111
  0
LINE
  5
D9
330
8F
100
AcDbEntity
  8
AM_9
100
AcDbLine
 10
-0.2525907427704615
 20
6.608581313224495
 30
0.0
 11
-0.2525907427704615
 21
6.537684316223284
 31
0.0
  0
LWPOLYLINE
  5
DA
330
8F
100
AcDbEntity
  8
AM_9
100
AcDbPolyline
 90
        3
 70
     0
 43
0.0
 10
-0.1894430570778462
 20
6.584519044534667
 10
-0.2210168999241538
 20
6.559248023095436
 10
-0.2525907427704615
 20
6.537684316223284
  0
LWPOLYLINE
  5
DB
330
8F
100
AcDbEntity
  8
AM_9
100
AcDbPolyline
 90
        3
 70
     0
 43
0.0
 10
-0.1262953713852309
 20
6.647059316223283
 10
-0.1577272497321278
 20
6.614076779342034
 10
-0.1894430570778462
 20
6.584519044534667
  0
LINE
  5
DC
330
8F
100
AcDbEntity
  8
AM_9
100
AcDbLine
 10
0.1985852938306406
 20
6.330338883848222
 30
0.0
 11
0.2057184028850725
 21
6.527975343757038
 31
0.0
  0
LINE
  5
DD
330
8F
100
AcDbEntity
  8
AM_9
100
AcDbLine
 10
-0.205718402885073
 20
6.527975343757038
 30
0.0
 11
-0.1985852938306411
 21
6.330338883848222
 31
0.0
  0
ELLIPSE
  5
DE
330
8F
100
AcDbEntity
  8
AM_9
100
AcDbEllipse
 10
0.0000000000000009
 20
6.33213072245705
 30
0.0
 11
0.1986176267812141
 21
0.0
 31
0.0
210
0.0
220
0.0
230
1.0
 40
0.5000000000000089
 41
3.757072362260224
 42
6.265141230475058
  0
ELLIPSE
  5
DF
330
8F
100
AcDbEntity
  8
AM_9
100
AcDbEllipse
 10
-0.0000000000000005
 20
6.332130722457042
 30
0.0
 11
0.1986176267812158
 21
0.0
 31
0.0
210
0.0
220
0.0
230
1.0
 40
0.5000000000000361
 41
0.0
 42
3.159636730294235
  0
ELLIPSE
  5
E0
330
8F
100
AcDbEntity
  8
AM_9
100
AcDbEllipse
 10
-0.0000000000007035
 20
6.332130722444353
 30
0.0
 11
0.1986176267819187
 21
0.0
 31
0.0
210
0.0
220
0.0
230
1.0
 40
0.4999999999994111
 41
6.265141230602927
 42
6.283185307179586
  0
LINE
  5
E1
330
8F
100
AcDbEntity
  8
AM_9
100
AcDbLine
 10
0.1321931418159851
 20
6.253597479029572
 30
0.0
 11
0.1621706131788413
 21
6.274794752313073
 31
0.0
  0
LINE
  5
E2
330
8F
100
AcDbEntity
  8
AM_9
100
AcDbLine
 10
-0.1621706131788418
 20
6.274794752313073
 30
0.0
 11
-0.1321931418159856
 21
6.253597479029572
 31
0.0
  0
ELLIPSE
  5
E3
330
8F
100
AcDbEntity
  8
AM_9
100
AcDbEllipse
 10
-0.0000000000000014
 20
6.33213072245705
 30
0.0
 11
0.1986176267812142
 21
0.0
 31
0.0
210
0.0
220
0.0
230
1.0
 40
0.5000000000000087
 41
3.15963673029432
 42
3.757072362260234
  0
ELLIPSE
  5
E4
330
8F
100
AcDbEntity
  8
AM_9
100
AcDbEllipse
 10
-0.0000000000000002
 20
6.632298110201082
 30
0.0
 11
0.1725340532830159
 21
0.0
 31
0.0
210
0.0
220
0.0
230
1.0
 40
0.5000000000000003
 41
0.0
 42
6.283185307179586
  0
ELLIPSE
  5
E5
330
8F
100
AcDbEntity
  8
AM_9
100
AcDbEllipse
 10
-0.0000000000009896
 20
6.529831544526689
 30
0.0
 11
0.205751897224059
 21
0.0
 31
0.0
210
0.0
220
0.0
230
1.0
 40
0.4999999999995745
 41
0.0
 42
6.283185307179586
  0
ELLIPSE
  5
E6
330
8F
100
AcDbEntity
  8
AM_9
100
AcDbEllipse
 10
-0.0000000000000013
 20
6.300334812531796
 30
0.0
 11
0.1619028724722702
 21
0.0
 31
0.0
210
0.0
220
0.0
230
1.0
 40
0.5000000000000103
 41
0.0
 42
6.283185307179586
  0
ENDBLK
  5
92
330
8F
100
AcDbEntity
  8
0
100
AcDbBlockEnd
  0
BLOCK
  5
E9
330
E7
100
AcDbEntity
  8
0
100
AcDbBlockBegin
  2
3_ASME_B18_3_3_8_1_0_in_071617_2
 70
     2
 10
0.0
 20
0.0
 30
0.0
  3
3_ASME_B18_3_3_8_1_0_in_071617_2
  1

  0
ATTDEF
  5
EB
330
E7
100
AcDbEntity
  8
AM_6
100
AcDbText
 10
1.786999999999999
 20
-4.468006944444444
 30
0.0
 40
0.5
  1
ANSI/ASME B18.3-1998
100
AcDbAttributeDefinition
  3

  2
NN
 70
     8
280
     0
  0
ATTDEF
  5
EC
330
E7
100
AcDbEntity
  8
AM_6
100
AcDbText
 10
1.786999999999999
 20
-4.968006944444444
 30
0.0
 40
0.5
  1
Socket Button Head Cap Screws
100
AcDbAttributeDefinition
  3

  2
NT
 70
     8
280
     0
  0
ATTDEF
  5
ED
330
E7
100
AcDbEntity
  8
AM_6
100
AcDbText
 10
1.786999999999999
 20
-5.468006944444444
 30
0.0
 40
0.5
  1
ASME B18.3-3/8
100
AcDbAttributeDefinition
  3

  2
NB
 70
     8
280
     0
  0
ATTDEF
  5
EE
330
E7
100
AcDbEntity
  8
AM_6
100
AcDbText
 10
1.786999999999999
 20
-5.968006944444444
 30
0.0
 40
0.5
  1
ASME B18.3-$NS.
100
AcDbAttributeDefinition
  3

  2
NBSYN
 70
     8
280
     0
  0
ATTDEF
  5
EF
330
E7
100
AcDbEntity
  8
AM_6
100
AcDbText
 10
1.786999999999999
 20
-6.468006944444444
 30
0.0
 40
0.5
  1
ASME B18.3-3/8
100
AcDbAttributeDefinition
  3

  2
LINA
 70
     8
280
     0
  0
ATTDEF
  5
F0
330
E7
100
AcDbEntity
  8
AM_6
100
AcDbText
 10
1.786999999999999
 20
-6.968006944444444
 30
0.0
 40
0.5
  1
3/8
100
AcDbAttributeDefinition
  3

  2
NS
 70
     8
280
     0
  0
ATTDEF
  5
F1
330
E7
100
AcDbEntity
  8
AM_6
100
AcDbText
 10
1.786999999999999
 20
-7.468006944444444
 30
0.0
 40
0.5
  1
0.656
100
AcDbAttributeDefinition
  3

  2
A
 70
     8
280
     0
  0
ATTDEF
  5
F2
330
E7
100
AcDbEntity
  8
AM_6
100
AcDbText
 10
1.786999999999999
 20
-7.968006944444444
 30
0.0
 40
0.5
  1
0.199
100
AcDbAttributeDefinition
  3

  2
H
 70
     8
280
     0
  0
ATTDEF
  5
F3
330
E7
100
AcDbEntity
  8
AM_6
100
AcDbText
 10
1.786999999999999
 20
-8.468006944444443
 30
0.0
 40
0.5
  1
1.250
100
AcDbAttributeDefinition
  3

  2
L
 70
     8
280
     0
  0
ATTDEF
  5
F4
330
E7
100
AcDbEntity
  8
AM_6
100
AcDbText
 10
1.786999999999999
 20
-8.968006944444443
 30
0.0
 40
0.5
  1
0.031
100
AcDbAttributeDefinition
  3

  2
S
 70
     8
280
     0
  0
ATTDEF
  5
F5
330
E7
100
AcDbEntity
  8
AM_6
100
AcDbText
 10
1.786999999999999
 20
-9.468006944444443
 30
0.0
 40
0.5
  1
0.218750
100
AcDbAttributeDefinition
  3

  2
J
 70
     8
280
     0
  0
ATTDEF
  5
F6
330
E7
100
AcDbEntity
  8
AM_6
100
AcDbText
 10
1.786999999999999
 20
-9.968006944444443
 30
0.0
 40
0.5
  1
baldor
100
AcDbAttributeDefinition
  3

  2
COMPANY
 70
     8
280
     0
  0
LINE
  5
F7
330
E7
100
AcDbEntity
  8
AM_9
100
AcDbLine
 10
-4.525000000000001
 20
-4.922302315829675
 30
0.0
 11
-4.662000000000001
 21
-4.922302315829675
 31
0.0
  0
LINE
  5
F8
330
E7
100
AcDbEntity
  8
AM_9
100
AcDbLine
 10
-4.525000000000001
 20
-4.669711573059214
 30
0.0
 11
-4.662000000000001
 21
-4.669711573059214
 31
0.0
  0
LINE
  5
F9
330
E7
100
AcDbEntity
  8
AM_9
100
AcDbLine
 10
-4.525000000000001
 20
-4.669711573059214
 30
0.0
 11
-4.525000000000001
 21
-4.922302315829675
 31
0.0
  0
LINE
  5
FA
330
E7
100
AcDbEntity
  8
AM_9
100
AcDbLine
 10
-4.525000000000001
 20
-4.85915463013706
 30
0.0
 11
-4.662000000000001
 21
-4.85915463013706
 31
0.0
  0
LINE
  5
FB
330
E7
100
AcDbEntity
  8
AM_9
100
AcDbLine
 10
-4.525000000000001
 20
-4.732859258751829
 30
0.0
 11
-4.662000000000001
 21
-4.732859258751829
 31
0.0
  0
LINE
  5
FC
330
E7
100
AcDbEntity
  8
AM_9
100
AcDbLine
 10
-3.213000000000001
 20
-4.627106944444445
 30
0.0
 11
-3.213000000000001
 21
-4.964906944444444
 31
0.0
  0
LINE
  5
FD
330
E7
100
AcDbEntity
  8
AM_9
100
AcDbLine
 10
-3.213000000000001
 20
-4.627106944444445
 30
0.0
 11
-3.231600000000001
 21
-4.608506944444445
 31
0.0
  0
LINE
  5
FE
330
E7
100
AcDbEntity
  8
AM_9
100
AcDbLine
 10
-3.231600000000001
 20
-4.983506944444445
 30
0.0
 11
-3.213000000000001
 21
-4.964906944444444
 31
0.0
  0
LINE
  5
FF
330
E7
100
AcDbEntity
  8
AM_9
100
AcDbLine
 10
-3.231600000000001
 20
-4.608506944444445
 30
0.0
 11
-3.231600000000001
 21
-4.983506944444445
 31
0.0
  0
LINE
  5
100
330
E7
100
AcDbEntity
  8
AM_9
100
AcDbLine
 10
-4.463000000000001
 20
-4.983506944444445
 30
0.0
 11
-3.231600000000001
 21
-4.983506944444445
 31
0.0
  0
LINE
  5
101
330
E7
100
AcDbEntity
  8
AM_9
100
AcDbLine
 10
-3.231600000000001
 20
-4.608506944444445
 30
0.0
 11
-4.463000000000001
 21
-4.608506944444445
 31
0.0
  0
LINE
  5
103
330
E7
100
AcDbEntity
  8
AM_5
100
AcDbLine
 10
-4.383000000000001
 20
-4.964906944444444
 30
0.0
 11
-4.415216145020783
 21
-4.983506944444445
 31
0.0
  0
LINE
  5
104
330
E7
100
AcDbEntity
  8
AM_5
100
AcDbLine
 10
-4.383000000000001
 20
-4.608506944444444
 30
0.0
 11
-4.383000000000001
 21
-4.983506944444445
 31
0.0
  0
LINE
  5
105
330
E7
100
AcDbEntity
  8
AM_5
100
AcDbLine
 10
-4.383000000000001
 20
-4.627106944444445
 30
0.0
 11
-4.415216145020782
 21
-4.608506944444445
 31
0.0
  0
LINE
  5
107
330
E7
100
AcDbEntity
  8
AM_4
100
AcDbLine
 10
-4.494000000000001
 20
-5.124006944444445
 30
0.0
 11
-4.463000000000001
 21
-5.124006944444445
 31
0.0
  0
LINE
  5
108
330
E7
100
AcDbEntity
  8
AM_4
100
AcDbLine
 10
-4.463000000000001
 20
-4.468006944444444
 30
0.0
 11
-4.494000000000001
 21
-4.468006944444444
 31
0.0
  0
LINE
  5
109
330
E7
100
AcDbEntity
  8
AM_4
100
AcDbLine
 10
-4.662000000000001
 20
-4.636006944444444
 30
0.0
 11
-4.662000000000001
 21
-4.956006944444445
 31
0.0
  0
LINE
  5
10A
330
E7
100
AcDbEntity
  8
AM_4
100
AcDbLine
 10
-4.494000000000001
 20
-4.468006944444444
 30
0.0
 11
-4.494000000000001
 21
-5.124006944444445
 31
0.0
  0
ARC
  5
10B
330
E7
100
AcDbEntity
  8
AM_4
100
AcDbCircle
 10
-4.494
 20
-4.956006944444443
 30
0.0
 40
0.168000000000001
100
AcDbArc
 50
179.9999991462263
 51
270.0
  0
ARC
  5
10C
330
E7
100
AcDbEntity
  8
AM_4
100
AcDbCircle
 10
-4.494
 20
-4.636006944444446
 30
0.0
 40
0.1680000000000019
100
AcDbArc
 50
90.0
 51
179.9999991462263
  0
ENDBLK
  5
EA
330
E7
100
AcDbEntity
  8
0
100
AcDbBlockEnd
  0
BLOCK
  5
10F
330
10D
100
AcDbEntity
  8
0
100
AcDbBlockBegin
  2
4_ASME_B18_3_3_8_2_0_in_071617_2
 70
     2
 10
0.0
 20
0.0
 30
0.0
  3
4_ASME_B18_3_3_8_2_0_in_071617_2
  1

  0
ATTDEF
  5
111
330
10D
100
AcDbEntity
  8
AM_6
100
AcDbText
 10
1.786999999999999
 20
5.124006944444445
 30
0.0
 40
0.5
  1
ANSI/ASME B18.3-1998
100
AcDbAttributeDefinition
  3

  2
NN
 70
     8
280
     0
  0
ATTDEF
  5
112
330
10D
100
AcDbEntity
  8
AM_6
100
AcDbText
 10
1.786999999999999
 20
4.624006944444445
 30
0.0
 40
0.5
  1
Socket Button Head Cap Screws
100
AcDbAttributeDefinition
  3

  2
NT
 70
     8
280
     0
  0
ATTDEF
  5
113
330
10D
100
AcDbEntity
  8
AM_6
100
AcDbText
 10
1.786999999999999
 20
4.124006944444445
 30
0.0
 40
0.5
  1
ASME B18.3-3/8
100
AcDbAttributeDefinition
  3

  2
NB
 70
     8
280
     0
  0
ATTDEF
  5
114
330
10D
100
AcDbEntity
  8
AM_6
100
AcDbText
 10
1.786999999999999
 20
3.624006944444445
 30
0.0
 40
0.5
  1
ASME B18.3-$NS.
100
AcDbAttributeDefinition
  3

  2
NBSYN
 70
     8
280
     0
  0
ATTDEF
  5
115
330
10D
100
AcDbEntity
  8
AM_6
100
AcDbText
 10
1.786999999999999
 20
3.124006944444445
 30
0.0
 40
0.5
  1
ASME B18.3-3/8
100
AcDbAttributeDefinition
  3

  2
LINA
 70
     8
280
     0
  0
ATTDEF
  5
116
330
10D
100
AcDbEntity
  8
AM_6
100
AcDbText
 10
1.786999999999999
 20
2.624006944444445
 30
0.0
 40
0.5
  1
3/8
100
AcDbAttributeDefinition
  3

  2
NS
 70
     8
280
     0
  0
ATTDEF
  5
117
330
10D
100
AcDbEntity
  8
AM_6
100
AcDbText
 10
1.786999999999999
 20
2.124006944444445
 30
0.0
 40
0.5
  1
0.656
100
AcDbAttributeDefinition
  3

  2
A
 70
     8
280
     0
  0
ATTDEF
  5
118
330
10D
100
AcDbEntity
  8
AM_6
100
AcDbText
 10
1.786999999999999
 20
1.624006944444445
 30
0.0
 40
0.5
  1
0.199
100
AcDbAttributeDefinition
  3

  2
H
 70
     8
280
     0
  0
ATTDEF
  5
119
330
10D
100
AcDbEntity
  8
AM_6
100
AcDbText
 10
1.786999999999999
 20
1.124006944444445
 30
0.0
 40
0.5
  1
1.250
100
AcDbAttributeDefinition
  3

  2
L
 70
     8
280
     0
  0
ATTDEF
  5
11A
330
10D
100
AcDbEntity
  8
AM_6
100
AcDbText
 10
1.786999999999999
 20
0.6240069444444449
 30
0.0
 40
0.5
  1
0.031
100
AcDbAttributeDefinition
  3

  2
S
 70
     8
280
     0
  0
ATTDEF
  5
11B
330
10D
100
AcDbEntity
  8
AM_6
100
AcDbText
 10
1.786999999999999
 20
0.1240069444444449
 30
0.0
 40
0.5
  1
0.218750
100
AcDbAttributeDefinition
  3

  2
J
 70
     8
280
     0
  0
ATTDEF
  5
11C
330
10D
100
AcDbEntity
  8
AM_6
100
AcDbText
 10
1.786999999999999
 20
-0.3759930555555551
 30
0.0
 40
0.5
  1
baldor
100
AcDbAttributeDefinition
  3

  2
COMPANY
 70
     8
280
     0
  0
LINE
  5
11D
330
10D
100
AcDbEntity
  8
AM_9
100
AcDbLine
 10
-4.525000000000001
 20
4.922302315829675
 30
0.0
 11
-4.662000000000001
 21
4.922302315829675
 31
0.0
  0
LINE
  5
11E
330
10D
100
AcDbEntity
  8
AM_9
100
AcDbLine
 10
-4.525000000000001
 20
4.669711573059214
 30
0.0
 11
-4.662000000000001
 21
4.669711573059214
 31
0.0
  0
LINE
  5
11F
330
10D
100
AcDbEntity
  8
AM_9
100
AcDbLine
 10
-4.525000000000001
 20
4.922302315829675
 30
0.0
 11
-4.525000000000001
 21
4.669711573059214
 31
0.0
  0
LINE
  5
120
330
10D
100
AcDbEntity
  8
AM_9
100
AcDbLine
 10
-4.525000000000001
 20
4.732859258751829
 30
0.0
 11
-4.662000000000001
 21
4.732859258751829
 31
0.0
  0
LINE
  5
121
330
10D
100
AcDbEntity
  8
AM_9
100
AcDbLine
 10
-4.525000000000001
 20
4.85915463013706
 30
0.0
 11
-4.662000000000001
 21
4.85915463013706
 31
0.0
  0
LINE
  5
122
330
10D
100
AcDbEntity
  8
AM_9
100
AcDbLine
 10
-3.213000000000001
 20
4.964906944444444
 30
0.0
 11
-3.213000000000001
 21
4.627106944444445
 31
0.0
  0
LINE
  5
123
330
10D
100
AcDbEntity
  8
AM_9
100
AcDbLine
 10
-3.213000000000001
 20
4.964906944444444
 30
0.0
 11
-3.231600000000001
 21
4.983506944444445
 31
0.0
  0
LINE
  5
124
330
10D
100
AcDbEntity
  8
AM_9
100
AcDbLine
 10
-3.231600000000001
 20
4.608506944444445
 30
0.0
 11
-3.213000000000001
 21
4.627106944444445
 31
0.0
  0
LINE
  5
125
330
10D
100
AcDbEntity
  8
AM_9
100
AcDbLine
 10
-3.231600000000001
 20
4.983506944444445
 30
0.0
 11
-3.231600000000001
 21
4.608506944444445
 31
0.0
  0
LINE
  5
126
330
10D
100
AcDbEntity
  8
AM_9
100
AcDbLine
 10
-4.463000000000001
 20
4.608506944444445
 30
0.0
 11
-3.231600000000001
 21
4.608506944444445
 31
0.0
  0
LINE
  5
127
330
10D
100
AcDbEntity
  8
AM_9
100
AcDbLine
 10
-3.231600000000001
 20
4.983506944444445
 30
0.0
 11
-4.463000000000001
 21
4.983506944444445
 31
0.0
  0
LINE
  5
128
330
10D
100
AcDbEntity
  8
AM_5
100
AcDbLine
 10
-4.383000000000001
 20
4.627106944444445
 30
0.0
 11
-4.415216145020782
 21
4.608506944444445
 31
0.0
  0
LINE
  5
129
330
10D
100
AcDbEntity
  8
AM_5
100
AcDbLine
 10
-4.383000000000001
 20
4.983506944444446
 30
0.0
 11
-4.383000000000001
 21
4.608506944444446
 31
0.0
  0
LINE
  5
12A
330
10D
100
AcDbEntity
  8
AM_5
100
AcDbLine
 10
-4.383000000000001
 20
4.964906944444444
 30
0.0
 11
-4.415216145020783
 21
4.983506944444445
 31
0.0
  0
LINE
  5
12B
330
10D
100
AcDbEntity
  8
AM_4
100
AcDbLine
 10
-4.662000000000001
 20
4.956006944444445
 30
0.0
 11
-4.662000000000001
 21
4.636006944444444
 31
0.0
  0
ARC
  5
12C
330
10D
100
AcDbEntity
  8
AM_4
100
AcDbCircle
 10
-4.494
 20
4.636006944444446
 30
0.0
 40
0.168000000000001
100
AcDbArc
 50
179.9999991462263
 51
270.0
  0
ARC
  5
12D
330
10D
100
AcDbEntity
  8
AM_4
100
AcDbCircle
 10
-4.494
 20
4.956006944444443
 30
0.0
 40
0.1680000000000019
100
AcDbArc
 50
90.0
 51
179.9999991462263
  0
LINE
  5
12E
330
10D
100
AcDbEntity
  8
AM_4
100
AcDbLine
 10
-4.494000000000001
 20
5.124006944444445
 30
0.0
 11
-4.494000000000001
 21
4.468006944444444
 31
0.0
  0
LINE
  5
12F
330
10D
100
AcDbEntity
  8
AM_4
100
AcDbLine
 10
-4.494000000000001
 20
4.468006944444444
 30
0.0
 11
-4.463000000000001
 21
4.468006944444444
 31
0.0
  0
LINE
  5
130
330
10D
100
AcDbEntity
  8
AM_4
100
AcDbLine
 10
-4.463000000000001
 20
5.124006944444445
 30
0.0
 11
-4.494000000000001
 21
5.124006944444445
 31
0.0
  0
ENDBLK
  5
110
330
10D
100
AcDbEntity
  8
0
100
AcDbBlockEnd
  0
BLOCK
  5
133
330
131
100
AcDbEntity
  8
0
100
AcDbBlockBegin
  2
5_037932LWE_0_in_071617_2
 70
     2
 10
0.0
 20
0.0
 30
0.0
  3
5_037932LWE_0_in_071617_2
  1

  0
ATTDEF
  5
135
330
131
100
AcDbEntity
  8
AM_6
100
AcDbText
 10
1.656999999999999
 20
5.703125000000001
 30
0.0
 40
0.5
  1
Imperial/E Insert Lockwasher -Inch
100
AcDbAttributeDefinition
  3

  2
NN
 70
     8
280
     0
  0
ATTDEF
  5
136
330
131
100
AcDbEntity
  8
AM_6
100
AcDbText
 10
1.656999999999999
 20
5.203125000000001
 30
0.0
 40
0.5
  1
Imperial/E Bearings
100
AcDbAttributeDefinition
  3

  2
NT
 70
     8
280
     0
  0
ATTDEF
  5
137
330
131
100
AcDbEntity
  8
AM_6
100
AcDbText
 10
1.656999999999999
 20
4.703125000000001
 30
0.0
 40
0.5
  1
037932LWE
100
AcDbAttributeDefinition
  3

  2
NB
 70
     8
280
     0
  0
ATTDEF
  5
138
330
131
100
AcDbEntity
  8
AM_6
100
AcDbText
 10
1.656999999999999
 20
4.203125000000001
 30
0.0
 40
0.5
  1
$PN.LWE
100
AcDbAttributeDefinition
  3

  2
NBSYN
 70
     8
280
     0
  0
ATTDEF
  5
139
330
131
100
AcDbEntity
  8
AM_6
100
AcDbText
 10
1.656999999999999
 20
3.703125000000001
 30
0.0
 40
0.5
  1
037932
100
AcDbAttributeDefinition
  3

  2
LINA
 70
     8
280
     0
  0
ATTDEF
  5
13A
330
131
100
AcDbEntity
  8
AM_6
100
AcDbText
 10
1.656999999999999
 20
3.203125000000001
 30
0.0
 40
0.5
  1
7
100
AcDbAttributeDefinition
  3

  2
SS
 70
     8
280
     0
  0
ATTDEF
  5
13B
330
131
100
AcDbEntity
  8
AM_6
100
AcDbText
 10
1.656999999999999
 20
2.703125000000001
 30
0.0
 40
0.5
  1
11.406250
100
AcDbAttributeDefinition
  3

  2
E1
 70
     8
280
     0
  0
ATTDEF
  5
13C
330
131
100
AcDbEntity
  8
AM_6
100
AcDbText
 10
1.656999999999999
 20
2.203125000000001
 30
0.0
 40
0.5
  1
7.000000
100
AcDbAttributeDefinition
  3

  2
SS1
 70
     8
280
     0
  0
ATTDEF
  5
13D
330
131
100
AcDbEntity
  8
AM_6
100
AcDbText
 10
1.656999999999999
 20
1.703125000000001
 30
0.0
 40
0.5
  1
037932
100
AcDbAttributeDefinition
  3

  2
PN
 70
     8
280
     0
  0
ATTDEF
  5
13E
330
131
100
AcDbEntity
  8
AM_6
100
AcDbText
 10
1.656999999999999
 20
1.203125000000001
 30
0.0
 40
0.5
  1
INS-IP-700R
100
AcDbAttributeDefinition
  3

  2
DESCRIPTION
 70
     8
280
     0
  0
ATTDEF
  5
13F
330
131
100
AcDbEntity
  8
AM_6
100
AcDbText
 10
1.656999999999999
 20
0.7031250000000009
 30
0.0
 40
0.5
  1
12.5984
100
AcDbAttributeDefinition
  3

  2
A
 70
     8
280
     0
  0
ATTDEF
  5
140
330
131
100
AcDbEntity
  8
AM_6
100
AcDbText
 10
1.656999999999999
 20
0.2031250000000009
 30
0.0
 40
0.5
  1
3-15/32
100
AcDbAttributeDefinition
  3

  2
B
 70
     8
280
     0
  0
ATTDEF
  5
141
330
131
100
AcDbEntity
  8
AM_6
100
AcDbText
 10
1.656999999999999
 20
-0.2968749999999991
 30
0.0
 40
0.5
  1
3.468750
100
AcDbAttributeDefinition
  3

  2
B1
 70
     8
280
     0
  0
ATTDEF
  5
142
330
131
100
AcDbEntity
  8
AM_6
100
AcDbText
 10
1.656999999999999
 20
-0.7968749999999991
 30
0.0
 40
0.5
  1
7-25/64
100
AcDbAttributeDefinition
  3

  2
C
 70
     8
280
     0
  0
ATTDEF
  5
143
330
131
100
AcDbEntity
  8
AM_6
100
AcDbText
 10
1.656999999999999
 20
-1.296874999999999
 30
0.0
 40
0.5
  1
7.390625
100
AcDbAttributeDefinition
  3

  2
C1
 70
     8
280
     0
  0
ATTDEF
  5
144
330
131
100
AcDbEntity
  8
AM_6
100
AcDbText
 10
1.656999999999999
 20
-1.796874999999999
 30
0.0
 40
0.5
  1
2.862
100
AcDbAttributeDefinition
  3

  2
D
 70
     8
280
     0
  0
ATTDEF
  5
145
330
131
100
AcDbEntity
  8
AM_6
100
AcDbText
 10
1.656999999999999
 20
-2.296874999999999
 30
0.0
 40
0.5
  1
11-13/32
100
AcDbAttributeDefinition
  3

  2
E
 70
     8
280
     0
  0
ATTDEF
  5
146
330
131
100
AcDbEntity
  8
AM_6
100
AcDbText
 10
1.656999999999999
 20
-2.796874999999999
 30
0.0
 40
0.5
  1
0.3750
100
AcDbAttributeDefinition
  3

  2
NDM
 70
     8
280
     0
  0
ATTDEF
  5
147
330
131
100
AcDbEntity
  8
AM_6
100
AcDbText
 10
1.656999999999999
 20
-3.296874999999999
 30
0.0
 40
0.5
  1
0.3070
100
AcDbAttributeDefinition
  3

  2
KDM
 70
     8
280
     0
  0
ATTDEF
  5
148
330
131
100
AcDbEntity
  8
AM_6
100
AcDbText
 10
1.656999999999999
 20
-3.796874999999999
 30
0.0
 40
0.5
  1
10.00
100
AcDbAttributeDefinition
  3

  2
AL
 70
     8
280
     0
  0
ATTDEF
  5
149
330
131
100
AcDbEntity
  8
AM_6
100
AcDbText
 10
1.656999999999999
 20
-4.296874999999999
 30
0.0
 40
0.5
  1
0.81
100
AcDbAttributeDefinition
  3

  2
BL
 70
     8
280
     0
  0
ATTDEF
  5
14A
330
131
100
AcDbEntity
  8
AM_6
100
AcDbText
 10
1.656999999999999
 20
-4.796874999999999
 30
0.0
 40
0.5
  1
0.07
100
AcDbAttributeDefinition
  3

  2
CL
 70
     8
280
     0
  0
ATTDEF
  5
14B
330
131
100
AcDbEntity
  8
AM_6
100
AcDbText
 10
1.656999999999999
 20
-5.296874999999999
 30
0.0
 40
0.5
  1
1.12
100
AcDbAttributeDefinition
  3

  2
DL
 70
     8
280
     0
  0
ATTDEF
  5
14C
330
131
100
AcDbEntity
  8
AM_6
100
AcDbText
 10
1.656999999999999
 20
-5.796874999999999
 30
0.0
 40
0.5
  1
baldor
100
AcDbAttributeDefinition
  3

  2
COMPANY
 70
     8
280
     0
  0
LINE
  5
14D
330
131
100
AcDbEntity
  8
AM_9
100
AcDbLine
 10
-4.393000000000001
 20
3.413257198091292
 30
0.0
 11
-4.463000000000001
 21
3.413257198091292
 31
0.0
  0
LINE
  5
14E
330
131
100
AcDbEntity
  8
AM_9
100
AcDbLine
 10
-3.343000000000001
 20
3.32112790124133
 30
0.0
 11
-4.393000000000001
 21
3.32112790124133
 31
0.0
  0
LINE
  5
14F
330
131
100
AcDbEntity
  8
AM_9
100
AcDbLine
 10
-3.343000000000001
 20
3.150668312643592
 30
0.0
 11
-3.343000000000001
 21
3.47611469134919
 31
0.0
  0
LINE
  5
150
330
131
100
AcDbEntity
  8
AM_9
100
AcDbLine
 10
-3.343000000000001
 20
3.150668312643592
 30
0.0
 11
-4.463000000000001
 21
3.150668312643592
 31
0.0
  0
LINE
  5
151
330
131
100
AcDbEntity
  8
AM_9
100
AcDbLine
 10
-4.393000000000001
 20
3.476114691349191
 30
0.0
 11
-3.343000000000001
 21
3.47611469134919
 31
0.0
  0
LINE
  5
152
330
131
100
AcDbEntity
  8
AM_9
100
AcDbLine
 10
-3.343000000000001
 20
3.305655102751454
 30
0.0
 11
-4.463000000000001
 21
3.305655102751454
 31
0.0
  0
LINE
  5
153
330
131
100
AcDbEntity
  8
AM_9
100
AcDbLine
 10
-4.393000000000001
 20
3.568243988199153
 30
0.0
 11
-4.463000000000001
 21
3.568243988199153
 31
0.0
  0
LINE
  5
154
330
131
100
AcDbEntity
  8
AM_9
100
AcDbLine
 10
-4.393000000000001
 20
4.796006944444444
 30
0.0
 11
-4.463000000000001
 21
4.796006944444445
 31
0.0
  0
LINE
  5
155
330
131
100
AcDbEntity
  8
AM_9
100
AcDbLine
 10
-4.393000000000001
 20
4.983542790782245
 30
0.0
 11
-4.463000000000001
 21
4.983542790782245
 31
0.0
  0
LINE
  5
156
330
131
100
AcDbEntity
  8
AM_9
100
AcDbLine
 10
-4.393000000000001
 20
-4.796006944444446
 30
0.0
 11
-4.463000000000001
 21
-4.796006944444446
 31
0.0
  0
LINE
  5
157
330
131
100
AcDbEntity
  8
AM_9
100
AcDbLine
 10
-4.463000000000001
 20
-4.983542790782245
 30
0.0
 11
-4.393000000000001
 21
-4.983542790782245
 31
0.0
  0
LINE
  5
158
330
131
100
AcDbEntity
  8
AM_9
100
AcDbLine
 10
-4.393000000000001
 20
3.779135281043156
 30
0.0
 11
-4.463000000000001
 21
3.779135281043156
 31
0.0
  0
LINE
  5
159
330
131
100
AcDbEntity
  8
AM_9
100
AcDbLine
 10
-4.393000000000001
 20
-3.779135281043157
 30
0.0
 11
-4.463000000000001
 21
-3.779135281043156
 31
0.0
  0
LINE
  5
15A
330
131
100
AcDbEntity
  8
AM_9
100
AcDbLine
 10
-4.393000000000001
 20
2.804834705719423
 30
0.0
 11
-4.463000000000001
 21
2.804834705719421
 31
0.0
  0
LINE
  5
15B
330
131
100
AcDbEntity
  8
AM_9
100
AcDbLine
 10
-4.393000000000001
 20
-2.804834705719421
 30
0.0
 11
-4.463000000000001
 21
-2.804834705719421
 31
0.0
  0
LINE
  5
15C
330
131
100
AcDbEntity
  8
AM_9
100
AcDbLine
 10
-4.393000000000001
 20
-2.539669662774467
 30
0.0
 11
-4.463000000000001
 21
-2.539669662774467
 31
0.0
  0
LINE
  5
15D
330
131
100
AcDbEntity
  8
AM_9
100
AcDbLine
 10
-4.393000000000001
 20
2.539669662774466
 30
0.0
 11
-4.463000000000001
 21
2.539669662774466
 31
0.0
  0
LINE
  5
15E
330
131
100
AcDbEntity
  8
AM_9
100
AcDbLine
 10
-4.393000000000001
 20
-3.258706511561962
 30
0.0
 11
-4.463000000000001
 21
-3.258706511561962
 31
0.0
  0
LINE
  5
15F
330
131
100
AcDbEntity
  8
AM_9
100
AcDbLine
 10
-4.393000000000001
 20
-3.523871554506937
 30
0.0
 11
-4.463000000000001
 21
-3.523871554506937
 31
0.0
  0
LINE
  5
160
330
131
100
AcDbEntity
  8
AM_9
100
AcDbLine
 10
-4.463000000000001
 20
-3.578814381226403
 30
0.0
 11
-4.393000000000001
 21
-3.578814381226403
 31
0.0
  0
LINE
  5
161
330
131
100
AcDbEntity
  8
AM_9
100
AcDbLine
 10
-4.393000000000001
 20
3.523871554506918
 30
0.0
 11
-4.463000000000001
 21
3.523871554506918
 31
0.0
  0
LINE
  5
162
330
131
100
AcDbEntity
  8
AM_9
100
AcDbLine
 10
-4.393000000000001
 20
3.258706511561963
 30
0.0
 11
-4.463000000000001
 21
3.258706511561963
 31
0.0
  0
LINE
  5
163
330
131
100
AcDbEntity
  8
AM_9
100
AcDbLine
 10
-4.393000000000001
 20
3.578814381226405
 30
0.0
 11
-4.463000000000001
 21
3.578814381226405
 31
0.0
  0
LINE
  5
164
330
131
100
AcDbEntity
  8
AM_9
100
AcDbLine
 10
-4.393000000000001
 20
0.1875000000000007
 30
0.0
 11
-4.463
 21
0.1875000000000007
 31
0.0
  0
LINE
  5
165
330
131
100
AcDbEntity
  8
AM_9
100
AcDbLine
 10
-4.393000000000001
 20
-0.1875000000000001
 30
0.0
 11
-4.463
 21
-0.1875000000000001
 31
0.0
  0
LINE
  5
166
330
131
100
AcDbEntity
  8
AM_4
100
AcDbLine
 10
-4.393000000000001
 20
5.703125000000001
 30
0.0
 11
-4.463000000000001
 21
5.703125000000001
 31
0.0
  0
LINE
  5
167
330
131
100
AcDbEntity
  8
AM_4
100
AcDbLine
 10
-4.463000000000001
 20
-5.703125000000001
 30
0.0
 11
-4.393000000000001
 21
-5.703125000000001
 31
0.0
  0
LINE
  5
168
330
131
100
AcDbEntity
  8
AM_4
100
AcDbLine
 10
-4.463000000000001
 20
5.703125000000001
 30
0.0
 11
-4.463000000000001
 21
-5.703125000000001
 31
0.0
  0
LINE
  5
169
330
131
100
AcDbEntity
  8
AM_4
100
AcDbLine
 10
-4.393000000000001
 20
5.703125000000001
 30
0.0
 11
-4.393000000000001
 21
-5.703125000000001
 31
0.0
  0
ENDBLK
  5
134
330
131
100
AcDbEntity
  8
0
100
AcDbBlockEnd
  0
BLOCK
  5
16C
330
16A
100
AcDbEntity
  8
0
100
AcDbBlockBegin
  2
6_037940E_0_in_071617_2
 70
     2
 10
0.0
 20
0.0
 30
0.0
  3
6_037940E_0_in_071617_2
  1

  0
ATTDEF
  5
16E
330
16A
100
AcDbEntity
  8
AM_6
100
AcDbText
 10
7.486625000000003
 20
6.2992
 30
0.0
 40
0.5
  1
Imperial/E Insert -Inch
100
AcDbAttributeDefinition
  3

  2
NN
 70
     8
280
     0
  0
ATTDEF
  5
16F
330
16A
100
AcDbEntity
  8
AM_6
100
AcDbText
 10
7.486625000000003
 20
5.7992
 30
0.0
 40
0.5
  1
Imperial Bearings
100
AcDbAttributeDefinition
  3

  2
NT
 70
     8
280
     0
  0
ATTDEF
  5
170
330
16A
100
AcDbEntity
  8
AM_6
100
AcDbText
 10
7.486625000000003
 20
5.2992
 30
0.0
 40
0.5
  1
037940E
100
AcDbAttributeDefinition
  3

  2
NB
 70
     8
280
     0
  0
ATTDEF
  5
171
330
16A
100
AcDbEntity
  8
AM_6
100
AcDbText
 10
7.486625000000003
 20
4.7992
 30
0.0
 40
0.5
  1
$PN.
100
AcDbAttributeDefinition
  3

  2
NBSYN
 70
     8
280
     0
  0
ATTDEF
  5
172
330
16A
100
AcDbEntity
  8
AM_6
100
AcDbText
 10
7.486625000000003
 20
4.2992
 30
0.0
 40
0.5
  1
037940E
100
AcDbAttributeDefinition
  3

  2
LINA
 70
     8
280
     0
  0
ATTDEF
  5
173
330
16A
100
AcDbEntity
  8
AM_6
100
AcDbText
 10
7.486625000000003
 20
3.7992
 30
0.0
 40
0.5
  1
7
100
AcDbAttributeDefinition
  3

  2
SS
 70
     8
280
     0
  0
ATTDEF
  5
174
330
16A
100
AcDbEntity
  8
AM_6
100
AcDbText
 10
7.486625000000003
 20
3.2992
 30
0.0
 40
0.5
  1
7.000000
100
AcDbAttributeDefinition
  3

  2
SS1
 70
     8
280
     0
  0
ATTDEF
  5
175
330
16A
100
AcDbEntity
  8
AM_6
100
AcDbText
 10
7.486625000000003
 20
2.7992
 30
0.0
 40
0.5
  1
037940E
100
AcDbAttributeDefinition
  3

  2
PN
 70
     8
280
     0
  0
ATTDEF
  5
176
330
16A
100
AcDbEntity
  8
AM_6
100
AcDbText
 10
7.486625000000003
 20
2.2992
 30
0.0
 40
0.5
  1
INS-IP-700L
100
AcDbAttributeDefinition
  3

  2
DESCRIPTION
 70
     8
280
     0
  0
ATTDEF
  5
177
330
16A
100
AcDbEntity
  8
AM_6
100
AcDbText
 10
7.486625000000003
 20
1.7992
 30
0.0
 40
0.5
  1
Contact Seal
100
AcDbAttributeDefinition
  3

  2
ST
 70
     8
280
     0
  0
ATTDEF
  5
178
330
16A
100
AcDbEntity
  8
AM_6
100
AcDbText
 10
7.486625000000003
 20
1.2992
 30
0.0
 40
0.5
  1
2
100
AcDbAttributeDefinition
  3

  2
ST1
 70
     8
280
     0
  0
ATTDEF
  5
179
330
16A
100
AcDbEntity
  8
AM_6
100
AcDbText
 10
7.486625000000003
 20
0.7991999999999999
 30
0.0
 40
0.5
  1
12.5984
100
AcDbAttributeDefinition
  3

  2
A
 70
     8
280
     0
  0
ATTDEF
  5
17A
330
16A
100
AcDbEntity
  8
AM_6
100
AcDbText
 10
7.486625000000003
 20
0.2991999999999999
 30
0.0
 40
0.5
  1
3-15/32
100
AcDbAttributeDefinition
  3

  2
B
 70
     8
280
     0
  0
ATTDEF
  5
17B
330
16A
100
AcDbEntity
  8
AM_6
100
AcDbText
 10
7.486625000000003
 20
-0.2008000000000001
 30
0.0
 40
0.5
  1
3.468750
100
AcDbAttributeDefinition
  3

  2
B1
 70
     8
280
     0
  0
ATTDEF
  5
17C
330
16A
100
AcDbEntity
  8
AM_6
100
AcDbText
 10
7.486625000000003
 20
-0.7008000000000001
 30
0.0
 40
0.5
  1
7-25/64
100
AcDbAttributeDefinition
  3

  2
C
 70
     8
280
     0
  0
ATTDEF
  5
17D
330
16A
100
AcDbEntity
  8
AM_6
100
AcDbText
 10
7.486625000000003
 20
-1.2008
 30
0.0
 40
0.5
  1
7.390625
100
AcDbAttributeDefinition
  3

  2
C1
 70
     8
280
     0
  0
ATTDEF
  5
17E
330
16A
100
AcDbEntity
  8
AM_6
100
AcDbText
 10
7.486625000000003
 20
-1.7008
 30
0.0
 40
0.5
  1
7.39063
100
AcDbAttributeDefinition
  3

  2
CR
 70
     8
280
     0
  0
ATTDEF
  5
17F
330
16A
100
AcDbEntity
  8
AM_6
100
AcDbText
 10
7.486625000000003
 20
-2.2008
 30
0.0
 40
0.5
  1
2.862
100
AcDbAttributeDefinition
  3

  2
D
 70
     8
280
     0
  0
ATTDEF
  5
180
330
16A
100
AcDbEntity
  8
AM_6
100
AcDbText
 10
7.486625000000003
 20
-2.7008
 30
0.0
 40
0.5
  1
11-13/32
100
AcDbAttributeDefinition
  3

  2
E
 70
     8
280
     0
  0
ATTDEF
  5
181
330
16A
100
AcDbEntity
  8
AM_6
100
AcDbText
 10
7.486625000000003
 20
-3.2008
 30
0.0
 40
0.5
  1
11.406250
100
AcDbAttributeDefinition
  3

  2
E1
 70
     8
280
     0
  0
ATTDEF
  5
182
330
16A
100
AcDbEntity
  8
AM_6
100
AcDbText
 10
7.486625000000003
 20
-3.7008
 30
0.0
 40
0.5
  1
0.3750
100
AcDbAttributeDefinition
  3

  2
NDM
 70
     8
280
     0
  0
ATTDEF
  5
183
330
16A
100
AcDbEntity
  8
AM_6
100
AcDbText
 10
7.486625000000003
 20
-4.2008
 30
0.0
 40
0.5
  1
0.3070
100
AcDbAttributeDefinition
  3

  2
KDM
 70
     8
280
     0
  0
ATTDEF
  5
184
330
16A
100
AcDbEntity
  8
AM_6
100
AcDbText
 10
7.486625000000003
 20
-4.7008
 30
0.0
 40
0.5
  1
10.00
100
AcDbAttributeDefinition
  3

  2
AL
 70
     8
280
     0
  0
ATTDEF
  5
185
330
16A
100
AcDbEntity
  8
AM_6
100
AcDbText
 10
7.486625000000003
 20
-5.2008
 30
0.0
 40
0.5
  1
0.81
100
AcDbAttributeDefinition
  3

  2
BL
 70
     8
280
     0
  0
ATTDEF
  5
186
330
16A
100
AcDbEntity
  8
AM_6
100
AcDbText
 10
7.486625000000003
 20
-5.7008
 30
0.0
 40
0.5
  1
0.07
100
AcDbAttributeDefinition
  3

  2
CL
 70
     8
280
     0
  0
ATTDEF
  5
187
330
16A
100
AcDbEntity
  8
AM_6
100
AcDbText
 10
7.486625000000003
 20
-6.2008
 30
0.0
 40
0.5
  1
1.12
100
AcDbAttributeDefinition
  3

  2
DL
 70
     8
280
     0
  0
ATTDEF
  5
188
330
16A
100
AcDbEntity
  8
AM_6
100
AcDbText
 10
7.486625000000003
 20
-6.7008
 30
0.0
 40
0.5
  1
1.2500
100
AcDbAttributeDefinition
  3

  2
LL
 70
     8
280
     0
  0
ATTDEF
  5
189
330
16A
100
AcDbEntity
  8
AM_6
100
AcDbText
 10
7.486625000000003
 20
-7.2008
 30
0.0
 40
0.5
  1
0.036
100
AcDbAttributeDefinition
  3

  2
Y
 70
     8
280
     0
  0
ATTDEF
  5
18A
330
16A
100
AcDbEntity
  8
AM_6
100
AcDbText
 10
7.486625000000003
 20
-7.7008
 30
0.0
 40
0.5
  1
0.036000
100
AcDbAttributeDefinition
  3

  2
Y1
 70
     8
280
     0
  0
ATTDEF
  5
18B
330
16A
100
AcDbEntity
  8
AM_6
100
AcDbText
 10
7.486625000000003
 20
-8.200800000000001
 30
0.0
 40
0.5
  1
7-7/8
100
AcDbAttributeDefinition
  3

  2
Z
 70
     8
280
     0
  0
ATTDEF
  5
18C
330
16A
100
AcDbEntity
  8
AM_6
100
AcDbText
 10
7.486625000000003
 20
-8.700800000000001
 30
0.0
 40
0.5
  1
7.875000
100
AcDbAttributeDefinition
  3

  2
Z1
 70
     8
280
     0
  0
ATTDEF
  5
18D
330
16A
100
AcDbEntity
  8
AM_6
100
AcDbText
 10
7.486625000000003
 20
-9.200800000000001
 30
0.0
 40
0.5
  1
0.00000
100
AcDbAttributeDefinition
  3

  2
P1
 70
     8
280
     0
  0
ATTDEF
  5
18E
330
16A
100
AcDbEntity
  8
AM_6
100
AcDbText
 10
7.486625000000003
 20
-9.700800000000001
 30
0.0
 40
0.5
  1
0.00000
100
AcDbAttributeDefinition
  3

  2
H1
 70
     8
280
     0
  0
ATTDEF
  5
18F
330
16A
100
AcDbEntity
  8
AM_6
100
AcDbText
 10
7.486625000000003
 20
-10.2008
 30
0.0
 40
0.5
  1
0.00000
100
AcDbAttributeDefinition
  3

  2
G1
 70
     8
280
     0
  0
ATTDEF
  5
190
330
16A
100
AcDbEntity
  8
AM_6
100
AcDbText
 10
7.486625000000003
 20
-10.7008
 30
0.0
 40
0.5
  1
0.19900
100
AcDbAttributeDefinition
  3

  2
CW
 70
     8
280
     0
  0
ATTDEF
  5
191
330
16A
100
AcDbEntity
  8
AM_6
100
AcDbText
 10
7.486625000000003
 20
-11.2008
 30
0.0
 40
0.5
  1
11.41000
100
AcDbAttributeDefinition
  3

  2
L1
 70
     8
280
     0
  0
ATTDEF
  5
192
330
16A
100
AcDbEntity
  8
AM_6
100
AcDbText
 10
7.486625000000003
 20
-11.7008
 30
0.0
 40
0.5
  1
baldor
100
AcDbAttributeDefinition
  3

  2
COMPANY
 70
     8
280
     0
  0
LINE
  5
193
330
16A
100
AcDbEntity
  8
AM_9
100
AcDbLine
 10
1.322999999999999
 20
3.485109167073181
 30
0.0
 11
-4.393000000000001
 21
3.485109167073181
 31
0.0
  0
LINE
  5
194
330
16A
100
AcDbEntity
  8
AM_9
100
AcDbLine
 10
1.322999999999999
 20
3.330122376965319
 30
0.0
 11
-4.393000000000001
 21
3.330122376965319
 31
0.0
  0
LINE
  5
195
330
16A
100
AcDbEntity
  8
AM_9
100
AcDbLine
 10
-3.0805
 20
4.796006944444445
 30
0.0
 11
-3.169209868860986
 21
4.949656944444444
 31
0.0
  0
LINE
  5
196
330
16A
100
AcDbEntity
  8
AM_9
100
AcDbLine
 10
-3.169209868860986
 20
4.642356944444445
 30
0.0
 11
-3.0805
 21
4.796006944444445
 31
0.0
  0
LINE
  5
197
330
16A
100
AcDbEntity
  8
AM_9
100
AcDbLine
 10
-3.080500000000003
 20
-4.796006944444445
 30
0.0
 11
-3.169209868860965
 21
-4.642356944444445
 31
0.0
  0
LINE
  5
198
330
16A
100
AcDbEntity
  8
AM_9
100
AcDbLine
 10
-3.169209868860965
 20
-4.949656944444444
 30
0.0
 11
-3.080500000000003
 21
-4.796006944444445
 31
0.0
  0
LINE
  5
199
330
16A
100
AcDbEntity
  8
AM_9
100
AcDbLine
 10
-3.169209868860986
 20
4.642356944444445
 30
0.0
 11
-3.169209868860986
 21
4.949656944444444
 31
0.0
  0
LINE
  5
19A
330
16A
100
AcDbEntity
  8
AM_9
100
AcDbLine
 10
-3.169209868860986
 20
4.949656944444444
 30
0.0
 11
-4.35915
 21
4.949656944444444
 31
0.0
  0
LINE
  5
19B
330
16A
100
AcDbEntity
  8
AM_9
100
AcDbLine
 10
-4.35915
 20
4.642356944444445
 30
0.0
 11
-3.169209868860986
 21
4.642356944444445
 31
0.0
  0
LINE
  5
19C
330
16A
100
AcDbEntity
  8
AM_9
100
AcDbLine
 10
-4.359150000000001
 20
-4.949656944444444
 30
0.0
 11
-3.169209868860965
 21
-4.949656944444444
 31
0.0
  0
LINE
  5
19D
330
16A
100
AcDbEntity
  8
AM_9
100
AcDbLine
 10
-3.169209868860965
 20
-4.642356944444445
 30
0.0
 11
-4.359150000000001
 21
-4.642356944444445
 31
0.0
  0
LINE
  5
19E
330
16A
100
AcDbEntity
  8
AM_9
100
AcDbLine
 10
-3.169209868860965
 20
-4.642356944444445
 30
0.0
 11
-3.169209868860965
 21
-4.949656944444444
 31
0.0
  0
LINE
  5
19F
330
16A
100
AcDbEntity
  8
AM_9
100
AcDbLine
 10
-4.35915
 20
4.642356944444445
 30
0.0
 11
-4.35915
 21
4.949656944444444
 31
0.0
  0
LINE
  5
1A0
330
16A
100
AcDbEntity
  8
AM_9
100
AcDbLine
 10
-4.35915
 20
4.949656944444444
 30
0.0
 11
-4.393000000000001
 21
4.983506944444445
 31
0.0
  0
LINE
  5
1A1
330
16A
100
AcDbEntity
  8
AM_9
100
AcDbLine
 10
-4.393000000000001
 20
4.608506944444446
 30
0.0
 11
-4.35915
 21
4.642356944444445
 31
0.0
  0
LINE
  5
1A2
330
16A
100
AcDbEntity
  8
AM_9
100
AcDbLine
 10
-4.359150000000001
 20
-4.642356944444445
 30
0.0
 11
-4.393000000000003
 21
-4.608506944444446
 31
0.0
  0
LINE
  5
1A3
330
16A
100
AcDbEntity
  8
AM_9
100
AcDbLine
 10
-4.393000000000003
 20
-4.983506944444445
 30
0.0
 11
-4.359150000000001
 21
-4.949656944444444
 31
0.0
  0
LINE
  5
1A4
330
16A
100
AcDbEntity
  8
AM_9
100
AcDbLine
 10
-4.359150000000001
 20
-4.642356944444445
 30
0.0
 11
-4.359150000000001
 21
-4.949656944444444
 31
0.0
  0
LINE
  5
1A5
330
16A
100
AcDbEntity
  8
AM_9
100
AcDbLine
 10
1.322999999999999
 20
3.305655102751453
 30
0.0
 11
-4.94
 21
3.305655102751454
 31
0.0
  0
LINE
  5
1A6
330
16A
100
AcDbEntity
  8
AM_9
100
AcDbLine
 10
-4.94
 20
3.150668312643592
 30
0.0
 11
1.322999999999999
 21
3.150668312643591
 31
0.0
  0
LINE
  5
1A7
330
16A
100
AcDbEntity
  8
AM_9
100
AcDbLine
 10
1.323
 20
3.499999999999999
 30
0.0
 11
-4.940000000000001
 21
3.499999999999999
 31
0.0
  0
LINE
  5
1A8
330
16A
100
AcDbEntity
  8
AM_9
100
AcDbLine
 10
-4.940000000000001
 20
-3.499999999999999
 30
0.0
 11
1.323
 21
-3.499999999999999
 31
0.0
  0
LINE
  5
1A9
330
16A
100
AcDbEntity
  8
AM_9
100
AcDbLine
 10
2.450624999999999
 20
3.684210526315789
 30
0.0
 11
1.323
 21
3.684210526315789
 31
0.0
  0
LINE
  5
1AA
330
16A
100
AcDbEntity
  8
AM_9
100
AcDbLine
 10
1.323
 20
-3.684210526315789
 30
0.0
 11
2.450624999999999
 21
-3.684210526315789
 31
0.0
  0
LINE
  5
1AB
330
16A
100
AcDbEntity
  8
AM_9
100
AcDbLine
 10
-4.94
 20
3.47611469134919
 30
0.0
 11
-4.393000000000001
 21
3.47611469134919
 31
0.0
  0
LINE
  5
1AC
330
16A
100
AcDbEntity
  8
AM_9
100
AcDbLine
 10
-4.393000000000001
 20
3.321127901241329
 30
0.0
 11
-4.94
 21
3.321127901241329
 31
0.0
  0
LINE
  5
1AD
330
16A
100
AcDbEntity
  8
AM_9
100
AcDbLine
 10
-4.393000000000001
 20
3.684210526315789
 30
0.0
 11
-4.463000000000001
 21
3.684210526315789
 31
0.0
  0
LINE
  5
1AE
330
16A
100
AcDbEntity
  8
AM_9
100
AcDbLine
 10
-4.463000000000001
 20
-3.684210526315789
 30
0.0
 11
-4.393000000000001
 21
-3.684210526315789
 31
0.0
  0
LINE
  5
1AF
330
16A
100
AcDbEntity
  8
AM_9
100
AcDbLine
 10
-3.273
 20
-3.249155659552186
 30
0.0
 11
-4.393000000000001
 21
-3.249155659552186
 31
0.0
  0
LINE
  5
1B0
330
16A
100
AcDbEntity
  8
AM_9
100
AcDbLine
 10
-3.273
 20
-3.82191215231329
 30
0.0
 11
-3.56
 21
-3.82191215231329
 31
0.0
  0
LINE
  5
1B1
330
16A
100
AcDbEntity
  8
AM_9
100
AcDbLine
 10
-3.273
 20
3.249155659552183
 30
0.0
 11
-4.393000000000001
 21
3.249155659552183
 31
0.0
  0
LINE
  5
1B2
330
16A
100
AcDbEntity
  8
AM_9
100
AcDbLine
 10
2.450624999999999
 20
-3.9375
 30
0.0
 11
2.450624999999999
 21
3.9375
 31
0.0
  0
LINE
  5
1B3
330
16A
100
AcDbEntity
  8
AM_9
100
AcDbLine
 10
2.486625000000003
 20
3.9375
 30
0.0
 11
2.450624999999999
 21
3.9375
 31
0.0
  0
LINE
  5
1B4
330
16A
100
AcDbEntity
  8
AM_9
100
AcDbLine
 10
2.450624999999999
 20
-3.9375
 30
0.0
 11
2.486625000000003
 21
-3.9375
 31
0.0
  0
LINE
  5
1B5
330
16A
100
AcDbEntity
  8
AM_9
100
AcDbLine
 10
-3.273
 20
3.750017448406221
 30
0.0
 11
-3.273
 21
3.249155659552183
 31
0.0
  0
LINE
  5
1B6
330
16A
100
AcDbEntity
  8
AM_9
100
AcDbLine
 10
2.486625000000003
 20
5.25
 30
0.0
 11
2.016749999999999
 21
5.25
 31
0.0
  0
LINE
  5
1B7
330
16A
100
AcDbEntity
  8
AM_9
100
AcDbLine
 10
2.016749999999999
 20
-5.25
 30
0.0
 11
2.486625000000003
 21
-5.25
 31
0.0
  0
LINE
  5
1B8
330
16A
100
AcDbEntity
  8
AM_9
100
AcDbLine
 10
2.486625000000003
 20
-5.25
 30
0.0
 11
2.486625000000003
 21
5.25
 31
0.0
  0
LINE
  5
1B9
330
16A
100
AcDbEntity
  8
AM_9
100
AcDbLine
 10
2.016749999999999
 20
-5.640928223830733
 30
0.0
 11
2.016749999999999
 21
5.640928223830733
 31
0.0
  0
ARC
  5
1BA
330
16A
100
AcDbEntity
  8
AM_9
100
AcDbCircle
 10
1.916750000000001
 20
5.640928223830736
 30
0.0
 40
0.0999999999999979
100
AcDbArc
 50
0.0
 51
60.00000000000047
  0
ARC
  5
1BB
330
16A
100
AcDbEntity
  8
AM_9
100
AcDbCircle
 10
1.916750000000001
 20
-5.640928223830736
 30
0.0
 40
0.099999999999998
100
AcDbArc
 50
299.9999999999995
 51
0.0
  0
LINE
  5
1BC
330
16A
100
AcDbEntity
  8
AM_9
100
AcDbLine
 10
-3.342995996503705
 20
-3.74915134403527
 30
0.0
 11
-3.273
 21
-3.750017448406224
 31
0.0
  0
LINE
  5
1BD
330
16A
100
AcDbEntity
  8
AM_9
100
AcDbLine
 10
-3.273
 20
-3.249155659552186
 30
0.0
 11
-3.273
 21
-4.322773941167328
 31
0.0
  0
LINE
  5
1BE
330
16A
100
AcDbEntity
  8
AM_9
100
AcDbLine
 10
-3.273
 20
-4.322773941167328
 30
0.0
 11
-3.560000000564261
 21
-4.319222704212053
 31
0.0
  0
LINE
  5
1BF
330
16A
100
AcDbEntity
  8
AM_9
100
AcDbLine
 10
-3.56
 20
-5.717665069085204
 30
0.0
 11
-2.194877379678137
 21
-5.741493373057903
 31
0.0
  0
LINE
  5
1C0
330
16A
100
AcDbEntity
  8
AM_9
100
AcDbLine
 10
-2.194877379678137
 20
5.741493373057903
 30
0.0
 11
-3.203999999999999
 21
5.723879072199651
 31
0.0
  0
ARC
  5
1C1
330
16A
100
AcDbEntity
  8
AM_9
100
AcDbCircle
 10
-2.195750000000002
 20
5.791485757815724
 30
0.0
 40
0.0500000000000012
100
AcDbArc
 50
271.0000000000006
 51
0.0
  0
ARC
  5
1C2
330
16A
100
AcDbEntity
  8
AM_9
100
AcDbCircle
 10
-2.195750000000002
 20
-5.791485757815724
 30
0.0
 40
0.0500000000000016
100
AcDbArc
 50
0.0
 51
88.99999999999937
  0
LINE
  5
1C3
330
16A
100
AcDbEntity
  8
AM_9
100
AcDbLine
 10
-2.194877379678137
 20
-5.741493373057903
 30
0.0
 11
-2.194877379678137
 21
5.741493373057903
 31
0.0
  0
LINE
  5
1C4
330
16A
100
AcDbEntity
  8
AM_9
100
AcDbLine
 10
1.96675
 20
5.727530764209178
 30
0.0
 11
1.323
 21
6.099199999999999
 31
0.0
  0
LINE
  5
1C5
330
16A
100
AcDbEntity
  8
AM_9
100
AcDbLine
 10
1.323
 20
-6.099199999999999
 30
0.0
 11
1.96675
 21
-5.727530764209178
 31
0.0
  0
LINE
  5
1C6
330
16A
100
AcDbEntity
  8
AM_9
100
AcDbLine
 10
1.96675
 20
-5.727530764209178
 30
0.0
 11
1.96675
 21
5.727530764209178
 31
0.0
  0
LINE
  5
1C7
330
16A
100
AcDbEntity
  8
AM_9
100
AcDbLine
 10
-0.3312408126874247
 20
6.1257625
 30
0.0
 11
-0.5315091873125758
 21
6.1257625
 31
0.0
  0
LINE
  5
1C8
330
16A
100
AcDbEntity
  8
AM_9
100
AcDbLine
 10
-0.5315091873125758
 20
-6.1257625
 30
0.0
 11
-0.3312408126874247
 21
-6.1257625
 31
0.0
  0
LINE
  5
1C9
330
16A
100
AcDbEntity
  8
AM_9
100
AcDbLine
 10
1.272999999999999
 20
6.299199999999999
 30
0.0
 11
-0.2311066253748487
 21
6.299199999999999
 31
0.0
  0
LINE
  5
1CA
330
16A
100
AcDbEntity
  8
AM_9
100
AcDbLine
 10
-0.2311066253748487
 20
-6.299199999999999
 30
0.0
 11
1.272999999999999
 21
-6.299199999999999
 31
0.0
  0
LINE
  5
1CB
330
16A
100
AcDbEntity
  8
AM_9
100
AcDbLine
 10
-0.3312408126874247
 20
-6.1257625
 30
0.0
 11
-0.2311066253748487
 21
-6.299199999999999
 31
0.0
  0
LINE
  5
1CC
330
16A
100
AcDbEntity
  8
AM_9
100
AcDbLine
 10
-0.2311066253748487
 20
6.299199999999999
 30
0.0
 11
-0.3312408126874247
 21
6.1257625
 31
0.0
  0
LINE
  5
1CD
330
16A
100
AcDbEntity
  8
AM_9
100
AcDbLine
 10
-0.2311066253748487
 20
-6.299199999999999
 30
0.0
 11
-0.2311066253748487
 21
6.299199999999999
 31
0.0
  0
LINE
  5
1CE
330
16A
100
AcDbEntity
  8
AM_9
100
AcDbLine
 10
-0.3312408126874247
 20
-6.1257625
 30
0.0
 11
-0.3312408126874247
 21
6.1257625
 31
0.0
  0
LINE
  5
1CF
330
16A
100
AcDbEntity
  8
AM_9
100
AcDbLine
 10
-2.14575
 20
-6.289199999999996
 30
0.0
 11
-2.14575
 21
6.289199999999996
 31
0.0
  0
ARC
  5
1D0
330
16A
100
AcDbEntity
  8
AM_9
100
AcDbCircle
 10
-2.135750000000003
 20
6.289200000000001
 30
0.0
 40
0.009999999999998
100
AcDbArc
 50
90.0
 51
180.0
  0
ARC
  5
1D1
330
16A
100
AcDbEntity
  8
AM_9
100
AcDbCircle
 10
-2.135750000000003
 20
-6.289200000000001
 30
0.0
 40
0.0099999999999976
100
AcDbArc
 50
180.0
 51
270.0
  0
LINE
  5
1D2
330
16A
100
AcDbEntity
  8
AM_9
100
AcDbLine
 10
1.322999999999999
 20
-6.249200000000001
 30
0.0
 11
1.322999999999999
 21
6.249200000000001
 31
0.0
  0
ARC
  5
1D3
330
16A
100
AcDbEntity
  8
AM_9
100
AcDbCircle
 10
1.273000000000001
 20
6.249200000000002
 30
0.0
 40
0.0499999999999978
100
AcDbArc
 50
0.0
 51
90.0
  0
ARC
  5
1D4
330
16A
100
AcDbEntity
  8
AM_9
100
AcDbCircle
 10
1.273
 20
-6.2492
 30
0.0
 40
0.0499999999999989
100
AcDbArc
 50
270.0
 51
0.0
  0
LINE
  5
1D5
330
16A
100
AcDbEntity
  8
AM_9
100
AcDbLine
 10
1.272999999999999
 20
-6.299199999999999
 30
0.0
 11
1.272999999999999
 21
6.299199999999999
 31
0.0
  0
LINE
  5
1D6
330
16A
100
AcDbEntity
  8
AM_9
100
AcDbLine
 10
-0.6316433746251513
 20
6.299199999999999
 30
0.0
 11
-2.135750000000002
 21
6.299199999999999
 31
0.0
  0
LINE
  5
1D7
330
16A
100
AcDbEntity
  8
AM_9
100
AcDbLine
 10
-2.135750000000002
 20
-6.299199999999999
 30
0.0
 11
-0.6316433746251513
 21
-6.299199999999999
 31
0.0
  0
LINE
  5
1D8
330
16A
100
AcDbEntity
  8
AM_9
100
AcDbLine
 10
-2.135750000000002
 20
-6.299199999999999
 30
0.0
 11
-2.135750000000002
 21
6.299199999999999
 31
0.0
  0
LINE
  5
1D9
330
16A
100
AcDbEntity
  8
AM_9
100
AcDbLine
 10
-0.5315091873125758
 20
6.125762499999999
 30
0.0
 11
-0.6316433746251513
 21
6.299199999999999
 31
0.0
  0
LINE
  5
1DA
330
16A
100
AcDbEntity
  8
AM_9
100
AcDbLine
 10
-0.6316433746251513
 20
-6.299199999999999
 30
0.0
 11
-0.5315091873125758
 21
-6.125762499999999
 31
0.0
  0
LINE
  5
1DB
330
16A
100
AcDbEntity
  8
AM_9
100
AcDbLine
 10
-0.5315091873125758
 20
-6.125762499999999
 30
0.0
 11
-0.5315091873125758
 21
6.125762499999999
 31
0.0
  0
LINE
  5
1DC
330
16A
100
AcDbEntity
  8
AM_9
100
AcDbLine
 10
-0.6316433746251513
 20
-6.299199999999999
 30
0.0
 11
-0.6316433746251513
 21
6.299199999999999
 31
0.0
  0
LINE
  5
1DD
330
16A
100
AcDbEntity
  8
AM_5
100
AcDbLine
 10
-4.393000000000001
 20
4.983506944444445
 30
0.0
 11
-3.693
 21
4.983506944444445
 31
0.0
  0
LINE
  5
1DE
330
16A
100
AcDbEntity
  8
AM_5
100
AcDbLine
 10
-4.393000000000001
 20
4.608506944444445
 30
0.0
 11
-3.693
 21
4.608506944444445
 31
0.0
  0
LINE
  5
1DF
330
16A
100
AcDbEntity
  8
AM_5
100
AcDbLine
 10
-4.393000000000001
 20
-4.983506944444445
 30
0.0
 11
-3.692999999999997
 21
-4.983506944444445
 31
0.0
  0
LINE
  5
1E0
330
16A
100
AcDbEntity
  8
AM_5
100
AcDbLine
 10
-4.393000000000001
 20
-4.608506944444445
 30
0.0
 11
-3.692999999999997
 21
-4.608506944444445
 31
0.0
  0
LINE
  5
1E3
330
16A
100
AcDbEntity
  8
AM_7
100
AcDbLine
 10
-3.014875
 20
4.796006944444445
 30
0.0
 11
-4.734450000000001
 21
4.796006944444445
 31
0.0
  0
LINE
  5
1E4
330
16A
100
AcDbEntity
  8
AM_7
100
AcDbLine
 10
-3.014875000000003
 20
-4.796006944444445
 30
0.0
 11
-4.734450000000001
 21
-4.796006944444445
 31
0.0
  0
LINE
  5
1E5
330
16A
100
AcDbEntity
  8
AM_4
100
AcDbLine
 10
-4.463000000000001
 20
3.684210526315789
 30
0.0
 11
-4.94
 21
3.684210526315789
 31
0.0
  0
LINE
  5
1E6
330
16A
100
AcDbEntity
  8
AM_4
100
AcDbLine
 10
-4.94
 20
-3.684210526315789
 30
0.0
 11
-4.463000000000001
 21
-3.684210526315789
 31
0.0
  0
LINE
  5
1E7
330
16A
100
AcDbEntity
  8
AM_4
100
AcDbLine
 10
-4.94
 20
-3.684210526315789
 30
0.0
 11
-4.94
 21
3.684210526315789
 31
0.0
  0
LINE
  5
1E8
330
16A
100
AcDbEntity
  8
AM_4
100
AcDbLine
 10
-3.56
 20
-3.82191215231329
 30
0.0
 11
-4.393000000000001
 21
-3.82191215231329
 31
0.0
  0
LINE
  5
1E9
330
16A
100
AcDbEntity
  8
AM_4
100
AcDbLine
 10
-3.273
 20
3.821912152313288
 30
0.0
 11
-4.393000000000001
 21
3.821912152313288
 31
0.0
  0
LINE
  5
1EA
330
16A
100
AcDbEntity
  8
AM_4
100
AcDbLine
 10
-4.393000000000001
 20
-3.736158873748048
 30
0.0
 11
-4.393000000000001
 21
3.736158873748046
 31
0.0
  0
LINE
  5
1EB
330
16A
100
AcDbEntity
  8
AM_4
100
AcDbLine
 10
-4.393000000000001
 20
-3.736158873748048
 30
0.0
 11
-3.342995996503705
 21
-3.74915134403527
 31
0.0
  0
LINE
  5
1EC
330
16A
100
AcDbEntity
  8
AM_4
100
AcDbLine
 10
-3.560000000564261
 20
-4.319222704212053
 30
0.0
 11
-4.393000000000001
 21
-4.308915366509152
 31
0.0
  0
LINE
  5
1ED
330
16A
100
AcDbEntity
  8
AM_4
100
AcDbLine
 10
-4.393000000000001
 20
4.308915366509151
 30
0.0
 11
-4.393000000000001
 21
5.703124999999998
 31
0.0
  0
LINE
  5
1EE
330
16A
100
AcDbEntity
  8
AM_4
100
AcDbLine
 10
-4.393000000000001
 20
4.308915366509151
 30
0.0
 11
-3.273
 21
4.322773941167326
 31
0.0
  0
LINE
  5
1EF
330
16A
100
AcDbEntity
  8
AM_4
100
AcDbLine
 10
-3.273
 20
4.322773941167326
 30
0.0
 11
-3.273
 21
3.750017448406221
 31
0.0
  0
LINE
  5
1F0
330
16A
100
AcDbEntity
  8
AM_4
100
AcDbLine
 10
-3.273
 20
3.750017448406221
 30
0.0
 11
-4.393000000000001
 21
3.736158873748046
 31
0.0
  0
LINE
  5
1F1
330
16A
100
AcDbEntity
  8
AM_4
100
AcDbLine
 10
-4.393000000000001
 20
-5.703124999999998
 30
0.0
 11
-3.56
 21
-5.717665069085204
 31
0.0
  0
LINE
  5
1F2
330
16A
100
AcDbEntity
  8
AM_4
100
AcDbLine
 10
-3.203999999999999
 20
5.723879072199651
 30
0.0
 11
-4.393000000000001
 21
5.703124999999998
 31
0.0
  0
LINE
  5
1F3
330
16A
100
AcDbEntity
  8
AM_4
100
AcDbLine
 10
-4.393000000000001
 20
-5.703124999999998
 30
0.0
 11
-4.393000000000001
 21
-4.308915366509152
 31
0.0
  0
ENDBLK
  5
16D
330
16A
100
AcDbEntity
  8
0
100
AcDbBlockEnd
  0
BLOCK
  5
1F6
330
1F4
100
AcDbEntity
  8
0
100
AcDbBlockBegin
  2
7_071617H_0_in_071617_2
 70
     2
 10
0.0
 20
0.0
 30
0.0
  3
7_071617H_0_in_071617_2
  1

  0
ATTDEF
  5
1F8
330
1F4
100
AcDbEntity
  8
AM_6
100
AcDbText
 10
8.916
 20
7.44
 30
0.0
 40
0.5
  1
EP4B-IP -(Contact Seal)-Housing -Inch
100
AcDbAttributeDefinition
  3

  2
NN
 70
     8
280
     0
  0
ATTDEF
  5
1F9
330
1F4
100
AcDbEntity
  8
AM_6
100
AcDbText
 10
8.916
 20
6.94
 30
0.0
 40
0.5
  1
Imperial/E 4 Bolt Piliow Block Bearings
100
AcDbAttributeDefinition
  3

  2
NT
 70
     8
280
     0
  0
ATTDEF
  5
1FA
330
1F4
100
AcDbEntity
  8
AM_6
100
AcDbText
 10
8.916
 20
6.44
 30
0.0
 40
0.5
  1
071617H
100
AcDbAttributeDefinition
  3

  2
NB
 70
     8
280
     0
  0
ATTDEF
  5
1FB
330
1F4
100
AcDbEntity
  8
AM_6
100
AcDbText
 10
8.916
 20
5.94
 30
0.0
 40
0.5
  1
$PN.H
100
AcDbAttributeDefinition
  3

  2
NBSYN
 70
     8
280
     0
  0
ATTDEF
  5
1FC
330
1F4
100
AcDbEntity
  8
AM_6
100
AcDbText
 10
8.916
 20
5.44
 30
0.0
 40
0.5
  1
071617
100
AcDbAttributeDefinition
  3

  2
LINA
 70
     8
280
     0
  0
ATTDEF
  5
1FD
330
1F4
100
AcDbEntity
  8
AM_6
100
AcDbText
 10
8.916
 20
4.94
 30
0.0
 40
0.5
  1
7
100
AcDbAttributeDefinition
  3

  2
SS
 70
     8
280
     0
  0
ATTDEF
  5
1FE
330
1F4
100
AcDbEntity
  8
AM_6
100
AcDbText
 10
8.916
 20
4.44
 30
0.0
 40
0.5
  1
7.000000
100
AcDbAttributeDefinition
  3

  2
SS1
 70
     8
280
     0
  0
ATTDEF
  5
1FF
330
1F4
100
AcDbEntity
  8
AM_6
100
AcDbText
 10
8.916
 20
3.94
 30
0.0
 40
0.5
  1
Non-Expansion
100
AcDbAttributeDefinition
  3

  2
TYPE
 70
     8
280
     0
  0
ATTDEF
  5
200
330
1F4
100
AcDbEntity
  8
AM_6
100
AcDbText
 10
8.916
 20
3.44
 30
0.0
 40
0.5
  1
071617
100
AcDbAttributeDefinition
  3

  2
PN1
 70
     8
280
     0
  0
ATTDEF
  5
201
330
1F4
100
AcDbEntity
  8
AM_6
100
AcDbText
 10
8.916
 20
2.94
 30
0.0
 40
0.5
  1
071625
100
AcDbAttributeDefinition
  3

  2
PN2
 70
     8
280
     0
  0
ATTDEF
  5
202
330
1F4
100
AcDbEntity
  8
AM_6
100
AcDbText
 10
8.916
 20
2.44
 30
0.0
 40
0.5
  1
EP4B-IP-700R
100
AcDbAttributeDefinition
  3

  2
DESCRIPTION
 70
     8
280
     0
  0
ATTDEF
  5
203
330
1F4
100
AcDbEntity
  8
AM_6
100
AcDbText
 10
8.916
 20
1.94
 30
0.0
 40
0.5
  1
Non-Expansion Type
100
AcDbAttributeDefinition
  3

  2
EF
 70
     8
280
     0
  0
ATTDEF
  5
204
330
1F4
100
AcDbEntity
  8
AM_6
100
AcDbText
 10
8.916
 20
1.44
 30
0.0
 40
0.5
  1
1
100
AcDbAttributeDefinition
  3

  2
EF1
 70
     8
280
     0
  0
ATTDEF
  5
205
330
1F4
100
AcDbEntity
  8
AM_6
100
AcDbText
 10
8.916
 20
0.9399999999999995
 30
0.0
 40
0.5
  1
Contact Seal
100
AcDbAttributeDefinition
  3

  2
ST
 70
     8
280
     0
  0
ATTDEF
  5
206
330
1F4
100
AcDbEntity
  8
AM_6
100
AcDbText
 10
8.916
 20
0.4399999999999995
 30
0.0
 40
0.5
  1
1
100
AcDbAttributeDefinition
  3

  2
ST1
 70
     8
280
     0
  0
ATTDEF
  5
207
330
1F4
100
AcDbEntity
  8
AM_6
100
AcDbText
 10
8.916
 20
-0.0600000000000005
 30
0.0
 40
0.5
  1
7.39
100
AcDbAttributeDefinition
  3

  2
A
 70
     8
280
     0
  0
ATTDEF
  5
208
330
1F4
100
AcDbEntity
  8
AM_6
100
AcDbText
 10
8.916
 20
-0.5600000000000005
 30
0.0
 40
0.5
  1
7.3900000
100
AcDbAttributeDefinition
  3

  2
A1
 70
     8
280
     0
  0
ATTDEF
  5
209
330
1F4
100
AcDbEntity
  8
AM_6
100
AcDbText
 10
8.916
 20
-1.06
 30
0.0
 40
0.5
  1
26
100
AcDbAttributeDefinition
  3

  2
B
 70
     8
280
     0
  0
ATTDEF
  5
20A
330
1F4
100
AcDbEntity
  8
AM_6
100
AcDbText
 10
8.916
 20
-1.56
 30
0.0
 40
0.5
  1
26.0000000
100
AcDbAttributeDefinition
  3

  2
B1
 70
     8
280
     0
  0
ATTDEF
  5
20B
330
1F4
100
AcDbEntity
  8
AM_6
100
AcDbText
 10
8.916
 20
-2.06
 30
0.0
 40
0.5
  1
7.12
100
AcDbAttributeDefinition
  3

  2
C
 70
     8
280
     0
  0
ATTDEF
  5
20C
330
1F4
100
AcDbEntity
  8
AM_6
100
AcDbText
 10
8.916
 20
-2.56
 30
0.0
 40
0.5
  1
7.1200000
100
AcDbAttributeDefinition
  3

  2
C1
 70
     8
280
     0
  0
ATTDEF
  5
20D
330
1F4
100
AcDbEntity
  8
AM_6
100
AcDbText
 10
8.916
 20
-3.06
 30
0.0
 40
0.5
  1
21.25
100
AcDbAttributeDefinition
  3

  2
DMIN
 70
     8
280
     0
  0
ATTDEF
  5
20E
330
1F4
100
AcDbEntity
  8
AM_6
100
AcDbText
 10
8.916
 20
-3.56
 30
0.0
 40
0.5
  1
21.2500000
100
AcDbAttributeDefinition
  3

  2
DMIN1
 70
     8
280
     0
  0
ATTDEF
  5
20F
330
1F4
100
AcDbEntity
  8
AM_6
100
AcDbText
 10
8.916
 20
-4.06
 30
0.0
 40
0.5
  1
23.25
100
AcDbAttributeDefinition
  3

  2
DMAX
 70
     8
280
     0
  0
ATTDEF
  5
210
330
1F4
100
AcDbEntity
  8
AM_6
100
AcDbText
 10
8.916
 20
-4.56
 30
0.0
 40
0.5
  1
23.2500000
100
AcDbAttributeDefinition
  3

  2
DMAX1
 70
     8
280
     0
  0
ATTDEF
  5
211
330
1F4
100
AcDbEntity
  8
AM_6
100
AcDbText
 10
8.916
 20
-5.06
 30
0.0
 40
0.5
  1
4.62
100
AcDbAttributeDefinition
  3

  2
E
 70
     8
280
     0
  0
ATTDEF
  5
212
330
1F4
100
AcDbEntity
  8
AM_6
100
AcDbText
 10
8.916
 20
-5.56
 30
0.0
 40
0.5
  1
4.620000
100
AcDbAttributeDefinition
  3

  2
E1
 70
     8
280
     0
  0
ATTDEF
  5
213
330
1F4
100
AcDbEntity
  8
AM_6
100
AcDbText
 10
8.916
 20
-6.06
 30
0.0
 40
0.5
  1
1
100
AcDbAttributeDefinition
  3

  2
F
 70
     8
280
     0
  0
ATTDEF
  5
214
330
1F4
100
AcDbEntity
  8
AM_6
100
AcDbText
 10
8.916
 20
-6.56
 30
0.0
 40
0.5
  1
1.0000000
100
AcDbAttributeDefinition
  3

  2
F1
 70
     8
280
     0
  0
ATTDEF
  5
215
330
1F4
100
AcDbEntity
  8
AM_6
100
AcDbText
 10
8.916
 20
-7.06
 30
0.0
 40
0.5
  1
2
100
AcDbAttributeDefinition
  3

  2
G
 70
     8
280
     0
  0
ATTDEF
  5
216
330
1F4
100
AcDbEntity
  8
AM_6
100
AcDbText
 10
8.916
 20
-7.56
 30
0.0
 40
0.5
  1
2.000000
100
AcDbAttributeDefinition
  3

  2
G1
 70
     8
280
     0
  0
ATTDEF
  5
217
330
1F4
100
AcDbEntity
  8
AM_6
100
AcDbText
 10
8.916
 20
-8.06
 30
0.0
 40
0.5
  1
3.69
100
AcDbAttributeDefinition
  3

  2
H
 70
     8
280
     0
  0
ATTDEF
  5
218
330
1F4
100
AcDbEntity
  8
AM_6
100
AcDbText
 10
8.916
 20
-8.56
 30
0.0
 40
0.5
  1
3.6900000
100
AcDbAttributeDefinition
  3

  2
H1
 70
     8
280
     0
  0
ATTDEF
  5
219
330
1F4
100
AcDbEntity
  8
AM_6
100
AcDbText
 10
8.916
 20
-9.06
 30
0.0
 40
0.5
  1
14.94
100
AcDbAttributeDefinition
  3

  2
J
 70
     8
280
     0
  0
ATTDEF
  5
21A
330
1F4
100
AcDbEntity
  8
AM_6
100
AcDbText
 10
8.916
 20
-9.56
 30
0.0
 40
0.5
  1
14.940000
100
AcDbAttributeDefinition
  3

  2
J1
 70
     8
280
     0
  0
ATTDEF
  5
21B
330
1F4
100
AcDbEntity
  8
AM_6
100
AcDbText
 10
8.916
 20
-10.06
 30
0.0
 40
0.5
  1
11.41
100
AcDbAttributeDefinition
  3

  2
L
 70
     8
280
     0
  0
ATTDEF
  5
21C
330
1F4
100
AcDbEntity
  8
AM_6
100
AcDbText
 10
8.916
 20
-10.56
 30
0.0
 40
0.5
  1
11.4100000
100
AcDbAttributeDefinition
  3

  2
L1
 70
     8
280
     0
  0
ATTDEF
  5
21D
330
1F4
100
AcDbEntity
  8
AM_6
100
AcDbText
 10
8.916
 20
-11.06
 30
0.0
 40
0.5
  1
7.5
100
AcDbAttributeDefinition
  3

  2
M
 70
     8
280
     0
  0
ATTDEF
  5
21E
330
1F4
100
AcDbEntity
  8
AM_6
100
AcDbText
 10
8.916
 20
-11.56
 30
0.0
 40
0.5
  1
7.500000
100
AcDbAttributeDefinition
  3

  2
M1
 70
     8
280
     0
  0
ATTDEF
  5
21F
330
1F4
100
AcDbEntity
  8
AM_6
100
AcDbText
 10
8.916
 20
-12.06
 30
0.0
 40
0.5
  1
2.46
100
AcDbAttributeDefinition
  3

  2
R
 70
     8
280
     0
  0
ATTDEF
  5
220
330
1F4
100
AcDbEntity
  8
AM_6
100
AcDbText
 10
8.916
 20
-12.56
 30
0.0
 40
0.5
  1
2.460000
100
AcDbAttributeDefinition
  3

  2
R1
 70
     8
280
     0
  0
ATTDEF
  5
221
330
1F4
100
AcDbEntity
  8
AM_6
100
AcDbText
 10
8.916
 20
-13.06
 30
0.0
 40
0.5
  1
4.94
100
AcDbAttributeDefinition
  3

  2
S
 70
     8
280
     0
  0
ATTDEF
  5
222
330
1F4
100
AcDbEntity
  8
AM_6
100
AcDbText
 10
8.916
 20
-13.56
 30
0.0
 40
0.5
  1
4.940000
100
AcDbAttributeDefinition
  3

  2
S1
 70
     8
280
     0
  0
ATTDEF
  5
223
330
1F4
100
AcDbEntity
  8
AM_6
100
AcDbText
 10
8.916
 20
-14.06
 30
0.0
 40
0.5
  1
0.38
100
AcDbAttributeDefinition
  3

  2
X
 70
     8
280
     0
  0
ATTDEF
  5
224
330
1F4
100
AcDbEntity
  8
AM_6
100
AcDbText
 10
8.916
 20
-14.56
 30
0.0
 40
0.5
  1
0.380000
100
AcDbAttributeDefinition
  3

  2
X1
 70
     8
280
     0
  0
ATTDEF
  5
225
330
1F4
100
AcDbEntity
  8
AM_6
100
AcDbText
 10
8.916
 20
-15.06
 30
0.0
 40
0.5
  1
0.036
100
AcDbAttributeDefinition
  3

  2
Y
 70
     8
280
     0
  0
ATTDEF
  5
226
330
1F4
100
AcDbEntity
  8
AM_6
100
AcDbText
 10
8.916
 20
-15.56
 30
0.0
 40
0.5
  1
7.89
100
AcDbAttributeDefinition
  3

  2
Z
 70
     8
280
     0
  0
ATTDEF
  5
227
330
1F4
100
AcDbEntity
  8
AM_6
100
AcDbText
 10
8.916
 20
-16.06
 30
0.0
 40
0.5
  1
7.890000
100
AcDbAttributeDefinition
  3

  2
Z1
 70
     8
280
     0
  0
ATTDEF
  5
228
330
1F4
100
AcDbEntity
  8
AM_6
100
AcDbText
 10
8.916
 20
-16.56
 30
0.0
 40
0.5
  1
12.5984
100
AcDbAttributeDefinition
  3

  2
BORE
 70
     8
280
     0
  0
ATTDEF
  5
229
330
1F4
100
AcDbEntity
  8
AM_6
100
AcDbText
 10
8.916
 20
-17.06
 30
0.0
 40
0.5
  1
0.07000
100
AcDbAttributeDefinition
  3

  2
CR
 70
     8
280
     0
  0
ATTDEF
  5
22A
330
1F4
100
AcDbEntity
  8
AM_6
100
AcDbText
 10
8.916
 20
-17.56
 30
0.0
 40
0.5
  1
baldor
100
AcDbAttributeDefinition
  3

  2
COMPANY
 70
     8
280
     0
  0
LWPOLYLINE
  5
22B
330
1F4
100
AcDbEntity
  8
AM_9
100
AcDbPolyline
 90
        3
 70
     0
 43
0.0
 10
-0.471173614773387
 20
6.357940279903977
 10
-0.4877031228204826
 20
6.387418395988523
 10
-0.5000000000000004
 20
6.443229004156223
  0
LWPOLYLINE
  5
22C
330
1F4
100
AcDbEntity
  8
AM_9
100
AcDbPolyline
 90
       17
 70
     0
 43
0.0
 10
0.4839763860251114
 20
6.379528223224669
 10
0.4707154754620993
 20
6.357272870895766
 10
0.4357739814613973
 20
6.317202567793967
 10
0.3886089571725563
 20
6.280157667177241
 10
0.330267517753716
 20
6.247358410790195
 10
0.2626206423074473
 20
6.21994595616774
 10
0.1873894772163254
 20
6.198963736614912
 10
0.1068547259523107
 20
6.185104065710895
 10
-0.0000000000000003
 20
6.178662380308984
 10
-0.0838282417608265
 20
6.182642083393127
 10
-0.1652909760949817
 20
6.194311569024185
 10
-0.2420226692987005
 20
6.213349824672896
 10
-0.311943979657218
 20
6.238957708134896
 10
-0.3730557743841071
 20
6.270358657265137
 10
-0.4236626008787526
 20
6.306355373619278
 10
-0.4622043972556034
 20
6.345825973765042
 10
-0.471173614773387
 20
6.357940279903977
  0
LWPOLYLINE
  5
22D
330
1F4
100
AcDbEntity
  8
AM_9
100
AcDbPolyline
 90
        4
 70
     0
 43
0.0
 10
0.5000000000000001
 20
6.443229004156223
 10
0.4999869956389673
 20
6.441425181032388
 10
0.4922623337576871
 20
6.399111859520592
 10
0.4839763860251114
 20
6.379528223224669
  0
ELLIPSE
  5
22E
330
1F4
100
AcDbEntity
  8
AM_9
100
AcDbEllipse
 10
-0.0000000000000078
 20
6.443229004156233
 30
0.0
 11
0.4999999999999927
 21
0.0
 31
0.0
210
0.0
220
0.0
230
1.0
 40
0.4999999999999948
 41
2.76941886222245
 42
3.489280374222548
  0
ELLIPSE
  5
22F
330
1F4
100
AcDbEntity
  8
AM_9
100
AcDbEllipse
 10
-0.0000000000000001
 20
6.443229004156223
 30
0.0
 11
0.5
 21
0.0
 31
0.0
210
0.0
220
0.0
230
1.0
 40
0.4999999999999982
 41
3.489280374222504
 42
6.025261839850873
  0
ELLIPSE
  5
230
330
1F4
100
AcDbEntity
  8
AM_9
100
AcDbEllipse
 10
0.0000000000000001
 20
6.443229004156171
 30
0.0
 11
0.4999999999999999
 21
0.0
 31
0.0
210
0.0
220
0.0
230
1.0
 40
0.499999999999984
 41
6.025261839851069
 42
6.602475042714511
  0
ELLIPSE
  5
231
330
1F4
100
AcDbEntity
  8
AM_9
100
AcDbEllipse
 10
-0.0000000000000002
 20
6.529831544534668
 30
0.0
 11
-0.4000000000000004
 21
5.960464526524941E-9
 31
0.0
210
0.0
220
0.0
230
1.0
 40
0.4999999999999999
 41
0.0
 42
6.283185307179586
  0
LINE
  5
232
330
1F4
100
AcDbEntity
  8
AM_9
100
AcDbLine
 10
-0.4998409038364676
 20
6.45120538482047
 30
0.0
 11
-0.4999998595352462
 21
6.442991968527336
 31
0.0
  0
LWPOLYLINE
  5
233
330
1F4
100
AcDbEntity
  8
AM_9
100
AcDbPolyline
 90
       30
 70
     0
 43
0.0
 10
0.4999997691205772
 20
6.443532898440205
 10
0.4994128529600048
 20
6.458547081539689
 10
0.4937555240984509
 20
6.492964200735124
 10
0.4824758499177366
 20
6.5258210889617
 10
0.4658580964138526
 20
6.55705048190817
 10
0.4439330080767295
 20
6.586683642398052
 10
0.4165394753732433
 20
6.61470492093729
 10
0.3835388817362406
 20
6.640909197826777
 10
0.3451342045981503
 20
6.664852182313963
 10
0.3020101537402772
 20
6.686002174595012
 10
0.2551968212765686
 20
6.703940103916487
 10
0.205557641019972
 20
6.718519613917412
 10
0.1537534455389317
 20
6.729725555499328
 10
0.1003732528235743
 20
6.737566688426257
 10
0.0459831477933112
 20
6.742051486225495
 10
-0.0088529907386043
 20
6.743185458379669
 10
-0.0635708029717157
 20
6.740973510345411
 10
-0.1175845663022448
 20
6.735423993533528
 10
-0.1703379273270066
 20
6.726545190152408
 10
-0.2213121329435933
 20
6.714331467621224
 10
-0.2700140154356929
 20
6.698747593662574
 10
-0.3159636510008939
 20
6.679708672685878
 10
-0.3586513656378306
 20
6.657067195933697
 10
-0.3974417262613798
 20
6.630644798224179
 10
-0.4313087212513299
 20
6.60051714316953
 10
-0.4560571140502023
 20
6.571398739557042
 10
-0.4752388552389656
 20
6.54085944602702
 10
-0.4889385298990689
 20
6.50917639520133
 10
-0.4977664989806426
 20
6.473066738634308
 10
-0.4998409038364676
 20
6.45120538482047
  0
LWPOLYLINE
  5
234
330
1F4
100
AcDbEntity
  8
AM_9
100
AcDbPolyline
 90
        3
 70
     0
 43
0.0
 10
0.4738069465809009
 20
6.521598830762115
 10
0.4931545881653619
 20
6.483916172795865
 10
0.5000000000000001
 20
6.443229004156223
  0
LWPOLYLINE
  5
235
330
1F4
100
AcDbEntity
  8
AM_9
100
AcDbPolyline
 90
       17
 70
     0
 43
0.0
 10
-0.4643237088906357
 20
6.533967281456293
 10
-0.4498850266433373
 20
6.549548945626082
 10
-0.4069143409496213
 20
6.583547220837762
 10
-0.3525186858067023
 20
6.613199783152118
 10
-0.2879463844068237
 20
6.637850628356019
 10
-0.2152463463292048
 20
6.657012930898107
 10
-0.1363696103536211
 20
6.670247932320771
 10
-0.0536320435317805
 20
6.677387806672905
 10
0.0304817469201139
 20
6.678232070651442
 10
0.1137349950143082
 20
6.672863177658206
 10
0.1936614040592568
 20
6.661313190180945
 10
0.2681418573461626
 20
6.643864569127356
 10
0.3350842698970895
 20
6.620729250150895
 10
0.3925996457219872
 20
6.592457938866418
 10
0.4389866475920942
 20
6.55951764344551
 10
0.4729897488020053
 20
6.522755881562896
 10
0.4738069465809009
 20
6.521598830762115
  0
LWPOLYLINE
  5
236
330
1F4
100
AcDbEntity
  8
AM_9
100
AcDbPolyline
 90
        4
 70
     0
 43
0.0
 10
-0.5000000000000004
 20
6.443229004156223
 10
-0.496699954878588
 20
6.471713147241996
 10
-0.4800254837321831
 20
6.511954100339715
 10
-0.4643237088906357
 20
6.533967281456293
  0
ELLIPSE
  5
237
330
1F4
100
AcDbEntity
  8
AM_9
100
AcDbEllipse
 10
-0.0000000000000003
 20
6.443229004156223
 30
0.0
 11
0.5000000000000001
 21
0.0
 31
0.0
210
0.0
220
0.0
230
1.0
 40
0.5000000000000017
 41
0.3192897355347206
 42
2.769418862222419
  0
LINE
  5
238
330
1F4
100
AcDbEntity
  8
AM_9
100
AcDbLine
 10
-2.81
 20
-7.269523712046066
 30
0.0
 11
2.81
 21
-7.269523712046066
 31
0.0
  0
LINE
  5
239
330
1F4
100
AcDbEntity
  8
AM_9
100
AcDbLine
 10
-2.809999999999999
 20
-5.4843408594319
 30
0.0
 11
2.81
 21
-5.4843408594319
 31
0.0
  0
LINE
  5
23A
330
1F4
100
AcDbEntity
  8
AM_9
100
AcDbLine
 10
-3.204
 20
-6.299199999999999
 30
0.0
 11
3.204
 21
-6.299199999999999
 31
0.0
  0
LINE
  5
23B
330
1F4
100
AcDbEntity
  8
AM_9
100
AcDbLine
 10
3.204
 20
6.299199999999999
 30
0.0
 11
-3.204
 21
6.299199999999999
 31
0.0
  0
LINE
  5
23C
330
1F4
100
AcDbEntity
  8
AM_9
100
AcDbLine
 10
3.204000000000001
 20
-3.589999644153105
 30
0.0
 11
3.204000000000001
 21
-7.500000000000002
 31
0.0
  0
LINE
  5
23D
330
1F4
100
AcDbEntity
  8
AM_9
100
AcDbLine
 10
-3.203999999999999
 20
-3.589999644153106
 30
0.0
 11
-3.203999999999999
 21
-7.500000000000002
 31
0.0
  0
LINE
  5
23E
330
1F4
100
AcDbEntity
  8
AM_9
100
AcDbLine
 10
2.81
 20
-5.286
 30
0.0
 11
-2.809999999999999
 21
-5.286
 31
0.0
  0
LINE
  5
23F
330
1F4
100
AcDbEntity
  8
AM_9
100
AcDbLine
 10
-2.309999999999999
 20
-5.286
 30
0.0
 11
-2.31
 21
-7.5
 31
0.0
  0
LINE
  5
240
330
1F4
100
AcDbEntity
  8
AM_9
100
AcDbLine
 10
-2.809999999999999
 20
-7.5
 30
0.0
 11
-2.809999999999999
 21
-3.81
 31
0.0
  0
LINE
  5
241
330
1F4
100
AcDbEntity
  8
AM_9
100
AcDbLine
 10
-1.809999999999999
 20
-3.81
 30
0.0
 11
-1.809999999999999
 21
-5.286
 31
0.0
  0
LINE
  5
242
330
1F4
100
AcDbEntity
  8
AM_9
100
AcDbLine
 10
2.81
 20
-7.5
 30
0.0
 11
2.81
 21
-3.81
 31
0.0
  0
LINE
  5
243
330
1F4
100
AcDbEntity
  8
AM_9
100
AcDbLine
 10
2.310000000000001
 20
-5.286
 30
0.0
 11
2.310000000000001
 21
-7.5
 31
0.0
  0
LINE
  5
244
330
1F4
100
AcDbEntity
  8
AM_9
100
AcDbLine
 10
1.810000000000001
 20
-3.81
 30
0.0
 11
1.810000000000001
 21
-5.286
 31
0.0
  0
LINE
  5
245
330
1F4
100
AcDbEntity
  8
AM_7
100
AcDbLine
 10
3.916
 20
0.0
 30
0.0
 11
-5.311331249999999
 21
0.0
 31
0.0
  0
LINE
  5
246
330
1F4
100
AcDbEntity
  8
AM_4
100
AcDbLine
 10
-3.204
 20
7.44
 30
0.0
 11
3.204
 21
7.44
 31
0.0
  0
LINE
  5
247
330
1F4
100
AcDbEntity
  8
AM_4
100
AcDbLine
 10
-3.204
 20
7.255499999999998
 30
0.0
 11
3.204
 21
7.255500000000001
 31
0.0
  0
LINE
  5
248
330
1F4
100
AcDbEntity
  8
AM_4
100
AcDbLine
 10
2.136000000000001
 20
1.045321749510648
 30
0.0
 11
-2.136
 21
1.045321749510648
 31
0.0
  0
LINE
  5
249
330
1F4
100
AcDbEntity
  8
AM_4
100
AcDbLine
 10
-3.204
 20
7.137557000044824
 30
0.0
 11
3.204
 21
7.137557000044824
 31
0.0
  0
LINE
  5
24A
330
1F4
100
AcDbEntity
  8
AM_4
100
AcDbLine
 10
-2.136
 20
-3.625499999999999
 30
0.0
 11
2.136000000000001
 21
-3.625499999999999
 31
0.0
  0
LINE
  5
24B
330
1F4
100
AcDbEntity
  8
AM_4
100
AcDbLine
 10
-3.203999999999999
 20
0.6603787007794012
 30
0.0
 11
-2.136
 21
0.6603787007794012
 31
0.0
  0
LINE
  5
24C
330
1F4
100
AcDbEntity
  8
AM_4
100
AcDbLine
 10
2.136000000000001
 20
0.6603787007794012
 30
0.0
 11
3.204000000000001
 21
0.6603787007794012
 31
0.0
  0
LWPOLYLINE
  5
24D
330
1F4
100
AcDbEntity
  8
AM_4
100
AcDbPolyline
 90
       15
 70
     0
 43
0.0
 10
3.204000000000001
 20
-3.589999644153105
 10
3.218270767626051
 20
-3.618854671750093
 10
3.235002112035042
 20
-3.646356117903476
 10
3.254066697593358
 20
-3.672294680002199
 10
3.275319431293389
 20
-3.69647294992656
 10
3.298598566998927
 20
-3.718706916443194
 10
3.323726936430926
 20
-3.738827365641675
 10
3.350513297525084
 20
-3.756681168754543
 10
3.378753789899428
 20
-3.772132447559687
 10
3.408233486354913
 20
-3.785063608495664
 10
3.438728028601186
 20
-3.795376237619701
 10
3.470005334758645
 20
-3.802991849597231
 10
3.501827365641677
 20
-3.80785248502267
 10
3.533951936380594
 20
-3.8099211515255
 10
3.541579777300488
 20
-3.81
  0
LINE
  5
24E
330
1F4
100
AcDbEntity
  8
AM_4
100
AcDbLine
 10
2.136000000000001
 20
1.045321749510648
 30
0.0
 11
2.135999999999999
 21
-3.81
 31
0.0
  0
LINE
  5
24F
330
1F4
100
AcDbEntity
  8
AM_4
100
AcDbLine
 10
2.136000000000001
 20
-3.473752653304785
 30
0.0
 11
3.204000000000001
 21
-3.473752653304785
 31
0.0
  0
LINE
  5
250
330
1F4
100
AcDbEntity
  8
AM_4
100
AcDbLine
 10
3.204
 20
7.44
 30
0.0
 11
3.204000000000001
 21
-3.589999644153105
 31
0.0
  0
LWPOLYLINE
  5
251
330
1F4
100
AcDbEntity
  8
AM_4
100
AcDbPolyline
 90
       15
 70
     0
 43
0.0
 10
-3.541579777300485
 20
-3.81
 10
-3.5094193082266
 20
-3.808595843595854
 10
-3.477503599741388
 20
-3.804394060861504
 10
-3.446075549657655
 20
-3.797426629900666
 10
-3.415374344413314
 20
-3.787746577069999
 10
-3.385633638718168
 20
-3.775427573416522
 10
-3.357079777300486
 20
-3.760563373996456
 10
-3.329930072286951
 20
-3.743267104342636
 10
-3.304391149326154
 20
-3.723670399510901
 10
-3.280657375042651
 20
-3.701922402257834
 10
-3.258909377789585
 20
-3.67818862797433
 10
-3.239312672957849
 20
-3.652649705013533
 10
-3.22201640330403
 20
-3.625499999999997
 10
-3.207152203883964
 20
-3.596946138582315
 10
-3.204
 20
-3.589999644153105
  0
LINE
  5
252
330
1F4
100
AcDbEntity
  8
AM_4
100
AcDbLine
 10
-2.136
 20
1.045321749510648
 30
0.0
 11
-2.136
 21
-3.81
 31
0.0
  0
LINE
  5
253
330
1F4
100
AcDbEntity
  8
AM_4
100
AcDbLine
 10
-3.203999999999999
 20
-3.473752653304785
 30
0.0
 11
-2.136
 21
-3.473752653304785
 31
0.0
  0
LINE
  5
254
330
1F4
100
AcDbEntity
  8
AM_4
100
AcDbLine
 10
-3.203999999999999
 20
-3.589999644153106
 30
0.0
 11
-3.204
 21
7.44
 31
0.0
  0
LWPOLYLINE
  5
255
330
1F4
100
AcDbEntity
  8
AM_4
100
AcDbPolyline
 90
       16
 70
     0
 43
0.0
 10
2.057942257530402
 20
-3.810000000000002
 10
1.878987903531993
 20
-3.812793395027571
 10
1.699153066583339
 20
-3.8203116914341
 10
1.335976332587784
 20
-3.844949116375956
 10
1.057092269570139
 20
-3.868215737961898
 10
0.7768060434337434
 20
-3.891440277859672
 10
0.4953937326818281
 20
-3.911011257374113
 10
0.2088856976844233
 20
-3.923130166850262
 10
-0.0783028986692954
 20
-3.925582916869952
 10
-0.3651073425291996
 20
-3.917826389683396
 10
-0.6489742887273652
 20
-3.90098373967916
 10
-0.9317957900729248
 20
-3.878808550054086
 10
-1.213226984797586
 20
-3.854974354853733
 10
-1.49648068790186
 20
-3.832780601779115
 10
-1.778279263692541
 20
-3.816393150350255
 10
-2.057942257530396
 20
-3.810000000000002
  0
LINE
  5
256
330
1F4
100
AcDbEntity
  8
AM_4
100
AcDbLine
 10
-3.56
 20
-7.500000000000002
 30
0.0
 11
-3.56
 21
-3.81
 31
0.0
  0
LINE
  5
257
330
1F4
100
AcDbEntity
  8
AM_4
100
AcDbLine
 10
3.560000000000001
 20
-7.5
 30
0.0
 11
3.560000000000001
 21
-3.81
 31
0.0
  0
LINE
  5
258
330
1F4
100
AcDbEntity
  8
AM_4
100
AcDbLine
 10
-3.56
 20
-3.81
 30
0.0
 11
3.560000000000001
 21
-3.81
 31
0.0
  0
LINE
  5
259
330
1F4
100
AcDbEntity
  8
AM_4
100
AcDbLine
 10
-3.56
 20
-5.654999999999999
 30
0.0
 11
3.560000000000001
 21
-5.654999999999999
 31
0.0
  0
LINE
  5
25A
330
1F4
100
AcDbEntity
  8
AM_4
100
AcDbLine
 10
3.560000000000001
 20
-7.5
 30
0.0
 11
-3.56
 21
-7.500000000000002
 31
0.0
  0
LINE
  5
25B
330
1F4
100
AcDbEntity
  8
AM_4
100
AcDbLine
 10
2.847999999999995
 20
-5.654999999999999
 30
0.0
 11
2.848
 21
-7.500000000000002
 31
0.0
  0
LINE
  5
25C
330
1F4
100
AcDbEntity
  8
AM_4
100
AcDbLine
 10
-2.847999999999995
 20
-5.654999999999999
 30
0.0
 11
-2.847999999999999
 21
-7.500000000000002
 31
0.0
  0
ENDBLK
  5
1F7
330
1F4
100
AcDbEntity
  8
0
100
AcDbBlockEnd
  0
ENDSEC
  0
SECTION
  2
ENTITIES
  0
INSERT
  5
6F
330
1F
100
AcDbEntity
  8
0
100
AcDbBlockReference
  2
1_071617_2
 10
0.0
 20
0.0
 30
0.0
  0
POINT
  5
25E
330
1F
100
AcDbEntity
  8
ConnectionPoints
100
AcDbPoint
 10
-4.463000000000001
 20
-4.796006944444445
 30
0.0000000000000003
  0
POINT
  5
25F
330
1F
100
AcDbEntity
  8
ConnectionPoints
100
AcDbPoint
 10
-4.463000000000001
 20
4.796006944444445
 30
0.0000000000000003
  0
POINT
  5
260
330
1F
100
AcDbEntity
  8
ConnectionPoints
100
AcDbPoint
 10
-4.393000000000001
 20
0.0
 30
0.0000000000000003
  0
POINT
  5
261
330
1F
100
AcDbEntity
  8
ConnectionPoints
100
AcDbPoint
 10
-4.94
 20
0.0
 30
0.0000000000000003
  0
POINT
  5
262
330
1F
100
AcDbEntity
  8
ConnectionPoints
100
AcDbPoint
 10
-4.592000000000001
 20
0.0
 30
0.0000000000000003
  0
POINT
  5
263
330
1F
100
AcDbEntity
  8
ConnectionPoints
100
AcDbPoint
 10
-4.393000000000001
 20
4.796006944444445
 30
0.0000000000000003
  0
POINT
  5
264
330
1F
100
AcDbEntity
  8
ConnectionPoints
100
AcDbPoint
 10
-4.393000000000001
 20
-4.796006944444445
 30
0.0000000000000003
  0
POINT
  5
265
330
1F
100
AcDbEntity
  8
ConnectionPoints
100
AcDbPoint
 10
-4.393000000000001
 20
0.0
 30
0.0000000000000003
  0
POINT
  5
266
330
1F
100
AcDbEntity
  8
ConnectionPoints
100
AcDbPoint
 10
-0.0000000000000002
 20
6.529831544534667
 30
-3.769999999999999
  0
POINT
  5
267
330
1F
100
AcDbEntity
  8
ConnectionPoints
100
AcDbPoint
 10
-4.56
 20
0.0
 30
0.0000000000000003
  0
POINT
  5
268
330
1F
100
AcDbEntity
  8
ConnectionPoints
100
AcDbPoint
 10
-4.94
 20
0.0
 30
0.0000000000000003
  0
ENDSEC
  0
SECTION
  2
OBJECTS
  0
DICTIONARY
  5
C
330
0
100
AcDbDictionary
281
     1
  3
ACAD_DETAILVIEWSTYLE
350
270
  3
ACAD_GROUP
350
D
  3
ACAD_LAYOUT
350
1A
  3
ACAD_MATERIAL
350
43
  3
ACAD_MLEADERSTYLE
350
6B
  3
ACAD_MLINESTYLE
350
17
  3
ACAD_PLOTSETTINGS
350
19
  3
ACAD_PLOTSTYLENAME
350
E
  3
ACAD_SCALELIST
350
47
  3
ACAD_SECTIONVIEWSTYLE
350
271
  3
ACAD_TABLESTYLE
350
69
  3
ACAD_VISUALSTYLE
350
2A
  3
ACDB_RECOMPOSE_DATA
350
26D
  3
AcDbVariableDictionary
350
269
  0
SUN
  5
6D
330
29
100
AcDbSun
 90
        1
290
     0
 63
     7
421
 16777215
 40
1.0
291
     1
 91
  2455826
 92
 54000000
292
     0
 70
     2
 71
   256
280
     1
  0
DICTIONARY
  5
270
102
{ACAD_REACTORS
330
C
102
}
330
C
100
AcDbDictionary
281
     1
  0
DICTIONARY
  5
D
102
{ACAD_REACTORS
330
C
102
}
330
C
100
AcDbDictionary
281
     1
  0
DICTIONARY
  5
1A
102
{ACAD_REACTORS
330
C
102
}
330
C
100
AcDbDictionary
281
     1
  3
Layout1
350
1E
  3
Layout2
350
26
  3
Model
350
22
  0
DICTIONARY
  5
43
102
{ACAD_REACTORS
330
C
102
}
330
C
100
AcDbDictionary
281
     1
  3
ByBlock
350
45
  3
ByLayer
350
44
  3
Global
350
46
  0
DICTIONARY
  5
6B
102
{ACAD_REACTORS
330
C
102
}
330
C
100
AcDbDictionary
281
     1
  3
Standard
350
6C
  0
DICTIONARY
  5
17
102
{ACAD_REACTORS
330
C
102
}
330
C
100
AcDbDictionary
281
     1
  3
Standard
350
18
  0
DICTIONARY
  5
19
102
{ACAD_REACTORS
330
C
102
}
330
C
100
AcDbDictionary
281
     1
  0
ACDBDICTIONARYWDFLT
  5
E
102
{ACAD_REACTORS
330
C
102
}
330
C
100
AcDbDictionary
281
     1
  3
Normal
350
F
100
AcDbDictionaryWithDefault
340
F
  0
DICTIONARY
  5
47
102
{ACAD_REACTORS
330
C
102
}
330
C
100
AcDbDictionary
281
     1
  3
A0
350
48
  3
A1
350
49
  3
A2
350
4A
  3
A3
350
4B
  3
A4
350
4C
  3
A5
350
4D
  3
A6
350
4E
  3
A7
350
4F
  3
A8
350
50
  3
A9
350
51
  3
B0
350
52
  3
B1
350
53
  3
B2
350
54
  3
B3
350
55
  3
B4
350
56
  3
B5
350
57
  3
B6
350
58
  3
B7
350
59
  3
B8
350
5A
  3
B9
350
5B
  3
C0
350
5C
  3
C1
350
5D
  3
C2
350
5E
  3
C3
350
5F
  3
C4
350
60
  3
C5
350
61
  3
C6
350
62
  3
C7
350
63
  3
C8
350
64
  3
C9
350
65
  3
D0
350
66
  3
D1
350
67
  3
D2
350
68
  0
DICTIONARY
  5
271
102
{ACAD_REACTORS
330
C
102
}
330
C
100
AcDbDictionary
281
     1
  0
DICTIONARY
  5
69
102
{ACAD_REACTORS
330
C
102
}
330
C
100
AcDbDictionary
281
     1
  3
Standard
350
6A
  0
DICTIONARY
  5
2A
102
{ACAD_REACTORS
330
C
102
}
330
C
100
AcDbDictionary
281
     1
  3
2dWireframe
350
2F
  3
Basic
350
32
  3
Brighten
350
36
  3
ColorChange
350
3A
  3
Conceptual
350
34
  3
Dim
350
35
  3
EdgeColorOff
350
3D
  3
Facepattern
350
39
  3
Flat
350
2B
  3
FlatWithEdges
350
2C
  3
Gouraud
350
2D
  3
GouraudWithEdges
350
2E
  3
Hidden
350
31
  3
JitterOff
350
3B
  3
Linepattern
350
38
  3
OverhangOff
350
3C
  3
Realistic
350
33
  3
Shaded
350
42
  3
Shaded with edges
350
41
  3
Shades of Gray
350
3E
  3
Sketchy
350
3F
  3
Thicken
350
37
  3
Wireframe
350
30
  3
X-Ray
350
40
  0
XRECORD
  5
26D
102
{ACAD_REACTORS
330
C
102
}
330
C
100
AcDbXrecord
280
     1
 90
        1
330
6A
  0
DICTIONARY
  5
269
102
{ACAD_REACTORS
330
C
102
}
330
C
100
AcDbDictionary
281
     1
  3
CANNOSCALE
350
26A
  3
CMLEADERSTYLE
350
26F
  3
CTABLESTYLE
350
26E
  0
LAYOUT
  5
1E
102
{ACAD_REACTORS
330
1A
102
}
330
1A
100
AcDbPlotSettings
  1

  2
none_device
  4

  6

 40
0.0
 41
0.0
 42
0.0
 43
0.0
 44
0.0
 45
0.0
 46
0.0
 47
0.0
 48
0.0
 49
0.0
140
0.0
141
0.0
142
1.0
143
1.0
 70
   688
 72
     0
 73
     0
 74
     5
  7

 75
    16
 76
     0
 77
     2
 78
   300
147
1.0
148
0.0
149
0.0
100
AcDbLayout
  1
Layout1
 70
     1
 71
     1
 10
0.0
 20
0.0
 11
12.0
 21
9.0
 12
0.0
 22
0.0
 32
0.0
 14
1.000000000000000E+20
 24
1.000000000000000E+20
 34
1.000000000000000E+20
 15
-1.000000000000000E+20
 25
-1.000000000000000E+20
 35
-1.000000000000000E+20
146
0.0
 13
0.0
 23
0.0
 33
0.0
 16
1.0
 26
0.0
 36
0.0
 17
0.0
 27
1.0
 37
0.0
 76
     0
330
1B
  0
LAYOUT
  5
26
102
{ACAD_REACTORS
330
1A
102
}
330
1A
100
AcDbPlotSettings
  1

  2
none_device
  4

  6

 40
0.0
 41
0.0
 42
0.0
 43
0.0
 44
0.0
 45
0.0
 46
0.0
 47
0.0
 48
0.0
 49
0.0
140
0.0
141
0.0
142
1.0
143
1.0
 70
   688
 72
     0
 73
     0
 74
     5
  7

 75
    16
 76
     0
 77
     2
 78
   300
147
1.0
148
0.0
149
0.0
100
AcDbLayout
  1
Layout2
 70
     1
 71
     2
 10
0.0
 20
0.0
 11
0.0
 21
0.0
 12
0.0
 22
0.0
 32
0.0
 14
0.0
 24
0.0
 34
0.0
 15
0.0
 25
0.0
 35
0.0
146
0.0
 13
0.0
 23
0.0
 33
0.0
 16
1.0
 26
0.0
 36
0.0
 17
0.0
 27
1.0
 37
0.0
 76
     0
330
23
  0
LAYOUT
  5
22
102
{ACAD_REACTORS
330
1A
102
}
330
1A
100
AcDbPlotSettings
  1

  2
none_device
  4
Letter_(8.50_x_11.00_Inches)
  6

 40
6.35
 41
6.35
 42
6.35000508
 43
6.35000508
 44
215.9
 45
279.4
 46
0.0
 47
0.0
 48
0.0
 49
0.0
140
0.0
141
0.0
142
1.0
143
1.0
 70
  1712
 72
     0
 73
     0
 74
     0
  7

 75
     0
 76
     0
 77
     2
 78
   300
147
1.0
148
0.0
149
0.0
100
AcDbLayout
  1
Model
 70
     1
 71
     0
 10
0.0
 20
0.0
 11
12.0
 21
9.0
 12
0.0
 22
0.0
 32
0.0
 14
1.000000000000000E+20
 24
1.000000000000000E+20
 34
1.000000000000000E+20
 15
-1.000000000000000E+20
 25
-1.000000000000000E+20
 35
-1.000000000000000E+20
146
0.0
 13
0.0
 23
0.0
 33
0.0
 16
1.0
 26
0.0
 36
0.0
 17
0.0
 27
1.0
 37
0.0
 76
     0
330
1F
331
29
  0
MATERIAL
  5
45
102
{ACAD_REACTORS
330
43
102
}
330
43
100
AcDbMaterial
  1
ByBlock
 72
     1
 94
      127
  0
MATERIAL
  5
44
102
{ACAD_REACTORS
330
43
102
}
330
43
100
AcDbMaterial
  1
ByLayer
 72
     1
 94
      127
  0
MATERIAL
  5
46
102
{ACAD_REACTORS
330
43
102
}
330
43
100
AcDbMaterial
  1
Global
 72
     1
 94
      127
  0
MLEADERSTYLE
  5
6C
102
{ACAD_REACTORS
330
6B
102
}
330
6B
100
AcDbMLeaderStyle
179
     2
170
     2
171
     1
172
     0
 90
        2
 40
0.0
 41
0.0
173
     1
 91
-1056964608
340
14
 92
       -2
290
     1
 42
0.09
291
     1
 43
0.36
  3
Standard
341
0
 44
0.18
300

342
11
174
     1
178
     6
175
     1
176
     0
 93
-1056964608
 45
0.18
292
     0
297
     0
 46
0.18
343
0
 94
-1056964608
 47
1.0
 49
1.0
140
1.0
293
     1
141
0.0
294
     1
177
     0
142
1.0
295
     0
296
     0
143
0.125
271
     0
272
     9
273
     9
298
     0
  0
MLINESTYLE
  5
18
102
{ACAD_REACTORS
330
17
102
}
330
17
100
AcDbMlineStyle
  2
Standard
 70
     0
  3

 62
   256
 51
90.0
 52
90.0
 71
     2
 49
0.5
 62
   256
  6
BYLAYER
 49
-0.5
 62
   256
  6
BYLAYER
  0
ACDBPLACEHOLDER
  5
F
102
{ACAD_REACTORS
330
E
102
}
330
E
  0
SCALE
  5
48
102
{ACAD_REACTORS
330
47
102
}
330
47
100
AcDbScale
 70
     0
300
1:1
140
1.0
141
1.0
290
     1
  0
SCALE
  5
49
102
{ACAD_REACTORS
330
47
102
}
330
47
100
AcDbScale
 70
     0
300
1:2
140
1.0
141
2.0
290
     0
  0
SCALE
  5
4A
102
{ACAD_REACTORS
330
47
102
}
330
47
100
AcDbScale
 70
     0
300
1:4
140
1.0
141
4.0
290
     0
  0
SCALE
  5
4B
102
{ACAD_REACTORS
330
47
102
}
330
47
100
AcDbScale
 70
     0
300
1:5
140
1.0
141
5.0
290
     0
  0
SCALE
  5
4C
102
{ACAD_REACTORS
330
47
102
}
330
47
100
AcDbScale
 70
     0
300
1:8
140
1.0
141
8.0
290
     0
  0
SCALE
  5
4D
102
{ACAD_REACTORS
330
47
102
}
330
47
100
AcDbScale
 70
     0
300
1:10
140
1.0
141
10.0
290
     0
  0
SCALE
  5
4E
102
{ACAD_REACTORS
330
47
102
}
330
47
100
AcDbScale
 70
     0
300
1:16
140
1.0
141
16.0
290
     0
  0
SCALE
  5
4F
102
{ACAD_REACTORS
330
47
102
}
330
47
100
AcDbScale
 70
     0
300
1:20
140
1.0
141
20.0
290
     0
  0
SCALE
  5
50
102
{ACAD_REACTORS
330
47
102
}
330
47
100
AcDbScale
 70
     0
300
1:30
140
1.0
141
30.0
290
     0
  0
SCALE
  5
51
102
{ACAD_REACTORS
330
47
102
}
330
47
100
AcDbScale
 70
     0
300
1:40
140
1.0
141
40.0
290
     0
  0
SCALE
  5
52
102
{ACAD_REACTORS
330
47
102
}
330
47
100
AcDbScale
 70
     0
300
1:50
140
1.0
141
50.0
290
     0
  0
SCALE
  5
53
102
{ACAD_REACTORS
330
47
102
}
330
47
100
AcDbScale
 70
     0
300
1:100
140
1.0
141
100.0
290
     0
  0
SCALE
  5
54
102
{ACAD_REACTORS
330
47
102
}
330
47
100
AcDbScale
 70
     0
300
2:1
140
2.0
141
1.0
290
     0
  0
SCALE
  5
55
102
{ACAD_REACTORS
330
47
102
}
330
47
100
AcDbScale
 70
     0
300
4:1
140
4.0
141
1.0
290
     0
  0
SCALE
  5
56
102
{ACAD_REACTORS
330
47
102
}
330
47
100
AcDbScale
 70
     0
300
8:1
140
8.0
141
1.0
290
     0
  0
SCALE
  5
57
102
{ACAD_REACTORS
330
47
102
}
330
47
100
AcDbScale
 70
     0
300
10:1
140
10.0
141
1.0
290
     0
  0
SCALE
  5
58
102
{ACAD_REACTORS
330
47
102
}
330
47
100
AcDbScale
 70
     0
300
100:1
140
100.0
141
1.0
290
     0
  0
SCALE
  5
59
102
{ACAD_REACTORS
330
47
102
}
330
47
100
AcDbScale
 70
     0
300
1/128" = 1'-0"
140
0.0078125
141
12.0
290
     0
  0
SCALE
  5
5A
102
{ACAD_REACTORS
330
47
102
}
330
47
100
AcDbScale
 70
     0
300
1/64" = 1'-0"
140
0.015625
141
12.0
290
     0
  0
SCALE
  5
5B
102
{ACAD_REACTORS
330
47
102
}
330
47
100
AcDbScale
 70
     0
300
1/32" = 1'-0"
140
0.03125
141
12.0
290
     0
  0
SCALE
  5
5C
102
{ACAD_REACTORS
330
47
102
}
330
47
100
AcDbScale
 70
     0
300
1/16" = 1'-0"
140
0.0625
141
12.0
290
     0
  0
SCALE
  5
5D
102
{ACAD_REACTORS
330
47
102
}
330
47
100
AcDbScale
 70
     0
300
3/32" = 1'-0"
140
0.09375
141
12.0
290
     0
  0
SCALE
  5
5E
102
{ACAD_REACTORS
330
47
102
}
330
47
100
AcDbScale
 70
     0
300
1/8" = 1'-0"
140
0.125
141
12.0
290
     0
  0
SCALE
  5
5F
102
{ACAD_REACTORS
330
47
102
}
330
47
100
AcDbScale
 70
     0
300
3/16" = 1'-0"
140
0.1875
141
12.0
290
     0
  0
SCALE
  5
60
102
{ACAD_REACTORS
330
47
102
}
330
47
100
AcDbScale
 70
     0
300
1/4" = 1'-0"
140
0.25
141
12.0
290
     0
  0
SCALE
  5
61
102
{ACAD_REACTORS
330
47
102
}
330
47
100
AcDbScale
 70
     0
300
3/8" = 1'-0"
140
0.375
141
12.0
290
     0
  0
SCALE
  5
62
102
{ACAD_REACTORS
330
47
102
}
330
47
100
AcDbScale
 70
     0
300
1/2" = 1'-0"
140
0.5
141
12.0
290
     0
  0
SCALE
  5
63
102
{ACAD_REACTORS
330
47
102
}
330
47
100
AcDbScale
 70
     0
300
3/4" = 1'-0"
140
0.75
141
12.0
290
     0
  0
SCALE
  5
64
102
{ACAD_REACTORS
330
47
102
}
330
47
100
AcDbScale
 70
     0
300
1" = 1'-0"
140
1.0
141
12.0
290
     0
  0
SCALE
  5
65
102
{ACAD_REACTORS
330
47
102
}
330
47
100
AcDbScale
 70
     0
300
1-1/2" = 1'-0"
140
1.5
141
12.0
290
     0
  0
SCALE
  5
66
102
{ACAD_REACTORS
330
47
102
}
330
47
100
AcDbScale
 70
     0
300
3" = 1'-0"
140
3.0
141
12.0
290
     0
  0
SCALE
  5
67
102
{ACAD_REACTORS
330
47
102
}
330
47
100
AcDbScale
 70
     0
300
6" = 1'-0"
140
6.0
141
12.0
290
     0
  0
SCALE
  5
68
102
{ACAD_REACTORS
330
47
102
}
330
47
100
AcDbScale
 70
     0
300
1'-0" = 1'-0"
140
12.0
141
12.0
290
     0
  0
TABLESTYLE
  5
6A
102
{ACAD_REACTORS
330
69
102
}
102
{ACAD_XDICTIONARY
360
26B
102
}
330
69
100
AcDbTableStyle
  3
Standard
 70
     0
 71
     0
 40
0.06
 41
0.06
280
     0
281
     0
  7
Standard
140
0.18
170
     2
 62
     0
 63
   257
283
     0
 90
        4
 91
        0
  1

274
    -2
284
     1
 64
     0
275
    -2
285
     1
 65
     0
276
    -2
286
     1
 66
     0
277
    -2
287
     1
 67
     0
278
    -2
288
     1
 68
     0
279
    -2
289
     1
 69
     0
  7
Standard
140
0.25
170
     5
 62
     0
 63
   257
283
     0
 90
        4
 91
        0
  1

274
    -2
284
     1
 64
     0
275
    -2
285
     1
 65
     0
276
    -2
286
     1
 66
     0
277
    -2
287
     1
 67
     0
278
    -2
288
     1
 68
     0
279
    -2
289
     1
 69
     0
  7
Standard
140
0.18
170
     5
 62
     0
 63
   257
283
     0
 90
        4
 91
        0
  1

274
    -2
284
     1
 64
     0
275
    -2
285
     1
 65
     0
276
    -2
286
     1
 66
     0
277
    -2
287
     1
 67
     0
278
    -2
288
     1
 68
     0
279
    -2
289
     1
 69
     0
  0
VISUALSTYLE
  5
2F
102
{ACAD_REACTORS
330
2A
102
}
330
2A
100
AcDbVisualStyle
  2
2dWireframe
 70
     4
177
     3
291
     0
 70
    58
 90
        0
176
     1
 90
        2
176
     1
 90
        0
176
     1
 90
        0
176
     1
 40
0.6
176
     1
 40
30.0
176
     1
 62
     7
420
 16777215
176
     1
 90
        1
176
     1
 90
        4
176
     1
 62
     7
176
     1
 62
   257
176
     1
 90
        1
176
     1
 90
        1
176
     1
 40
1.0
176
     1
 90
        0
176
     1
 62
   257
176
     1
 40
1.0
176
     1
 90
        1
176
     1
 90
        6
176
     1
 90
        2
176
     1
 62
     7
176
     1
 90
        5
176
     1
 90
        0
176
     1
 90
        0
176
     1
290
     0
176
     1
 90
        1
176
     1
 40
0.0
176
     1
 90
        0
176
     1
290
     1
176
     1
290
     1
176
     1
290
     0
176
     1
290
     0
176
     1
290
     0
176
     1
290
     0
176
     1
290
     0
176
     1
290
     0
176
     1
290
     0
176
     1
 90
       50
176
     1
 40
0.0
176
     1
 40
1.0
176
     1
 90
        0
176
     1
 62
    18
420
        0
176
     1
 90
       50
176
     1
 90
        3
176
     1
 62
     5
420
      255
176
     1
290
     0
176
     1
 90
       50
176
     1
 90
       50
176
     1
 90
       50
176
     1
290
     0
176
     1
 90
       50
176
     1
 62
   256
176
     0
 40
1.0
176
     0
 90
        2
176
     1
  1
strokes_ogs.tif
176
     1
290
     0
176
     1
 40
1.0
176
     1
 40
1.0
176
     1
  0
VISUALSTYLE
  5
32
102
{ACAD_REACTORS
330
2A
102
}
330
2A
100
AcDbVisualStyle
  2
Basic
 70
     7
177
     3
291
     1
 70
    58
 90
        1
176
     1
 90
        0
176
     1
 90
        1
176
     1
 90
        0
176
     1
 40
0.6
176
     1
 40
30.0
176
     1
 62
     7
420
 16777215
176
     1
 90
        0
176
     1
 90
        4
176
     1
 62
     7
176
     1
 62
   257
176
     1
 90
        1
176
     1
 90
        1
176
     1
 40
1.0
176
     1
 90
        8
176
     1
 62
     7
176
     1
 40
1.0
176
     1
 90
        1
176
     1
 90
        6
176
     1
 90
        2
176
     1
 62
     7
176
     1
 90
        5
176
     1
 90
        0
176
     1
 90
        0
176
     1
290
     0
176
     1
 90
        1
176
     1
 40
0.0
176
     1
 90
        0
176
     1
290
     0
176
     1
290
     1
176
     1
290
     1
176
     1
290
     0
176
     1
290
     0
176
     1
290
     0
176
     1
290
     0
176
     1
290
     0
176
     1
290
     0
176
     1
 90
       50
176
     1
 40
0.0
176
     1
 40
1.0
176
     1
 90
        0
176
     1
 62
    18
420
        0
176
     1
 90
       50
176
     1
 90
        3
176
     1
 62
     5
420
      255
176
     1
290
     0
176
     1
 90
       50
176
     1
 90
       50
176
     1
 90
       50
176
     1
290
     0
176
     1
 90
       50
176
     1
 62
   256
176
     0
 40
1.0
176
     0
 90
        2
176
     1
  1
strokes_ogs.tif
176
     1
290
     0
176
     1
 40
1.0
176
     1
 40
1.0
176
     1
  0
VISUALSTYLE
  5
36
102
{ACAD_REACTORS
330
2A
102
}
330
2A
100
AcDbVisualStyle
  2
Brighten
 70
    12
177
     3
291
     1
 70
    58
 90
        2
176
     1
 90
        2
176
     1
 90
        0
176
     1
 90
        0
176
     1
 40
0.6
176
     1
 40
30.0
176
     1
 62
     7
420
 16777215
176
     1
 90
        1
176
     1
 90
        4
176
     1
 62
     7
176
     1
 62
   257
176
     1
 90
        1
176
     1
 90
        1
176
     1
 40
1.0
176
     1
 90
        8
176
     1
 62
     7
176
     1
 40
1.0
176
     1
 90
        1
176
     1
 90
        6
176
     1
 90
        2
176
     1
 62
     7
176
     1
 90
        5
176
     1
 90
        0
176
     1
 90
        0
176
     1
290
     0
176
     1
 90
        1
176
     1
 40
50.0
176
     1
 90
        0
176
     1
290
     0
176
     1
290
     1
176
     1
290
     1
176
     1
290
     0
176
     1
290
     0
176
     1
290
     0
176
     1
290
     0
176
     1
290
     0
176
     1
290
     0
176
     1
 90
       50
176
     1
 40
0.0
176
     1
 40
1.0
176
     1
 90
        0
176
     1
 62
    18
420
        0
176
     1
 90
       50
176
     1
 90
        3
176
     1
 62
     5
420
      255
176
     1
290
     0
176
     1
 90
       50
176
     1
 90
       50
176
     1
 90
       50
176
     1
290
     0
176
     1
 90
       50
176
     1
 62
   256
176
     0
 40
1.0
176
     0
 90
        2
176
     1
  1
strokes_ogs.tif
176
     1
290
     0
176
     1
 40
1.0
176
     1
 40
1.0
176
     1
  0
VISUALSTYLE
  5
3A
102
{ACAD_REACTORS
330
2A
102
}
330
2A
100
AcDbVisualStyle
  2
ColorChange
 70
    16
177
     3
291
     1
 70
    58
 90
        2
176
     1
 90
        2
176
     1
 90
        3
176
     1
 90
        0
176
     1
 40
0.6
176
     1
 40
30.0
176
     1
 62
     8
420
  8421504
176
     1
 90
        1
176
     1
 90
        4
176
     1
 62
     7
176
     1
 62
   257
176
     1
 90
        1
176
     1
 90
        1
176
     1
 40
1.0
176
     1
 90
        8
176
     1
 62
     8
420
  8421504
176
     1
 40
1.0
176
     1
 90
        1
176
     1
 90
        6
176
     1
 90
        2
176
     1
 62
     7
176
     1
 90
        5
176
     1
 90
        0
176
     1
 90
        0
176
     1
290
     0
176
     1
 90
        1
176
     1
 40
0.0
176
     1
 90
        0
176
     1
290
     0
176
     1
290
     1
176
     1
290
     1
176
     1
290
     0
176
     1
290
     0
176
     1
290
     0
176
     1
290
     0
176
     1
290
     0
176
     1
290
     0
176
     1
 90
       50
176
     1
 40
0.0
176
     1
 40
1.0
176
     1
 90
        0
176
     1
 62
    18
420
        0
176
     1
 90
       50
176
     1
 90
        3
176
     1
 62
     5
420
      255
176
     1
290
     0
176
     1
 90
       50
176
     1
 90
       50
176
     1
 90
       50
176
     1
290
     0
176
     1
 90
       50
176
     1
 62
   256
176
     0
 40
1.0
176
     0
 90
        2
176
     1
  1
strokes_ogs.tif
176
     1
290
     0
176
     1
 40
1.0
176
     1
 40
1.0
176
     1
  0
VISUALSTYLE
  5
34
102
{ACAD_REACTORS
330
2A
102
}
330
2A
100
AcDbVisualStyle
  2
Conceptual
 70
     9
177
     3
291
     0
 70
    58
 90
        3
176
     1
 90
        2
176
     1
 90
        0
176
     1
 90
        0
176
     1
 40
0.6
176
     1
 40
30.0
176
     1
 62
     7
420
 16777215
176
     1
 90
        2
176
     1
 90
        2
176
     1
 62
     7
176
     1
 62
   257
176
     1
 90
        1
176
     1
 90
        1
176
     1
 40
179.0
176
     1
 90
        8
176
     1
 62
     7
176
     1
 40
1.0
176
     1
 90
        1
176
     1
 90
        6
176
     1
 90
        2
176
     1
 62
     7
176
     1
 90
        3
176
     1
 90
        0
176
     1
 90
        0
176
     1
290
     0
176
     1
 90
        1
176
     1
 40
0.0
176
     1
 90
        0
176
     1
290
     0
176
     1
290
     1
176
     1
290
     1
176
     1
290
     0
176
     1
290
     0
176
     1
290
     0
176
     1
290
     0
176
     1
290
     0
176
     1
290
     0
176
     1
 90
       50
176
     1
 40
0.0
176
     1
 40
1.0
176
     1
 90
        0
176
     1
 62
    18
420
        0
176
     1
 90
       50
176
     1
 90
        3
176
     1
 62
     5
420
      255
176
     1
290
     0
176
     1
 90
       50
176
     1
 90
       50
176
     1
 90
       50
176
     1
290
     0
176
     1
 90
       50
176
     1
 62
   256
176
     0
 40
1.0
176
     0
 90
        2
176
     1
  1
strokes_ogs.tif
176
     1
290
     0
176
     1
 40
1.0
176
     1
 40
1.0
176
     1
  0
VISUALSTYLE
  5
35
102
{ACAD_REACTORS
330
2A
102
}
330
2A
100
AcDbVisualStyle
  2
Dim
 70
    11
177
     3
291
     1
 70
    58
 90
        2
176
     1
 90
        2
176
     1
 90
        0
176
     1
 90
        0
176
     1
 40
0.6
176
     1
 40
30.0
176
     1
 62
     7
420
 16777215
176
     1
 90
        1
176
     1
 90
        4
176
     1
 62
     7
176
     1
 62
   257
176
     1
 90
        1
176
     1
 90
        1
176
     1
 40
1.0
176
     1
 90
        8
176
     1
 62
     7
176
     1
 40
1.0
176
     1
 90
        1
176
     1
 90
        6
176
     1
 90
        2
176
     1
 62
     7
176
     1
 90
        5
176
     1
 90
        0
176
     1
 90
        0
176
     1
290
     0
176
     1
 90
        1
176
     1
 40
-50.0
176
     1
 90
        0
176
     1
290
     0
176
     1
290
     1
176
     1
290
     1
176
     1
290
     0
176
     1
290
     0
176
     1
290
     0
176
     1
290
     0
176
     1
290
     0
176
     1
290
     0
176
     1
 90
       50
176
     1
 40
0.0
176
     1
 40
1.0
176
     1
 90
        0
176
     1
 62
    18
420
        0
176
     1
 90
       50
176
     1
 90
        3
176
     1
 62
     5
420
      255
176
     1
290
     0
176
     1
 90
       50
176
     1
 90
       50
176
     1
 90
       50
176
     1
290
     0
176
     1
 90
       50
176
     1
 62
   256
176
     0
 40
1.0
176
     0
 90
        2
176
     1
  1
strokes_ogs.tif
176
     1
290
     0
176
     1
 40
1.0
176
     1
 40
1.0
176
     1
  0
VISUALSTYLE
  5
3D
102
{ACAD_REACTORS
330
2A
102
}
330
2A
100
AcDbVisualStyle
  2
EdgeColorOff
 70
    22
177
     3
291
     1
 70
    58
 90
        2
176
     0
 90
        2
176
     0
 90
        0
176
     0
 90
        0
176
     0
 40
0.6
176
     0
 40
30.0
176
     0
 62
     7
420
 16777215
176
     0
 90
        1
176
     0
 90
        4
176
     0
 62
     7
176
     0
 62
   257
176
     0
 90
        1
176
     0
 90
        1
176
     0
 40
1.0
176
     0
 90
        8
176
     2
 62
     7
176
     0
 40
1.0
176
     0
 90
        1
176
     0
 90
        6
176
     0
 90
        2
176
     0
 62
     7
176
     0
 90
        5
176
     0
 90
        0
176
     0
 90
        0
176
     0
290
     0
176
     0
 90
        1
176
     0
 40
0.0
176
     0
 90
        0
176
     0
290
     0
176
     0
290
     1
176
     0
290
     1
176
     0
290
     0
176
     0
290
     0
176
     0
290
     0
176
     0
290
     0
176
     0
290
     0
176
     0
290
     0
176
     0
 90
       50
176
     0
 40
0.0
176
     0
 40
1.0
176
     0
 90
        0
176
     0
 62
    18
420
        0
176
     0
 90
       50
176
     0
 90
        3
176
     0
 62
     5
420
      255
176
     0
290
     0
176
     0
 90
       50
176
     0
 90
       50
176
     0
 90
       50
176
     0
290
     0
176
     0
 90
       50
176
     0
 62
   256
176
     0
 40
1.0
176
     0
 90
        2
176
     0
  1
strokes_ogs.tif
176
     0
290
     0
176
     0
 40
1.0
176
     0
 40
1.0
176
     0
  0
VISUALSTYLE
  5
39
102
{ACAD_REACTORS
330
2A
102
}
330
2A
100
AcDbVisualStyle
  2
Facepattern
 70
    15
177
     3
291
     1
 70
    58
 90
        2
176
     1
 90
        2
176
     1
 90
        0
176
     1
 90
        0
176
     1
 40
0.6
176
     1
 40
30.0
176
     1
 62
     7
420
 16777215
176
     1
 90
        1
176
     1
 90
        4
176
     1
 62
     7
176
     1
 62
   257
176
     1
 90
        1
176
     1
 90
        1
176
     1
 40
1.0
176
     1
 90
        8
176
     1
 62
     7
176
     1
 40
1.0
176
     1
 90
        1
176
     1
 90
        6
176
     1
 90
        2
176
     1
 62
     7
176
     1
 90
        5
176
     1
 90
        0
176
     1
 90
        0
176
     1
290
     0
176
     1
 90
        1
176
     1
 40
0.0
176
     1
 90
        0
176
     1
290
     0
176
     1
290
     1
176
     1
290
     1
176
     1
290
     0
176
     1
290
     0
176
     1
290
     0
176
     1
290
     0
176
     1
290
     0
176
     1
290
     0
176
     1
 90
       50
176
     1
 40
0.0
176
     1
 40
1.0
176
     1
 90
        0
176
     1
 62
    18
420
        0
176
     1
 90
       50
176
     1
 90
        3
176
     1
 62
     5
420
      255
176
     1
290
     0
176
     1
 90
       50
176
     1
 90
       50
176
     1
 90
       50
176
     1
290
     0
176
     1
 90
       50
176
     1
 62
   256
176
     0
 40
1.0
176
     0
 90
        2
176
     1
  1
strokes_ogs.tif
176
     1
290
     0
176
     1
 40
1.0
176
     1
 40
1.0
176
     1
  0
VISUALSTYLE
  5
2B
102
{ACAD_REACTORS
330
2A
102
}
330
2A
100
AcDbVisualStyle
  2
Flat
 70
     0
177
     3
291
     1
 70
    58
 90
        2
176
     1
 90
        1
176
     1
 90
        1
176
     1
 90
        2
176
     1
 40
0.6
176
     1
 40
30.0
176
     1
 62
     7
420
 16777215
176
     1
 90
        0
176
     1
 90
        0
176
     1
 62
     7
176
     1
 62
   257
176
     1
 90
        1
176
     1
 90
        1
176
     1
 40
1.0
176
     1
 90
        8
176
     1
 62
     7
176
     1
 40
1.0
176
     1
 90
        1
176
     1
 90
        6
176
     1
 90
        2
176
     1
 62
     7
176
     1
 90
        5
176
     1
 90
        0
176
     1
 90
        0
176
     1
290
     0
176
     1
 90
       13
176
     1
 40
0.0
176
     1
 90
        0
176
     1
290
     0
176
     1
290
     1
176
     1
290
     1
176
     1
290
     0
176
     1
290
     0
176
     1
290
     0
176
     1
290
     0
176
     1
290
     0
176
     1
290
     0
176
     1
 90
       50
176
     1
 40
0.0
176
     1
 40
1.0
176
     1
 90
        0
176
     1
 62
    18
420
        0
176
     1
 90
       50
176
     1
 90
        3
176
     1
 62
     5
420
      255
176
     1
290
     0
176
     1
 90
       50
176
     1
 90
       50
176
     1
 90
       50
176
     1
290
     0
176
     1
 90
       50
176
     1
 62
   256
176
     0
 40
1.0
176
     0
 90
        2
176
     1
  1
strokes_ogs.tif
176
     1
290
     0
176
     1
 40
1.0
176
     1
 40
1.0
176
     1
  0
VISUALSTYLE
  5
2C
102
{ACAD_REACTORS
330
2A
102
}
330
2A
100
AcDbVisualStyle
  2
FlatWithEdges
 70
     1
177
     3
291
     1
 70
    58
 90
        2
176
     1
 90
        1
176
     1
 90
        1
176
     1
 90
        2
176
     1
 40
0.6
176
     1
 40
30.0
176
     1
 62
     7
420
 16777215
176
     1
 90
        1
176
     1
 90
        0
176
     1
 62
     7
176
     1
 62
   257
176
     1
 90
        1
176
     1
 90
        1
176
     1
 40
1.0
176
     1
 90
        0
176
     1
 62
   257
176
     1
 40
1.0
176
     1
 90
        1
176
     1
 90
        6
176
     1
 90
        2
176
     1
 62
     7
176
     1
 90
        5
176
     1
 90
        0
176
     1
 90
        0
176
     1
290
     0
176
     1
 90
       13
176
     1
 40
0.0
176
     1
 90
        0
176
     1
290
     0
176
     1
290
     1
176
     1
290
     1
176
     1
290
     0
176
     1
290
     0
176
     1
290
     0
176
     1
290
     0
176
     1
290
     0
176
     1
290
     0
176
     1
 90
       50
176
     1
 40
0.0
176
     1
 40
1.0
176
     1
 90
        0
176
     1
 62
    18
420
        0
176
     1
 90
       50
176
     1
 90
        3
176
     1
 62
     5
420
      255
176
     1
290
     0
176
     1
 90
       50
176
     1
 90
       50
176
     1
 90
       50
176
     1
290
     0
176
     1
 90
       50
176
     1
 62
   256
176
     0
 40
1.0
176
     0
 90
        2
176
     1
  1
strokes_ogs.tif
176
     1
290
     0
176
     1
 40
1.0
176
     1
 40
1.0
176
     1
  0
VISUALSTYLE
  5
2D
102
{ACAD_REACTORS
330
2A
102
}
330
2A
100
AcDbVisualStyle
  2
Gouraud
 70
     2
177
     3
291
     1
 70
    58
 90
        2
176
     1
 90
        2
176
     1
 90
        1
176
     1
 90
        2
176
     1
 40
0.6
176
     1
 40
30.0
176
     1
 62
     7
420
 16777215
176
     1
 90
        0
176
     1
 90
        0
176
     1
 62
     7
176
     1
 62
   257
176
     1
 90
        1
176
     1
 90
        1
176
     1
 40
1.0
176
     1
 90
        0
176
     1
 62
     7
176
     1
 40
1.0
176
     1
 90
        1
176
     1
 90
        6
176
     1
 90
        2
176
     1
 62
     7
176
     1
 90
        5
176
     1
 90
        0
176
     1
 90
        0
176
     1
290
     0
176
     1
 90
       13
176
     1
 40
0.0
176
     1
 90
        0
176
     1
290
     0
176
     1
290
     1
176
     1
290
     1
176
     1
290
     0
176
     1
290
     0
176
     1
290
     0
176
     1
290
     0
176
     1
290
     0
176
     1
290
     0
176
     1
 90
       50
176
     1
 40
0.0
176
     1
 40
1.0
176
     1
 90
        0
176
     1
 62
    18
420
        0
176
     1
 90
       50
176
     1
 90
        3
176
     1
 62
     5
420
      255
176
     1
290
     0
176
     1
 90
       50
176
     1
 90
       50
176
     1
 90
       50
176
     1
290
     0
176
     1
 90
       50
176
     1
 62
   256
176
     0
 40
1.0
176
     0
 90
        2
176
     1
  1
strokes_ogs.tif
176
     1
290
     0
176
     1
 40
1.0
176
     1
 40
1.0
176
     1
  0
VISUALSTYLE
  5
2E
102
{ACAD_REACTORS
330
2A
102
}
330
2A
100
AcDbVisualStyle
  2
GouraudWithEdges
 70
     3
177
     3
291
     1
 70
    58
 90
        2
176
     1
 90
        2
176
     1
 90
        1
176
     1
 90
        2
176
     1
 40
0.6
176
     1
 40
30.0
176
     1
 62
     7
420
 16777215
176
     1
 90
        1
176
     1
 90
        0
176
     1
 62
     7
176
     1
 62
   257
176
     1
 90
        1
176
     1
 90
        1
176
     1
 40
1.0
176
     1
 90
        0
176
     1
 62
   257
176
     1
 40
1.0
176
     1
 90
        1
176
     1
 90
        6
176
     1
 90
        2
176
     1
 62
     7
176
     1
 90
        5
176
     1
 90
        0
176
     1
 90
        0
176
     1
290
     0
176
     1
 90
       13
176
     1
 40
0.0
176
     1
 90
        0
176
     1
290
     0
176
     1
290
     1
176
     1
290
     1
176
     1
290
     0
176
     1
290
     0
176
     1
290
     0
176
     1
290
     0
176
     1
290
     0
176
     1
290
     0
176
     1
 90
       50
176
     1
 40
0.0
176
     1
 40
1.0
176
     1
 90
        0
176
     1
 62
    18
420
        0
176
     1
 90
       50
176
     1
 90
        3
176
     1
 62
     5
420
      255
176
     1
290
     0
176
     1
 90
       50
176
     1
 90
       50
176
     1
 90
       50
176
     1
290
     0
176
     1
 90
       50
176
     1
 62
   256
176
     0
 40
1.0
176
     0
 90
        2
176
     1
  1
strokes_ogs.tif
176
     1
290
     0
176
     1
 40
1.0
176
     1
 40
1.0
176
     1
  0
VISUALSTYLE
  5
31
102
{ACAD_REACTORS
330
2A
102
}
330
2A
100
AcDbVisualStyle
  2
Hidden
 70
     6
177
     3
291
     0
 70
    58
 90
        1
176
     1
 90
        2
176
     1
 90
        2
176
     1
 90
        0
176
     1
 40
0.6
176
     1
 40
30.0
176
     1
 62
     7
420
 16777215
176
     1
 90
        2
176
     1
 90
        2
176
     1
 62
     7
176
     1
 62
   257
176
     1
 90
        2
176
     1
 90
        1
176
     1
 40
40.0
176
     1
 90
        0
176
     1
 62
   257
176
     1
 40
1.0
176
     1
 90
        1
176
     1
 90
        6
176
     1
 90
        2
176
     1
 62
     7
176
     1
 90
        3
176
     1
 90
        0
176
     1
 90
        0
176
     1
290
     0
176
     1
 90
        1
176
     1
 40
0.0
176
     1
 90
        0
176
     1
290
     0
176
     1
290
     1
176
     1
290
     1
176
     1
290
     0
176
     1
290
     0
176
     1
290
     0
176
     1
290
     0
176
     1
290
     0
176
     1
290
     0
176
     1
 90
       50
176
     1
 40
0.0
176
     1
 40
1.0
176
     1
 90
        0
176
     1
 62
    18
420
        0
176
     1
 90
       50
176
     1
 90
        3
176
     1
 62
     5
420
      255
176
     1
290
     0
176
     1
 90
       50
176
     1
 90
       50
176
     1
 90
       50
176
     1
290
     0
176
     1
 90
       50
176
     1
 62
   256
176
     0
 40
1.0
176
     0
 90
        2
176
     1
  1
strokes_ogs.tif
176
     1
290
     0
176
     1
 40
1.0
176
     1
 40
1.0
176
     1
  0
VISUALSTYLE
  5
3B
102
{ACAD_REACTORS
330
2A
102
}
330
2A
100
AcDbVisualStyle
  2
JitterOff
 70
    20
177
     3
291
     1
 70
    58
 90
        2
176
     0
 90
        2
176
     0
 90
        0
176
     0
 90
        0
176
     0
 40
0.6
176
     0
 40
30.0
176
     0
 62
     7
420
 16777215
176
     0
 90
        1
176
     0
 90
        4
176
     0
 62
     7
176
     0
 62
   257
176
     0
 90
        1
176
     0
 90
        1
176
     0
 40
1.0
176
     0
 90
       10
176
     2
 62
     7
176
     0
 40
1.0
176
     0
 90
        1
176
     0
 90
        6
176
     0
 90
        2
176
     0
 62
     7
176
     0
 90
        5
176
     0
 90
        0
176
     0
 90
        0
176
     0
290
     0
176
     0
 90
        1
176
     0
 40
0.0
176
     0
 90
        0
176
     0
290
     0
176
     0
290
     1
176
     0
290
     1
176
     0
290
     0
176
     0
290
     0
176
     0
290
     0
176
     0
290
     0
176
     0
290
     0
176
     0
290
     0
176
     0
 90
       50
176
     0
 40
0.0
176
     0
 40
1.0
176
     0
 90
        0
176
     0
 62
    18
420
        0
176
     0
 90
       50
176
     0
 90
        3
176
     0
 62
     5
420
      255
176
     0
290
     0
176
     0
 90
       50
176
     0
 90
       50
176
     0
 90
       50
176
     0
290
     0
176
     0
 90
       50
176
     0
 62
   256
176
     0
 40
1.0
176
     0
 90
        2
176
     0
  1
strokes_ogs.tif
176
     0
290
     0
176
     0
 40
1.0
176
     0
 40
1.0
176
     0
  0
VISUALSTYLE
  5
38
102
{ACAD_REACTORS
330
2A
102
}
330
2A
100
AcDbVisualStyle
  2
Linepattern
 70
    14
177
     3
291
     1
 70
    58
 90
        2
176
     1
 90
        2
176
     1
 90
        0
176
     1
 90
        0
176
     1
 40
0.6
176
     1
 40
30.0
176
     1
 62
     7
420
 16777215
176
     1
 90
        1
176
     1
 90
        4
176
     1
 62
     7
176
     1
 62
   257
176
     1
 90
        7
176
     1
 90
        7
176
     1
 40
1.0
176
     1
 90
        8
176
     1
 62
     7
176
     1
 40
1.0
176
     1
 90
        1
176
     1
 90
        6
176
     1
 90
        2
176
     1
 62
     7
176
     1
 90
        5
176
     1
 90
        0
176
     1
 90
        0
176
     1
290
     0
176
     1
 90
        1
176
     1
 40
0.0
176
     1
 90
        0
176
     1
290
     0
176
     1
290
     1
176
     1
290
     1
176
     1
290
     0
176
     1
290
     0
176
     1
290
     0
176
     1
290
     0
176
     1
290
     0
176
     1
290
     0
176
     1
 90
       50
176
     1
 40
0.0
176
     1
 40
1.0
176
     1
 90
        0
176
     1
 62
    18
420
        0
176
     1
 90
       50
176
     1
 90
        3
176
     1
 62
     5
420
      255
176
     1
290
     0
176
     1
 90
       50
176
     1
 90
       50
176
     1
 90
       50
176
     1
290
     0
176
     1
 90
       50
176
     1
 62
   256
176
     0
 40
1.0
176
     0
 90
        2
176
     1
  1
strokes_ogs.tif
176
     1
290
     0
176
     1
 40
1.0
176
     1
 40
1.0
176
     1
  0
VISUALSTYLE
  5
3C
102
{ACAD_REACTORS
330
2A
102
}
330
2A
100
AcDbVisualStyle
  2
OverhangOff
 70
    21
177
     3
291
     1
 70
    58
 90
        2
176
     0
 90
        2
176
     0
 90
        0
176
     0
 90
        0
176
     0
 40
0.6
176
     0
 40
30.0
176
     0
 62
     7
420
 16777215
176
     0
 90
        1
176
     0
 90
        4
176
     0
 62
     7
176
     0
 62
   257
176
     0
 90
        1
176
     0
 90
        1
176
     0
 40
1.0
176
     0
 90
        9
176
     2
 62
     7
176
     0
 40
1.0
176
     0
 90
        1
176
     0
 90
        6
176
     0
 90
        2
176
     0
 62
     7
176
     0
 90
        5
176
     0
 90
        0
176
     0
 90
        0
176
     0
290
     0
176
     0
 90
        1
176
     0
 40
0.0
176
     0
 90
        0
176
     0
290
     0
176
     0
290
     1
176
     0
290
     1
176
     0
290
     0
176
     0
290
     0
176
     0
290
     0
176
     0
290
     0
176
     0
290
     0
176
     0
290
     0
176
     0
 90
       50
176
     0
 40
0.0
176
     0
 40
1.0
176
     0
 90
        0
176
     0
 62
    18
420
        0
176
     0
 90
       50
176
     0
 90
        3
176
     0
 62
     5
420
      255
176
     0
290
     0
176
     0
 90
       50
176
     0
 90
       50
176
     0
 90
       50
176
     0
290
     0
176
     0
 90
       50
176
     0
 62
   256
176
     0
 40
1.0
176
     0
 90
        2
176
     0
  1
strokes_ogs.tif
176
     0
290
     0
176
     0
 40
1.0
176
     0
 40
1.0
176
     0
  0
VISUALSTYLE
  5
33
102
{ACAD_REACTORS
330
2A
102
}
330
2A
100
AcDbVisualStyle
  2
Realistic
 70
     8
177
     3
291
     0
 70
    58
 90
        2
176
     1
 90
        3
176
     1
 90
        0
176
     1
 90
        2
176
     1
 40
0.6
176
     1
 40
30.0
176
     1
 62
     7
420
 16777215
176
     1
 90
        0
176
     1
 90
        0
176
     1
 62
     7
176
     1
 62
   257
176
     1
 90
        1
176
     1
 90
        1
176
     1
 40
1.0
176
     1
 90
        8
176
     1
 62
   257
176
     1
 40
1.0
176
     1
 90
        1
176
     1
 90
        6
176
     1
 90
        2
176
     1
 62
     7
176
     1
 90
        3
176
     1
 90
        0
176
     1
 90
        0
176
     1
290
     0
176
     1
 90
       13
176
     1
 40
0.0
176
     1
 90
        0
176
     1
290
     0
176
     1
290
     1
176
     1
290
     1
176
     1
290
     0
176
     1
290
     0
176
     1
290
     0
176
     1
290
     0
176
     1
290
     0
176
     1
290
     0
176
     1
 90
       50
176
     1
 40
0.0
176
     1
 40
1.0
176
     1
 90
        0
176
     1
 62
    18
420
        0
176
     1
 90
       50
176
     1
 90
        3
176
     1
 62
     5
420
      255
176
     1
290
     0
176
     1
 90
       50
176
     1
 90
       50
176
     1
 90
       50
176
     1
290
     0
176
     1
 90
       50
176
     1
 62
   256
176
     0
 40
1.0
176
     0
 90
        2
176
     1
  1
strokes_ogs.tif
176
     1
290
     0
176
     1
 40
1.0
176
     1
 40
1.0
176
     1
  0
VISUALSTYLE
  5
42
102
{ACAD_REACTORS
330
2A
102
}
330
2A
100
AcDbVisualStyle
  2
Shaded
 70
    27
177
     3
291
     0
 70
    58
 90
        2
176
     1
 90
        2
176
     1
 90
        1
176
     1
 90
        2
176
     1
 40
0.6
176
     1
 40
30.0
176
     1
 62
     7
420
 16777215
176
     1
 90
        0
176
     1
 90
        4
176
     1
 62
     7
176
     1
 62
   257
176
     1
 90
        1
176
     1
 90
        1
176
     1
 40
1.0
176
     1
 90
        8
176
     1
 62
   257
176
     1
 40
1.0
176
     1
 90
        1
176
     1
 90
        6
176
     1
 90
        2
176
     1
 62
     8
420
  7895160
176
     1
 90
        3
176
     1
 90
        0
176
     1
 90
        0
176
     1
290
     0
176
     1
 90
        5
176
     1
 40
0.0
176
     1
 90
        0
176
     1
290
     0
176
     1
290
     1
176
     1
290
     1
176
     1
290
     0
176
     1
290
     0
176
     1
290
     0
176
     1
290
     0
176
     1
290
     0
176
     1
290
     0
176
     1
 90
       50
176
     1
 40
0.0
176
     1
 40
1.0
176
     1
 90
        0
176
     1
 62
    18
420
        0
176
     1
 90
       50
176
     1
 90
        3
176
     1
 62
     5
420
      255
176
     1
290
     0
176
     1
 90
       50
176
     1
 90
       50
176
     1
 90
       50
176
     1
290
     0
176
     1
 90
       50
176
     1
 62
   256
176
     0
 40
1.0
176
     0
 90
        2
176
     1
  1
strokes_ogs.tif
176
     1
290
     0
176
     1
 40
1.0
176
     1
 40
1.0
176
     1
  0
VISUALSTYLE
  5
41
102
{ACAD_REACTORS
330
2A
102
}
330
2A
100
AcDbVisualStyle
  2
Shaded with edges
 70
    26
177
     3
291
     0
 70
    58
 90
        2
176
     1
 90
        2
176
     1
 90
        1
176
     1
 90
        2
176
     1
 40
0.6
176
     1
 40
30.0
176
     1
 62
     7
420
 16777215
176
     1
 90
        1
176
     1
 90
       10
176
     1
 62
     7
176
     1
 62
   257
176
     1
 90
        2
176
     1
 90
        1
176
     1
 40
1.0
176
     1
 90
        8
176
     1
 62
   257
176
     1
 40
1.0
176
     1
 90
        1
176
     1
 90
        6
176
     1
 90
        2
176
     1
 62
     7
176
     1
 90
        3
176
     1
 90
        0
176
     1
 90
        0
176
     1
290
     0
176
     1
 90
        5
176
     1
 40
0.0
176
     1
 90
        0
176
     1
290
     0
176
     1
290
     1
176
     1
290
     1
176
     1
290
     0
176
     1
290
     0
176
     1
290
     0
176
     1
290
     0
176
     1
290
     0
176
     1
290
     0
176
     1
 90
       50
176
     1
 40
0.0
176
     1
 40
1.0
176
     1
 90
        0
176
     1
 62
    18
420
        0
176
     1
 90
       50
176
     1
 90
        3
176
     1
 62
     5
420
      255
176
     1
290
     0
176
     1
 90
       50
176
     1
 90
       50
176
     1
 90
       50
176
     1
290
     0
176
     1
 90
       50
176
     1
 62
   256
176
     0
 40
1.0
176
     0
 90
        2
176
     1
  1
strokes_ogs.tif
176
     1
290
     0
176
     1
 40
1.0
176
     1
 40
1.0
176
     1
  0
VISUALSTYLE
  5
3E
102
{ACAD_REACTORS
330
2A
102
}
330
2A
100
AcDbVisualStyle
  2
Shades of Gray
 70
    23
177
     3
291
     0
 70
    58
 90
        2
176
     1
 90
        2
176
     1
 90
        3
176
     1
 90
        0
176
     1
 40
0.6
176
     1
 40
30.0
176
     1
 62
     7
420
 16777215
176
     1
 90
        2
176
     1
 90
        2
176
     1
 62
     7
176
     1
 62
     7
176
     1
 90
        1
176
     1
 90
        1
176
     1
 40
40.0
176
     1
 90
        8
176
     1
 62
     7
176
     1
 40
1.0
176
     1
 90
        1
176
     1
 90
        6
176
     1
 90
        2
176
     1
 62
     7
176
     1
 90
        3
176
     1
 90
        0
176
     1
 90
        0
176
     1
290
     0
176
     1
 90
        1
176
     1
 40
0.0
176
     1
 90
        0
176
     1
290
     0
176
     1
290
     1
176
     1
290
     1
176
     1
290
     0
176
     1
290
     0
176
     1
290
     0
176
     1
290
     0
176
     1
290
     0
176
     1
290
     0
176
     1
 90
       50
176
     1
 40
0.0
176
     1
 40
1.0
176
     1
 90
        0
176
     1
 62
    18
420
        0
176
     1
 90
       50
176
     1
 90
        3
176
     1
 62
     5
420
      255
176
     1
290
     0
176
     1
 90
       50
176
     1
 90
       50
176
     1
 90
       50
176
     1
290
     0
176
     1
 90
       50
176
     1
 62
   256
176
     0
 40
1.0
176
     0
 90
        2
176
     1
  1
strokes_ogs.tif
176
     1
290
     0
176
     1
 40
1.0
176
     1
 40
1.0
176
     1
  0
VISUALSTYLE
  5
3F
102
{ACAD_REACTORS
330
2A
102
}
330
2A
100
AcDbVisualStyle
  2
Sketchy
 70
    24
177
     3
291
     0
 70
    58
 90
        1
176
     1
 90
        2
176
     1
 90
        2
176
     1
 90
        0
176
     1
 40
0.6
176
     1
 40
30.0
176
     1
 62
     7
420
 16777215
176
     1
 90
        2
176
     1
 90
        2
176
     1
 62
     7
176
     1
 62
     7
176
     1
 90
        1
176
     1
 90
        1
176
     1
 40
40.0
176
     1
 90
       11
176
     1
 62
     7
176
     1
 40
1.0
176
     1
 90
        1
176
     1
 90
        6
176
     1
 90
        2
176
     1
 62
     7
176
     1
 90
        6
176
     1
 90
        0
176
     1
 90
        0
176
     1
290
     0
176
     1
 90
        1
176
     1
 40
0.0
176
     1
 90
        0
176
     1
290
     0
176
     1
290
     1
176
     1
290
     1
176
     1
290
     0
176
     1
290
     0
176
     1
290
     0
176
     1
290
     0
176
     1
290
     0
176
     1
290
     0
176
     1
 90
       50
176
     1
 40
0.0
176
     1
 40
1.0
176
     1
 90
        0
176
     1
 62
    18
420
        0
176
     1
 90
       50
176
     1
 90
        3
176
     1
 62
     5
420
      255
176
     1
290
     0
176
     1
 90
       50
176
     1
 90
       50
176
     1
 90
       50
176
     1
290
     0
176
     1
 90
       50
176
     1
 62
   256
176
     0
 40
1.0
176
     0
 90
        2
176
     1
  1
strokes_ogs.tif
176
     1
290
     0
176
     1
 40
1.0
176
     1
 40
1.0
176
     1
  0
VISUALSTYLE
  5
37
102
{ACAD_REACTORS
330
2A
102
}
330
2A
100
AcDbVisualStyle
  2
Thicken
 70
    13
177
     3
291
     1
 70
    58
 90
        2
176
     1
 90
        2
176
     1
 90
        0
176
     1
 90
        0
176
     1
 40
0.6
176
     1
 40
30.0
176
     1
 62
     7
420
 16777215
176
     1
 90
        1
176
     1
 90
        4
176
     1
 62
     7
176
     1
 62
   257
176
     1
 90
        1
176
     1
 90
        1
176
     1
 40
1.0
176
     1
 90
       12
176
     1
 62
     7
176
     1
 40
1.0
176
     1
 90
        1
176
     1
 90
        6
176
     1
 90
        2
176
     1
 62
     7
176
     1
 90
        5
176
     1
 90
        0
176
     1
 90
        0
176
     1
290
     0
176
     1
 90
        1
176
     1
 40
0.0
176
     1
 90
        0
176
     1
290
     0
176
     1
290
     1
176
     1
290
     1
176
     1
290
     0
176
     1
290
     0
176
     1
290
     0
176
     1
290
     0
176
     1
290
     0
176
     1
290
     0
176
     1
 90
       50
176
     1
 40
0.0
176
     1
 40
1.0
176
     1
 90
        0
176
     1
 62
    18
420
        0
176
     1
 90
       50
176
     1
 90
        3
176
     1
 62
     5
420
      255
176
     1
290
     0
176
     1
 90
       50
176
     1
 90
       50
176
     1
 90
       50
176
     1
290
     0
176
     1
 90
       50
176
     1
 62
   256
176
     0
 40
1.0
176
     0
 90
        2
176
     1
  1
strokes_ogs.tif
176
     1
290
     0
176
     1
 40
1.0
176
     1
 40
1.0
176
     1
  0
VISUALSTYLE
  5
30
102
{ACAD_REACTORS
330
2A
102
}
330
2A
100
AcDbVisualStyle
  2
Wireframe
 70
     5
177
     3
291
     0
 70
    58
 90
        0
176
     1
 90
        2
176
     1
 90
        0
176
     1
 90
        0
176
     1
 40
0.6
176
     1
 40
30.0
176
     1
 62
     7
420
 16777215
176
     1
 90
        1
176
     1
 90
        4
176
     1
 62
     7
176
     1
 62
   257
176
     1
 90
        1
176
     1
 90
        1
176
     1
 40
1.0
176
     1
 90
        0
176
     1
 62
   257
176
     1
 40
1.0
176
     1
 90
        1
176
     1
 90
        6
176
     1
 90
        2
176
     1
 62
     7
176
     1
 90
        3
176
     1
 90
        0
176
     1
 90
        0
176
     1
290
     0
176
     1
 90
        1
176
     1
 40
0.0
176
     1
 90
        0
176
     1
290
     0
176
     1
290
     1
176
     1
290
     1
176
     1
290
     0
176
     1
290
     0
176
     1
290
     0
176
     1
290
     0
176
     1
290
     0
176
     1
290
     0
176
     1
 90
       50
176
     1
 40
0.0
176
     1
 40
1.0
176
     1
 90
        0
176
     1
 62
    18
420
        0
176
     1
 90
       50
176
     1
 90
        3
176
     1
 62
     5
420
      255
176
     1
290
     0
176
     1
 90
       50
176
     1
 90
       50
176
     1
 90
       50
176
     1
290
     0
176
     1
 90
       50
176
     1
 62
   256
176
     0
 40
1.0
176
     0
 90
        2
176
     1
  1
strokes_ogs.tif
176
     1
290
     0
176
     1
 40
1.0
176
     1
 40
1.0
176
     1
  0
VISUALSTYLE
  5
40
102
{ACAD_REACTORS
330
2A
102
}
330
2A
100
AcDbVisualStyle
  2
X-Ray
 70
    25
177
     3
291
     0
 70
    58
 90
        2
176
     1
 90
        2
176
     1
 90
        1
176
     1
 90
        1
176
     1
 40
0.5
176
     1
 40
30.0
176
     1
 62
     7
420
 16777215
176
     1
 90
        1
176
     1
 90
        0
176
     1
 62
     7
176
     1
 62
   257
176
     1
 90
        1
176
     1
 90
        1
176
     1
 40
1.0
176
     1
 90
        8
176
     1
 62
     7
176
     1
 40
1.0
176
     1
 90
        1
176
     1
 90
        6
176
     1
 90
        2
176
     1
 62
     7
176
     1
 90
        3
176
     1
 90
        0
176
     1
 90
        0
176
     1
290
     0
176
     1
 90
       13
176
     1
 40
0.0
176
     1
 90
        0
176
     1
290
     0
176
     1
290
     1
176
     1
290
     1
176
     1
290
     0
176
     1
290
     0
176
     1
290
     0
176
     1
290
     0
176
     1
290
     0
176
     1
290
     0
176
     1
 90
       50
176
     1
 40
0.0
176
     1
 40
1.0
176
     1
 90
        0
176
     1
 62
    18
420
        0
176
     1
 90
       50
176
     1
 90
        3
176
     1
 62
     5
420
      255
176
     1
290
     0
176
     1
 90
       50
176
     1
 90
       50
176
     1
 90
       50
176
     1
290
     0
176
     1
 90
       50
176
     1
 62
   256
176
     0
 40
1.0
176
     0
 90
        2
176
     1
  1
strokes_ogs.tif
176
     1
290
     0
176
     1
 40
1.0
176
     1
 40
1.0
176
     1
  0
DICTIONARYVAR
  5
26A
102
{ACAD_REACTORS
330
269
102
}
330
269
100
DictionaryVariables
280
     0
  1
1:1
  0
DICTIONARYVAR
  5
26F
102
{ACAD_REACTORS
330
269
102
}
330
269
100
DictionaryVariables
280
     0
  1
Standard
  0
DICTIONARYVAR
  5
26E
102
{ACAD_REACTORS
330
269
102
}
330
269
100
DictionaryVariables
280
     0
  1
Standard
  0
DICTIONARY
  5
26B
330
6A
100
AcDbDictionary
280
     1
281
     1
  3
ACAD_ROUNDTRIP_2008_TABLESTYLE_CELLSTYLEMAP
360
26C
  0
CELLSTYLEMAP
  5
26C
102
{ACAD_REACTORS
330
26B
102
}
330
26B
100
AcDbCellStyleMap
 90
        3
300
CELLSTYLE
  1
TABLEFORMAT_BEGIN
 90
        5
170
     1
 91
        0
 92
    32768
 62
   257
 93
        1
300
CONTENTFORMAT
  1
CONTENTFORMAT_BEGIN
 90
        0
 91
        0
 92
        4
 93
        0
300

 40
0.0
140
1.0
 94
        5
 62
     0
340
11
144
0.25
309
CONTENTFORMAT_END
171
     1
301
MARGIN
  1
CELLMARGIN_BEGIN
 40
0.06
 40
0.06
 40
0.06
 40
0.06
 40
0.06
 40
0.06
309
CELLMARGIN_END
 94
        6
 95
        1
302
GRIDFORMAT
  1
GRIDFORMAT_BEGIN
 90
        0
 91
        1
 62
     0
 92
       -2
340
14
 93
        0
 40
0.045
309
GRIDFORMAT_END
 95
        2
302
GRIDFORMAT
  1
GRIDFORMAT_BEGIN
 90
        0
 91
        1
 62
     0
 92
       -2
340
14
 93
        0
 40
0.045
309
GRIDFORMAT_END
 95
        4
302
GRIDFORMAT
  1
GRIDFORMAT_BEGIN
 90
        0
 91
        1
 62
     0
 92
       -2
340
14
 93
        0
 40
0.045
309
GRIDFORMAT_END
 95
        8
302
GRIDFORMAT
  1
GRIDFORMAT_BEGIN
 90
        0
 91
        1
 62
     0
 92
       -2
340
14
 93
        0
 40
0.045
309
GRIDFORMAT_END
 95
       16
302
GRIDFORMAT
  1
GRIDFORMAT_BEGIN
 90
        0
 91
        1
 62
     0
 92
       -2
340
14
 93
        0
 40
0.045
309
GRIDFORMAT_END
 95
       32
302
GRIDFORMAT
  1
GRIDFORMAT_BEGIN
 90
        0
 91
        1
 62
     0
 92
       -2
340
14
 93
        0
 40
0.045
309
GRIDFORMAT_END
309
TABLEFORMAT_END
  1
CELLSTYLE_BEGIN
 90
        1
 91
        1
300
_TITLE
309
CELLSTYLE_END
300
CELLSTYLE
  1
TABLEFORMAT_BEGIN
 90
        5
170
     1
 91
        0
 92
        0
 62
   257
 93
        1
300
CONTENTFORMAT
  1
CONTENTFORMAT_BEGIN
 90
        0
 91
        0
 92
        4
 93
        0
300

 40
0.0
140
1.0
 94
        5
 62
     0
340
11
144
0.18
309
CONTENTFORMAT_END
171
     1
301
MARGIN
  1
CELLMARGIN_BEGIN
 40
0.06
 40
0.06
 40
0.06
 40
0.06
 40
0.06
 40
0.06
309
CELLMARGIN_END
 94
        6
 95
        1
302
GRIDFORMAT
  1
GRIDFORMAT_BEGIN
 90
        0
 91
        1
 62
     0
 92
       -2
340
14
 93
        0
 40
0.045
309
GRIDFORMAT_END
 95
        2
302
GRIDFORMAT
  1
GRIDFORMAT_BEGIN
 90
        0
 91
        1
 62
     0
 92
       -2
340
14
 93
        0
 40
0.045
309
GRIDFORMAT_END
 95
        4
302
GRIDFORMAT
  1
GRIDFORMAT_BEGIN
 90
        0
 91
        1
 62
     0
 92
       -2
340
14
 93
        0
 40
0.045
309
GRIDFORMAT_END
 95
        8
302
GRIDFORMAT
  1
GRIDFORMAT_BEGIN
 90
        0
 91
        1
 62
     0
 92
       -2
340
14
 93
        0
 40
0.045
309
GRIDFORMAT_END
 95
       16
302
GRIDFORMAT
  1
GRIDFORMAT_BEGIN
 90
        0
 91
        1
 62
     0
 92
       -2
340
14
 93
        0
 40
0.045
309
GRIDFORMAT_END
 95
       32
302
GRIDFORMAT
  1
GRIDFORMAT_BEGIN
 90
        0
 91
        1
 62
     0
 92
       -2
340
14
 93
        0
 40
0.045
309
GRIDFORMAT_END
309
TABLEFORMAT_END
  1
CELLSTYLE_BEGIN
 90
        2
 91
        1
300
_HEADER
309
CELLSTYLE_END
300
CELLSTYLE
  1
TABLEFORMAT_BEGIN
 90
        5
170
     1
 91
        0
 92
        0
 62
   257
 93
        1
300
CONTENTFORMAT
  1
CONTENTFORMAT_BEGIN
 90
        0
 91
        0
 92
        4
 93
        0
300

 40
0.0
140
1.0
 94
        2
 62
     0
340
11
144
0.18
309
CONTENTFORMAT_END
171
     1
301
MARGIN
  1
CELLMARGIN_BEGIN
 40
0.06
 40
0.06
 40
0.06
 40
0.06
 40
0.06
 40
0.06
309
CELLMARGIN_END
 94
        6
 95
        1
302
GRIDFORMAT
  1
GRIDFORMAT_BEGIN
 90
        0
 91
        1
 62
     0
 92
       -2
340
14
 93
        0
 40
0.045
309
GRIDFORMAT_END
 95
        2
302
GRIDFORMAT
  1
GRIDFORMAT_BEGIN
 90
        0
 91
        1
 62
     0
 92
       -2
340
14
 93
        0
 40
0.045
309
GRIDFORMAT_END
 95
        4
302
GRIDFORMAT
  1
GRIDFORMAT_BEGIN
 90
        0
 91
        1
 62
     0
 92
       -2
340
14
 93
        0
 40
0.045
309
GRIDFORMAT_END
 95
        8
302
GRIDFORMAT
  1
GRIDFORMAT_BEGIN
 90
        0
 91
        1
 62
     0
 92
       -2
340
14
 93
        0
 40
0.045
309
GRIDFORMAT_END
 95
       16
302
GRIDFORMAT
  1
GRIDFORMAT_BEGIN
 90
        0
 91
        1
 62
     0
 92
       -2
340
14
 93
        0
 40
0.045
309
GRIDFORMAT_END
 95
       32
302
GRIDFORMAT
  1
GRIDFORMAT_BEGIN
 90
        0
 91
        1
 62
     0
 92
       -2
340
14
 93
        0
 40
0.045
309
GRIDFORMAT_END
309
TABLEFORMAT_END
  1
CELLSTYLE_BEGIN
 90
        3
 91
        2
300
_DATA
309
CELLSTYLE_END
  0
ENDSEC
  0
EOF