0
SECTION
  2
HEADER
  9
$ACADVER
  1
AC1027
  9
$ACADMAINTVER
 70
     8
  9
$DWGCODEPAGE
  3
ANSI_1252
  9
$REQUIREDVERSIONS
160
                 0
  9
$COMMENTS
  1
File was created by Cadenas
  9
$CUSTOMPROPERTYTAG
  1
NN
  9
$CUSTOMPROPERTY
  1
Imperial - IP Pillow Block with Type E Dimensions 2-1/4 thru 7 inch 4-Bolt Trident Seal Expansion
  9
$CUSTOMPROPERTYTAG
  1
NT
  9
$CUSTOMPROPERTY
  1
Imperial/E 4 Bolt Piliow Block Bearings
  9
$CUSTOMPROPERTYTAG
  1
NB
  9
$CUSTOMPROPERTY
  1
071615
  9
$CUSTOMPROPERTYTAG
  1
NBSYN
  9
$CUSTOMPROPERTY
  1
$PN.
  9
$CUSTOMPROPERTYTAG
  1
LINA
  9
$CUSTOMPROPERTY
  1
071615
  9
$CUSTOMPROPERTYTAG
  1
SS
  9
$CUSTOMPROPERTY
  1
6-1/2
  9
$CUSTOMPROPERTYTAG
  1
TYPE
  9
$CUSTOMPROPERTY
  1
Non-Expansion
  9
$CUSTOMPROPERTYTAG
  1
PN
  9
$CUSTOMPROPERTY
  1
071615
  9
$CUSTOMPROPERTYTAG
  1
DESCRIPTION
  9
$CUSTOMPROPERTY
  1
EP4B-IP-608R
  9
$CUSTOMPROPERTYTAG
  1
ST
  9
$CUSTOMPROPERTY
  1
Contact Seal
  9
$CUSTOMPROPERTYTAG
  1
A
  9
$CUSTOMPROPERTY
  1
7.39
  9
$CUSTOMPROPERTYTAG
  1
B
  9
$CUSTOMPROPERTY
  1
26
  9
$CUSTOMPROPERTYTAG
  1
C
  9
$CUSTOMPROPERTY
  1
7.12
  9
$CUSTOMPROPERTYTAG
  1
DMIN
  9
$CUSTOMPROPERTY
  1
21.25
  9
$CUSTOMPROPERTYTAG
  1
DMAX
  9
$CUSTOMPROPERTY
  1
23.25
  9
$CUSTOMPROPERTYTAG
  1
E
  9
$CUSTOMPROPERTY
  1
4.62
  9
$CUSTOMPROPERTYTAG
  1
F
  9
$CUSTOMPROPERTY
  1
1
  9
$CUSTOMPROPERTYTAG
  1
G
  9
$CUSTOMPROPERTY
  1
2
  9
$CUSTOMPROPERTYTAG
  1
H
  9
$CUSTOMPROPERTY
  1
3.69
  9
$CUSTOMPROPERTYTAG
  1
J
  9
$CUSTOMPROPERTY
  1
14.94
  9
$CUSTOMPROPERTYTAG
  1
L
  9
$CUSTOMPROPERTY
  1
11.41
  9
$CUSTOMPROPERTYTAG
  1
M
  9
$CUSTOMPROPERTY
  1
7.5
  9
$CUSTOMPROPERTYTAG
  1
R
  9
$CUSTOMPROPERTY
  1
2.46
  9
$CUSTOMPROPERTYTAG
  1
S
  9
$CUSTOMPROPERTY
  1
4.94
  9
$CUSTOMPROPERTYTAG
  1
X
  9
$CUSTOMPROPERTY
  1
0.38
  9
$CUSTOMPROPERTYTAG
  1
Y
  9
$CUSTOMPROPERTY
  1
0.036
  9
$CUSTOMPROPERTYTAG
  1
Z
  9
$CUSTOMPROPERTY
  1
7.89
  9
$CUSTOMPROPERTYTAG
  1
COMPANY
  9
$CUSTOMPROPERTY
  1
baldor
  9
$INSBASE
 10
0.0
 20
0.0
 30
0.0
  9
$EXTMIN
 10
1.000000000000000E+20
 20
1.000000000000000E+20
 30
1.000000000000000E+20
  9
$EXTMAX
 10
-1.000000000000000E+20
 20
-1.000000000000000E+20
 30
-1.000000000000000E+20
  9
$LIMMIN
 10
0.0
 20
0.0
  9
$LIMMAX
 10
12.0
 20
9.0
  9
$ORTHOMODE
 70
     0
  9
$REGENMODE
 70
     1
  9
$FILLMODE
 70
     1
  9
$QTEXTMODE
 70
     0
  9
$MIRRTEXT
 70
     1
  9
$LTSCALE
 40
1.0
  9
$ATTMODE
 70
     1
  9
$TEXTSIZE
 40
0.2
  9
$TRACEWID
 40
0.05
  9
$TEXTSTYLE
  7
Standard
  9
$CLAYER
  8
0
  9
$CELTYPE
  6
ByLayer
  9
$CECOLOR
 62
   256
  9
$CELTSCALE
 40
1.0
  9
$DISPSILH
 70
     0
  9
$DIMSCALE
 40
1.0
  9
$DIMASZ
 40
0.18
  9
$DIMEXO
 40
0.0625
  9
$DIMDLI
 40
0.38
  9
$DIMRND
 40
0.0
  9
$DIMDLE
 40
0.0
  9
$DIMEXE
 40
0.18
  9
$DIMTP
 40
0.0
  9
$DIMTM
 40
0.0
  9
$DIMTXT
 40
0.18
  9
$DIMCEN
 40
0.09
  9
$DIMTSZ
 40
0.0
  9
$DIMTOL
 70
     0
  9
$DIMLIM
 70
     0
  9
$DIMTIH
 70
     1
  9
$DIMTOH
 70
     1
  9
$DIMSE1
 70
     0
  9
$DIMSE2
 70
     0
  9
$DIMTAD
 70
     0
  9
$DIMZIN
 70
     0
  9
$DIMBLK
  1

  9
$DIMASO
 70
     1
  9
$DIMSHO
 70
     1
  9
$DIMPOST
  1

  9
$DIMAPOST
  1

  9
$DIMALT
 70
     0
  9
$DIMALTD
 70
     2
  9
$DIMALTF
 40
25.4
  9
$DIMLFAC
 40
1.0
  9
$DIMTOFL
 70
     0
  9
$DIMTVP
 40
0.0
  9
$DIMTIX
 70
     0
  9
$DIMSOXD
 70
     0
  9
$DIMSAH
 70
     0
  9
$DIMBLK1
  1

  9
$DIMBLK2
  1

  9
$DIMSTYLE
  2
Standard
  9
$DIMCLRD
 70
     0
  9
$DIMCLRE
 70
     0
  9
$DIMCLRT
 70
     0
  9
$DIMTFAC
 40
1.0
  9
$DIMGAP
 40
0.09
  9
$DIMJUST
 70
     0
  9
$DIMSD1
 70
     0
  9
$DIMSD2
 70
     0
  9
$DIMTOLJ
 70
     1
  9
$DIMTZIN
 70
     0
  9
$DIMALTZ
 70
     0
  9
$DIMALTTZ
 70
     0
  9
$DIMUPT
 70
     0
  9
$DIMDEC
 70
     4
  9
$DIMTDEC
 70
     4
  9
$DIMALTU
 70
     2
  9
$DIMALTTD
 70
     2
  9
$DIMTXSTY
  7
Standard
  9
$DIMAUNIT
 70
     0
  9
$DIMADEC
 70
     0
  9
$DIMALTRND
 40
0.0
  9
$DIMAZIN
 70
     0
  9
$DIMDSEP
 70
    46
  9
$DIMATFIT
 70
     3
  9
$DIMFRAC
 70
     0
  9
$DIMLDRBLK
  1

  9
$DIMLUNIT
 70
     2
  9
$DIMLWD
 70
    -2
  9
$DIMLWE
 70
    -2
  9
$DIMTMOVE
 70
     0
  9
$DIMFXL
 40
1.0
  9
$DIMFXLON
 70
     0
  9
$DIMJOGANG
 40
0.7853981633974483
  9
$DIMTFILL
 70
     0
  9
$DIMTFILLCLR
 70
     0
  9
$DIMARCSYM
 70
     0
  9
$DIMLTYPE
  6

  9
$DIMLTEX1
  6

  9
$DIMLTEX2
  6

  9
$DIMTXTDIRECTION
 70
     0
  9
$LUNITS
 70
     2
  9
$LUPREC
 70
     4
  9
$SKETCHINC
 40
0.1
  9
$FILLETRAD
 40
0.5
  9
$AUNITS
 70
     0
  9
$AUPREC
 70
     0
  9
$MENU
  1
.
  9
$ELEVATION
 40
0.0
  9
$PELEVATION
 40
0.0
  9
$THICKNESS
 40
0.0
  9
$LIMCHECK
 70
     0
  9
$CHAMFERA
 40
0.0
  9
$CHAMFERB
 40
0.0
  9
$CHAMFERC
 40
0.0
  9
$CHAMFERD
 40
0.0
  9
$SKPOLY
 70
     0
  9
$TDCREATE
 40
2458168.982947176
  9
$TDUCREATE
 40
2458168.941280509
  9
$TDUPDATE
 40
2458168.982947361
  9
$TDUUPDATE
 40
2458168.941280694
  9
$TDINDWG
 40
0.0000000116
  9
$TDUSRTIMER
 40
0.0000000116
  9
$USRTIMER
 70
     1
  9
$ANGBASE
 50
0.0
  9
$ANGDIR
 70
     0
  9
$PDMODE
 70
     0
  9
$PDSIZE
 40
0.0
  9
$PLINEWID
 40
0.0
  9
$SPLFRAME
 70
     0
  9
$SPLINETYPE
 70
     6
  9
$SPLINESEGS
 70
     8
  9
$HANDSEED
  5
279
  9
$SURFTAB1
 70
     6
  9
$SURFTAB2
 70
     6
  9
$SURFTYPE
 70
     6
  9
$SURFU
 70
     6
  9
$SURFV
 70
     6
  9
$UCSBASE
  2

  9
$UCSNAME
  2

  9
$UCSORG
 10
0.0
 20
0.0
 30
0.0
  9
$UCSXDIR
 10
1.0
 20
0.0
 30
0.0
  9
$UCSYDIR
 10
0.0
 20
1.0
 30
0.0
  9
$UCSORTHOREF
  2

  9
$UCSORTHOVIEW
 70
     0
  9
$UCSORGTOP
 10
0.0
 20
0.0
 30
0.0
  9
$UCSORGBOTTOM
 10
0.0
 20
0.0
 30
0.0
  9
$UCSORGLEFT
 10
0.0
 20
0.0
 30
0.0
  9
$UCSORGRIGHT
 10
0.0
 20
0.0
 30
0.0
  9
$UCSORGFRONT
 10
0.0
 20
0.0
 30
0.0
  9
$UCSORGBACK
 10
0.0
 20
0.0
 30
0.0
  9
$PUCSBASE
  2

  9
$PUCSNAME
  2

  9
$PUCSORG
 10
0.0
 20
0.0
 30
0.0
  9
$PUCSXDIR
 10
1.0
 20
0.0
 30
0.0
  9
$PUCSYDIR
 10
0.0
 20
1.0
 30
0.0
  9
$PUCSORTHOREF
  2

  9
$PUCSORTHOVIEW
 70
     0
  9
$PUCSORGTOP
 10
0.0
 20
0.0
 30
0.0
  9
$PUCSORGBOTTOM
 10
0.0
 20
0.0
 30
0.0
  9
$PUCSORGLEFT
 10
0.0
 20
0.0
 30
0.0
  9
$PUCSORGRIGHT
 10
0.0
 20
0.0
 30
0.0
  9
$PUCSORGFRONT
 10
0.0
 20
0.0
 30
0.0
  9
$PUCSORGBACK
 10
0.0
 20
0.0
 30
0.0
  9
$USERI1
 70
     0
  9
$USERI2
 70
     0
  9
$USERI3
 70
     0
  9
$USERI4
 70
     0
  9
$USERI5
 70
     0
  9
$USERR1
 40
0.0
  9
$USERR2
 40
0.0
  9
$USERR3
 40
0.0
  9
$USERR4
 40
0.0
  9
$USERR5
 40
0.0
  9
$WORLDVIEW
 70
     1
  9
$SHADEDGE
 70
     3
  9
$SHADEDIF
 70
    70
  9
$TILEMODE
 70
     1
  9
$MAXACTVP
 70
    64
  9
$PINSBASE
 10
0.0
 20
0.0
 30
0.0
  9
$PLIMCHECK
 70
     0
  9
$PEXTMIN
 10
1.000000000000000E+20
 20
1.000000000000000E+20
 30
1.000000000000000E+20
  9
$PEXTMAX
 10
-1.000000000000000E+20
 20
-1.000000000000000E+20
 30
-1.000000000000000E+20
  9
$PLIMMIN
 10
0.0
 20
0.0
  9
$PLIMMAX
 10
12.0
 20
9.0
  9
$UNITMODE
 70
     0
  9
$VISRETAIN
 70
     1
  9
$PLINEGEN
 70
     0
  9
$PSLTSCALE
 70
     1
  9
$TREEDEPTH
 70
  3020
  9
$CMLSTYLE
  2
Standard
  9
$CMLJUST
 70
     0
  9
$CMLSCALE
 40
1.0
  9
$PROXYGRAPHICS
 70
     1
  9
$MEASUREMENT
 70
     0
  9
$CELWEIGHT
370
    -1
  9
$ENDCAPS
280
     0
  9
$JOINSTYLE
280
     0
  9
$LWDISPLAY
290
     0
  9
$INSUNITS
 70
     1
  9
$HYPERLINKBASE
  1

  9
$STYLESHEET
  1

  9
$XEDIT
290
     1
  9
$CEPSNTYPE
380
     0
  9
$PSTYLEMODE
290
     1
  9
$FINGERPRINTGUID
  2
{397AAF57-C102-41BE-A90F-864FAF76520F}
  9
$VERSIONGUID
  2
{FAEB1C32-E019-11D5-929B-00C0DF256EC4}
  9
$EXTNAMES
290
     1
  9
$PSVPSCALE
 40
0.0
  9
$OLESTARTUP
290
     0
  9
$SORTENTS
280
   127
  9
$INDEXCTL
280
     0
  9
$HIDETEXT
280
     1
  9
$XCLIPFRAME
280
     2
  9
$HALOGAP
280
     0
  9
$OBSCOLOR
 70
   257
  9
$OBSLTYPE
280
     0
  9
$INTERSECTIONDISPLAY
280
     0
  9
$INTERSECTIONCOLOR
 70
   257
  9
$DIMASSOC
280
     2
  9
$PROJECTNAME
  1

  9
$CAMERADISPLAY
290
     0
  9
$LENSLENGTH
 40
50.0
  9
$CAMERAHEIGHT
 40
0.0
  9
$STEPSPERSEC
 40
2.0
  9
$STEPSIZE
 40
6.0
  9
$3DDWFPREC
 40
2.0
  9
$PSOLWIDTH
 40
0.25
  9
$PSOLHEIGHT
 40
4.0
  9
$LOFTANG1
 40
1.570796326794897
  9
$LOFTANG2
 40
1.570796326794897
  9
$LOFTMAG1
 40
0.0
  9
$LOFTMAG2
 40
0.0
  9
$LOFTPARAM
 70
     7
  9
$LOFTNORMALS
280
     1
  9
$LATITUDE
 40
37.795
  9
$LONGITUDE
 40
-122.394
  9
$NORTHDIRECTION
 40
0.0
  9
$TIMEZONE
 70
 -8000
  9
$LIGHTGLYPHDISPLAY
280
     1
  9
$TILEMODELIGHTSYNCH
280
     1
  9
$CMATERIAL
347
44
  9
$SOLIDHIST
280
     0
  9
$SHOWHIST
280
     1
  9
$DWFFRAME
280
     2
  9
$DGNFRAME
280
     2
  9
$REALWORLDSCALE
290
     1
  9
$INTERFERECOLOR
 62
   256
  9
$CSHADOW
280
     0
  9
$SHADOWPLANELOCATION
 40
0.0
  0
ENDSEC
  0
SECTION
  2
CLASSES
  0
CLASS
  1
ACDBDICTIONARYWDFLT
  2
AcDbDictionaryWithDefault
  3
ObjectDBX Classes
 90
        0
 91
        4
280
     0
281
     0
  0
CLASS
  1
VISUALSTYLE
  2
AcDbVisualStyle
  3
ObjectDBX Classes
 90
     4095
 91
        4
280
     0
281
     0
  0
CLASS
  1
MATERIAL
  2
AcDbMaterial
  3
ObjectDBX Classes
 90
     1153
 91
        4
280
     0
281
     0
  0
CLASS
  1
SCALE
  2
AcDbScale
  3
ObjectDBX Classes
 90
     1153
 91
        4
280
     0
281
     0
  0
CLASS
  1
TABLESTYLE
  2
AcDbTableStyle
  3
ObjectDBX Classes
 90
     4095
 91
        4
280
     0
281
     0
  0
CLASS
  1
MLEADERSTYLE
  2
AcDbMLeaderStyle
  3
ACDB_MLEADERSTYLE_CLASS
 90
     4095
 91
        4
280
     0
281
     0
  0
CLASS
  1
SUN
  2
AcDbSun
  3
SCENEOE
 90
     1153
 91
        4
280
     0
281
     0
  0
CLASS
  1
DICTIONARYVAR
  2
AcDbDictionaryVar
  3
ObjectDBX Classes
 90
        0
 91
        4
280
     0
281
     0
  0
CLASS
  1
CELLSTYLEMAP
  2
AcDbCellStyleMap
  3
ObjectDBX Classes
 90
     1152
 91
        4
280
     0
281
     0
  0
ENDSEC
  0
SECTION
  2
TABLES
  0
TABLE
  2
VPORT
  5
8
330
0
100
AcDbSymbolTable
 70
     1
  0
VPORT
  5
29
330
8
100
AcDbSymbolTableRecord
100
AcDbViewportTableRecord
  2
*Active
 70
     0
 10
0.0
 20
0.0
 11
1.0
 21
1.0
 12
0.0000000000000036
 22
-0.6976656249999991
 13
0.0
 23
0.0
 14
0.5
 24
0.5
 15
0.5
 25
0.5
 16
0.0
 26
0.0
 36
1.0
 17
0.0
 27
0.0
 37
0.0
 40
9.411877874999998
 41
2.81771611916501
 42
50.0
 43
0.0
 44
0.0
 50
0.0
 51
0.0
 71
     0
 72
   100
 73
     1
 74
     3
 75
     0
 76
     0
 77
     0
 78
     0
281
     0
 65
     1
110
0.0
120
0.0
130
0.0
111
1.0
121
0.0
131
0.0
112
0.0
122
1.0
132
0.0
 79
     0
146
0.0
348
2F
 60
     3
 61
     5
292
     1
282
     1
141
0.0
142
0.0
 63
   250
361
6D
  0
ENDTAB
  0
TABLE
  2
LTYPE
  5
5
330
0
100
AcDbSymbolTable
 70
     3
  0
LTYPE
  5
14
330
5
100
AcDbSymbolTableRecord
100
AcDbLinetypeTableRecord
  2
ByBlock
 70
     0
  3

 72
    65
 73
     0
 40
0.0
  0
LTYPE
  5
15
330
5
100
AcDbSymbolTableRecord
100
AcDbLinetypeTableRecord
  2
ByLayer
 70
     0
  3

 72
    65
 73
     0
 40
0.0
  0
LTYPE
  5
16
330
5
100
AcDbSymbolTableRecord
100
AcDbLinetypeTableRecord
  2
Continuous
 70
     0
  3
Solid line
 72
    65
 73
     0
 40
0.0
  0
LTYPE
  5
9B
330
5
100
AcDbSymbolTableRecord
100
AcDbLinetypeTableRecord
  2
Dashed
 70
     0
  3

 72
    65
 73
     2
 40
2.0
 49
1.0
 74
     0
 49
-1.0
 74
     0
  0
LTYPE
  5
210
330
5
100
AcDbSymbolTableRecord
100
AcDbLinetypeTableRecord
  2
Center
 70
     0
  3

 72
    65
 73
     4
 40
1.5
 49
0.45
 74
     0
 49
-0.5
 74
     0
 49
0.05
 74
     0
 49
-0.5
 74
     0
  0
ENDTAB
  0
TABLE
  2
LAYER
  5
2
330
0
100
AcDbSymbolTable
 70
     7
  0
LAYER
  5
10
330
2
100
AcDbSymbolTableRecord
100
AcDbLayerTableRecord
  2
0
 70
     0
 62
     7
  6
Continuous
370
    -3
390
F
347
46
348
0
  0
LAYER
  5
72
330
2
100
AcDbSymbolTableRecord
100
AcDbLayerTableRecord
  2
AM_6
 70
     0
 62
    -2
  6
Continuous
370
    35
390
F
347
46
348
0
  0
LAYER
  5
9C
330
2
100
AcDbSymbolTableRecord
100
AcDbLayerTableRecord
  2
AM_9
 70
     0
 62
     6
  6
Dashed
370
    25
390
F
347
46
348
0
  0
LAYER
  5
B8
330
2
100
AcDbSymbolTableRecord
100
AcDbLayerTableRecord
  2
AM_4
 70
     0
 62
     7
  6
Continuous
370
    50
390
F
347
46
348
0
  0
LAYER
  5
EB
330
2
100
AcDbSymbolTableRecord
100
AcDbLayerTableRecord
  2
AM_5
 70
     0
 62
     3
  6
Continuous
370
    25
390
F
347
46
348
0
  0
LAYER
  5
211
330
2
100
AcDbSymbolTableRecord
100
AcDbLayerTableRecord
  2
AM_7
 70
     0
 62
     7
  6
Center
370
    25
390
F
347
46
348
0
  0
LAYER
  5
264
330
2
100
AcDbSymbolTableRecord
100
AcDbLayerTableRecord
  2
ConnectionPoints
 70
     0
 62
     7
  6
Continuous
370
    50
390
F
347
46
348
0
  0
ENDTAB
  0
TABLE
  2
STYLE
  5
3
330
0
100
AcDbSymbolTable
 70
     1
  0
STYLE
  5
11
330
3
100
AcDbSymbolTableRecord
100
AcDbTextStyleTableRecord
  2
Standard
 70
     0
 40
0.0
 41
1.0
 50
0.0
 71
     0
 42
0.2
  3
txt
  4

  0
ENDTAB
  0
TABLE
  2
VIEW
  5
6
330
0
100
AcDbSymbolTable
 70
     0
  0
ENDTAB
  0
TABLE
  2
UCS
  5
7
330
0
100
AcDbSymbolTable
 70
     0
  0
ENDTAB
  0
TABLE
  2
APPID
  5
9
330
0
100
AcDbSymbolTable
 70
     1
  0
APPID
  5
12
330
9
100
AcDbSymbolTableRecord
100
AcDbRegAppTableRecord
  2
ACAD
 70
     0
  0
ENDTAB
  0
TABLE
  2
DIMSTYLE
  5
A
330
0
100
AcDbSymbolTable
 70
     1
100
AcDbDimStyleTable
  0
DIMSTYLE
105
27
330
A
100
AcDbSymbolTableRecord
100
AcDbDimStyleTableRecord
  2
Standard
 70
     0
178
     0
340
11
  0
ENDTAB
  0
TABLE
  2
BLOCK_RECORD
  5
1
330
0
100
AcDbSymbolTable
 70
     8
  0
BLOCK_RECORD
  5
1F
330
1
100
AcDbSymbolTableRecord
100
AcDbBlockTableRecord
  2
*Model_Space
340
22
 70
     0
280
     1
281
     0
  0
BLOCK_RECORD
  5
1B
330
1
100
AcDbSymbolTableRecord
100
AcDbBlockTableRecord
  2
*Paper_Space
340
1E
 70
     0
280
     1
281
     0
  0
BLOCK_RECORD
  5
23
330
1
100
AcDbSymbolTableRecord
100
AcDbBlockTableRecord
  2
*Paper_Space0
340
26
 70
     0
280
     1
281
     0
  0
BLOCK_RECORD
  5
6E
330
1
100
AcDbSymbolTableRecord
100
AcDbBlockTableRecord
  2
1_071615_4
340
0
102
{BLKREFS
331
6F
102
}
 70
     0
280
     1
281
     0
  0
BLOCK_RECORD
  5
8F
330
1
100
AcDbSymbolTableRecord
100
AcDbBlockTableRecord
  2
2_405015E_Inch_0_in_071615_4
340
0
102
{BLKREFS
331
90
102
}
 70
     0
280
     1
281
     0
  0
BLOCK_RECORD
  5
DB
330
1
100
AcDbSymbolTableRecord
100
AcDbBlockTableRecord
  2
3_ASME_B18_3_3_8_1_0_in_071615_4
340
0
102
{BLKREFS
331
DC
102
}
 70
     0
280
     1
281
     0
  0
BLOCK_RECORD
  5
EE
330
1
100
AcDbSymbolTableRecord
100
AcDbBlockTableRecord
  2
4_ASME_B18_3_3_8_2_0_in_071615_4
340
0
102
{BLKREFS
331
EF
102
}
 70
     0
280
     1
281
     0
  0
BLOCK_RECORD
  5
110
330
1
100
AcDbSymbolTableRecord
100
AcDbBlockTableRecord
  2
5_037930LWE_0_in_071615_4
340
0
102
{BLKREFS
331
111
102
}
 70
     0
280
     1
281
     0
  0
BLOCK_RECORD
  5
149
330
1
100
AcDbSymbolTableRecord
100
AcDbBlockTableRecord
  2
6_037938E_0_in_071615_4
340
0
102
{BLKREFS
331
14A
102
}
 70
     0
280
     1
281
     0
  0
BLOCK_RECORD
  5
1C6
330
1
100
AcDbSymbolTableRecord
100
AcDbBlockTableRecord
  2
7_071615H_0_in_071615_4
340
0
102
{BLKREFS
331
1C7
102
}
 70
     0
280
     1
281
     0
  0
ENDTAB
  0
ENDSEC
  0
SECTION
  2
BLOCKS
  0
BLOCK
  5
20
330
1F
100
AcDbEntity
  8
0
100
AcDbBlockBegin
  2
*Model_Space
 70
     0
 10
0.0
 20
0.0
 30
0.0
  3
*Model_Space
  1

  0
ENDBLK
  5
21
330
1F
100
AcDbEntity
  8
0
100
AcDbBlockEnd
  0
BLOCK
  5
1C
330
1B
100
AcDbEntity
 67
     1
  8
0
100
AcDbBlockBegin
  2
*Paper_Space
 70
     0
 10
0.0
 20
0.0
 30
0.0
  3
*Paper_Space
  1

  0
ENDBLK
  5
1D
330
1B
100
AcDbEntity
 67
     1
  8
0
100
AcDbBlockEnd
  0
BLOCK
  5
24
330
23
100
AcDbEntity
  8
0
100
AcDbBlockBegin
  2
*Paper_Space0
 70
     0
 10
0.0
 20
0.0
 30
0.0
  3
*Paper_Space0
  1

  0
ENDBLK
  5
25
330
23
100
AcDbEntity
  8
0
100
AcDbBlockEnd
  0
BLOCK
  5
70
330
6E
100
AcDbEntity
  8
0
100
AcDbBlockBegin
  2
1_071615_4
 70
     2
 10
0.0
 20
0.0
 30
0.0
  3
1_071615_4
  1

  0
ATTDEF
  5
73
330
6E
100
AcDbEntity
  8
AM_6
100
AcDbText
 10
18.00000000000001
 20
3.916
 30
0.0
 40
0.5
  1
Imperial - IP Pillow Block with Type E Dimensions 2-1/4 thru 7 inch 4-Bolt Trident Seal Expansion
100
AcDbAttributeDefinition
  3

  2
NN
 70
     8
280
     0
  0
ATTDEF
  5
74
330
6E
100
AcDbEntity
  8
AM_6
100
AcDbText
 10
18.00000000000001
 20
3.416
 30
0.0
 40
0.5
  1
Imperial/E 4 Bolt Piliow Block Bearings
100
AcDbAttributeDefinition
  3

  2
NT
 70
     8
280
     0
  0
ATTDEF
  5
75
330
6E
100
AcDbEntity
  8
AM_6
100
AcDbText
 10
18.00000000000001
 20
2.916
 30
0.0
 40
0.5
  1
071615
100
AcDbAttributeDefinition
  3

  2
NB
 70
     8
280
     0
  0
ATTDEF
  5
76
330
6E
100
AcDbEntity
  8
AM_6
100
AcDbText
 10
18.00000000000001
 20
2.416
 30
0.0
 40
0.5
  1
$PN.
100
AcDbAttributeDefinition
  3

  2
NBSYN
 70
     8
280
     0
  0
ATTDEF
  5
77
330
6E
100
AcDbEntity
  8
AM_6
100
AcDbText
 10
18.00000000000001
 20
1.916
 30
0.0
 40
0.5
  1
071615
100
AcDbAttributeDefinition
  3

  2
LINA
 70
     8
280
     0
  0
ATTDEF
  5
78
330
6E
100
AcDbEntity
  8
AM_6
100
AcDbText
 10
18.00000000000001
 20
1.416
 30
0.0
 40
0.5
  1
6-1/2
100
AcDbAttributeDefinition
  3

  2
SS
 70
     8
280
     0
  0
ATTDEF
  5
79
330
6E
100
AcDbEntity
  8
AM_6
100
AcDbText
 10
18.00000000000001
 20
0.9159999999999999
 30
0.0
 40
0.5
  1
Non-Expansion
100
AcDbAttributeDefinition
  3

  2
TYPE
 70
     8
280
     0
  0
ATTDEF
  5
7A
330
6E
100
AcDbEntity
  8
AM_6
100
AcDbText
 10
18.00000000000001
 20
0.4159999999999999
 30
0.0
 40
0.5
  1
071615
100
AcDbAttributeDefinition
  3

  2
PN
 70
     8
280
     0
  0
ATTDEF
  5
7B
330
6E
100
AcDbEntity
  8
AM_6
100
AcDbText
 10
18.00000000000001
 20
-0.0840000000000001
 30
0.0
 40
0.5
  1
EP4B-IP-608R
100
AcDbAttributeDefinition
  3

  2
DESCRIPTION
 70
     8
280
     0
  0
ATTDEF
  5
7C
330
6E
100
AcDbEntity
  8
AM_6
100
AcDbText
 10
18.00000000000001
 20
-0.5840000000000001
 30
0.0
 40
0.5
  1
Contact Seal
100
AcDbAttributeDefinition
  3

  2
ST
 70
     8
280
     0
  0
ATTDEF
  5
7D
330
6E
100
AcDbEntity
  8
AM_6
100
AcDbText
 10
18.00000000000001
 20
-1.084
 30
0.0
 40
0.5
  1
7.39
100
AcDbAttributeDefinition
  3

  2
A
 70
     8
280
     0
  0
ATTDEF
  5
7E
330
6E
100
AcDbEntity
  8
AM_6
100
AcDbText
 10
18.00000000000001
 20
-1.584
 30
0.0
 40
0.5
  1
26
100
AcDbAttributeDefinition
  3

  2
B
 70
     8
280
     0
  0
ATTDEF
  5
7F
330
6E
100
AcDbEntity
  8
AM_6
100
AcDbText
 10
18.00000000000001
 20
-2.084
 30
0.0
 40
0.5
  1
7.12
100
AcDbAttributeDefinition
  3

  2
C
 70
     8
280
     0
  0
ATTDEF
  5
80
330
6E
100
AcDbEntity
  8
AM_6
100
AcDbText
 10
18.00000000000001
 20
-2.584
 30
0.0
 40
0.5
  1
21.25
100
AcDbAttributeDefinition
  3

  2
DMIN
 70
     8
280
     0
  0
ATTDEF
  5
81
330
6E
100
AcDbEntity
  8
AM_6
100
AcDbText
 10
18.00000000000001
 20
-3.084
 30
0.0
 40
0.5
  1
23.25
100
AcDbAttributeDefinition
  3

  2
DMAX
 70
     8
280
     0
  0
ATTDEF
  5
82
330
6E
100
AcDbEntity
  8
AM_6
100
AcDbText
 10
18.00000000000001
 20
-3.584
 30
0.0
 40
0.5
  1
4.62
100
AcDbAttributeDefinition
  3

  2
E
 70
     8
280
     0
  0
ATTDEF
  5
83
330
6E
100
AcDbEntity
  8
AM_6
100
AcDbText
 10
18.00000000000001
 20
-4.084
 30
0.0
 40
0.5
  1
1
100
AcDbAttributeDefinition
  3

  2
F
 70
     8
280
     0
  0
ATTDEF
  5
84
330
6E
100
AcDbEntity
  8
AM_6
100
AcDbText
 10
18.00000000000001
 20
-4.584
 30
0.0
 40
0.5
  1
2
100
AcDbAttributeDefinition
  3

  2
G
 70
     8
280
     0
  0
ATTDEF
  5
85
330
6E
100
AcDbEntity
  8
AM_6
100
AcDbText
 10
18.00000000000001
 20
-5.084
 30
0.0
 40
0.5
  1
3.69
100
AcDbAttributeDefinition
  3

  2
H
 70
     8
280
     0
  0
ATTDEF
  5
86
330
6E
100
AcDbEntity
  8
AM_6
100
AcDbText
 10
18.00000000000001
 20
-5.584
 30
0.0
 40
0.5
  1
14.94
100
AcDbAttributeDefinition
  3

  2
J
 70
     8
280
     0
  0
ATTDEF
  5
87
330
6E
100
AcDbEntity
  8
AM_6
100
AcDbText
 10
18.00000000000001
 20
-6.084
 30
0.0
 40
0.5
  1
11.41
100
AcDbAttributeDefinition
  3

  2
L
 70
     8
280
     0
  0
ATTDEF
  5
88
330
6E
100
AcDbEntity
  8
AM_6
100
AcDbText
 10
18.00000000000001
 20
-6.584
 30
0.0
 40
0.5
  1
7.5
100
AcDbAttributeDefinition
  3

  2
M
 70
     8
280
     0
  0
ATTDEF
  5
89
330
6E
100
AcDbEntity
  8
AM_6
100
AcDbText
 10
18.00000000000001
 20
-7.084
 30
0.0
 40
0.5
  1
2.46
100
AcDbAttributeDefinition
  3

  2
R
 70
     8
280
     0
  0
ATTDEF
  5
8A
330
6E
100
AcDbEntity
  8
AM_6
100
AcDbText
 10
18.00000000000001
 20
-7.584
 30
0.0
 40
0.5
  1
4.94
100
AcDbAttributeDefinition
  3

  2
S
 70
     8
280
     0
  0
ATTDEF
  5
8B
330
6E
100
AcDbEntity
  8
AM_6
100
AcDbText
 10
18.00000000000001
 20
-8.084
 30
0.0
 40
0.5
  1
0.38
100
AcDbAttributeDefinition
  3

  2
X
 70
     8
280
     0
  0
ATTDEF
  5
8C
330
6E
100
AcDbEntity
  8
AM_6
100
AcDbText
 10
18.00000000000001
 20
-8.584
 30
0.0
 40
0.5
  1
0.036
100
AcDbAttributeDefinition
  3

  2
Y
 70
     8
280
     0
  0
ATTDEF
  5
8D
330
6E
100
AcDbEntity
  8
AM_6
100
AcDbText
 10
18.00000000000001
 20
-9.084
 30
0.0
 40
0.5
  1
7.89
100
AcDbAttributeDefinition
  3

  2
Z
 70
     8
280
     0
  0
ATTDEF
  5
8E
330
6E
100
AcDbEntity
  8
AM_6
100
AcDbText
 10
18.00000000000001
 20
-9.584
 30
0.0
 40
0.5
  1
baldor
100
AcDbAttributeDefinition
  3

  2
COMPANY
 70
     8
280
     0
  0
INSERT
  5
90
330
6E
100
AcDbEntity
  8
0
100
AcDbBlockReference
  2
2_405015E_Inch_0_in_071615_4
 10
0.0
 20
0.0
 30
0.0
  0
INSERT
  5
DC
330
6E
100
AcDbEntity
  8
0
100
AcDbBlockReference
  2
3_ASME_B18_3_3_8_1_0_in_071615_4
 10
0.0
 20
0.0
 30
0.0
  0
INSERT
  5
EF
330
6E
100
AcDbEntity
  8
0
100
AcDbBlockReference
  2
4_ASME_B18_3_3_8_2_0_in_071615_4
 10
0.0
 20
0.0
 30
0.0
  0
INSERT
  5
111
330
6E
100
AcDbEntity
  8
0
100
AcDbBlockReference
  2
5_037930LWE_0_in_071615_4
 10
0.0
 20
0.0
 30
0.0
  0
INSERT
  5
14A
330
6E
100
AcDbEntity
  8
0
100
AcDbBlockReference
  2
6_037938E_0_in_071615_4
 10
0.0
 20
0.0
 30
0.0
  0
INSERT
  5
1C7
330
6E
100
AcDbEntity
  8
0
100
AcDbBlockReference
  2
7_071615H_0_in_071615_4
 10
0.0
 20
0.0
 30
0.0
  0
ENDBLK
  5
71
330
6E
100
AcDbEntity
  8
0
100
AcDbBlockEnd
  0
BLOCK
  5
91
330
8F
100
AcDbEntity
  8
0
100
AcDbBlockBegin
  2
2_405015E_Inch_0_in_071615_4
 70
     2
 10
0.0
 20
0.0
 30
0.0
  3
2_405015E_Inch_0_in_071615_4
  1

  0
ATTDEF
  5
93
330
8F
100
AcDbEntity
  8
AM_6
100
AcDbText
 10
1.516150533277438
 20
0.2525907427704616
 30
0.0
 40
0.5
  1
405015E -Inch
100
AcDbAttributeDefinition
  3

  2
NN
 70
     8
280
     0
  0
ATTDEF
  5
94
330
8F
100
AcDbEntity
  8
AM_6
100
AcDbText
 10
1.516150533277438
 20
-0.2474092572295384
 30
0.0
 40
0.5
  1
Grease Fitting
100
AcDbAttributeDefinition
  3

  2
NT
 70
     8
280
     0
  0
ATTDEF
  5
95
330
8F
100
AcDbEntity
  8
AM_6
100
AcDbText
 10
1.516150533277438
 20
-0.7474092572295383
 30
0.0
 40
0.5
  1
405015E-Inch
100
AcDbAttributeDefinition
  3

  2
NB
 70
     8
280
     0
  0
ATTDEF
  5
96
330
8F
100
AcDbEntity
  8
AM_6
100
AcDbText
 10
1.516150533277438
 20
-1.247409257229538
 30
0.0
 40
0.5
  1
$MN.-Inch
100
AcDbAttributeDefinition
  3

  2
NBSYN
 70
     8
280
     0
  0
ATTDEF
  5
97
330
8F
100
AcDbEntity
  8
AM_6
100
AcDbText
 10
1.516150533277438
 20
-1.747409257229538
 30
0.0
 40
0.5
  1
405015E
100
AcDbAttributeDefinition
  3

  2
LINA
 70
     8
280
     0
  0
ATTDEF
  5
98
330
8F
100
AcDbEntity
  8
AM_6
100
AcDbText
 10
1.516150533277438
 20
-2.247409257229538
 30
0.0
 40
0.5
  1
405015E
100
AcDbAttributeDefinition
  3

  2
MN
 70
     8
280
     0
  0
ATTDEF
  5
99
330
8F
100
AcDbEntity
  8
AM_6
100
AcDbText
 10
1.516150533277438
 20
-2.747409257229538
 30
0.0
 40
0.5
  1
1/8 x 27PTF
100
AcDbAttributeDefinition
  3

  2
T
 70
     8
280
     0
  0
ATTDEF
  5
9A
330
8F
100
AcDbEntity
  8
AM_6
100
AcDbText
 10
1.516150533277438
 20
-3.247409257229538
 30
0.0
 40
0.5
  1
baldor
100
AcDbAttributeDefinition
  3

  2
COMPANY
 70
     8
280
     0
  0
ELLIPSE
  5
9D
330
8F
100
AcDbEntity
  8
AM_9
100
AcDbEllipse
 10
-3.637499999999998
 20
0.0000000000000004
 30
0.0
 11
-2.974107518188895E-17
 21
-0.161902872472269
 31
0.0
210
0.0
220
0.0
230
1.0
 40
0.8660254037844397
 41
0.0
 42
6.283185307179586
  0
LWPOLYLINE
  5
9E
330
8F
100
AcDbEntity
  8
AM_9
100
AcDbPolyline
 90
        4
 70
     0
 43
0.0
 10
-3.963976856926152
 20
0.1262953713852311
 10
-3.913477390752139
 20
0.1577431973843555
 10
-3.888848837232496
 20
0.1735630385535392
 10
-3.864721528538922
 20
0.1894430570778464
  0
LWPOLYLINE
  5
9F
330
8F
100
AcDbEntity
  8
AM_9
100
AcDbPolyline
 90
        5
 70
     0
 43
0.0
 10
-3.959443057077845
 20
0.0000000000000004
 10
-3.959746764079844
 20
0.0315738428463081
 10
-3.960639747470362
 20
0.0631476856926157
 10
-3.962074465325427
 20
0.0947562840569835
 10
-3.963976856926152
 20
0.1262953713852311
  0
LWPOLYLINE
  5
A0
330
8F
100
AcDbEntity
  8
AM_9
100
AcDbPolyline
 90
        4
 70
     0
 43
0.0
 10
-3.864721528538922
 20
-0.1894430570778455
 10
-3.888705617675652
 20
-0.1736561356546917
 10
-3.913278983200901
 20
-0.1578692142315379
 10
-3.963976856926152
 20
-0.1262953713852303
  0
LWPOLYLINE
  5
A1
330
8F
100
AcDbEntity
  8
AM_9
100
AcDbPolyline
 90
        4
 70
     0
 43
0.0
 10
-3.963976856926152
 20
-0.1262953713852303
 10
-3.962184263336767
 20
-0.0967996321117974
 10
-3.960155971199381
 20
-0.048542441247754
 10
-3.959443057077845
 20
0.0000000000000004
  0
LINE
  5
A2
330
8F
100
AcDbEntity
  8
AM_9
100
AcDbLine
 10
-4.004909257229538
 20
-0.1262953713852303
 30
0.0
 11
-3.963976856926152
 21
-0.1262953713852303
 31
0.0
  0
LINE
  5
A3
330
8F
100
AcDbEntity
  8
AM_9
100
AcDbLine
 10
-4.004909257229538
 20
0.1262953713852311
 30
0.0
 11
-3.963976856926152
 21
0.1262953713852311
 31
0.0
  0
LWPOLYLINE
  5
A4
330
8F
100
AcDbEntity
  8
AM_9
100
AcDbPolyline
 90
        3
 70
     0
 43
0.0
 10
-4.009443057077845
 20
0.0000000000000004
 10
-4.008734276719276
 20
-0.0483998160558985
 10
-4.007177270281704
 20
-0.0876643906215052
  0
LWPOLYLINE
  5
A5
330
8F
100
AcDbEntity
  8
AM_9
100
AcDbPolyline
 90
        4
 70
     0
 43
0.0
 10
-4.007180568555147
 20
0.0875981884876054
 10
-4.008235794603035
 20
0.0634316146914371
 10
-4.009135776170731
 20
0.0317600370486147
 10
-4.009443057077845
 20
0.0000000000000004
  0
LWPOLYLINE
  5
A6
330
8F
100
AcDbEntity
  8
AM_9
100
AcDbPolyline
 90
        4
 70
     0
 43
0.0
 10
-3.774533799848306
 20
-0.2525907427704608
 10
-3.807198951484866
 20
-0.2290319127168266
 10
-3.841208781659575
 20
-0.2053230756021527
 10
-3.864721528538922
 20
-0.1894430570778455
  0
LWPOLYLINE
  5
A7
330
8F
100
AcDbEntity
  8
AM_9
100
AcDbPolyline
 90
        4
 70
     0
 43
0.0
 10
-3.864721528538922
 20
0.1894430570778464
 10
-3.841344853406191
 20
0.2052299785010002
 10
-3.796285723743766
 20
0.2368211991063379
 10
-3.774533799848306
 20
0.2525907427704616
  0
LINE
  5
A8
330
8F
100
AcDbEntity
  8
AM_9
100
AcDbLine
 10
-3.646546710626153
 20
0.1983264404626884
 30
0.0
 11
-3.760354897832289
 21
0.2054502516015139
 31
0.0
  0
LINE
  5
A9
330
8F
100
AcDbEntity
  8
AM_9
100
AcDbLine
 10
-3.760354897832289
 20
-0.2054502516015131
 30
0.0
 11
-3.646546710626153
 21
-0.1983264404626875
 31
0.0
  0
ELLIPSE
  5
AA
330
8F
100
AcDbEntity
  8
AM_9
100
AcDbEllipse
 10
-3.819999999999986
 20
-0.0000000000000009
 30
0.0
 11
1.339457436567461E-17
 21
0.218750000000007
 31
0.0
210
0.0
220
0.0
230
1.0
 40
0.8660254037844689
 41
1.032970329614635
 42
2.108622323975148
  0
ELLIPSE
  5
AB
330
8F
100
AcDbEntity
  8
AM_9
100
AcDbEllipse
 10
-3.819999999999996
 20
0.0000000000000003
 30
0.0
 11
1.308841266588726E-17
 21
0.2137499999999988
 31
0.0
210
0.0
220
0.0
230
1.0
 40
0.8660254037844582
 41
0.9862868522352404
 42
2.155305801354553
  0
ELLIPSE
  5
AC
330
8F
100
AcDbEntity
  8
AM_9
100
AcDbEllipse
 10
-3.82915909927044
 20
0.0000000000000004
 30
0.0
 11
1.056466380484821E-17
 21
0.1725340532830159
 31
0.0
210
0.0
220
0.0
230
1.0
 40
0.8660254037844355
 41
0.6732704101471869
 42
2.468322243442606
  0
LINE
  5
AD
330
8F
100
AcDbEntity
  8
AM_9
100
AcDbLine
 10
-3.939999999999999
 20
-0.0703562363973511
 30
0.0
 11
-3.932760904853148
 21
-0.0796165180238016
 31
0.0
  0
LINE
  5
AE
330
8F
100
AcDbEntity
  8
AM_9
100
AcDbLine
 10
-3.932760904853148
 20
0.0796165180238024
 30
0.0
 11
-3.939999999999999
 21
0.0703562363973519
 31
0.0
  0
ELLIPSE
  5
AF
330
8F
100
AcDbEntity
  8
AM_9
100
AcDbEllipse
 10
-3.856376560809287
 20
0.0000000000000007
 30
0.0
 11
7.275632189644530E-18
 21
0.1188200907348977
 31
0.0
210
0.0
220
0.0
230
1.0
 40
0.866025403784431
 41
0.0521714424098407
 42
3.089421211179952
  0
LINE
  5
B0
330
8F
100
AcDbEntity
  8
AM_9
100
AcDbLine
 10
-3.872499999999999
 20
0.1050000000000004
 30
0.0
 11
-3.887499999999999
 21
0.1050000000000004
 31
0.0
  0
LINE
  5
B1
330
8F
100
AcDbEntity
  8
AM_9
100
AcDbLine
 10
-3.887499999999999
 20
-0.1049999999999996
 30
0.0
 11
-3.872499999999999
 21
-0.1049999999999996
 31
0.0
  0
ELLIPSE
  5
B2
330
8F
100
AcDbEntity
  8
AM_9
100
AcDbEllipse
 10
-3.887499999999998
 20
-0.0000000000000008
 30
0.0
 11
6.429395695523518E-18
 21
0.1049999999999986
 31
0.0
210
0.0
220
0.0
230
1.0
 40
0.8660254037844397
 41
5.235987755983
 42
10.47197551196598
  0
ELLIPSE
  5
B3
330
8F
100
AcDbEntity
  8
AM_9
100
AcDbEllipse
 10
-3.872499999999998
 20
-0.0000000000000013
 30
0.0
 11
6.429395695523710E-18
 21
0.1050000000000017
 31
0.0
210
0.0
220
0.0
230
1.0
 40
0.8660254037844307
 41
5.858105981268443
 42
9.849857286680534
  0
ELLIPSE
  5
B4
330
8F
100
AcDbEntity
  8
AM_9
100
AcDbEllipse
 10
-3.917499999999999
 20
0.0000000000000004
 30
0.0
 11
8.266365894244594E-18
 21
0.1349999999999993
 31
0.0
210
0.0
220
0.0
230
1.0
 40
0.8660254037844454
 41
0.7751090107151137
 42
2.36648364287468
  0
ELLIPSE
  5
B5
330
8F
100
AcDbEntity
  8
AM_9
100
AcDbEllipse
 10
-3.77
 20
0.0
 30
0.0
 11
1.339457436567424E-17
 21
0.218750000000001
 31
0.0
210
0.0
220
0.0
230
1.0
 40
0.8660254037844421
 41
0.0
 42
6.283185307179586
  0
ELLIPSE
  5
B6
330
8F
100
AcDbEntity
  8
AM_9
100
AcDbEllipse
 10
-3.655857377154472
 20
0.0000000000000004
 30
0.0
 11
1.216182204459295E-17
 21
0.1986176267812154
 31
0.0
210
0.0
220
0.0
230
1.0
 40
0.8660254037844441
 41
0.0
 42
6.283185307179586
  0
ELLIPSE
  5
B7
330
8F
100
AcDbEntity
  8
AM_9
100
AcDbEllipse
 10
-3.76999999999978
 20
0.0000000000000662
 30
0.0
 11
1.259867011763232E-17
 21
0.2057518972230035
 31
0.0
210
0.0
220
0.0
230
1.0
 40
0.866025403784353
 41
0.0
 42
6.283185307179586
  0
LWPOLYLINE
  5
B9
330
8F
100
AcDbEntity
  8
AM_4
100
AcDbPolyline
 90
        4
 70
     0
 43
0.0
 10
-4.004909257229538
 20
-0.1262953713852303
 10
-3.983274986579402
 20
-0.1419804798703226
 10
-3.938234275418269
 20
-0.1735630385535384
 10
-3.914721528538922
 20
-0.1894430570778455
  0
LINE
  5
BA
330
8F
100
AcDbEntity
  8
AM_4
100
AcDbLine
 10
-4.007177270281704
 20
-0.0876643906215052
 30
0.0
 11
-4.004909257229538
 21
-0.1262953713852303
 31
0.0
  0
LWPOLYLINE
  5
BB
330
8F
100
AcDbEntity
  8
AM_4
100
AcDbPolyline
 90
        4
 70
     0
 43
0.0
 10
-3.914721528538922
 20
0.1894430570778464
 10
-3.938098203671653
 20
0.1736561356546926
 10
-3.960912694566494
 20
0.1578502110457931
 10
-4.004909257229538
 20
0.1262953713852311
  0
LINE
  5
BC
330
8F
100
AcDbEntity
  8
AM_4
100
AcDbLine
 10
-4.004909257229538
 20
0.1262953713852311
 30
0.0
 11
-4.007180568555147
 21
0.0875981884876054
 31
0.0
  0
LWPOLYLINE
  5
BD
330
8F
100
AcDbEntity
  8
AM_4
100
AcDbPolyline
 90
        4
 70
     0
 43
0.0
 10
-3.815466200151692
 20
0.2525907427704616
 10
-3.840887254956833
 20
0.2369056342853693
 10
-3.890594219845347
 20
0.2053230756021535
 10
-3.914721528538922
 20
0.1894430570778464
  0
LWPOLYLINE
  5
BE
330
8F
100
AcDbEntity
  8
AM_4
100
AcDbPolyline
 90
        4
 70
     0
 43
0.0
 10
-3.914721528538922
 20
-0.1894430570778455
 10
-3.890737439402192
 20
-0.2052299785009994
 10
-3.866134156470334
 20
-0.2210359031098989
 10
-3.815466200151692
 20
-0.2525907427704608
  0
LWPOLYLINE
  5
BF
330
8F
100
AcDbEntity
  8
AM_4
100
AcDbPolyline
 90
        4
 70
     0
 43
0.0
 10
-3.580556942922153
 20
0.0000000000000004
 10
-3.581265723280721
 20
-0.0483998160558985
 10
-3.583298149181075
 20
-0.0967996321117974
 10
-3.58509074277046
 20
-0.1262953713852303
  0
LWPOLYLINE
  5
C0
330
8F
100
AcDbEntity
  8
AM_4
100
AcDbPolyline
 90
        5
 70
     0
 43
0.0
 10
-3.58509074277046
 20
0.126295371385231
 10
-3.583197350692957
 20
0.0949251544150463
 10
-3.581764205396963
 20
0.0634316146914371
 10
-3.580864223829267
 20
0.0317600370486147
 10
-3.580556942922153
 20
0.0000000000000004
  0
LINE
  5
C1
330
8F
100
AcDbEntity
  8
AM_4
100
AcDbLine
 10
-3.815466200151692
 20
0.2525907427704616
 30
0.0
 11
-3.774533799848306
 21
0.2525907427704616
 31
0.0
  0
LWPOLYLINE
  5
C2
330
8F
100
AcDbEntity
  8
AM_4
100
AcDbPolyline
 90
        4
 70
     0
 43
0.0
 10
-3.725278471461076
 20
0.1894430570778464
 10
-3.748655146593807
 20
0.2052299785010001
 10
-3.793714276256231
 20
0.2368211991063378
 10
-3.815466200151692
 20
0.2525907427704616
  0
LINE
  5
C3
330
8F
100
AcDbEntity
  8
AM_4
100
AcDbLine
 10
-3.626023143073846
 20
0.1262953713852311
 30
0.0
 11
-3.58509074277046
 21
0.126295371385231
 31
0.0
  0
LWPOLYLINE
  5
C4
330
8F
100
AcDbEntity
  8
AM_4
100
AcDbPolyline
 90
        4
 70
     0
 43
0.0
 10
-3.675278471461076
 20
0.1894430570778464
 10
-3.651901796328345
 20
0.1736561356546925
 10
-3.629114397584132
 20
0.1578692142315387
 10
-3.58509074277046
 20
0.126295371385231
  0
LWPOLYLINE
  5
C5
330
8F
100
AcDbEntity
  8
AM_4
100
AcDbPolyline
 90
        4
 70
     0
 43
0.0
 10
-3.774533799848306
 20
0.2525907427704616
 10
-3.736522461323963
 20
0.2290319127168274
 10
-3.69940578015465
 20
0.2053230756021535
 10
-3.675278471461076
 20
0.1894430570778464
  0
ELLIPSE
  5
C6
330
8F
100
AcDbEntity
  8
AM_4
100
AcDbEllipse
 10
-3.82
 20
0.0000000000000003
 30
0.0
 11
1.339457436567416E-17
 21
0.2187499999999998
 31
0.0
210
0.0
220
0.0
230
1.0
 40
0.8660254037844428
 41
2.108622323975177
 42
7.316155636794202
  0
LWPOLYLINE
  5
C7
330
8F
100
AcDbEntity
  8
AM_4
100
AcDbPolyline
 90
        4
 70
     0
 43
0.0
 10
-3.626023143073846
 20
-0.1262953713852303
 10
-3.627815736663231
 20
-0.0967996321117974
 10
-3.629844028800617
 20
-0.048542441247754
 10
-3.630556942922153
 20
0.0000000000000004
  0
LWPOLYLINE
  5
C8
330
8F
100
AcDbEntity
  8
AM_4
100
AcDbPolyline
 90
        5
 70
     0
 43
0.0
 10
-3.630556942922153
 20
0.0000000000000004
 10
-3.630253235920153
 20
0.0315738428463081
 10
-3.629360252529636
 20
0.0631476856926157
 10
-3.627925534674571
 20
0.0947562840569835
 10
-3.626023143073846
 20
0.1262953713852311
  0
LWPOLYLINE
  5
C9
330
8F
100
AcDbEntity
  8
AM_4
100
AcDbPolyline
 90
        4
 70
     0
 43
0.0
 10
-3.626023143073846
 20
0.1262953713852311
 10
-3.676522609247859
 20
0.1577431973843554
 10
-3.701151162767502
 20
0.1735630385535392
 10
-3.725278471461076
 20
0.1894430570778464
  0
LINE
  5
CA
330
8F
100
AcDbEntity
  8
AM_4
100
AcDbLine
 10
-3.626023143073846
 20
-0.1262953713852303
 30
0.0
 11
-3.58509074277046
 21
-0.1262953713852303
 31
0.0
  0
LWPOLYLINE
  5
CB
330
8F
100
AcDbEntity
  8
AM_4
100
AcDbPolyline
 90
        4
 70
     0
 43
0.0
 10
-3.725278471461076
 20
-0.1894430570778455
 10
-3.701294382324345
 20
-0.1736561356546917
 10
-3.676721016799097
 20
-0.1578692142315379
 10
-3.626023143073846
 20
-0.1262953713852303
  0
LWPOLYLINE
  5
CC
330
8F
100
AcDbEntity
  8
AM_4
100
AcDbPolyline
 90
        4
 70
     0
 43
0.0
 10
-3.815466200151692
 20
-0.2525907427704608
 10
-3.782801048515132
 20
-0.2290319127168266
 10
-3.748791218340423
 20
-0.2053230756021527
 10
-3.725278471461076
 20
-0.1894430570778455
  0
LINE
  5
CD
330
8F
100
AcDbEntity
  8
AM_4
100
AcDbLine
 10
-3.815466200151692
 20
-0.2525907427704608
 30
0.0
 11
-3.774533799848306
 21
-0.2525907427704608
 31
0.0
  0
LWPOLYLINE
  5
CE
330
8F
100
AcDbEntity
  8
AM_4
100
AcDbPolyline
 90
        4
 70
     0
 43
0.0
 10
-3.675278471461076
 20
-0.1894430570778455
 10
-3.699262560597806
 20
-0.2052299785009994
 10
-3.723835926123054
 20
-0.2210168999241532
 10
-3.774533799848306
 20
-0.2525907427704608
  0
LWPOLYLINE
  5
CF
330
8F
100
AcDbEntity
  8
AM_4
100
AcDbPolyline
 90
        4
 70
     0
 43
0.0
 10
-3.58509074277046
 20
-0.1262953713852303
 10
-3.61775589440702
 20
-0.1498542014388645
 10
-3.651765724581729
 20
-0.1735630385535384
 10
-3.675278471461076
 20
-0.1894430570778455
  0
ELLIPSE
  5
D0
330
8F
100
AcDbEntity
  8
AM_4
100
AcDbEllipse
 10
-3.819999999999999
 20
0.0000000000000003
 30
0.0
 11
1.308841266588735E-17
 21
0.2137500000000002
 31
0.0
210
0.0
220
0.0
230
1.0
 40
0.8660254037844402
 41
2.15530580135455
 42
7.269472159414829
  0
ELLIPSE
  5
D1
330
8F
100
AcDbEntity
  8
AM_4
100
AcDbEllipse
 10
-3.829159099270441
 20
0.0000000000000003
 30
0.0
 11
1.056466380484819E-17
 21
0.1725340532830155
 31
0.0
210
0.0
220
0.0
230
1.0
 40
0.8660254037844372
 41
2.46832224344261
 42
6.956455717326769
  0
ELLIPSE
  5
D2
330
8F
100
AcDbEntity
  8
AM_4
100
AcDbEllipse
 10
-3.856376560808547
 20
-0.0000000000000167
 30
0.0
 11
7.275632189645562E-18
 21
0.1188200907349146
 31
0.0
210
0.0
220
0.0
230
1.0
 40
0.8660254037846034
 41
3.089421211172777
 42
6.335356749596589
  0
ELLIPSE
  5
D3
330
8F
100
AcDbEntity
  8
AM_4
100
AcDbEllipse
 10
-3.872499999999998
 20
0.0000000000000004
 30
0.0
 11
6.429395695523575E-18
 21
0.1049999999999995
 31
0.0
210
0.0
220
0.0
230
1.0
 40
0.8660254037844318
 41
3.566671979500947
 42
5.858105981268432
  0
LINE
  5
D4
330
8F
100
AcDbEntity
  8
AM_4
100
AcDbLine
 10
-3.808749999999999
 20
0.0525000000000004
 30
0.0
 11
-3.816249999999999
 21
0.0675000000000004
 31
0.0
  0
LINE
  5
D5
330
8F
100
AcDbEntity
  8
AM_4
100
AcDbLine
 10
-3.816249999999999
 20
-0.0674999999999996
 30
0.0
 11
-3.808749999999999
 21
-0.0524999999999996
 31
0.0
  0
ELLIPSE
  5
D6
330
8F
100
AcDbEntity
  8
AM_4
100
AcDbEllipse
 10
-3.887499999999994
 20
0.0000000000000004
 30
0.0
 11
6.429395695523452E-18
 21
0.1049999999999975
 31
0.0
210
0.0
220
0.0
230
1.0
 40
0.8660254037844063
 41
4.188790204786375
 42
5.235987755983004
  0
ELLIPSE
  5
D7
330
8F
100
AcDbEntity
  8
AM_4
100
AcDbEllipse
 10
-3.9175
 20
0.0000000000000032
 30
0.0
 11
8.266365894244476E-18
 21
0.1349999999999974
 31
0.0
210
0.0
220
0.0
230
1.0
 40
0.8660254037844414
 41
2.36648364287469
 42
7.058294317894715
  0
LINE
  5
D8
330
8F
100
AcDbEntity
  8
AM_4
100
AcDbLine
 10
-4.019726847792106
 20
-0.0733474205218683
 30
0.0
 11
-3.999315310731618
 21
-0.0964365416902987
 31
0.0
  0
LINE
  5
D9
330
8F
100
AcDbEntity
  8
AM_4
100
AcDbLine
 10
-3.999315310731618
 20
0.0964365416902995
 30
0.0
 11
-4.019726847792106
 21
0.0733474205218691
 31
0.0
  0
ELLIPSE
  5
DA
330
8F
100
AcDbEntity
  8
AM_4
100
AcDbEllipse
 10
-3.9575
 20
-0.0000000000000009
 30
0.0
 11
6.287208197282271E-18
 21
0.1026779019331887
 31
0.0
210
0.0
220
0.0
230
1.0
 40
0.8660254037844294
 41
0.0
 42
6.283185307179586
  0
ENDBLK
  5
92
330
8F
100
AcDbEntity
  8
0
100
AcDbBlockEnd
  0
BLOCK
  5
DD
330
DB
100
AcDbEntity
  8
0
100
AcDbBlockBegin
  2
3_ASME_B18_3_3_8_1_0_in_071615_4
 70
     2
 10
0.0
 20
0.0
 30
0.0
  3
3_ASME_B18_3_3_8_1_0_in_071615_4
  1

  0
ATTDEF
  5
DF
330
DB
100
AcDbEntity
  8
AM_6
100
AcDbText
 10
5.1875
 20
-4.383000000000001
 30
0.0
 40
0.5
  1
ANSI/ASME B18.3-1998
100
AcDbAttributeDefinition
  3

  2
NN
 70
     8
280
     0
  0
ATTDEF
  5
E0
330
DB
100
AcDbEntity
  8
AM_6
100
AcDbText
 10
5.1875
 20
-4.883000000000001
 30
0.0
 40
0.5
  1
Socket Button Head Cap Screws
100
AcDbAttributeDefinition
  3

  2
NT
 70
     8
280
     0
  0
ATTDEF
  5
E1
330
DB
100
AcDbEntity
  8
AM_6
100
AcDbText
 10
5.1875
 20
-5.383000000000001
 30
0.0
 40
0.5
  1
ASME B18.3-3/8
100
AcDbAttributeDefinition
  3

  2
NB
 70
     8
280
     0
  0
ATTDEF
  5
E2
330
DB
100
AcDbEntity
  8
AM_6
100
AcDbText
 10
5.1875
 20
-5.883000000000001
 30
0.0
 40
0.5
  1
ASME B18.3-$NS.
100
AcDbAttributeDefinition
  3

  2
NBSYN
 70
     8
280
     0
  0
ATTDEF
  5
E3
330
DB
100
AcDbEntity
  8
AM_6
100
AcDbText
 10
5.1875
 20
-6.383000000000001
 30
0.0
 40
0.5
  1
ASME B18.3-3/8
100
AcDbAttributeDefinition
  3

  2
LINA
 70
     8
280
     0
  0
ATTDEF
  5
E4
330
DB
100
AcDbEntity
  8
AM_6
100
AcDbText
 10
5.1875
 20
-6.883000000000001
 30
0.0
 40
0.5
  1
3/8
100
AcDbAttributeDefinition
  3

  2
NS
 70
     8
280
     0
  0
ATTDEF
  5
E5
330
DB
100
AcDbEntity
  8
AM_6
100
AcDbText
 10
5.1875
 20
-7.383000000000001
 30
0.0
 40
0.5
  1
0.656
100
AcDbAttributeDefinition
  3

  2
A
 70
     8
280
     0
  0
ATTDEF
  5
E6
330
DB
100
AcDbEntity
  8
AM_6
100
AcDbText
 10
5.1875
 20
-7.883000000000001
 30
0.0
 40
0.5
  1
0.199
100
AcDbAttributeDefinition
  3

  2
H
 70
     8
280
     0
  0
ATTDEF
  5
E7
330
DB
100
AcDbEntity
  8
AM_6
100
AcDbText
 10
5.1875
 20
-8.383000000000001
 30
0.0
 40
0.5
  1
1.250
100
AcDbAttributeDefinition
  3

  2
L
 70
     8
280
     0
  0
ATTDEF
  5
E8
330
DB
100
AcDbEntity
  8
AM_6
100
AcDbText
 10
5.1875
 20
-8.883000000000001
 30
0.0
 40
0.5
  1
0.031
100
AcDbAttributeDefinition
  3

  2
S
 70
     8
280
     0
  0
ATTDEF
  5
E9
330
DB
100
AcDbEntity
  8
AM_6
100
AcDbText
 10
5.1875
 20
-9.383000000000001
 30
0.0
 40
0.5
  1
0.218750
100
AcDbAttributeDefinition
  3

  2
J
 70
     8
280
     0
  0
ATTDEF
  5
EA
330
DB
100
AcDbEntity
  8
AM_6
100
AcDbText
 10
5.1875
 20
-9.883000000000001
 30
0.0
 40
0.5
  1
baldor
100
AcDbAttributeDefinition
  3

  2
COMPANY
 70
     8
280
     0
  0
LINE
  5
EC
330
DB
100
AcDbEntity
  8
AM_5
100
AcDbLine
 10
0.1875
 20
-4.383000000000001
 30
0.0
 11
-0.1875
 21
-4.383000000000001
 31
0.0
  0
LINE
  5
ED
330
DB
100
AcDbEntity
  8
AM_5
100
AcDbLine
 10
0.1689000000000001
 20
-4.383000000000001
 30
0.0
 11
0.1874999999999999
 21
-4.415216145020783
 31
0.0
  0
ENDBLK
  5
DE
330
DB
100
AcDbEntity
  8
0
100
AcDbBlockEnd
  0
BLOCK
  5
F0
330
EE
100
AcDbEntity
  8
0
100
AcDbBlockBegin
  2
4_ASME_B18_3_3_8_2_0_in_071615_4
 70
     2
 10
0.0
 20
0.0
 30
0.0
  3
4_ASME_B18_3_3_8_2_0_in_071615_4
  1

  0
ATTDEF
  5
F2
330
EE
100
AcDbEntity
  8
AM_6
100
AcDbText
 10
5.328
 20
-3.213000000000001
 30
0.0
 40
0.5
  1
ANSI/ASME B18.3-1998
100
AcDbAttributeDefinition
  3

  2
NN
 70
     8
280
     0
  0
ATTDEF
  5
F3
330
EE
100
AcDbEntity
  8
AM_6
100
AcDbText
 10
5.328
 20
-3.713000000000001
 30
0.0
 40
0.5
  1
Socket Button Head Cap Screws
100
AcDbAttributeDefinition
  3

  2
NT
 70
     8
280
     0
  0
ATTDEF
  5
F4
330
EE
100
AcDbEntity
  8
AM_6
100
AcDbText
 10
5.328
 20
-4.213000000000001
 30
0.0
 40
0.5
  1
ASME B18.3-3/8
100
AcDbAttributeDefinition
  3

  2
NB
 70
     8
280
     0
  0
ATTDEF
  5
F5
330
EE
100
AcDbEntity
  8
AM_6
100
AcDbText
 10
5.328
 20
-4.713000000000001
 30
0.0
 40
0.5
  1
ASME B18.3-$NS.
100
AcDbAttributeDefinition
  3

  2
NBSYN
 70
     8
280
     0
  0
ATTDEF
  5
F6
330
EE
100
AcDbEntity
  8
AM_6
100
AcDbText
 10
5.328
 20
-5.213000000000001
 30
0.0
 40
0.5
  1
ASME B18.3-3/8
100
AcDbAttributeDefinition
  3

  2
LINA
 70
     8
280
     0
  0
ATTDEF
  5
F7
330
EE
100
AcDbEntity
  8
AM_6
100
AcDbText
 10
5.328
 20
-5.713000000000001
 30
0.0
 40
0.5
  1
3/8
100
AcDbAttributeDefinition
  3

  2
NS
 70
     8
280
     0
  0
ATTDEF
  5
F8
330
EE
100
AcDbEntity
  8
AM_6
100
AcDbText
 10
5.328
 20
-6.213000000000001
 30
0.0
 40
0.5
  1
0.656
100
AcDbAttributeDefinition
  3

  2
A
 70
     8
280
     0
  0
ATTDEF
  5
F9
330
EE
100
AcDbEntity
  8
AM_6
100
AcDbText
 10
5.328
 20
-6.713000000000001
 30
0.0
 40
0.5
  1
0.199
100
AcDbAttributeDefinition
  3

  2
H
 70
     8
280
     0
  0
ATTDEF
  5
FA
330
EE
100
AcDbEntity
  8
AM_6
100
AcDbText
 10
5.328
 20
-7.213000000000001
 30
0.0
 40
0.5
  1
1.250
100
AcDbAttributeDefinition
  3

  2
L
 70
     8
280
     0
  0
ATTDEF
  5
FB
330
EE
100
AcDbEntity
  8
AM_6
100
AcDbText
 10
5.328
 20
-7.713000000000001
 30
0.0
 40
0.5
  1
0.031
100
AcDbAttributeDefinition
  3

  2
S
 70
     8
280
     0
  0
ATTDEF
  5
FC
330
EE
100
AcDbEntity
  8
AM_6
100
AcDbText
 10
5.328
 20
-8.213000000000001
 30
0.0
 40
0.5
  1
0.218750
100
AcDbAttributeDefinition
  3

  2
J
 70
     8
280
     0
  0
ATTDEF
  5
FD
330
EE
100
AcDbEntity
  8
AM_6
100
AcDbText
 10
5.328
 20
-8.713000000000001
 30
0.0
 40
0.5
  1
baldor
100
AcDbAttributeDefinition
  3

  2
COMPANY
 70
     8
280
     0
  0
LINE
  5
FE
330
EE
100
AcDbEntity
  8
AM_9
100
AcDbLine
 10
-0.109375
 20
-4.525
 30
0.0
 11
-0.109375
 21
-4.662000000000001
 31
0.0
  0
LINE
  5
FF
330
EE
100
AcDbEntity
  8
AM_9
100
AcDbLine
 10
0.109375
 20
-4.525
 30
0.0
 11
0.109375
 21
-4.662000000000001
 31
0.0
  0
LINE
  5
100
330
EE
100
AcDbEntity
  8
AM_9
100
AcDbLine
 10
-0.109375
 20
-4.525
 30
0.0
 11
0.109375
 21
-4.525
 31
0.0
  0
LINE
  5
101
330
EE
100
AcDbEntity
  8
AM_9
100
AcDbLine
 10
0.0
 20
-4.525
 30
0.0
 11
0.0
 21
-4.662000000000001
 31
0.0
  0
LINE
  5
102
330
EE
100
AcDbEntity
  8
AM_9
100
AcDbLine
 10
-0.1689
 20
-3.213000000000001
 30
0.0
 11
-0.1875
 21
-3.231600000000001
 31
0.0
  0
LINE
  5
103
330
EE
100
AcDbEntity
  8
AM_9
100
AcDbLine
 10
0.1875
 20
-3.231600000000001
 30
0.0
 11
0.1689
 21
-3.213000000000001
 31
0.0
  0
LINE
  5
104
330
EE
100
AcDbEntity
  8
AM_9
100
AcDbLine
 10
-0.1689
 20
-3.213000000000001
 30
0.0
 11
0.1689
 21
-3.213000000000001
 31
0.0
  0
LINE
  5
105
330
EE
100
AcDbEntity
  8
AM_9
100
AcDbLine
 10
0.1875
 20
-4.463
 30
0.0
 11
0.1875
 21
-3.231600000000001
 31
0.0
  0
LINE
  5
106
330
EE
100
AcDbEntity
  8
AM_9
100
AcDbLine
 10
-0.1875
 20
-3.231600000000001
 30
0.0
 11
-0.1875
 21
-4.463
 31
0.0
  0
LINE
  5
107
330
EE
100
AcDbEntity
  8
AM_9
100
AcDbLine
 10
-0.1875
 20
-3.231600000000001
 30
0.0
 11
0.1875
 21
-3.231600000000001
 31
0.0
  0
LINE
  5
108
330
EE
100
AcDbEntity
  8
AM_5
100
AcDbLine
 10
0.1689
 20
-4.383
 30
0.0
 11
0.1875000038535048
 21
-4.415216151695248
 31
0.0
  0
LINE
  5
109
330
EE
100
AcDbEntity
  8
AM_5
100
AcDbLine
 10
-0.1874999999999999
 20
-4.383
 30
0.0
 11
0.1875000000000005
 21
-4.383
 31
0.0
  0
LINE
  5
10A
330
EE
100
AcDbEntity
  8
AM_4
100
AcDbLine
 10
0.328
 20
-4.494000000000001
 30
0.0
 11
0.328
 21
-4.463
 31
0.0
  0
LINE
  5
10B
330
EE
100
AcDbEntity
  8
AM_4
100
AcDbLine
 10
-0.328
 20
-4.463
 30
0.0
 11
-0.328
 21
-4.494000000000001
 31
0.0
  0
LINE
  5
10C
330
EE
100
AcDbEntity
  8
AM_4
100
AcDbLine
 10
-0.1599999807274619
 20
-4.662000000000001
 30
0.0
 11
0.16
 21
-4.662000000000001
 31
0.0
  0
ARC
  5
10D
330
EE
100
AcDbEntity
  8
AM_4
100
AcDbCircle
 10
0.1599999999999991
 20
-4.494
 30
0.0
 40
0.168000000000001
100
AcDbArc
 50
270.0
 51
0.0
  0
ARC
  5
10E
330
EE
100
AcDbEntity
  8
AM_4
100
AcDbCircle
 10
-0.1599999999999992
 20
-4.494
 30
0.0
 40
0.1680000000000008
100
AcDbArc
 50
180.0
 51
270.0
  0
LINE
  5
10F
330
EE
100
AcDbEntity
  8
AM_4
100
AcDbLine
 10
-0.328
 20
-4.494000000000001
 30
0.0
 11
0.328
 21
-4.494000000000001
 31
0.0
  0
ENDBLK
  5
F1
330
EE
100
AcDbEntity
  8
0
100
AcDbBlockEnd
  0
BLOCK
  5
112
330
110
100
AcDbEntity
  8
0
100
AcDbBlockBegin
  2
5_037930LWE_0_in_071615_4
 70
     2
 10
0.0
 20
0.0
 30
0.0
  3
5_037930LWE_0_in_071615_4
  1

  0
ATTDEF
  5
114
330
110
100
AcDbEntity
  8
AM_6
100
AcDbText
 10
10.703125
 20
-3.343000000000001
 30
0.0
 40
0.5
  1
Imperial/E Insert Lockwasher -Inch
100
AcDbAttributeDefinition
  3

  2
NN
 70
     8
280
     0
  0
ATTDEF
  5
115
330
110
100
AcDbEntity
  8
AM_6
100
AcDbText
 10
10.703125
 20
-3.843000000000001
 30
0.0
 40
0.5
  1
Imperial/E Bearings
100
AcDbAttributeDefinition
  3

  2
NT
 70
     8
280
     0
  0
ATTDEF
  5
116
330
110
100
AcDbEntity
  8
AM_6
100
AcDbText
 10
10.703125
 20
-4.343000000000001
 30
0.0
 40
0.5
  1
037930LWE
100
AcDbAttributeDefinition
  3

  2
NB
 70
     8
280
     0
  0
ATTDEF
  5
117
330
110
100
AcDbEntity
  8
AM_6
100
AcDbText
 10
10.703125
 20
-4.843000000000001
 30
0.0
 40
0.5
  1
$PN.LWE
100
AcDbAttributeDefinition
  3

  2
NBSYN
 70
     8
280
     0
  0
ATTDEF
  5
118
330
110
100
AcDbEntity
  8
AM_6
100
AcDbText
 10
10.703125
 20
-5.343000000000001
 30
0.0
 40
0.5
  1
037930
100
AcDbAttributeDefinition
  3

  2
LINA
 70
     8
280
     0
  0
ATTDEF
  5
119
330
110
100
AcDbEntity
  8
AM_6
100
AcDbText
 10
10.703125
 20
-5.843000000000001
 30
0.0
 40
0.5
  1
6-1/2
100
AcDbAttributeDefinition
  3

  2
SS
 70
     8
280
     0
  0
ATTDEF
  5
11A
330
110
100
AcDbEntity
  8
AM_6
100
AcDbText
 10
10.703125
 20
-6.343000000000001
 30
0.0
 40
0.5
  1
11.406250
100
AcDbAttributeDefinition
  3

  2
E1
 70
     8
280
     0
  0
ATTDEF
  5
11B
330
110
100
AcDbEntity
  8
AM_6
100
AcDbText
 10
10.703125
 20
-6.843000000000001
 30
0.0
 40
0.5
  1
6.500000
100
AcDbAttributeDefinition
  3

  2
SS1
 70
     8
280
     0
  0
ATTDEF
  5
11C
330
110
100
AcDbEntity
  8
AM_6
100
AcDbText
 10
10.703125
 20
-7.343000000000001
 30
0.0
 40
0.5
  1
037930
100
AcDbAttributeDefinition
  3

  2
PN
 70
     8
280
     0
  0
ATTDEF
  5
11D
330
110
100
AcDbEntity
  8
AM_6
100
AcDbText
 10
10.703125
 20
-7.843000000000001
 30
0.0
 40
0.5
  1
INS-IP-608R
100
AcDbAttributeDefinition
  3

  2
DESCRIPTION
 70
     8
280
     0
  0
ATTDEF
  5
11E
330
110
100
AcDbEntity
  8
AM_6
100
AcDbText
 10
10.703125
 20
-8.343
 30
0.0
 40
0.5
  1
12.5984
100
AcDbAttributeDefinition
  3

  2
A
 70
     8
280
     0
  0
ATTDEF
  5
11F
330
110
100
AcDbEntity
  8
AM_6
100
AcDbText
 10
10.703125
 20
-8.843
 30
0.0
 40
0.5
  1
3-15/32
100
AcDbAttributeDefinition
  3

  2
B
 70
     8
280
     0
  0
ATTDEF
  5
120
330
110
100
AcDbEntity
  8
AM_6
100
AcDbText
 10
10.703125
 20
-9.343
 30
0.0
 40
0.5
  1
3.468750
100
AcDbAttributeDefinition
  3

  2
B1
 70
     8
280
     0
  0
ATTDEF
  5
121
330
110
100
AcDbEntity
  8
AM_6
100
AcDbText
 10
10.703125
 20
-9.843
 30
0.0
 40
0.5
  1
7-25/64
100
AcDbAttributeDefinition
  3

  2
C
 70
     8
280
     0
  0
ATTDEF
  5
122
330
110
100
AcDbEntity
  8
AM_6
100
AcDbText
 10
10.703125
 20
-10.343
 30
0.0
 40
0.5
  1
7.390625
100
AcDbAttributeDefinition
  3

  2
C1
 70
     8
280
     0
  0
ATTDEF
  5
123
330
110
100
AcDbEntity
  8
AM_6
100
AcDbText
 10
10.703125
 20
-10.843
 30
0.0
 40
0.5
  1
2.862
100
AcDbAttributeDefinition
  3

  2
D
 70
     8
280
     0
  0
ATTDEF
  5
124
330
110
100
AcDbEntity
  8
AM_6
100
AcDbText
 10
10.703125
 20
-11.343
 30
0.0
 40
0.5
  1
11-13/32
100
AcDbAttributeDefinition
  3

  2
E
 70
     8
280
     0
  0
ATTDEF
  5
125
330
110
100
AcDbEntity
  8
AM_6
100
AcDbText
 10
10.703125
 20
-11.843
 30
0.0
 40
0.5
  1
0.3750
100
AcDbAttributeDefinition
  3

  2
NDM
 70
     8
280
     0
  0
ATTDEF
  5
126
330
110
100
AcDbEntity
  8
AM_6
100
AcDbText
 10
10.703125
 20
-12.343
 30
0.0
 40
0.5
  1
0.3070
100
AcDbAttributeDefinition
  3

  2
KDM
 70
     8
280
     0
  0
ATTDEF
  5
127
330
110
100
AcDbEntity
  8
AM_6
100
AcDbText
 10
10.703125
 20
-12.843
 30
0.0
 40
0.5
  1
10.00
100
AcDbAttributeDefinition
  3

  2
AL
 70
     8
280
     0
  0
ATTDEF
  5
128
330
110
100
AcDbEntity
  8
AM_6
100
AcDbText
 10
10.703125
 20
-13.343
 30
0.0
 40
0.5
  1
0.81
100
AcDbAttributeDefinition
  3

  2
BL
 70
     8
280
     0
  0
ATTDEF
  5
129
330
110
100
AcDbEntity
  8
AM_6
100
AcDbText
 10
10.703125
 20
-13.843
 30
0.0
 40
0.5
  1
0.07
100
AcDbAttributeDefinition
  3

  2
CL
 70
     8
280
     0
  0
ATTDEF
  5
12A
330
110
100
AcDbEntity
  8
AM_6
100
AcDbText
 10
10.703125
 20
-14.343
 30
0.0
 40
0.5
  1
1.12
100
AcDbAttributeDefinition
  3

  2
DL
 70
     8
280
     0
  0
ATTDEF
  5
12B
330
110
100
AcDbEntity
  8
AM_6
100
AcDbText
 10
10.703125
 20
-14.843
 30
0.0
 40
0.5
  1
baldor
100
AcDbAttributeDefinition
  3

  2
COMPANY
 70
     8
280
     0
  0
LINE
  5
12C
330
110
100
AcDbEntity
  8
AM_9
100
AcDbLine
 10
-4.657118055555554
 20
-4.393000000000001
 30
0.0
 11
-4.657118055555554
 21
-4.463000000000001
 31
0.0
  0
LINE
  5
12D
330
110
100
AcDbEntity
  8
AM_9
100
AcDbLine
 10
-4.844656073401414
 20
-4.393000000000001
 30
0.0
 11
-4.844656073401414
 21
-4.463000000000001
 31
0.0
  0
LINE
  5
12E
330
110
100
AcDbEntity
  8
AM_9
100
AcDbLine
 10
4.657118055555555
 20
-4.393000000000001
 30
0.0
 11
4.657118055555555
 21
-4.463000000000001
 31
0.0
  0
LINE
  5
12F
330
110
100
AcDbEntity
  8
AM_9
100
AcDbLine
 10
4.844656073401413
 20
-4.463000000000001
 30
0.0
 11
4.844656073401413
 21
-4.393000000000001
 31
0.0
  0
LINE
  5
130
330
110
100
AcDbEntity
  8
AM_9
100
AcDbLine
 10
-3.508506941655106
 20
-4.393000000000001
 30
0.0
 11
-3.508506941655106
 21
-4.463000000000001
 31
0.0
  0
LINE
  5
131
330
110
100
AcDbEntity
  8
AM_9
100
AcDbLine
 10
3.508506941655107
 20
-4.393000000000001
 30
0.0
 11
3.508506941655107
 21
-4.463000000000001
 31
0.0
  0
LINE
  5
132
330
110
100
AcDbEntity
  8
AM_9
100
AcDbLine
 10
2.613471571756878
 20
-4.393000000000001
 30
0.0
 11
2.613471571756878
 21
-4.463000000000001
 31
0.0
  0
LINE
  5
133
330
110
100
AcDbEntity
  8
AM_9
100
AcDbLine
 10
-2.613471571756878
 20
-4.393000000000001
 30
0.0
 11
-2.613471571756878
 21
-4.463000000000001
 31
0.0
  0
LINE
  5
134
330
110
100
AcDbEntity
  8
AM_9
100
AcDbLine
 10
-1.529414007758413
 20
-4.393000000000001
 30
0.0
 11
-1.529414007758413
 21
-4.463000000000001
 31
0.0
  0
LINE
  5
135
330
110
100
AcDbEntity
  8
AM_9
100
AcDbLine
 10
-1.428390195505328
 20
-3.343000000000001
 30
0.0
 11
-1.428390195505328
 21
-4.463000000000001
 31
0.0
  0
LINE
  5
136
330
110
100
AcDbEntity
  8
AM_9
100
AcDbLine
 10
-2.348306528811923
 20
-4.393000000000001
 30
0.0
 11
-2.348306528811923
 21
-4.463000000000001
 31
0.0
  0
LINE
  5
137
330
110
100
AcDbEntity
  8
AM_9
100
AcDbLine
 10
-1.155242797091341
 20
-4.393000000000001
 30
0.0
 11
-1.155242797091341
 21
-4.463000000000001
 31
0.0
  0
LINE
  5
138
330
110
100
AcDbEntity
  8
AM_9
100
AcDbLine
 10
-1.054218984838256
 20
-3.343000000000001
 30
0.0
 11
-1.493970249762143
 21
-3.343000000000001
 31
0.0
  0
LINE
  5
139
330
110
100
AcDbEntity
  8
AM_9
100
AcDbLine
 10
-1.054218984838256
 20
-3.343000000000001
 30
0.0
 11
-1.054218984838256
 21
-4.463000000000001
 31
0.0
  0
LINE
  5
13A
330
110
100
AcDbEntity
  8
AM_9
100
AcDbLine
 10
-1.119799039095071
 20
-4.393000000000001
 30
0.0
 11
-1.119799039095071
 21
-3.343000000000001
 31
0.0
  0
LINE
  5
13B
330
110
100
AcDbEntity
  8
AM_9
100
AcDbLine
 10
-1.493970249762143
 20
-3.343000000000001
 30
0.0
 11
-1.493970249762143
 21
-4.393000000000001
 31
0.0
  0
LINE
  5
13C
330
110
100
AcDbEntity
  8
AM_9
100
AcDbLine
 10
2.348306528811923
 20
-4.393000000000001
 30
0.0
 11
2.34830652881192
 21
-4.463000000000001
 31
0.0
  0
LINE
  5
13D
330
110
100
AcDbEntity
  8
AM_9
100
AcDbLine
 10
3.160497236397164
 20
-4.393000000000001
 30
0.0
 11
3.160497236397164
 21
-4.463000000000001
 31
0.0
  0
LINE
  5
13E
330
110
100
AcDbEntity
  8
AM_9
100
AcDbLine
 10
3.42566227934212
 20
-4.393000000000001
 30
0.0
 11
3.42566227934212
 21
-4.463000000000001
 31
0.0
  0
LINE
  5
13F
330
110
100
AcDbEntity
  8
AM_9
100
AcDbLine
 10
3.480606641674919
 20
-4.463000000000001
 30
0.0
 11
3.480606641674919
 21
-4.393000000000001
 31
0.0
  0
LINE
  5
140
330
110
100
AcDbEntity
  8
AM_9
100
AcDbLine
 10
-3.425662279342119
 20
-4.393000000000001
 30
0.0
 11
-3.425662279342119
 21
-4.463000000000001
 31
0.0
  0
LINE
  5
141
330
110
100
AcDbEntity
  8
AM_9
100
AcDbLine
 10
-3.160497236397104
 20
-4.393000000000001
 30
0.0
 11
-3.160497236397104
 21
-4.463000000000001
 31
0.0
  0
LINE
  5
142
330
110
100
AcDbEntity
  8
AM_9
100
AcDbLine
 10
-3.480606641674919
 20
-4.393000000000001
 30
0.0
 11
-3.480606641674919
 21
-4.463000000000001
 31
0.0
  0
LINE
  5
143
330
110
100
AcDbEntity
  8
AM_9
100
AcDbLine
 10
-0.1874999999999998
 20
-4.393000000000001
 30
0.0
 11
-0.1874999999999998
 21
-4.463
 31
0.0
  0
LINE
  5
144
330
110
100
AcDbEntity
  8
AM_9
100
AcDbLine
 10
0.1875000000000004
 20
-4.393000000000001
 30
0.0
 11
0.187500000000002
 21
-4.463
 31
0.0
  0
LINE
  5
145
330
110
100
AcDbEntity
  8
AM_4
100
AcDbLine
 10
-5.703125000000001
 20
-4.393000000000001
 30
0.0
 11
-5.703125000000001
 21
-4.463000000000001
 31
0.0
  0
LINE
  5
146
330
110
100
AcDbEntity
  8
AM_4
100
AcDbLine
 10
5.703125000000001
 20
-4.463000000000001
 30
0.0
 11
5.703125000000001
 21
-4.393000000000001
 31
0.0
  0
LINE
  5
147
330
110
100
AcDbEntity
  8
AM_4
100
AcDbLine
 10
-5.703125000000001
 20
-4.463000000000001
 30
0.0
 11
5.703125000000001
 21
-4.463000000000001
 31
0.0
  0
LINE
  5
148
330
110
100
AcDbEntity
  8
AM_4
100
AcDbLine
 10
-5.703125000000001
 20
-4.393000000000001
 30
0.0
 11
5.703125000000001
 21
-4.393000000000001
 31
0.0
  0
ENDBLK
  5
113
330
110
100
AcDbEntity
  8
0
100
AcDbBlockEnd
  0
BLOCK
  5
14B
330
149
100
AcDbEntity
  8
0
100
AcDbBlockBegin
  2
6_037938E_0_in_071615_4
 70
     2
 10
0.0
 20
0.0
 30
0.0
  3
6_037938E_0_in_071615_4
  1

  0
ATTDEF
  5
14D
330
149
100
AcDbEntity
  8
AM_6
100
AcDbText
 10
11.2992
 20
2.486625000000003
 30
0.0
 40
0.5
  1
Imperial/E Insert -Inch
100
AcDbAttributeDefinition
  3

  2
NN
 70
     8
280
     0
  0
ATTDEF
  5
14E
330
149
100
AcDbEntity
  8
AM_6
100
AcDbText
 10
11.2992
 20
1.986625000000003
 30
0.0
 40
0.5
  1
Imperial Bearings
100
AcDbAttributeDefinition
  3

  2
NT
 70
     8
280
     0
  0
ATTDEF
  5
14F
330
149
100
AcDbEntity
  8
AM_6
100
AcDbText
 10
11.2992
 20
1.486625000000003
 30
0.0
 40
0.5
  1
037938E
100
AcDbAttributeDefinition
  3

  2
NB
 70
     8
280
     0
  0
ATTDEF
  5
150
330
149
100
AcDbEntity
  8
AM_6
100
AcDbText
 10
11.2992
 20
0.9866250000000027
 30
0.0
 40
0.5
  1
$PN.
100
AcDbAttributeDefinition
  3

  2
NBSYN
 70
     8
280
     0
  0
ATTDEF
  5
151
330
149
100
AcDbEntity
  8
AM_6
100
AcDbText
 10
11.2992
 20
0.4866250000000027
 30
0.0
 40
0.5
  1
037938E
100
AcDbAttributeDefinition
  3

  2
LINA
 70
     8
280
     0
  0
ATTDEF
  5
152
330
149
100
AcDbEntity
  8
AM_6
100
AcDbText
 10
11.2992
 20
-0.0133749999999973
 30
0.0
 40
0.5
  1
6-1/2
100
AcDbAttributeDefinition
  3

  2
SS
 70
     8
280
     0
  0
ATTDEF
  5
153
330
149
100
AcDbEntity
  8
AM_6
100
AcDbText
 10
11.2992
 20
-0.5133749999999973
 30
0.0
 40
0.5
  1
6.500000
100
AcDbAttributeDefinition
  3

  2
SS1
 70
     8
280
     0
  0
ATTDEF
  5
154
330
149
100
AcDbEntity
  8
AM_6
100
AcDbText
 10
11.2992
 20
-1.013374999999997
 30
0.0
 40
0.5
  1
037938E
100
AcDbAttributeDefinition
  3

  2
PN
 70
     8
280
     0
  0
ATTDEF
  5
155
330
149
100
AcDbEntity
  8
AM_6
100
AcDbText
 10
11.2992
 20
-1.513374999999997
 30
0.0
 40
0.5
  1
INS-IP-608L
100
AcDbAttributeDefinition
  3

  2
DESCRIPTION
 70
     8
280
     0
  0
ATTDEF
  5
156
330
149
100
AcDbEntity
  8
AM_6
100
AcDbText
 10
11.2992
 20
-2.013374999999997
 30
0.0
 40
0.5
  1
Contact Seal
100
AcDbAttributeDefinition
  3

  2
ST
 70
     8
280
     0
  0
ATTDEF
  5
157
330
149
100
AcDbEntity
  8
AM_6
100
AcDbText
 10
11.2992
 20
-2.513374999999997
 30
0.0
 40
0.5
  1
2
100
AcDbAttributeDefinition
  3

  2
ST1
 70
     8
280
     0
  0
ATTDEF
  5
158
330
149
100
AcDbEntity
  8
AM_6
100
AcDbText
 10
11.2992
 20
-3.013374999999997
 30
0.0
 40
0.5
  1
12.5984
100
AcDbAttributeDefinition
  3

  2
A
 70
     8
280
     0
  0
ATTDEF
  5
159
330
149
100
AcDbEntity
  8
AM_6
100
AcDbText
 10
11.2992
 20
-3.513374999999997
 30
0.0
 40
0.5
  1
3-15/32
100
AcDbAttributeDefinition
  3

  2
B
 70
     8
280
     0
  0
ATTDEF
  5
15A
330
149
100
AcDbEntity
  8
AM_6
100
AcDbText
 10
11.2992
 20
-4.013374999999997
 30
0.0
 40
0.5
  1
3.468750
100
AcDbAttributeDefinition
  3

  2
B1
 70
     8
280
     0
  0
ATTDEF
  5
15B
330
149
100
AcDbEntity
  8
AM_6
100
AcDbText
 10
11.2992
 20
-4.513374999999997
 30
0.0
 40
0.5
  1
7-25/64
100
AcDbAttributeDefinition
  3

  2
C
 70
     8
280
     0
  0
ATTDEF
  5
15C
330
149
100
AcDbEntity
  8
AM_6
100
AcDbText
 10
11.2992
 20
-5.013374999999997
 30
0.0
 40
0.5
  1
7.390625
100
AcDbAttributeDefinition
  3

  2
C1
 70
     8
280
     0
  0
ATTDEF
  5
15D
330
149
100
AcDbEntity
  8
AM_6
100
AcDbText
 10
11.2992
 20
-5.513374999999997
 30
0.0
 40
0.5
  1
7.39063
100
AcDbAttributeDefinition
  3

  2
CR
 70
     8
280
     0
  0
ATTDEF
  5
15E
330
149
100
AcDbEntity
  8
AM_6
100
AcDbText
 10
11.2992
 20
-6.013374999999997
 30
0.0
 40
0.5
  1
2.862
100
AcDbAttributeDefinition
  3

  2
D
 70
     8
280
     0
  0
ATTDEF
  5
15F
330
149
100
AcDbEntity
  8
AM_6
100
AcDbText
 10
11.2992
 20
-6.513374999999997
 30
0.0
 40
0.5
  1
11-13/32
100
AcDbAttributeDefinition
  3

  2
E
 70
     8
280
     0
  0
ATTDEF
  5
160
330
149
100
AcDbEntity
  8
AM_6
100
AcDbText
 10
11.2992
 20
-7.013374999999997
 30
0.0
 40
0.5
  1
11.406250
100
AcDbAttributeDefinition
  3

  2
E1
 70
     8
280
     0
  0
ATTDEF
  5
161
330
149
100
AcDbEntity
  8
AM_6
100
AcDbText
 10
11.2992
 20
-7.513374999999997
 30
0.0
 40
0.5
  1
0.3750
100
AcDbAttributeDefinition
  3

  2
NDM
 70
     8
280
     0
  0
ATTDEF
  5
162
330
149
100
AcDbEntity
  8
AM_6
100
AcDbText
 10
11.2992
 20
-8.013374999999996
 30
0.0
 40
0.5
  1
0.3070
100
AcDbAttributeDefinition
  3

  2
KDM
 70
     8
280
     0
  0
ATTDEF
  5
163
330
149
100
AcDbEntity
  8
AM_6
100
AcDbText
 10
11.2992
 20
-8.513374999999996
 30
0.0
 40
0.5
  1
10.00
100
AcDbAttributeDefinition
  3

  2
AL
 70
     8
280
     0
  0
ATTDEF
  5
164
330
149
100
AcDbEntity
  8
AM_6
100
AcDbText
 10
11.2992
 20
-9.013374999999996
 30
0.0
 40
0.5
  1
0.81
100
AcDbAttributeDefinition
  3

  2
BL
 70
     8
280
     0
  0
ATTDEF
  5
165
330
149
100
AcDbEntity
  8
AM_6
100
AcDbText
 10
11.2992
 20
-9.513374999999996
 30
0.0
 40
0.5
  1
0.07
100
AcDbAttributeDefinition
  3

  2
CL
 70
     8
280
     0
  0
ATTDEF
  5
166
330
149
100
AcDbEntity
  8
AM_6
100
AcDbText
 10
11.2992
 20
-10.013375
 30
0.0
 40
0.5
  1
1.12
100
AcDbAttributeDefinition
  3

  2
DL
 70
     8
280
     0
  0
ATTDEF
  5
167
330
149
100
AcDbEntity
  8
AM_6
100
AcDbText
 10
11.2992
 20
-10.513375
 30
0.0
 40
0.5
  1
1.2500
100
AcDbAttributeDefinition
  3

  2
LL
 70
     8
280
     0
  0
ATTDEF
  5
168
330
149
100
AcDbEntity
  8
AM_6
100
AcDbText
 10
11.2992
 20
-11.013375
 30
0.0
 40
0.5
  1
0.036
100
AcDbAttributeDefinition
  3

  2
Y
 70
     8
280
     0
  0
ATTDEF
  5
169
330
149
100
AcDbEntity
  8
AM_6
100
AcDbText
 10
11.2992
 20
-11.513375
 30
0.0
 40
0.5
  1
0.036000
100
AcDbAttributeDefinition
  3

  2
Y1
 70
     8
280
     0
  0
ATTDEF
  5
16A
330
149
100
AcDbEntity
  8
AM_6
100
AcDbText
 10
11.2992
 20
-12.013375
 30
0.0
 40
0.5
  1
7-7/8
100
AcDbAttributeDefinition
  3

  2
Z
 70
     8
280
     0
  0
ATTDEF
  5
16B
330
149
100
AcDbEntity
  8
AM_6
100
AcDbText
 10
11.2992
 20
-12.513375
 30
0.0
 40
0.5
  1
7.875000
100
AcDbAttributeDefinition
  3

  2
Z1
 70
     8
280
     0
  0
ATTDEF
  5
16C
330
149
100
AcDbEntity
  8
AM_6
100
AcDbText
 10
11.2992
 20
-13.013375
 30
0.0
 40
0.5
  1
0.00000
100
AcDbAttributeDefinition
  3

  2
P1
 70
     8
280
     0
  0
ATTDEF
  5
16D
330
149
100
AcDbEntity
  8
AM_6
100
AcDbText
 10
11.2992
 20
-13.513375
 30
0.0
 40
0.5
  1
0.00000
100
AcDbAttributeDefinition
  3

  2
H1
 70
     8
280
     0
  0
ATTDEF
  5
16E
330
149
100
AcDbEntity
  8
AM_6
100
AcDbText
 10
11.2992
 20
-14.013375
 30
0.0
 40
0.5
  1
0.00000
100
AcDbAttributeDefinition
  3

  2
G1
 70
     8
280
     0
  0
ATTDEF
  5
16F
330
149
100
AcDbEntity
  8
AM_6
100
AcDbText
 10
11.2992
 20
-14.513375
 30
0.0
 40
0.5
  1
0.19900
100
AcDbAttributeDefinition
  3

  2
CW
 70
     8
280
     0
  0
ATTDEF
  5
170
330
149
100
AcDbEntity
  8
AM_6
100
AcDbText
 10
11.2992
 20
-15.013375
 30
0.0
 40
0.5
  1
11.41000
100
AcDbAttributeDefinition
  3

  2
L1
 70
     8
280
     0
  0
ATTDEF
  5
171
330
149
100
AcDbEntity
  8
AM_6
100
AcDbText
 10
11.2992
 20
-15.513375
 30
0.0
 40
0.5
  1
baldor
100
AcDbAttributeDefinition
  3

  2
COMPANY
 70
     8
280
     0
  0
LINE
  5
172
330
149
100
AcDbEntity
  8
AM_9
100
AcDbLine
 10
-1.49743060239267
 20
1.322999999999999
 30
0.0
 11
-1.49743060239267
 21
-4.393000000000001
 31
0.0
  0
LINE
  5
173
330
149
100
AcDbEntity
  8
AM_9
100
AcDbLine
 10
-1.1232593917256
 20
1.322999999999999
 30
0.0
 11
-1.1232593917256
 21
-4.393000000000001
 31
0.0
  0
LINE
  5
174
330
149
100
AcDbEntity
  8
AM_9
100
AcDbLine
 10
-1.054218984838257
 20
1.322999999999999
 30
0.0
 11
-1.054218984838257
 21
-4.94
 31
0.0
  0
LINE
  5
175
330
149
100
AcDbEntity
  8
AM_9
100
AcDbLine
 10
-1.428390195505328
 20
-4.463000000000001
 30
0.0
 11
-1.428390195505328
 21
1.322999999999999
 31
0.0
  0
LINE
  5
176
330
149
100
AcDbEntity
  8
AM_9
100
AcDbLine
 10
-3.25
 20
1.323
 30
0.0
 11
-3.25
 21
-4.940000000000001
 31
0.0
  0
LINE
  5
177
330
149
100
AcDbEntity
  8
AM_9
100
AcDbLine
 10
3.25
 20
-4.940000000000001
 30
0.0
 11
3.25
 21
1.323
 31
0.0
  0
LINE
  5
178
330
149
100
AcDbEntity
  8
AM_9
100
AcDbLine
 10
-3.421052631578947
 20
2.450624999999999
 30
0.0
 11
-3.421052631578947
 21
1.323
 31
0.0
  0
LINE
  5
179
330
149
100
AcDbEntity
  8
AM_9
100
AcDbLine
 10
3.421052631578947
 20
1.323
 30
0.0
 11
3.421052631578947
 21
2.450624999999999
 31
0.0
  0
LINE
  5
17A
330
149
100
AcDbEntity
  8
AM_9
100
AcDbLine
 10
-1.119799039095073
 20
-4.463000000000001
 30
0.0
 11
-1.119799039095073
 21
-4.393000000000001
 31
0.0
  0
LINE
  5
17B
330
149
100
AcDbEntity
  8
AM_9
100
AcDbLine
 10
-1.493970249762143
 20
-4.393000000000001
 30
0.0
 11
-1.493970249762143
 21
-4.463000000000001
 31
0.0
  0
LINE
  5
17C
330
149
100
AcDbEntity
  8
AM_9
100
AcDbLine
 10
-3.421052631578947
 20
-4.393000000000001
 30
0.0
 11
-3.421052631578947
 21
-4.463000000000001
 31
0.0
  0
LINE
  5
17D
330
149
100
AcDbEntity
  8
AM_9
100
AcDbLine
 10
3.421052631578947
 20
-4.463000000000001
 30
0.0
 11
3.421052631578947
 21
-4.393000000000001
 31
0.0
  0
LINE
  5
17E
330
149
100
AcDbEntity
  8
AM_9
100
AcDbLine
 10
3.249155659552187
 20
-3.273
 30
0.0
 11
3.249155659552187
 21
-4.393000000000001
 31
0.0
  0
LINE
  5
17F
330
149
100
AcDbEntity
  8
AM_9
100
AcDbLine
 10
-3.249155659552184
 20
-3.273
 30
0.0
 11
-3.249155659552184
 21
-4.393000000000001
 31
0.0
  0
LINE
  5
180
330
149
100
AcDbEntity
  8
AM_9
100
AcDbLine
 10
3.9375
 20
2.450624999999999
 30
0.0
 11
-3.9375
 21
2.450624999999999
 31
0.0
  0
LINE
  5
181
330
149
100
AcDbEntity
  8
AM_9
100
AcDbLine
 10
-3.9375
 20
2.486625000000003
 30
0.0
 11
-3.9375
 21
2.450624999999999
 31
0.0
  0
LINE
  5
182
330
149
100
AcDbEntity
  8
AM_9
100
AcDbLine
 10
3.9375
 20
2.450624999999999
 30
0.0
 11
3.9375
 21
2.486625000000003
 31
0.0
  0
LINE
  5
183
330
149
100
AcDbEntity
  8
AM_9
100
AcDbLine
 10
3.249155659552187
 20
-3.273
 30
0.0
 11
3.750017448406226
 21
-3.273
 31
0.0
  0
LINE
  5
184
330
149
100
AcDbEntity
  8
AM_9
100
AcDbLine
 10
-3.750017448406223
 20
-3.273
 30
0.0
 11
-3.249155659552184
 21
-3.273
 31
0.0
  0
LINE
  5
185
330
149
100
AcDbEntity
  8
AM_9
100
AcDbLine
 10
0.0
 20
-3.080499999999999
 30
0.0
 11
-0.1536500000000002
 21
-3.169209868860986
 31
0.0
  0
LINE
  5
186
330
149
100
AcDbEntity
  8
AM_9
100
AcDbLine
 10
0.1536500000000002
 20
-3.169209868860986
 30
0.0
 11
0.0
 21
-3.080499999999999
 31
0.0
  0
LINE
  5
187
330
149
100
AcDbEntity
  8
AM_9
100
AcDbLine
 10
0.1536500000000001
 20
-3.169209868860986
 30
0.0
 11
-0.1536500000000001
 21
-3.169209868860986
 31
0.0
  0
LINE
  5
188
330
149
100
AcDbEntity
  8
AM_9
100
AcDbLine
 10
-0.1536500000000001
 20
-3.169209868860986
 30
0.0
 11
-0.1536500000000001
 21
-4.35915
 31
0.0
  0
LINE
  5
189
330
149
100
AcDbEntity
  8
AM_9
100
AcDbLine
 10
0.1536500000000001
 20
-4.35915
 30
0.0
 11
0.1536500000000001
 21
-3.169209868860986
 31
0.0
  0
LINE
  5
18A
330
149
100
AcDbEntity
  8
AM_9
100
AcDbLine
 10
0.1536500000000001
 20
-4.35915
 30
0.0
 11
-0.1536500000000001
 21
-4.35915
 31
0.0
  0
LINE
  5
18B
330
149
100
AcDbEntity
  8
AM_9
100
AcDbLine
 10
-0.1536500000000001
 20
-4.35915
 30
0.0
 11
-0.1875000000000001
 21
-4.393
 31
0.0
  0
LINE
  5
18C
330
149
100
AcDbEntity
  8
AM_9
100
AcDbLine
 10
0.1875000000000001
 20
-4.393
 30
0.0
 11
0.1536500000000001
 21
-4.35915
 31
0.0
  0
LINE
  5
18D
330
149
100
AcDbEntity
  8
AM_9
100
AcDbLine
 10
5.25
 20
2.486625000000003
 30
0.0
 11
-5.25
 21
2.486625000000003
 31
0.0
  0
LINE
  5
18E
330
149
100
AcDbEntity
  8
AM_9
100
AcDbLine
 10
-5.25
 20
2.486625000000003
 30
0.0
 11
-5.25
 21
2.016749999999999
 31
0.0
  0
LINE
  5
18F
330
149
100
AcDbEntity
  8
AM_9
100
AcDbLine
 10
5.25
 20
2.016749999999999
 30
0.0
 11
5.25
 21
2.486625000000003
 31
0.0
  0
LINE
  5
190
330
149
100
AcDbEntity
  8
AM_9
100
AcDbLine
 10
5.640928223830733
 20
2.016749999999999
 30
0.0
 11
-5.640928223810953
 21
2.016749999999999
 31
0.0
  0
ARC
  5
191
330
149
100
AcDbEntity
  8
AM_9
100
AcDbCircle
 10
-5.640928223830736
 20
1.916750000000001
 30
0.0
 40
0.0999999999999979
100
AcDbArc
 50
90.0
 51
150.0000000000005
  0
ARC
  5
192
330
149
100
AcDbEntity
  8
AM_9
100
AcDbCircle
 10
5.640928223830736
 20
1.916750000000001
 30
0.0
 40
0.099999999999998
100
AcDbArc
 50
29.99999999999953
 51
90.0
  0
LINE
  5
193
330
149
100
AcDbEntity
  8
AM_9
100
AcDbLine
 10
5.723879072199651
 20
-3.203999999999999
 30
0.0
 11
5.741493373057903
 21
-2.194877379678137
 31
0.0
  0
LINE
  5
194
330
149
100
AcDbEntity
  8
AM_9
100
AcDbLine
 10
-5.741493373057903
 20
-2.194877379678137
 30
0.0
 11
-5.723879072199651
 21
-3.203999999999999
 31
0.0
  0
LINE
  5
195
330
149
100
AcDbEntity
  8
AM_9
100
AcDbLine
 10
5.741493373057903
 20
-2.194877379678137
 30
0.0
 11
-5.741493373057903
 21
-2.194877379678137
 31
0.0
  0
ARC
  5
196
330
149
100
AcDbEntity
  8
AM_9
100
AcDbCircle
 10
-5.791485757815724
 20
-2.195750000000002
 30
0.0
 40
0.0500000000000012
100
AcDbArc
 50
1.000000000000629
 51
90.0
  0
ARC
  5
197
330
149
100
AcDbEntity
  8
AM_9
100
AcDbCircle
 10
5.791485757815724
 20
-2.195750000000002
 30
0.0
 40
0.0500000000000016
100
AcDbArc
 50
90.0
 51
178.9999999999994
  0
LINE
  5
198
330
149
100
AcDbEntity
  8
AM_9
100
AcDbLine
 10
5.727530764209178
 20
1.96675
 30
0.0
 11
-5.727530764209178
 21
1.96675
 31
0.0
  0
LINE
  5
199
330
149
100
AcDbEntity
  8
AM_9
100
AcDbLine
 10
-5.727530764209178
 20
1.96675
 30
0.0
 11
-6.099199999999999
 21
1.323
 31
0.0
  0
LINE
  5
19A
330
149
100
AcDbEntity
  8
AM_9
100
AcDbLine
 10
6.099199999999999
 20
1.323
 30
0.0
 11
5.727530764209178
 21
1.96675
 31
0.0
  0
LINE
  5
19B
330
149
100
AcDbEntity
  8
AM_9
100
AcDbLine
 10
-6.1257625
 20
-0.3312408126874247
 30
0.0
 11
-6.1257625
 21
-0.5315091873125758
 31
0.0
  0
LINE
  5
19C
330
149
100
AcDbEntity
  8
AM_9
100
AcDbLine
 10
6.1257625
 20
-0.5315091873125758
 30
0.0
 11
6.1257625
 21
-0.3312408126874247
 31
0.0
  0
LINE
  5
19D
330
149
100
AcDbEntity
  8
AM_9
100
AcDbLine
 10
6.1257625
 20
-0.3312408126874247
 30
0.0
 11
-6.1257625
 21
-0.3312408126874247
 31
0.0
  0
LINE
  5
19E
330
149
100
AcDbEntity
  8
AM_9
100
AcDbLine
 10
6.1257625
 20
-0.3312408126874247
 30
0.0
 11
6.299199999999999
 21
-0.2311066253748487
 31
0.0
  0
LINE
  5
19F
330
149
100
AcDbEntity
  8
AM_9
100
AcDbLine
 10
-6.299199999999999
 20
-0.2311066253748487
 30
0.0
 11
-6.1257625
 21
-0.3312408126874247
 31
0.0
  0
LINE
  5
1A0
330
149
100
AcDbEntity
  8
AM_9
100
AcDbLine
 10
6.125762499999999
 20
-0.5315091873125758
 30
0.0
 11
-6.125762499999999
 21
-0.5315091873125758
 31
0.0
  0
LINE
  5
1A1
330
149
100
AcDbEntity
  8
AM_9
100
AcDbLine
 10
-6.125762499999999
 20
-0.5315091873125758
 30
0.0
 11
-6.299199999999999
 21
-0.6316433746251513
 31
0.0
  0
LINE
  5
1A2
330
149
100
AcDbEntity
  8
AM_9
100
AcDbLine
 10
6.299199999999999
 20
-0.6316433746251513
 30
0.0
 11
6.125762499999999
 21
-0.5315091873125758
 31
0.0
  0
LINE
  5
1A3
330
149
100
AcDbEntity
  8
AM_9
100
AcDbLine
 10
6.249200000000001
 20
1.322999999999999
 30
0.0
 11
-6.249199999994564
 21
1.322999999999999
 31
0.0
  0
ARC
  5
1A4
330
149
100
AcDbEntity
  8
AM_9
100
AcDbCircle
 10
-6.2492
 20
1.273
 30
0.0
 40
0.0499999999999987
100
AcDbArc
 50
90.0
 51
180.0
  0
ARC
  5
1A5
330
149
100
AcDbEntity
  8
AM_9
100
AcDbCircle
 10
6.249200000000002
 20
1.273000000000001
 30
0.0
 40
0.0499999999999972
100
AcDbArc
 50
0.0
 51
90.0
  0
LINE
  5
1A6
330
149
100
AcDbEntity
  8
AM_9
100
AcDbLine
 10
6.299199999999999
 20
1.272999999999999
 30
0.0
 11
-6.299199999999999
 21
1.272999999999999
 31
0.0
  0
LINE
  5
1A7
330
149
100
AcDbEntity
  8
AM_9
100
AcDbLine
 10
6.299199999999999
 20
-0.2311066253748487
 30
0.0
 11
-6.299199999999999
 21
-0.2311066253748487
 31
0.0
  0
LINE
  5
1A8
330
149
100
AcDbEntity
  8
AM_9
100
AcDbLine
 10
-6.299199999999999
 20
1.272999999999999
 30
0.0
 11
-6.299199999999999
 21
-0.2311066253748487
 31
0.0
  0
LINE
  5
1A9
330
149
100
AcDbEntity
  8
AM_9
100
AcDbLine
 10
6.299199999999999
 20
-0.2311066253748487
 30
0.0
 11
6.299199999999999
 21
1.272999999999999
 31
0.0
  0
LINE
  5
1AA
330
149
100
AcDbEntity
  8
AM_9
100
AcDbLine
 10
6.299199999999999
 20
-0.6316433746251513
 30
0.0
 11
-6.299199999999999
 21
-0.6316433746251513
 31
0.0
  0
LINE
  5
1AB
330
149
100
AcDbEntity
  8
AM_9
100
AcDbLine
 10
-6.299199999999999
 20
-0.6316433746251513
 30
0.0
 11
-6.299199999999999
 21
-2.135750000000002
 31
0.0
  0
LINE
  5
1AC
330
149
100
AcDbEntity
  8
AM_9
100
AcDbLine
 10
6.299199999999999
 20
-2.135750000000002
 30
0.0
 11
6.299199999999999
 21
-0.6316433746251513
 31
0.0
  0
LINE
  5
1AD
330
149
100
AcDbEntity
  8
AM_9
100
AcDbLine
 10
6.299199999999999
 20
-2.135750000000002
 30
0.0
 11
-6.299199999999999
 21
-2.135750000000002
 31
0.0
  0
LINE
  5
1AE
330
149
100
AcDbEntity
  8
AM_9
100
AcDbLine
 10
6.289199999999996
 20
-2.14575
 30
0.0
 11
-6.289199999983859
 21
-2.14575
 31
0.0
  0
ARC
  5
1AF
330
149
100
AcDbEntity
  8
AM_9
100
AcDbCircle
 10
-6.289200000000001
 20
-2.135750000000003
 30
0.0
 40
0.009999999999998
100
AcDbArc
 50
180.0
 51
270.0
  0
ARC
  5
1B0
330
149
100
AcDbEntity
  8
AM_9
100
AcDbCircle
 10
6.289200000000001
 20
-2.135750000000003
 30
0.0
 40
0.0099999999999976
100
AcDbArc
 50
270.0
 51
0.0
  0
LINE
  5
1B1
330
149
100
AcDbEntity
  8
AM_5
100
AcDbLine
 10
0.1875000000000001
 20
-4.393000000000001
 30
0.0
 11
0.1875000000000001
 21
-3.692999999999997
 31
0.0
  0
LINE
  5
1B2
330
149
100
AcDbEntity
  8
AM_5
100
AcDbLine
 10
-0.1874999999999996
 20
-4.393000000000001
 30
0.0
 11
-0.1874999999999996
 21
-3.692999999999997
 31
0.0
  0
LINE
  5
1B3
330
149
100
AcDbEntity
  8
AM_4
100
AcDbLine
 10
-1.428390195505328
 20
-4.94
 30
0.0
 11
-1.428390195505328
 21
-4.463000000000001
 31
0.0
  0
LINE
  5
1B4
330
149
100
AcDbEntity
  8
AM_4
100
AcDbLine
 10
-1.119799039095073
 20
-4.94
 30
0.0
 11
-1.119799039095073
 21
-4.463000000000001
 31
0.0
  0
LINE
  5
1B5
330
149
100
AcDbEntity
  8
AM_4
100
AcDbLine
 10
-1.493970249762143
 20
-4.463000000000001
 30
0.0
 11
-1.493970249762143
 21
-4.94
 31
0.0
  0
LINE
  5
1B6
330
149
100
AcDbEntity
  8
AM_4
100
AcDbLine
 10
-3.421052631578947
 20
-4.463000000000001
 30
0.0
 11
-3.421052631578947
 21
-4.94
 31
0.0
  0
LINE
  5
1B7
330
149
100
AcDbEntity
  8
AM_4
100
AcDbLine
 10
3.421052631578947
 20
-4.94
 30
0.0
 11
3.421052631578947
 21
-4.463000000000001
 31
0.0
  0
LINE
  5
1B8
330
149
100
AcDbEntity
  8
AM_4
100
AcDbLine
 10
3.421052631578947
 20
-4.94
 30
0.0
 11
-3.421052631578947
 21
-4.94
 31
0.0
  0
LINE
  5
1B9
330
149
100
AcDbEntity
  8
AM_4
100
AcDbLine
 10
3.821912152313291
 20
-3.273
 30
0.0
 11
3.821912152313291
 21
-4.393000000000001
 31
0.0
  0
LINE
  5
1BA
330
149
100
AcDbEntity
  8
AM_4
100
AcDbLine
 10
-3.82191215231329
 20
-3.273
 30
0.0
 11
-3.82191215231329
 21
-4.393000000000001
 31
0.0
  0
LINE
  5
1BB
330
149
100
AcDbEntity
  8
AM_4
100
AcDbLine
 10
-4.308915366509152
 20
-4.393000000000001
 30
0.0
 11
-5.703124999999998
 21
-4.393000000000001
 31
0.0
  0
LINE
  5
1BC
330
149
100
AcDbEntity
  8
AM_4
100
AcDbLine
 10
-4.308915366509152
 20
-4.393000000000001
 30
0.0
 11
-4.322773941167328
 21
-3.273
 31
0.0
  0
LINE
  5
1BD
330
149
100
AcDbEntity
  8
AM_4
100
AcDbLine
 10
-4.322773941167328
 20
-3.273
 30
0.0
 11
-3.750017448406223
 21
-3.273
 31
0.0
  0
LINE
  5
1BE
330
149
100
AcDbEntity
  8
AM_4
100
AcDbLine
 10
-3.750017448406223
 20
-3.273
 30
0.0
 11
-3.736158873748048
 21
-4.393000000000001
 31
0.0
  0
LINE
  5
1BF
330
149
100
AcDbEntity
  8
AM_4
100
AcDbLine
 10
3.73615887374805
 20
-4.393000000000001
 30
0.0
 11
-3.736158873748048
 21
-4.393000000000001
 31
0.0
  0
LINE
  5
1C0
330
149
100
AcDbEntity
  8
AM_4
100
AcDbLine
 10
3.73615887374805
 20
-4.393000000000001
 30
0.0
 11
3.750017448406226
 21
-3.273
 31
0.0
  0
LINE
  5
1C1
330
149
100
AcDbEntity
  8
AM_4
100
AcDbLine
 10
3.750017448406226
 20
-3.273
 30
0.0
 11
4.322773941167329
 21
-3.273
 31
0.0
  0
LINE
  5
1C2
330
149
100
AcDbEntity
  8
AM_4
100
AcDbLine
 10
4.322773941167329
 20
-3.273
 30
0.0
 11
4.308915366509154
 21
-4.393000000000001
 31
0.0
  0
LINE
  5
1C3
330
149
100
AcDbEntity
  8
AM_4
100
AcDbLine
 10
5.703124999999998
 20
-4.393000000000001
 30
0.0
 11
5.723879072199651
 21
-3.203999999999999
 31
0.0
  0
LINE
  5
1C4
330
149
100
AcDbEntity
  8
AM_4
100
AcDbLine
 10
-5.723879072199651
 20
-3.203999999999999
 30
0.0
 11
-5.703124999999998
 21
-4.393000000000001
 31
0.0
  0
LINE
  5
1C5
330
149
100
AcDbEntity
  8
AM_4
100
AcDbLine
 10
5.703124999999998
 20
-4.393000000000001
 30
0.0
 11
4.308915366509154
 21
-4.393000000000001
 31
0.0
  0
ENDBLK
  5
14C
330
149
100
AcDbEntity
  8
0
100
AcDbBlockEnd
  0
BLOCK
  5
1C8
330
1C6
100
AcDbEntity
  8
0
100
AcDbBlockBegin
  2
7_071615H_0_in_071615_4
 70
     2
 10
0.0
 20
0.0
 30
0.0
  3
7_071615H_0_in_071615_4
  1

  0
ATTDEF
  5
1CA
330
1C6
100
AcDbEntity
  8
AM_6
100
AcDbText
 10
18.00000000000001
 20
3.916
 30
0.0
 40
0.5
  1
EP4B-IP -(Contact Seal)-Housing -Inch
100
AcDbAttributeDefinition
  3

  2
NN
 70
     8
280
     0
  0
ATTDEF
  5
1CB
330
1C6
100
AcDbEntity
  8
AM_6
100
AcDbText
 10
18.00000000000001
 20
3.416
 30
0.0
 40
0.5
  1
Imperial/E 4 Bolt Piliow Block Bearings
100
AcDbAttributeDefinition
  3

  2
NT
 70
     8
280
     0
  0
ATTDEF
  5
1CC
330
1C6
100
AcDbEntity
  8
AM_6
100
AcDbText
 10
18.00000000000001
 20
2.916
 30
0.0
 40
0.5
  1
071615H
100
AcDbAttributeDefinition
  3

  2
NB
 70
     8
280
     0
  0
ATTDEF
  5
1CD
330
1C6
100
AcDbEntity
  8
AM_6
100
AcDbText
 10
18.00000000000001
 20
2.416
 30
0.0
 40
0.5
  1
$PN.H
100
AcDbAttributeDefinition
  3

  2
NBSYN
 70
     8
280
     0
  0
ATTDEF
  5
1CE
330
1C6
100
AcDbEntity
  8
AM_6
100
AcDbText
 10
18.00000000000001
 20
1.916
 30
0.0
 40
0.5
  1
071615
100
AcDbAttributeDefinition
  3

  2
LINA
 70
     8
280
     0
  0
ATTDEF
  5
1CF
330
1C6
100
AcDbEntity
  8
AM_6
100
AcDbText
 10
18.00000000000001
 20
1.416
 30
0.0
 40
0.5
  1
6-1/2
100
AcDbAttributeDefinition
  3

  2
SS
 70
     8
280
     0
  0
ATTDEF
  5
1D0
330
1C6
100
AcDbEntity
  8
AM_6
100
AcDbText
 10
18.00000000000001
 20
0.9159999999999999
 30
0.0
 40
0.5
  1
6.500000
100
AcDbAttributeDefinition
  3

  2
SS1
 70
     8
280
     0
  0
ATTDEF
  5
1D1
330
1C6
100
AcDbEntity
  8
AM_6
100
AcDbText
 10
18.00000000000001
 20
0.4159999999999999
 30
0.0
 40
0.5
  1
Non-Expansion
100
AcDbAttributeDefinition
  3

  2
TYPE
 70
     8
280
     0
  0
ATTDEF
  5
1D2
330
1C6
100
AcDbEntity
  8
AM_6
100
AcDbText
 10
18.00000000000001
 20
-0.0840000000000001
 30
0.0
 40
0.5
  1
071615
100
AcDbAttributeDefinition
  3

  2
PN1
 70
     8
280
     0
  0
ATTDEF
  5
1D3
330
1C6
100
AcDbEntity
  8
AM_6
100
AcDbText
 10
18.00000000000001
 20
-0.5840000000000001
 30
0.0
 40
0.5
  1
071623
100
AcDbAttributeDefinition
  3

  2
PN2
 70
     8
280
     0
  0
ATTDEF
  5
1D4
330
1C6
100
AcDbEntity
  8
AM_6
100
AcDbText
 10
18.00000000000001
 20
-1.084
 30
0.0
 40
0.5
  1
EP4B-IP-608R
100
AcDbAttributeDefinition
  3

  2
DESCRIPTION
 70
     8
280
     0
  0
ATTDEF
  5
1D5
330
1C6
100
AcDbEntity
  8
AM_6
100
AcDbText
 10
18.00000000000001
 20
-1.584
 30
0.0
 40
0.5
  1
Non-Expansion Type
100
AcDbAttributeDefinition
  3

  2
EF
 70
     8
280
     0
  0
ATTDEF
  5
1D6
330
1C6
100
AcDbEntity
  8
AM_6
100
AcDbText
 10
18.00000000000001
 20
-2.084
 30
0.0
 40
0.5
  1
1
100
AcDbAttributeDefinition
  3

  2
EF1
 70
     8
280
     0
  0
ATTDEF
  5
1D7
330
1C6
100
AcDbEntity
  8
AM_6
100
AcDbText
 10
18.00000000000001
 20
-2.584
 30
0.0
 40
0.5
  1
Contact Seal
100
AcDbAttributeDefinition
  3

  2
ST
 70
     8
280
     0
  0
ATTDEF
  5
1D8
330
1C6
100
AcDbEntity
  8
AM_6
100
AcDbText
 10
18.00000000000001
 20
-3.084
 30
0.0
 40
0.5
  1
1
100
AcDbAttributeDefinition
  3

  2
ST1
 70
     8
280
     0
  0
ATTDEF
  5
1D9
330
1C6
100
AcDbEntity
  8
AM_6
100
AcDbText
 10
18.00000000000001
 20
-3.584
 30
0.0
 40
0.5
  1
7.39
100
AcDbAttributeDefinition
  3

  2
A
 70
     8
280
     0
  0
ATTDEF
  5
1DA
330
1C6
100
AcDbEntity
  8
AM_6
100
AcDbText
 10
18.00000000000001
 20
-4.084
 30
0.0
 40
0.5
  1
7.3900000
100
AcDbAttributeDefinition
  3

  2
A1
 70
     8
280
     0
  0
ATTDEF
  5
1DB
330
1C6
100
AcDbEntity
  8
AM_6
100
AcDbText
 10
18.00000000000001
 20
-4.584
 30
0.0
 40
0.5
  1
26
100
AcDbAttributeDefinition
  3

  2
B
 70
     8
280
     0
  0
ATTDEF
  5
1DC
330
1C6
100
AcDbEntity
  8
AM_6
100
AcDbText
 10
18.00000000000001
 20
-5.084
 30
0.0
 40
0.5
  1
26.0000000
100
AcDbAttributeDefinition
  3

  2
B1
 70
     8
280
     0
  0
ATTDEF
  5
1DD
330
1C6
100
AcDbEntity
  8
AM_6
100
AcDbText
 10
18.00000000000001
 20
-5.584
 30
0.0
 40
0.5
  1
7.12
100
AcDbAttributeDefinition
  3

  2
C
 70
     8
280
     0
  0
ATTDEF
  5
1DE
330
1C6
100
AcDbEntity
  8
AM_6
100
AcDbText
 10
18.00000000000001
 20
-6.084
 30
0.0
 40
0.5
  1
7.1200000
100
AcDbAttributeDefinition
  3

  2
C1
 70
     8
280
     0
  0
ATTDEF
  5
1DF
330
1C6
100
AcDbEntity
  8
AM_6
100
AcDbText
 10
18.00000000000001
 20
-6.584
 30
0.0
 40
0.5
  1
21.25
100
AcDbAttributeDefinition
  3

  2
DMIN
 70
     8
280
     0
  0
ATTDEF
  5
1E0
330
1C6
100
AcDbEntity
  8
AM_6
100
AcDbText
 10
18.00000000000001
 20
-7.084
 30
0.0
 40
0.5
  1
21.2500000
100
AcDbAttributeDefinition
  3

  2
DMIN1
 70
     8
280
     0
  0
ATTDEF
  5
1E1
330
1C6
100
AcDbEntity
  8
AM_6
100
AcDbText
 10
18.00000000000001
 20
-7.584
 30
0.0
 40
0.5
  1
23.25
100
AcDbAttributeDefinition
  3

  2
DMAX
 70
     8
280
     0
  0
ATTDEF
  5
1E2
330
1C6
100
AcDbEntity
  8
AM_6
100
AcDbText
 10
18.00000000000001
 20
-8.084
 30
0.0
 40
0.5
  1
23.2500000
100
AcDbAttributeDefinition
  3

  2
DMAX1
 70
     8
280
     0
  0
ATTDEF
  5
1E3
330
1C6
100
AcDbEntity
  8
AM_6
100
AcDbText
 10
18.00000000000001
 20
-8.584
 30
0.0
 40
0.5
  1
4.62
100
AcDbAttributeDefinition
  3

  2
E
 70
     8
280
     0
  0
ATTDEF
  5
1E4
330
1C6
100
AcDbEntity
  8
AM_6
100
AcDbText
 10
18.00000000000001
 20
-9.084
 30
0.0
 40
0.5
  1
4.620000
100
AcDbAttributeDefinition
  3

  2
E1
 70
     8
280
     0
  0
ATTDEF
  5
1E5
330
1C6
100
AcDbEntity
  8
AM_6
100
AcDbText
 10
18.00000000000001
 20
-9.584
 30
0.0
 40
0.5
  1
1
100
AcDbAttributeDefinition
  3

  2
F
 70
     8
280
     0
  0
ATTDEF
  5
1E6
330
1C6
100
AcDbEntity
  8
AM_6
100
AcDbText
 10
18.00000000000001
 20
-10.084
 30
0.0
 40
0.5
  1
1.0000000
100
AcDbAttributeDefinition
  3

  2
F1
 70
     8
280
     0
  0
ATTDEF
  5
1E7
330
1C6
100
AcDbEntity
  8
AM_6
100
AcDbText
 10
18.00000000000001
 20
-10.584
 30
0.0
 40
0.5
  1
2
100
AcDbAttributeDefinition
  3

  2
G
 70
     8
280
     0
  0
ATTDEF
  5
1E8
330
1C6
100
AcDbEntity
  8
AM_6
100
AcDbText
 10
18.00000000000001
 20
-11.084
 30
0.0
 40
0.5
  1
2.000000
100
AcDbAttributeDefinition
  3

  2
G1
 70
     8
280
     0
  0
ATTDEF
  5
1E9
330
1C6
100
AcDbEntity
  8
AM_6
100
AcDbText
 10
18.00000000000001
 20
-11.584
 30
0.0
 40
0.5
  1
3.69
100
AcDbAttributeDefinition
  3

  2
H
 70
     8
280
     0
  0
ATTDEF
  5
1EA
330
1C6
100
AcDbEntity
  8
AM_6
100
AcDbText
 10
18.00000000000001
 20
-12.084
 30
0.0
 40
0.5
  1
3.6900000
100
AcDbAttributeDefinition
  3

  2
H1
 70
     8
280
     0
  0
ATTDEF
  5
1EB
330
1C6
100
AcDbEntity
  8
AM_6
100
AcDbText
 10
18.00000000000001
 20
-12.584
 30
0.0
 40
0.5
  1
14.94
100
AcDbAttributeDefinition
  3

  2
J
 70
     8
280
     0
  0
ATTDEF
  5
1EC
330
1C6
100
AcDbEntity
  8
AM_6
100
AcDbText
 10
18.00000000000001
 20
-13.084
 30
0.0
 40
0.5
  1
14.940000
100
AcDbAttributeDefinition
  3

  2
J1
 70
     8
280
     0
  0
ATTDEF
  5
1ED
330
1C6
100
AcDbEntity
  8
AM_6
100
AcDbText
 10
18.00000000000001
 20
-13.584
 30
0.0
 40
0.5
  1
11.41
100
AcDbAttributeDefinition
  3

  2
L
 70
     8
280
     0
  0
ATTDEF
  5
1EE
330
1C6
100
AcDbEntity
  8
AM_6
100
AcDbText
 10
18.00000000000001
 20
-14.084
 30
0.0
 40
0.5
  1
11.4100000
100
AcDbAttributeDefinition
  3

  2
L1
 70
     8
280
     0
  0
ATTDEF
  5
1EF
330
1C6
100
AcDbEntity
  8
AM_6
100
AcDbText
 10
18.00000000000001
 20
-14.584
 30
0.0
 40
0.5
  1
7.5
100
AcDbAttributeDefinition
  3

  2
M
 70
     8
280
     0
  0
ATTDEF
  5
1F0
330
1C6
100
AcDbEntity
  8
AM_6
100
AcDbText
 10
18.00000000000001
 20
-15.084
 30
0.0
 40
0.5
  1
7.500000
100
AcDbAttributeDefinition
  3

  2
M1
 70
     8
280
     0
  0
ATTDEF
  5
1F1
330
1C6
100
AcDbEntity
  8
AM_6
100
AcDbText
 10
18.00000000000001
 20
-15.584
 30
0.0
 40
0.5
  1
2.46
100
AcDbAttributeDefinition
  3

  2
R
 70
     8
280
     0
  0
ATTDEF
  5
1F2
330
1C6
100
AcDbEntity
  8
AM_6
100
AcDbText
 10
18.00000000000001
 20
-16.084
 30
0.0
 40
0.5
  1
2.460000
100
AcDbAttributeDefinition
  3

  2
R1
 70
     8
280
     0
  0
ATTDEF
  5
1F3
330
1C6
100
AcDbEntity
  8
AM_6
100
AcDbText
 10
18.00000000000001
 20
-16.584
 30
0.0
 40
0.5
  1
4.94
100
AcDbAttributeDefinition
  3

  2
S
 70
     8
280
     0
  0
ATTDEF
  5
1F4
330
1C6
100
AcDbEntity
  8
AM_6
100
AcDbText
 10
18.00000000000001
 20
-17.084
 30
0.0
 40
0.5
  1
4.940000
100
AcDbAttributeDefinition
  3

  2
S1
 70
     8
280
     0
  0
ATTDEF
  5
1F5
330
1C6
100
AcDbEntity
  8
AM_6
100
AcDbText
 10
18.00000000000001
 20
-17.584
 30
0.0
 40
0.5
  1
0.38
100
AcDbAttributeDefinition
  3

  2
X
 70
     8
280
     0
  0
ATTDEF
  5
1F6
330
1C6
100
AcDbEntity
  8
AM_6
100
AcDbText
 10
18.00000000000001
 20
-18.084
 30
0.0
 40
0.5
  1
0.380000
100
AcDbAttributeDefinition
  3

  2
X1
 70
     8
280
     0
  0
ATTDEF
  5
1F7
330
1C6
100
AcDbEntity
  8
AM_6
100
AcDbText
 10
18.00000000000001
 20
-18.584
 30
0.0
 40
0.5
  1
0.036
100
AcDbAttributeDefinition
  3

  2
Y
 70
     8
280
     0
  0
ATTDEF
  5
1F8
330
1C6
100
AcDbEntity
  8
AM_6
100
AcDbText
 10
18.00000000000001
 20
-19.084
 30
0.0
 40
0.5
  1
7.89
100
AcDbAttributeDefinition
  3

  2
Z
 70
     8
280
     0
  0
ATTDEF
  5
1F9
330
1C6
100
AcDbEntity
  8
AM_6
100
AcDbText
 10
18.00000000000001
 20
-19.584
 30
0.0
 40
0.5
  1
7.890000
100
AcDbAttributeDefinition
  3

  2
Z1
 70
     8
280
     0
  0
ATTDEF
  5
1FA
330
1C6
100
AcDbEntity
  8
AM_6
100
AcDbText
 10
18.00000000000001
 20
-20.084
 30
0.0
 40
0.5
  1
12.5984
100
AcDbAttributeDefinition
  3

  2
BORE
 70
     8
280
     0
  0
ATTDEF
  5
1FB
330
1C6
100
AcDbEntity
  8
AM_6
100
AcDbText
 10
18.00000000000001
 20
-20.584
 30
0.0
 40
0.5
  1
0.07000
100
AcDbAttributeDefinition
  3

  2
CR
 70
     8
280
     0
  0
ATTDEF
  5
1FC
330
1C6
100
AcDbEntity
  8
AM_6
100
AcDbText
 10
18.00000000000001
 20
-21.084
 30
0.0
 40
0.5
  1
baldor
100
AcDbAttributeDefinition
  3

  2
COMPANY
 70
     8
280
     0
  0
LINE
  5
1FD
330
1C6
100
AcDbEntity
  8
AM_9
100
AcDbLine
 10
1.844999999999998
 20
-2.81
 30
0.0
 11
1.844999999999998
 21
2.809999999999999
 31
0.0
  0
LINE
  5
1FE
330
1C6
100
AcDbEntity
  8
AM_9
100
AcDbLine
 10
-1.845
 20
-2.81
 30
0.0
 11
-1.845
 21
2.809999999999999
 31
0.0
  0
LINE
  5
1FF
330
1C6
100
AcDbEntity
  8
AM_9
100
AcDbLine
 10
1.844999999999998
 20
2.809999999999999
 30
0.0
 11
10.625
 21
2.809999999999999
 31
0.0
  0
LINE
  5
200
330
1C6
100
AcDbEntity
  8
AM_9
100
AcDbLine
 10
5.115858221018812
 20
-2.81
 30
0.0
 11
5.115858221018812
 21
2.809999999999999
 31
0.0
  0
LINE
  5
201
330
1C6
100
AcDbEntity
  8
AM_9
100
AcDbLine
 10
-5.115858221018812
 20
-2.81
 30
0.0
 11
-5.115858221018812
 21
2.809999999999999
 31
0.0
  0
LINE
  5
202
330
1C6
100
AcDbEntity
  8
AM_9
100
AcDbLine
 10
-12.125
 20
2.31
 30
0.0
 11
-12.125
 21
-2.31
 31
0.0
  0
LINE
  5
203
330
1C6
100
AcDbEntity
  8
AM_9
100
AcDbLine
 10
-5.619258669967063
 20
-2.81
 30
0.0
 11
-5.619258669967063
 21
2.809999999999999
 31
0.0
  0
LINE
  5
204
330
1C6
100
AcDbEntity
  8
AM_9
100
AcDbLine
 10
12.125
 20
-2.31
 30
0.0
 11
12.125
 21
2.31
 31
0.0
  0
LINE
  5
205
330
1C6
100
AcDbEntity
  8
AM_9
100
AcDbLine
 10
10.625
 20
-2.81
 30
0.0
 11
1.844999999999998
 21
-2.81
 31
0.0
  0
LINE
  5
206
330
1C6
100
AcDbEntity
  8
AM_9
100
AcDbLine
 10
5.619258669967063
 20
-2.81
 30
0.0
 11
5.619258669967063
 21
2.809999999999999
 31
0.0
  0
LINE
  5
207
330
1C6
100
AcDbEntity
  8
AM_9
100
AcDbLine
 10
-1.845
 20
2.809999999999999
 30
0.0
 11
-10.625
 21
2.809999999999999
 31
0.0
  0
LINE
  5
208
330
1C6
100
AcDbEntity
  8
AM_9
100
AcDbLine
 10
-1.845
 20
-2.81
 30
0.0
 11
-10.625
 21
-2.81
 31
0.0
  0
LINE
  5
209
330
1C6
100
AcDbEntity
  8
AM_9
100
AcDbLine
 10
6.299199999999999
 20
-3.204
 30
0.0
 11
6.299199999999999
 21
3.204
 31
0.0
  0
LINE
  5
20A
330
1C6
100
AcDbEntity
  8
AM_9
100
AcDbLine
 10
-6.299199999999999
 20
3.204
 30
0.0
 11
-6.299199999999999
 21
-3.204
 31
0.0
  0
ELLIPSE
  5
20B
330
1C6
100
AcDbEntity
  8
AM_9
100
AcDbEllipse
 10
-3.720000000001324
 20
0.0000000000001029
 30
0.0
 11
3.061616997869012E-17
 21
0.5000000000001027
 31
0.0
210
0.0
220
0.0
230
1.0
 40
0.866025403784463
 41
3.115071511700363
 42
3.141592653589793
  0
ELLIPSE
  5
20C
330
1C6
100
AcDbEntity
  8
AM_9
100
AcDbEllipse
 10
-3.719999999999999
 20
0.0000000000000004
 30
0.0
 11
3.061616997868385E-17
 21
0.5000000000000004
 31
0.0
210
0.0
220
0.0
230
1.0
 40
0.8660254037844412
 41
0.0
 42
3.02398379585547
  0
LINE
  5
20D
330
1C6
100
AcDbEntity
  8
AM_9
100
AcDbLine
 10
-3.725747203196654
 20
-0.4999559349041473
 30
0.0
 11
-3.719999999999998
 21
-0.4999999999999998
 31
0.0
  0
LWPOLYLINE
  5
20E
330
1C6
100
AcDbEntity
  8
AM_9
100
AcDbPolyline
 90
       19
 70
     0
 43
0.0
 10
-3.728045337029779
 20
0.4999136270029198
 10
-3.795375150344776
 20
0.4922623337576877
 10
-3.865059073930525
 20
0.4707154754620999
 10
-3.930202062376508
 20
0.435773981461398
 10
-3.989137710758414
 20
0.3886089571725569
 10
-4.040309026233539
 20
0.3302675177537167
 10
-4.082385614117382
 20
0.262620642307448
 10
-4.114180008095505
 20
0.187389477216326
 10
-4.134983397345934
 20
0.1068547259523113
 10
-4.144602657692831
 20
0.0000000000000004
 10
-4.138669132088785
 20
-0.0838282417608258
 10
-4.121177524185669
 20
-0.1652909760949811
 10
-4.092419598458786
 20
-0.2420226692986999
 10
-4.053271113076962
 20
-0.3119439796572173
 10
-4.004518519491136
 20
-0.3730557743841065
 10
-3.9475919117385
 20
-0.4236626008787519
 10
-3.883814388911226
 20
-0.4622043972556028
 10
-3.815034237669093
 20
-0.487703122820482
 10
-3.725747203196654
 20
-0.4999559349041473
  0
LINE
  5
20F
330
1C6
100
AcDbEntity
  8
AM_9
100
AcDbLine
 10
-3.719999999999999
 20
0.5000000000000007
 30
0.0
 11
-3.728045337029779
 21
0.4999136270029198
 31
0.0
  0
LINE
  5
212
330
1C6
100
AcDbEntity
  8
AM_7
100
AcDbLine
 10
0.0
 20
3.916
 30
0.0
 11
0.0
 21
-5.311331249999999
 31
0.0
  0
LINE
  5
213
330
1C6
100
AcDbEntity
  8
AM_7
100
AcDbLine
 10
10.1
 20
-2.31
 30
0.0
 11
12.15
 21
-2.31
 31
0.0
  0
LINE
  5
214
330
1C6
100
AcDbEntity
  8
AM_7
100
AcDbLine
 10
11.625
 20
-2.835
 30
0.0
 11
11.625
 21
-1.785
 31
0.0
  0
LINE
  5
215
330
1C6
100
AcDbEntity
  8
AM_7
100
AcDbLine
 10
10.1
 20
2.31
 30
0.0
 11
12.15
 21
2.31
 31
0.0
  0
LINE
  5
216
330
1C6
100
AcDbEntity
  8
AM_7
100
AcDbLine
 10
11.625
 20
1.785
 30
0.0
 11
11.625
 21
2.835
 31
0.0
  0
LINE
  5
217
330
1C6
100
AcDbEntity
  8
AM_7
100
AcDbLine
 10
10.625
 20
-2.835
 30
0.0
 11
10.625
 21
-1.785
 31
0.0
  0
LINE
  5
218
330
1C6
100
AcDbEntity
  8
AM_7
100
AcDbLine
 10
-12.15
 20
-2.31
 30
0.0
 11
-10.1
 21
-2.31
 31
0.0
  0
LINE
  5
219
330
1C6
100
AcDbEntity
  8
AM_7
100
AcDbLine
 10
-11.625
 20
-2.835
 30
0.0
 11
-11.625
 21
-1.785
 31
0.0
  0
LINE
  5
21A
330
1C6
100
AcDbEntity
  8
AM_7
100
AcDbLine
 10
-12.15
 20
2.31
 30
0.0
 11
-10.1
 21
2.31
 31
0.0
  0
LINE
  5
21B
330
1C6
100
AcDbEntity
  8
AM_7
100
AcDbLine
 10
-11.625
 20
1.785
 30
0.0
 11
-11.625
 21
2.835
 31
0.0
  0
LINE
  5
21C
330
1C6
100
AcDbEntity
  8
AM_7
100
AcDbLine
 10
10.625
 20
1.785
 30
0.0
 11
10.625
 21
2.835
 31
0.0
  0
LINE
  5
21D
330
1C6
100
AcDbEntity
  8
AM_7
100
AcDbLine
 10
-10.625
 20
1.785
 30
0.0
 11
-10.625
 21
2.835
 31
0.0
  0
LINE
  5
21E
330
1C6
100
AcDbEntity
  8
AM_7
100
AcDbLine
 10
-10.625
 20
-2.835
 30
0.0
 11
-10.625
 21
-1.785
 31
0.0
  0
LINE
  5
21F
330
1C6
100
AcDbEntity
  8
AM_4
100
AcDbLine
 10
-12.28799999999999
 20
-3.560000000000005
 30
0.0
 11
-8.165
 21
-3.56
 31
0.0
  0
LINE
  5
220
330
1C6
100
AcDbEntity
  8
AM_4
100
AcDbLine
 10
-8.165
 20
3.56
 30
0.0
 11
-12.28799999999999
 21
3.560000000000004
 31
0.0
  0
LINE
  5
221
330
1C6
100
AcDbEntity
  8
AM_4
100
AcDbLine
 10
-12.28799999999999
 20
3.560000000000004
 30
0.0
 11
-13.00000000000001
 21
2.847999999999995
 31
0.0
  0
LINE
  5
222
330
1C6
100
AcDbEntity
  8
AM_4
100
AcDbLine
 10
-13.00000000000001
 20
2.847999999999995
 30
0.0
 11
-13.0
 21
-2.848
 31
0.0
  0
LINE
  5
223
330
1C6
100
AcDbEntity
  8
AM_4
100
AcDbLine
 10
-13.0
 20
-2.848
 30
0.0
 11
-12.28799999999999
 21
-3.560000000000005
 31
0.0
  0
LINE
  5
224
330
1C6
100
AcDbEntity
  8
AM_4
100
AcDbLine
 10
12.288
 20
3.56
 30
0.0
 11
8.165000000000003
 21
3.56
 31
0.0
  0
LINE
  5
225
330
1C6
100
AcDbEntity
  8
AM_4
100
AcDbLine
 10
8.165000000000001
 20
-3.56
 30
0.0
 11
12.288
 21
-3.560000000000001
 31
0.0
  0
LINE
  5
226
330
1C6
100
AcDbEntity
  8
AM_4
100
AcDbLine
 10
13.00000000000001
 20
2.847999999999993
 30
0.0
 11
12.288
 21
3.56
 31
0.0
  0
LINE
  5
227
330
1C6
100
AcDbEntity
  8
AM_4
100
AcDbLine
 10
12.288
 20
-3.560000000000001
 30
0.0
 11
13.00000000000001
 21
-2.847999999999996
 31
0.0
  0
LINE
  5
228
330
1C6
100
AcDbEntity
  8
AM_4
100
AcDbLine
 10
13.00000000000001
 20
-2.847999999999996
 30
0.0
 11
13.00000000000001
 21
2.847999999999993
 31
0.0
  0
LWPOLYLINE
  5
229
330
1C6
100
AcDbEntity
  8
AM_4
100
AcDbPolyline
 90
       16
 70
     0
 43
0.0
 10
12.631
 20
2.0579422575304
 10
12.67639310677033
 20
1.878987903531992
 10
12.71762388410902
 20
1.699153066583337
 10
12.78775141833487
 20
1.335976332587783
 10
12.82990910066167
 20
1.057092269570138
 10
12.86222681653089
 20
0.7768060434337423
 10
12.8846592868905
 20
0.495393732681827
 10
12.89725580792406
 20
0.2088856976844223
 10
12.89959823881203
 20
-0.0783028986692964
 10
12.89167095211049
 20
-0.3651073425292007
 10
12.87365308963321
 20
-0.6489742887273662
 10
12.8455919543628
 20
-0.9317957900729259
 10
12.80754569178415
 20
-1.213226984797587
 10
12.7588941879424
 20
-1.496480687901861
 10
12.70001016897628
 20
-1.778279263692542
 10
12.631
 20
-2.057942257530398
  0
LWPOLYLINE
  5
22A
330
1C6
100
AcDbEntity
  8
AM_4
100
AcDbPolyline
 90
       16
 70
     0
 43
0.0
 10
-12.631
 20
-2.057942257530426
 10
-12.67639310677033
 20
-1.878987903532016
 10
-12.71762388410902
 20
-1.699153066583361
 10
-12.78775141833487
 20
-1.335976332587805
 10
-12.82990910066167
 20
-1.057092269570148
 10
-12.8622268165309
 20
-0.7768060434337397
 10
-12.8846592868905
 20
-0.495393732681812
 10
-12.89725580792406
 20
-0.2088856976843938
 10
-12.89959823881203
 20
0.0783028986693383
 10
-12.89167095211049
 20
0.365107342529256
 10
-12.8736530896332
 20
0.6489742887274169
 10
-12.8455919543628
 20
0.9317957900729719
 10
-12.80754569178415
 20
1.213226984797628
 10
-12.7588941879424
 20
1.496480687901897
 10
-12.70001016897627
 20
1.778279263692573
 10
-12.631
 20
2.057942257530424
  0
LINE
  5
22B
330
1C6
100
AcDbEntity
  8
AM_4
100
AcDbLine
 10
8.165000000000003
 20
3.56
 30
0.0
 11
7.808999999999999
 21
3.204000000000001
 31
0.0
  0
LINE
  5
22C
330
1C6
100
AcDbEntity
  8
AM_4
100
AcDbLine
 10
7.808999999999999
 20
-3.204000000000001
 30
0.0
 11
8.165000000000001
 21
-3.56
 31
0.0
  0
ARC
  5
22D
330
1C6
100
AcDbEntity
  8
AM_4
100
AcDbCircle
 10
10.625
 20
2.31
 30
0.0
 40
0.5
100
AcDbArc
 50
90.0
 51
270.0
  0
ARC
  5
22E
330
1C6
100
AcDbEntity
  8
AM_4
100
AcDbCircle
 10
10.625
 20
-2.31
 30
0.0
 40
0.4999999999999993
100
AcDbArc
 50
90.0
 51
270.0
  0
ARC
  5
22F
330
1C6
100
AcDbEntity
  8
AM_4
100
AcDbCircle
 10
4.893517964071944
 20
-0.0000000000000329
 30
0.0
 40
8.006482035928052
100
AcDbArc
 50
333.5997089842616
 51
345.1058265396622
  0
ARC
  5
230
330
1C6
100
AcDbEntity
  8
AM_4
100
AcDbCircle
 10
4.893517964072256
 20
0.0000000000001545
 30
0.0
 40
8.00648203592772
100
AcDbArc
 50
14.89417346033746
 51
26.40029101573855
  0
LINE
  5
231
330
1C6
100
AcDbEntity
  8
AM_4
100
AcDbLine
 10
11.625
 20
2.81
 30
0.0
 11
10.625
 21
2.81
 31
0.0
  0
ARC
  5
232
330
1C6
100
AcDbEntity
  8
AM_4
100
AcDbCircle
 10
11.625
 20
-2.31
 30
0.0
 40
0.5
100
AcDbArc
 50
270.0
 51
90.0
  0
ARC
  5
233
330
1C6
100
AcDbEntity
  8
AM_4
100
AcDbCircle
 10
11.625
 20
2.31
 30
0.0
 40
0.4999999999999998
100
AcDbArc
 50
270.0
 51
90.0
  0
LINE
  5
234
330
1C6
100
AcDbEntity
  8
AM_4
100
AcDbLine
 10
10.625
 20
1.81
 30
0.0
 11
11.625
 21
1.81
 31
0.0
  0
LINE
  5
235
330
1C6
100
AcDbEntity
  8
AM_4
100
AcDbLine
 10
11.625
 20
-1.81
 30
0.0
 11
10.625
 21
-1.81
 31
0.0
  0
LINE
  5
236
330
1C6
100
AcDbEntity
  8
AM_4
100
AcDbLine
 10
10.625
 20
-2.81
 30
0.0
 11
11.625
 21
-2.81
 31
0.0
  0
LINE
  5
237
330
1C6
100
AcDbEntity
  8
AM_4
100
AcDbLine
 10
12.631
 20
-2.057942257530402
 30
0.0
 11
12.631
 21
2.057942257530406
 31
0.0
  0
LINE
  5
238
330
1C6
100
AcDbEntity
  8
AM_4
100
AcDbLine
 10
-7.808999999999998
 20
3.204000000000001
 30
0.0
 11
-8.165
 21
3.56
 31
0.0
  0
LINE
  5
239
330
1C6
100
AcDbEntity
  8
AM_4
100
AcDbLine
 10
-8.165
 20
-3.56
 30
0.0
 11
-7.808999999999999
 21
-3.204
 31
0.0
  0
ARC
  5
23A
330
1C6
100
AcDbEntity
  8
AM_4
100
AcDbCircle
 10
-11.625
 20
-2.31
 30
0.0
 40
0.4999999999999993
100
AcDbArc
 50
90.0
 51
270.0
  0
LINE
  5
23B
330
1C6
100
AcDbEntity
  8
AM_4
100
AcDbLine
 10
-10.625
 20
-1.81
 30
0.0
 11
-11.625
 21
-1.81
 31
0.0
  0
ARC
  5
23C
330
1C6
100
AcDbEntity
  8
AM_4
100
AcDbCircle
 10
-10.625
 20
-2.31
 30
0.0
 40
0.5
100
AcDbArc
 50
270.0
 51
90.0
  0
LINE
  5
23D
330
1C6
100
AcDbEntity
  8
AM_4
100
AcDbLine
 10
-11.625
 20
-2.81
 30
0.0
 11
-10.625
 21
-2.81
 31
0.0
  0
ARC
  5
23E
330
1C6
100
AcDbEntity
  8
AM_4
100
AcDbCircle
 10
-10.625
 20
2.31
 30
0.0
 40
0.5000000000000002
100
AcDbArc
 50
270.0
 51
90.0
  0
LINE
  5
23F
330
1C6
100
AcDbEntity
  8
AM_4
100
AcDbLine
 10
-11.625
 20
1.81
 30
0.0
 11
-10.625
 21
1.81
 31
0.0
  0
ARC
  5
240
330
1C6
100
AcDbEntity
  8
AM_4
100
AcDbCircle
 10
-11.625
 20
2.31
 30
0.0
 40
0.5
100
AcDbArc
 50
90.0
 51
270.0
  0
LINE
  5
241
330
1C6
100
AcDbEntity
  8
AM_4
100
AcDbLine
 10
-10.625
 20
2.81
 30
0.0
 11
-11.625
 21
2.81
 31
0.0
  0
ARC
  5
242
330
1C6
100
AcDbEntity
  8
AM_4
100
AcDbCircle
 10
-4.893517964071782
 20
0.0000000000000315
 30
0.0
 40
8.00648203592823
100
AcDbArc
 50
194.894173460338
 51
206.4002910157383
  0
ARC
  5
243
330
1C6
100
AcDbEntity
  8
AM_4
100
AcDbCircle
 10
-4.893517964071774
 20
-0.0000000000000351
 30
0.0
 40
8.006482035928236
100
AcDbArc
 50
153.5997089842618
 51
165.105826539662
  0
LINE
  5
244
330
1C6
100
AcDbEntity
  8
AM_4
100
AcDbLine
 10
-12.631
 20
-2.05794225753042
 30
0.0
 11
-12.631
 21
2.057942257530419
 31
0.0
  0
LINE
  5
245
330
1C6
100
AcDbEntity
  8
AM_4
100
AcDbLine
 10
7.5507
 20
-2.136000000000001
 30
0.0
 11
7.5507
 21
2.136
 31
0.0
  0
LINE
  5
246
330
1C6
100
AcDbEntity
  8
AM_4
100
AcDbLine
 10
-7.550699999999999
 20
-2.136000000000001
 30
0.0
 11
-7.550699999999999
 21
2.136
 31
0.0
  0
LINE
  5
247
330
1C6
100
AcDbEntity
  8
AM_4
100
AcDbLine
 10
-8.146579777300483
 20
-3.541579777300483
 30
0.0
 11
-8.146579777300483
 21
-2.136000000000001
 31
0.0
  0
LINE
  5
248
330
1C6
100
AcDbEntity
  8
AM_4
100
AcDbLine
 10
8.146579777300486
 20
2.135999999999998
 30
0.0
 11
8.146579777300486
 21
3.541579777300487
 31
0.0
  0
LINE
  5
249
330
1C6
100
AcDbEntity
  8
AM_4
100
AcDbLine
 10
8.146579777300486
 20
-3.541579777300486
 30
0.0
 11
8.146579777300486
 21
-2.136000000000001
 31
0.0
  0
LINE
  5
24A
330
1C6
100
AcDbEntity
  8
AM_4
100
AcDbLine
 10
-8.146579777300483
 20
2.136
 30
0.0
 11
-8.146579777300483
 21
3.541579777300483
 31
0.0
  0
LINE
  5
24B
330
1C6
100
AcDbEntity
  8
AM_4
100
AcDbLine
 10
-7.779036223824851
 20
2.136
 30
0.0
 11
-7.779036223824851
 21
3.204
 31
0.0
  0
LINE
  5
24C
330
1C6
100
AcDbEntity
  8
AM_4
100
AcDbLine
 10
-7.779036223824851
 20
-3.204
 30
0.0
 11
-7.779036223824851
 21
-2.136000000000001
 31
0.0
  0
LINE
  5
24D
330
1C6
100
AcDbEntity
  8
AM_4
100
AcDbLine
 10
7.779036223824854
 20
2.136
 30
0.0
 11
7.779036223824853
 21
3.204
 31
0.0
  0
LINE
  5
24E
330
1C6
100
AcDbEntity
  8
AM_4
100
AcDbLine
 10
7.779036223824853
 20
-3.204
 30
0.0
 11
7.779036223824854
 21
-2.136000000000001
 31
0.0
  0
ELLIPSE
  5
24F
330
1C6
100
AcDbEntity
  8
AM_4
100
AcDbEllipse
 10
-3.719999999999998
 20
0.0000000000000005
 30
0.0
 11
3.061616997868382E-17
 21
0.4999999999999999
 31
0.0
210
0.0
220
0.0
230
1.0
 40
0.8660254037844385
 41
3.141592653589793
 42
6.283185307179586
  0
ELLIPSE
  5
250
330
1C6
100
AcDbEntity
  8
AM_4
100
AcDbEllipse
 10
-3.77
 20
0.0000000000000004
 30
0.0
 11
-7.347880794884128E-17
 21
-0.4000000000000005
 31
0.0
210
0.0
220
0.0
230
1.0
 40
0.8660254037844395
 41
0.0
 42
6.283185307179586
  0
LWPOLYLINE
  5
251
330
1C6
100
AcDbEntity
  8
AM_4
100
AcDbPolyline
 90
       16
 70
     0
 43
0.0
 10
-4.166410161513775
 20
0.0000000000000004
 10
-4.165518659261413
 20
-0.0316357775896205
 10
-4.159611964344694
 20
-0.0870670726075628
 10
-4.148220405238987
 20
-0.1414905453206792
 10
-4.131464419737497
 20
-0.1942061952648381
 10
-4.109530142713029
 20
-0.2445464299848339
 10
-4.082672591315718
 20
-0.2918637486995359
 10
-4.051217569583318
 20
-0.3355400433519917
 10
-4.015562102584818
 20
-0.374998314374709
 10
-3.976171774703464
 20
-0.4097164221732409
 10
-3.933573513196426
 20
-0.4392414412801748
 10
-3.888343311104299
 20
-0.4632021915688747
 10
-3.841089956453651
 20
-0.4813172644764499
 10
-3.792437343630612
 20
-0.4933967655437271
 10
-3.743008563472432
 20
-0.4993378121751317
 10
-3.716955334706244
 20
-0.4999884123801902
  0
LWPOLYLINE
  5
252
330
1C6
100
AcDbEntity
  8
AM_4
100
AcDbPolyline
 90
       16
 70
     0
 43
0.0
 10
-3.722717289272312
 20
0.4999907703372462
 10
-3.737001901771229
 20
0.499638536474553
 10
-3.78629718468317
 20
0.4944748560719129
 10
-3.834682133517819
 20
0.4832761207988315
 10
-3.881600162778514
 20
0.4661976549306486
 10
-3.926518298764543
 20
0.4434456725162005
 10
-3.968920375954446
 20
0.4152792036579636
 10
-4.008307464894334
 20
0.3820146707317648
 10
-4.044202505013367
 20
0.34403056656084
 10
-4.076158647451758
 20
0.3017695589250859
 10
-4.103769547319977
 20
0.2557363623792632
 10
-4.126679361341383
 20
0.2064912553769412
 10
-4.144590638534004
 20
0.1546404591305751
 10
-4.157269291443386
 20
0.1008251938896244
 10
-4.164546844777812
 20
0.045711032708561
 10
-4.166410161513775
 20
0.0000000000000004
  0
LINE
  5
253
330
1C6
100
AcDbEntity
  8
AM_4
100
AcDbLine
 10
-7.366199999999998
 20
-2.136
 30
0.0
 11
-7.366199999999998
 21
2.136000000000001
 31
0.0
  0
LINE
  5
254
330
1C6
100
AcDbEntity
  8
AM_4
100
AcDbLine
 10
-7.366199999999998
 20
-2.136
 30
0.0
 11
-8.146579777300483
 21
-2.136000000000001
 31
0.0
  0
LINE
  5
255
330
1C6
100
AcDbEntity
  8
AM_4
100
AcDbLine
 10
-7.41063424893962
 20
-3.204
 30
0.0
 11
-7.41063424893962
 21
-2.136
 31
0.0
  0
LINE
  5
256
330
1C6
100
AcDbEntity
  8
AM_4
100
AcDbLine
 10
-7.41063424893962
 20
2.135999999999998
 30
0.0
 11
-7.41063424893962
 21
3.204
 31
0.0
  0
LINE
  5
257
330
1C6
100
AcDbEntity
  8
AM_4
100
AcDbLine
 10
-7.366199999999998
 20
2.136000000000001
 30
0.0
 11
-8.146579777300483
 21
2.136
 31
0.0
  0
LWPOLYLINE
  5
258
330
1C6
100
AcDbEntity
  8
AM_4
100
AcDbPolyline
 90
       20
 70
     0
 43
0.0
 10
-3.719999999999998
 20
-0.4999999999999998
 10
-3.670221919695741
 20
-0.4966999548785874
 10
-3.598328252114185
 20
-0.4800254837321825
 10
-3.529448768412464
 20
-0.4498850266433367
 10
-3.465610599207905
 20
-0.4069143409496206
 10
-3.408693096791903
 20
-0.3525186858067017
 10
-3.360437286922362
 20
-0.2879463844068231
 10
-3.322315282729105
 20
-0.2152463463292042
 10
-3.29566853645431
 20
-0.1363696103536205
 10
-3.281172363545687
 20
-0.0536320435317799
 10
-3.279461154241917
 20
0.0304817469201145
 10
-3.290364267410709
 20
0.1137349950143088
 10
-3.313688781059494
 20
0.1936614040592574
 10
-3.348531556831168
 20
0.2681418573461632
 10
-3.394042793214398
 20
0.3350842698970901
 10
-3.448637169125958
 20
0.3925996457219878
 10
-3.510877725592562
 20
0.4389866475920948
 10
-3.578722636575322
 20
0.4729897488020059
 10
-3.64860834002415
 20
0.4931545881653625
 10
-3.719999999999999
 20
0.5000000000000007
  0
LINE
  5
259
330
1C6
100
AcDbEntity
  8
AM_4
100
AcDbLine
 10
7.41063424893962
 20
-3.204
 30
0.0
 11
7.41063424893962
 21
-2.136
 31
0.0
  0
LINE
  5
25A
330
1C6
100
AcDbEntity
  8
AM_4
100
AcDbLine
 10
8.146579777300486
 20
-2.136000000000001
 30
0.0
 11
7.366199999999998
 21
-2.136
 31
0.0
  0
LINE
  5
25B
330
1C6
100
AcDbEntity
  8
AM_4
100
AcDbLine
 10
7.366199999999998
 20
2.136000000000001
 30
0.0
 11
7.366199999999998
 21
-2.136
 31
0.0
  0
LINE
  5
25C
330
1C6
100
AcDbEntity
  8
AM_4
100
AcDbLine
 10
8.146579777300486
 20
2.135999999999998
 30
0.0
 11
7.366199999999998
 21
2.136000000000001
 31
0.0
  0
LINE
  5
25D
330
1C6
100
AcDbEntity
  8
AM_4
100
AcDbLine
 10
7.41063424893962
 20
2.136000000000001
 30
0.0
 11
7.41063424893962
 21
3.204
 31
0.0
  0
LINE
  5
25E
330
1C6
100
AcDbEntity
  8
AM_4
100
AcDbLine
 10
2.099733333333333
 20
-3.203999999999999
 30
0.0
 11
2.099733333333333
 21
3.204000000000001
 31
0.0
  0
LINE
  5
25F
330
1C6
100
AcDbEntity
  8
AM_4
100
AcDbLine
 10
1.915233333333335
 20
-3.203999999999999
 30
0.0
 11
1.915233333333335
 21
3.204000000000001
 31
0.0
  0
LINE
  5
260
330
1C6
100
AcDbEntity
  8
AM_4
100
AcDbLine
 10
-7.808999999999999
 20
-3.204
 30
0.0
 11
7.808999999999999
 21
-3.204
 31
0.0
  0
LINE
  5
261
330
1C6
100
AcDbEntity
  8
AM_4
100
AcDbLine
 10
-1.915233333333333
 20
-3.203999999999999
 30
0.0
 11
-1.915233333333333
 21
3.204000000000001
 31
0.0
  0
LINE
  5
262
330
1C6
100
AcDbEntity
  8
AM_4
100
AcDbLine
 10
7.808999999999999
 20
3.204
 30
0.0
 11
-7.808999999999999
 21
3.204
 31
0.0
  0
LINE
  5
263
330
1C6
100
AcDbEntity
  8
AM_4
100
AcDbLine
 10
-2.099733333333333
 20
-3.203999999999999
 30
0.0
 11
-2.099733333333333
 21
3.204000000000001
 31
0.0
  0
ENDBLK
  5
1C9
330
1C6
100
AcDbEntity
  8
0
100
AcDbBlockEnd
  0
ENDSEC
  0
SECTION
  2
ENTITIES
  0
INSERT
  5
6F
330
1F
100
AcDbEntity
  8
0
100
AcDbBlockReference
  2
1_071615_4
 10
0.0
 20
0.0
 30
0.0
  0
POINT
  5
265
330
1F
100
AcDbEntity
  8
ConnectionPoints
100
AcDbPoint
 10
0.0
 20
-4.463000000000001
 30
-4.657118055555555
  0
POINT
  5
266
330
1F
100
AcDbEntity
  8
ConnectionPoints
100
AcDbPoint
 10
0.0
 20
-4.463000000000001
 30
4.657118055555555
  0
POINT
  5
267
330
1F
100
AcDbEntity
  8
ConnectionPoints
100
AcDbPoint
 10
0.0
 20
-4.393000000000001
 30
0.0000000000000003
  0
POINT
  5
268
330
1F
100
AcDbEntity
  8
ConnectionPoints
100
AcDbPoint
 10
0.0
 20
-4.94
 30
0.0000000000000003
  0
POINT
  5
269
330
1F
100
AcDbEntity
  8
ConnectionPoints
100
AcDbPoint
 10
0.0
 20
-4.592000000000001
 30
0.0000000000000003
  0
POINT
  5
26A
330
1F
100
AcDbEntity
  8
ConnectionPoints
100
AcDbPoint
 10
0.0
 20
-4.393
 30
4.657118055555555
  0
POINT
  5
26B
330
1F
100
AcDbEntity
  8
ConnectionPoints
100
AcDbPoint
 10
0.0
 20
-4.393000000000001
 30
-4.657118055555555
  0
POINT
  5
26C
330
1F
100
AcDbEntity
  8
ConnectionPoints
100
AcDbPoint
 10
0.0
 20
-4.393000000000001
 30
0.0000000000000003
  0
POINT
  5
26D
330
1F
100
AcDbEntity
  8
ConnectionPoints
100
AcDbPoint
 10
-3.769999999999999
 20
0.0000000000000004
 30
6.529831544534667
  0
POINT
  5
26E
330
1F
100
AcDbEntity
  8
ConnectionPoints
100
AcDbPoint
 10
0.0
 20
-4.56
 30
0.0000000000000003
  0
POINT
  5
26F
330
1F
100
AcDbEntity
  8
ConnectionPoints
100
AcDbPoint
 10
0.0
 20
-4.94
 30
0.0000000000000003
  0
ENDSEC
  0
SECTION
  2
OBJECTS
  0
DICTIONARY
  5
C
330
0
100
AcDbDictionary
281
     1
  3
ACAD_DETAILVIEWSTYLE
350
277
  3
ACAD_GROUP
350
D
  3
ACAD_LAYOUT
350
1A
  3
ACAD_MATERIAL
350
43
  3
ACAD_MLEADERSTYLE
350
6B
  3
ACAD_MLINESTYLE
350
17
  3
ACAD_PLOTSETTINGS
350
19
  3
ACAD_PLOTSTYLENAME
350
E
  3
ACAD_SCALELIST
350
47
  3
ACAD_SECTIONVIEWSTYLE
350
278
  3
ACAD_TABLESTYLE
350
69
  3
ACAD_VISUALSTYLE
350
2A
  3
ACDB_RECOMPOSE_DATA
350
274
  3
AcDbVariableDictionary
350
270
  0
SUN
  5
6D
330
29
100
AcDbSun
 90
        1
290
     0
 63
     7
421
 16777215
 40
1.0
291
     1
 91
  2455826
 92
 54000000
292
     0
 70
     2
 71
   256
280
     1
  0
DICTIONARY
  5
277
102
{ACAD_REACTORS
330
C
102
}
330
C
100
AcDbDictionary
281
     1
  0
DICTIONARY
  5
D
102
{ACAD_REACTORS
330
C
102
}
330
C
100
AcDbDictionary
281
     1
  0
DICTIONARY
  5
1A
102
{ACAD_REACTORS
330
C
102
}
330
C
100
AcDbDictionary
281
     1
  3
Layout1
350
1E
  3
Layout2
350
26
  3
Model
350
22
  0
DICTIONARY
  5
43
102
{ACAD_REACTORS
330
C
102
}
330
C
100
AcDbDictionary
281
     1
  3
ByBlock
350
45
  3
ByLayer
350
44
  3
Global
350
46
  0
DICTIONARY
  5
6B
102
{ACAD_REACTORS
330
C
102
}
330
C
100
AcDbDictionary
281
     1
  3
Standard
350
6C
  0
DICTIONARY
  5
17
102
{ACAD_REACTORS
330
C
102
}
330
C
100
AcDbDictionary
281
     1
  3
Standard
350
18
  0
DICTIONARY
  5
19
102
{ACAD_REACTORS
330
C
102
}
330
C
100
AcDbDictionary
281
     1
  0
ACDBDICTIONARYWDFLT
  5
E
102
{ACAD_REACTORS
330
C
102
}
330
C
100
AcDbDictionary
281
     1
  3
Normal
350
F
100
AcDbDictionaryWithDefault
340
F
  0
DICTIONARY
  5
47
102
{ACAD_REACTORS
330
C
102
}
330
C
100
AcDbDictionary
281
     1
  3
A0
350
48
  3
A1
350
49
  3
A2
350
4A
  3
A3
350
4B
  3
A4
350
4C
  3
A5
350
4D
  3
A6
350
4E
  3
A7
350
4F
  3
A8
350
50
  3
A9
350
51
  3
B0
350
52
  3
B1
350
53
  3
B2
350
54
  3
B3
350
55
  3
B4
350
56
  3
B5
350
57
  3
B6
350
58
  3
B7
350
59
  3
B8
350
5A
  3
B9
350
5B
  3
C0
350
5C
  3
C1
350
5D
  3
C2
350
5E
  3
C3
350
5F
  3
C4
350
60
  3
C5
350
61
  3
C6
350
62
  3
C7
350
63
  3
C8
350
64
  3
C9
350
65
  3
D0
350
66
  3
D1
350
67
  3
D2
350
68
  0
DICTIONARY
  5
278
102
{ACAD_REACTORS
330
C
102
}
330
C
100
AcDbDictionary
281
     1
  0
DICTIONARY
  5
69
102
{ACAD_REACTORS
330
C
102
}
330
C
100
AcDbDictionary
281
     1
  3
Standard
350
6A
  0
DICTIONARY
  5
2A
102
{ACAD_REACTORS
330
C
102
}
330
C
100
AcDbDictionary
281
     1
  3
2dWireframe
350
2F
  3
Basic
350
32
  3
Brighten
350
36
  3
ColorChange
350
3A
  3
Conceptual
350
34
  3
Dim
350
35
  3
EdgeColorOff
350
3D
  3
Facepattern
350
39
  3
Flat
350
2B
  3
FlatWithEdges
350
2C
  3
Gouraud
350
2D
  3
GouraudWithEdges
350
2E
  3
Hidden
350
31
  3
JitterOff
350
3B
  3
Linepattern
350
38
  3
OverhangOff
350
3C
  3
Realistic
350
33
  3
Shaded
350
42
  3
Shaded with edges
350
41
  3
Shades of Gray
350
3E
  3
Sketchy
350
3F
  3
Thicken
350
37
  3
Wireframe
350
30
  3
X-Ray
350
40
  0
XRECORD
  5
274
102
{ACAD_REACTORS
330
C
102
}
330
C
100
AcDbXrecord
280
     1
 90
        1
330
6A
  0
DICTIONARY
  5
270
102
{ACAD_REACTORS
330
C
102
}
330
C
100
AcDbDictionary
281
     1
  3
CANNOSCALE
350
271
  3
CMLEADERSTYLE
350
276
  3
CTABLESTYLE
350
275
  0
LAYOUT
  5
1E
102
{ACAD_REACTORS
330
1A
102
}
330
1A
100
AcDbPlotSettings
  1

  2
none_device
  4

  6

 40
0.0
 41
0.0
 42
0.0
 43
0.0
 44
0.0
 45
0.0
 46
0.0
 47
0.0
 48
0.0
 49
0.0
140
0.0
141
0.0
142
1.0
143
1.0
 70
   688
 72
     0
 73
     0
 74
     5
  7

 75
    16
 76
     0
 77
     2
 78
   300
147
1.0
148
0.0
149
0.0
100
AcDbLayout
  1
Layout1
 70
     1
 71
     1
 10
0.0
 20
0.0
 11
12.0
 21
9.0
 12
0.0
 22
0.0
 32
0.0
 14
1.000000000000000E+20
 24
1.000000000000000E+20
 34
1.000000000000000E+20
 15
-1.000000000000000E+20
 25
-1.000000000000000E+20
 35
-1.000000000000000E+20
146
0.0
 13
0.0
 23
0.0
 33
0.0
 16
1.0
 26
0.0
 36
0.0
 17
0.0
 27
1.0
 37
0.0
 76
     0
330
1B
  0
LAYOUT
  5
26
102
{ACAD_REACTORS
330
1A
102
}
330
1A
100
AcDbPlotSettings
  1

  2
none_device
  4

  6

 40
0.0
 41
0.0
 42
0.0
 43
0.0
 44
0.0
 45
0.0
 46
0.0
 47
0.0
 48
0.0
 49
0.0
140
0.0
141
0.0
142
1.0
143
1.0
 70
   688
 72
     0
 73
     0
 74
     5
  7

 75
    16
 76
     0
 77
     2
 78
   300
147
1.0
148
0.0
149
0.0
100
AcDbLayout
  1
Layout2
 70
     1
 71
     2
 10
0.0
 20
0.0
 11
0.0
 21
0.0
 12
0.0
 22
0.0
 32
0.0
 14
0.0
 24
0.0
 34
0.0
 15
0.0
 25
0.0
 35
0.0
146
0.0
 13
0.0
 23
0.0
 33
0.0
 16
1.0
 26
0.0
 36
0.0
 17
0.0
 27
1.0
 37
0.0
 76
     0
330
23
  0
LAYOUT
  5
22
102
{ACAD_REACTORS
330
1A
102
}
330
1A
100
AcDbPlotSettings
  1

  2
none_device
  4
Letter_(8.50_x_11.00_Inches)
  6

 40
6.35
 41
6.35
 42
6.35000508
 43
6.35000508
 44
215.9
 45
279.4
 46
0.0
 47
0.0
 48
0.0
 49
0.0
140
0.0
141
0.0
142
1.0
143
1.0
 70
  1712
 72
     0
 73
     0
 74
     0
  7

 75
     0
 76
     0
 77
     2
 78
   300
147
1.0
148
0.0
149
0.0
100
AcDbLayout
  1
Model
 70
     1
 71
     0
 10
0.0
 20
0.0
 11
12.0
 21
9.0
 12
0.0
 22
0.0
 32
0.0
 14
1.000000000000000E+20
 24
1.000000000000000E+20
 34
1.000000000000000E+20
 15
-1.000000000000000E+20
 25
-1.000000000000000E+20
 35
-1.000000000000000E+20
146
0.0
 13
0.0
 23
0.0
 33
0.0
 16
1.0
 26
0.0
 36
0.0
 17
0.0
 27
1.0
 37
0.0
 76
     0
330
1F
331
29
  0
MATERIAL
  5
45
102
{ACAD_REACTORS
330
43
102
}
330
43
100
AcDbMaterial
  1
ByBlock
 72
     1
 94
      127
  0
MATERIAL
  5
44
102
{ACAD_REACTORS
330
43
102
}
330
43
100
AcDbMaterial
  1
ByLayer
 72
     1
 94
      127
  0
MATERIAL
  5
46
102
{ACAD_REACTORS
330
43
102
}
330
43
100
AcDbMaterial
  1
Global
 72
     1
 94
      127
  0
MLEADERSTYLE
  5
6C
102
{ACAD_REACTORS
330
6B
102
}
330
6B
100
AcDbMLeaderStyle
179
     2
170
     2
171
     1
172
     0
 90
        2
 40
0.0
 41
0.0
173
     1
 91
-1056964608
340
14
 92
       -2
290
     1
 42
0.09
291
     1
 43
0.36
  3
Standard
341
0
 44
0.18
300

342
11
174
     1
178
     6
175
     1
176
     0
 93
-1056964608
 45
0.18
292
     0
297
     0
 46
0.18
343
0
 94
-1056964608
 47
1.0
 49
1.0
140
1.0
293
     1
141
0.0
294
     1
177
     0
142
1.0
295
     0
296
     0
143
0.125
271
     0
272
     9
273
     9
298
     0
  0
MLINESTYLE
  5
18
102
{ACAD_REACTORS
330
17
102
}
330
17
100
AcDbMlineStyle
  2
Standard
 70
     0
  3

 62
   256
 51
90.0
 52
90.0
 71
     2
 49
0.5
 62
   256
  6
BYLAYER
 49
-0.5
 62
   256
  6
BYLAYER
  0
ACDBPLACEHOLDER
  5
F
102
{ACAD_REACTORS
330
E
102
}
330
E
  0
SCALE
  5
48
102
{ACAD_REACTORS
330
47
102
}
330
47
100
AcDbScale
 70
     0
300
1:1
140
1.0
141
1.0
290
     1
  0
SCALE
  5
49
102
{ACAD_REACTORS
330
47
102
}
330
47
100
AcDbScale
 70
     0
300
1:2
140
1.0
141
2.0
290
     0
  0
SCALE
  5
4A
102
{ACAD_REACTORS
330
47
102
}
330
47
100
AcDbScale
 70
     0
300
1:4
140
1.0
141
4.0
290
     0
  0
SCALE
  5
4B
102
{ACAD_REACTORS
330
47
102
}
330
47
100
AcDbScale
 70
     0
300
1:5
140
1.0
141
5.0
290
     0
  0
SCALE
  5
4C
102
{ACAD_REACTORS
330
47
102
}
330
47
100
AcDbScale
 70
     0
300
1:8
140
1.0
141
8.0
290
     0
  0
SCALE
  5
4D
102
{ACAD_REACTORS
330
47
102
}
330
47
100
AcDbScale
 70
     0
300
1:10
140
1.0
141
10.0
290
     0
  0
SCALE
  5
4E
102
{ACAD_REACTORS
330
47
102
}
330
47
100
AcDbScale
 70
     0
300
1:16
140
1.0
141
16.0
290
     0
  0
SCALE
  5
4F
102
{ACAD_REACTORS
330
47
102
}
330
47
100
AcDbScale
 70
     0
300
1:20
140
1.0
141
20.0
290
     0
  0
SCALE
  5
50
102
{ACAD_REACTORS
330
47
102
}
330
47
100
AcDbScale
 70
     0
300
1:30
140
1.0
141
30.0
290
     0
  0
SCALE
  5
51
102
{ACAD_REACTORS
330
47
102
}
330
47
100
AcDbScale
 70
     0
300
1:40
140
1.0
141
40.0
290
     0
  0
SCALE
  5
52
102
{ACAD_REACTORS
330
47
102
}
330
47
100
AcDbScale
 70
     0
300
1:50
140
1.0
141
50.0
290
     0
  0
SCALE
  5
53
102
{ACAD_REACTORS
330
47
102
}
330
47
100
AcDbScale
 70
     0
300
1:100
140
1.0
141
100.0
290
     0
  0
SCALE
  5
54
102
{ACAD_REACTORS
330
47
102
}
330
47
100
AcDbScale
 70
     0
300
2:1
140
2.0
141
1.0
290
     0
  0
SCALE
  5
55
102
{ACAD_REACTORS
330
47
102
}
330
47
100
AcDbScale
 70
     0
300
4:1
140
4.0
141
1.0
290
     0
  0
SCALE
  5
56
102
{ACAD_REACTORS
330
47
102
}
330
47
100
AcDbScale
 70
     0
300
8:1
140
8.0
141
1.0
290
     0
  0
SCALE
  5
57
102
{ACAD_REACTORS
330
47
102
}
330
47
100
AcDbScale
 70
     0
300
10:1
140
10.0
141
1.0
290
     0
  0
SCALE
  5
58
102
{ACAD_REACTORS
330
47
102
}
330
47
100
AcDbScale
 70
     0
300
100:1
140
100.0
141
1.0
290
     0
  0
SCALE
  5
59
102
{ACAD_REACTORS
330
47
102
}
330
47
100
AcDbScale
 70
     0
300
1/128" = 1'-0"
140
0.0078125
141
12.0
290
     0
  0
SCALE
  5
5A
102
{ACAD_REACTORS
330
47
102
}
330
47
100
AcDbScale
 70
     0
300
1/64" = 1'-0"
140
0.015625
141
12.0
290
     0
  0
SCALE
  5
5B
102
{ACAD_REACTORS
330
47
102
}
330
47
100
AcDbScale
 70
     0
300
1/32" = 1'-0"
140
0.03125
141
12.0
290
     0
  0
SCALE
  5
5C
102
{ACAD_REACTORS
330
47
102
}
330
47
100
AcDbScale
 70
     0
300
1/16" = 1'-0"
140
0.0625
141
12.0
290
     0
  0
SCALE
  5
5D
102
{ACAD_REACTORS
330
47
102
}
330
47
100
AcDbScale
 70
     0
300
3/32" = 1'-0"
140
0.09375
141
12.0
290
     0
  0
SCALE
  5
5E
102
{ACAD_REACTORS
330
47
102
}
330
47
100
AcDbScale
 70
     0
300
1/8" = 1'-0"
140
0.125
141
12.0
290
     0
  0
SCALE
  5
5F
102
{ACAD_REACTORS
330
47
102
}
330
47
100
AcDbScale
 70
     0
300
3/16" = 1'-0"
140
0.1875
141
12.0
290
     0
  0
SCALE
  5
60
102
{ACAD_REACTORS
330
47
102
}
330
47
100
AcDbScale
 70
     0
300
1/4" = 1'-0"
140
0.25
141
12.0
290
     0
  0
SCALE
  5
61
102
{ACAD_REACTORS
330
47
102
}
330
47
100
AcDbScale
 70
     0
300
3/8" = 1'-0"
140
0.375
141
12.0
290
     0
  0
SCALE
  5
62
102
{ACAD_REACTORS
330
47
102
}
330
47
100
AcDbScale
 70
     0
300
1/2" = 1'-0"
140
0.5
141
12.0
290
     0
  0
SCALE
  5
63
102
{ACAD_REACTORS
330
47
102
}
330
47
100
AcDbScale
 70
     0
300
3/4" = 1'-0"
140
0.75
141
12.0
290
     0
  0
SCALE
  5
64
102
{ACAD_REACTORS
330
47
102
}
330
47
100
AcDbScale
 70
     0
300
1" = 1'-0"
140
1.0
141
12.0
290
     0
  0
SCALE
  5
65
102
{ACAD_REACTORS
330
47
102
}
330
47
100
AcDbScale
 70
     0
300
1-1/2" = 1'-0"
140
1.5
141
12.0
290
     0
  0
SCALE
  5
66
102
{ACAD_REACTORS
330
47
102
}
330
47
100
AcDbScale
 70
     0
300
3" = 1'-0"
140
3.0
141
12.0
290
     0
  0
SCALE
  5
67
102
{ACAD_REACTORS
330
47
102
}
330
47
100
AcDbScale
 70
     0
300
6" = 1'-0"
140
6.0
141
12.0
290
     0
  0
SCALE
  5
68
102
{ACAD_REACTORS
330
47
102
}
330
47
100
AcDbScale
 70
     0
300
1'-0" = 1'-0"
140
12.0
141
12.0
290
     0
  0
TABLESTYLE
  5
6A
102
{ACAD_REACTORS
330
69
102
}
102
{ACAD_XDICTIONARY
360
272
102
}
330
69
100
AcDbTableStyle
  3
Standard
 70
     0
 71
     0
 40
0.06
 41
0.06
280
     0
281
     0
  7
Standard
140
0.18
170
     2
 62
     0
 63
   257
283
     0
 90
        4
 91
        0
  1

274
    -2
284
     1
 64
     0
275
    -2
285
     1
 65
     0
276
    -2
286
     1
 66
     0
277
    -2
287
     1
 67
     0
278
    -2
288
     1
 68
     0
279
    -2
289
     1
 69
     0
  7
Standard
140
0.25
170
     5
 62
     0
 63
   257
283
     0
 90
        4
 91
        0
  1

274
    -2
284
     1
 64
     0
275
    -2
285
     1
 65
     0
276
    -2
286
     1
 66
     0
277
    -2
287
     1
 67
     0
278
    -2
288
     1
 68
     0
279
    -2
289
     1
 69
     0
  7
Standard
140
0.18
170
     5
 62
     0
 63
   257
283
     0
 90
        4
 91
        0
  1

274
    -2
284
     1
 64
     0
275
    -2
285
     1
 65
     0
276
    -2
286
     1
 66
     0
277
    -2
287
     1
 67
     0
278
    -2
288
     1
 68
     0
279
    -2
289
     1
 69
     0
  0
VISUALSTYLE
  5
2F
102
{ACAD_REACTORS
330
2A
102
}
330
2A
100
AcDbVisualStyle
  2
2dWireframe
 70
     4
177
     3
291
     0
 70
    58
 90
        0
176
     1
 90
        2
176
     1
 90
        0
176
     1
 90
        0
176
     1
 40
0.6
176
     1
 40
30.0
176
     1
 62
     7
420
 16777215
176
     1
 90
        1
176
     1
 90
        4
176
     1
 62
     7
176
     1
 62
   257
176
     1
 90
        1
176
     1
 90
        1
176
     1
 40
1.0
176
     1
 90
        0
176
     1
 62
   257
176
     1
 40
1.0
176
     1
 90
        1
176
     1
 90
        6
176
     1
 90
        2
176
     1
 62
     7
176
     1
 90
        5
176
     1
 90
        0
176
     1
 90
        0
176
     1
290
     0
176
     1
 90
        1
176
     1
 40
0.0
176
     1
 90
        0
176
     1
290
     1
176
     1
290
     1
176
     1
290
     0
176
     1
290
     0
176
     1
290
     0
176
     1
290
     0
176
     1
290
     0
176
     1
290
     0
176
     1
290
     0
176
     1
 90
       50
176
     1
 40
0.0
176
     1
 40
1.0
176
     1
 90
        0
176
     1
 62
    18
420
        0
176
     1
 90
       50
176
     1
 90
        3
176
     1
 62
     5
420
      255
176
     1
290
     0
176
     1
 90
       50
176
     1
 90
       50
176
     1
 90
       50
176
     1
290
     0
176
     1
 90
       50
176
     1
 62
   256
176
     0
 40
1.0
176
     0
 90
        2
176
     1
  1
strokes_ogs.tif
176
     1
290
     0
176
     1
 40
1.0
176
     1
 40
1.0
176
     1
  0
VISUALSTYLE
  5
32
102
{ACAD_REACTORS
330
2A
102
}
330
2A
100
AcDbVisualStyle
  2
Basic
 70
     7
177
     3
291
     1
 70
    58
 90
        1
176
     1
 90
        0
176
     1
 90
        1
176
     1
 90
        0
176
     1
 40
0.6
176
     1
 40
30.0
176
     1
 62
     7
420
 16777215
176
     1
 90
        0
176
     1
 90
        4
176
     1
 62
     7
176
     1
 62
   257
176
     1
 90
        1
176
     1
 90
        1
176
     1
 40
1.0
176
     1
 90
        8
176
     1
 62
     7
176
     1
 40
1.0
176
     1
 90
        1
176
     1
 90
        6
176
     1
 90
        2
176
     1
 62
     7
176
     1
 90
        5
176
     1
 90
        0
176
     1
 90
        0
176
     1
290
     0
176
     1
 90
        1
176
     1
 40
0.0
176
     1
 90
        0
176
     1
290
     0
176
     1
290
     1
176
     1
290
     1
176
     1
290
     0
176
     1
290
     0
176
     1
290
     0
176
     1
290
     0
176
     1
290
     0
176
     1
290
     0
176
     1
 90
       50
176
     1
 40
0.0
176
     1
 40
1.0
176
     1
 90
        0
176
     1
 62
    18
420
        0
176
     1
 90
       50
176
     1
 90
        3
176
     1
 62
     5
420
      255
176
     1
290
     0
176
     1
 90
       50
176
     1
 90
       50
176
     1
 90
       50
176
     1
290
     0
176
     1
 90
       50
176
     1
 62
   256
176
     0
 40
1.0
176
     0
 90
        2
176
     1
  1
strokes_ogs.tif
176
     1
290
     0
176
     1
 40
1.0
176
     1
 40
1.0
176
     1
  0
VISUALSTYLE
  5
36
102
{ACAD_REACTORS
330
2A
102
}
330
2A
100
AcDbVisualStyle
  2
Brighten
 70
    12
177
     3
291
     1
 70
    58
 90
        2
176
     1
 90
        2
176
     1
 90
        0
176
     1
 90
        0
176
     1
 40
0.6
176
     1
 40
30.0
176
     1
 62
     7
420
 16777215
176
     1
 90
        1
176
     1
 90
        4
176
     1
 62
     7
176
     1
 62
   257
176
     1
 90
        1
176
     1
 90
        1
176
     1
 40
1.0
176
     1
 90
        8
176
     1
 62
     7
176
     1
 40
1.0
176
     1
 90
        1
176
     1
 90
        6
176
     1
 90
        2
176
     1
 62
     7
176
     1
 90
        5
176
     1
 90
        0
176
     1
 90
        0
176
     1
290
     0
176
     1
 90
        1
176
     1
 40
50.0
176
     1
 90
        0
176
     1
290
     0
176
     1
290
     1
176
     1
290
     1
176
     1
290
     0
176
     1
290
     0
176
     1
290
     0
176
     1
290
     0
176
     1
290
     0
176
     1
290
     0
176
     1
 90
       50
176
     1
 40
0.0
176
     1
 40
1.0
176
     1
 90
        0
176
     1
 62
    18
420
        0
176
     1
 90
       50
176
     1
 90
        3
176
     1
 62
     5
420
      255
176
     1
290
     0
176
     1
 90
       50
176
     1
 90
       50
176
     1
 90
       50
176
     1
290
     0
176
     1
 90
       50
176
     1
 62
   256
176
     0
 40
1.0
176
     0
 90
        2
176
     1
  1
strokes_ogs.tif
176
     1
290
     0
176
     1
 40
1.0
176
     1
 40
1.0
176
     1
  0
VISUALSTYLE
  5
3A
102
{ACAD_REACTORS
330
2A
102
}
330
2A
100
AcDbVisualStyle
  2
ColorChange
 70
    16
177
     3
291
     1
 70
    58
 90
        2
176
     1
 90
        2
176
     1
 90
        3
176
     1
 90
        0
176
     1
 40
0.6
176
     1
 40
30.0
176
     1
 62
     8
420
  8421504
176
     1
 90
        1
176
     1
 90
        4
176
     1
 62
     7
176
     1
 62
   257
176
     1
 90
        1
176
     1
 90
        1
176
     1
 40
1.0
176
     1
 90
        8
176
     1
 62
     8
420
  8421504
176
     1
 40
1.0
176
     1
 90
        1
176
     1
 90
        6
176
     1
 90
        2
176
     1
 62
     7
176
     1
 90
        5
176
     1
 90
        0
176
     1
 90
        0
176
     1
290
     0
176
     1
 90
        1
176
     1
 40
0.0
176
     1
 90
        0
176
     1
290
     0
176
     1
290
     1
176
     1
290
     1
176
     1
290
     0
176
     1
290
     0
176
     1
290
     0
176
     1
290
     0
176
     1
290
     0
176
     1
290
     0
176
     1
 90
       50
176
     1
 40
0.0
176
     1
 40
1.0
176
     1
 90
        0
176
     1
 62
    18
420
        0
176
     1
 90
       50
176
     1
 90
        3
176
     1
 62
     5
420
      255
176
     1
290
     0
176
     1
 90
       50
176
     1
 90
       50
176
     1
 90
       50
176
     1
290
     0
176
     1
 90
       50
176
     1
 62
   256
176
     0
 40
1.0
176
     0
 90
        2
176
     1
  1
strokes_ogs.tif
176
     1
290
     0
176
     1
 40
1.0
176
     1
 40
1.0
176
     1
  0
VISUALSTYLE
  5
34
102
{ACAD_REACTORS
330
2A
102
}
330
2A
100
AcDbVisualStyle
  2
Conceptual
 70
     9
177
     3
291
     0
 70
    58
 90
        3
176
     1
 90
        2
176
     1
 90
        0
176
     1
 90
        0
176
     1
 40
0.6
176
     1
 40
30.0
176
     1
 62
     7
420
 16777215
176
     1
 90
        2
176
     1
 90
        2
176
     1
 62
     7
176
     1
 62
   257
176
     1
 90
        1
176
     1
 90
        1
176
     1
 40
179.0
176
     1
 90
        8
176
     1
 62
     7
176
     1
 40
1.0
176
     1
 90
        1
176
     1
 90
        6
176
     1
 90
        2
176
     1
 62
     7
176
     1
 90
        3
176
     1
 90
        0
176
     1
 90
        0
176
     1
290
     0
176
     1
 90
        1
176
     1
 40
0.0
176
     1
 90
        0
176
     1
290
     0
176
     1
290
     1
176
     1
290
     1
176
     1
290
     0
176
     1
290
     0
176
     1
290
     0
176
     1
290
     0
176
     1
290
     0
176
     1
290
     0
176
     1
 90
       50
176
     1
 40
0.0
176
     1
 40
1.0
176
     1
 90
        0
176
     1
 62
    18
420
        0
176
     1
 90
       50
176
     1
 90
        3
176
     1
 62
     5
420
      255
176
     1
290
     0
176
     1
 90
       50
176
     1
 90
       50
176
     1
 90
       50
176
     1
290
     0
176
     1
 90
       50
176
     1
 62
   256
176
     0
 40
1.0
176
     0
 90
        2
176
     1
  1
strokes_ogs.tif
176
     1
290
     0
176
     1
 40
1.0
176
     1
 40
1.0
176
     1
  0
VISUALSTYLE
  5
35
102
{ACAD_REACTORS
330
2A
102
}
330
2A
100
AcDbVisualStyle
  2
Dim
 70
    11
177
     3
291
     1
 70
    58
 90
        2
176
     1
 90
        2
176
     1
 90
        0
176
     1
 90
        0
176
     1
 40
0.6
176
     1
 40
30.0
176
     1
 62
     7
420
 16777215
176
     1
 90
        1
176
     1
 90
        4
176
     1
 62
     7
176
     1
 62
   257
176
     1
 90
        1
176
     1
 90
        1
176
     1
 40
1.0
176
     1
 90
        8
176
     1
 62
     7
176
     1
 40
1.0
176
     1
 90
        1
176
     1
 90
        6
176
     1
 90
        2
176
     1
 62
     7
176
     1
 90
        5
176
     1
 90
        0
176
     1
 90
        0
176
     1
290
     0
176
     1
 90
        1
176
     1
 40
-50.0
176
     1
 90
        0
176
     1
290
     0
176
     1
290
     1
176
     1
290
     1
176
     1
290
     0
176
     1
290
     0
176
     1
290
     0
176
     1
290
     0
176
     1
290
     0
176
     1
290
     0
176
     1
 90
       50
176
     1
 40
0.0
176
     1
 40
1.0
176
     1
 90
        0
176
     1
 62
    18
420
        0
176
     1
 90
       50
176
     1
 90
        3
176
     1
 62
     5
420
      255
176
     1
290
     0
176
     1
 90
       50
176
     1
 90
       50
176
     1
 90
       50
176
     1
290
     0
176
     1
 90
       50
176
     1
 62
   256
176
     0
 40
1.0
176
     0
 90
        2
176
     1
  1
strokes_ogs.tif
176
     1
290
     0
176
     1
 40
1.0
176
     1
 40
1.0
176
     1
  0
VISUALSTYLE
  5
3D
102
{ACAD_REACTORS
330
2A
102
}
330
2A
100
AcDbVisualStyle
  2
EdgeColorOff
 70
    22
177
     3
291
     1
 70
    58
 90
        2
176
     0
 90
        2
176
     0
 90
        0
176
     0
 90
        0
176
     0
 40
0.6
176
     0
 40
30.0
176
     0
 62
     7
420
 16777215
176
     0
 90
        1
176
     0
 90
        4
176
     0
 62
     7
176
     0
 62
   257
176
     0
 90
        1
176
     0
 90
        1
176
     0
 40
1.0
176
     0
 90
        8
176
     2
 62
     7
176
     0
 40
1.0
176
     0
 90
        1
176
     0
 90
        6
176
     0
 90
        2
176
     0
 62
     7
176
     0
 90
        5
176
     0
 90
        0
176
     0
 90
        0
176
     0
290
     0
176
     0
 90
        1
176
     0
 40
0.0
176
     0
 90
        0
176
     0
290
     0
176
     0
290
     1
176
     0
290
     1
176
     0
290
     0
176
     0
290
     0
176
     0
290
     0
176
     0
290
     0
176
     0
290
     0
176
     0
290
     0
176
     0
 90
       50
176
     0
 40
0.0
176
     0
 40
1.0
176
     0
 90
        0
176
     0
 62
    18
420
        0
176
     0
 90
       50
176
     0
 90
        3
176
     0
 62
     5
420
      255
176
     0
290
     0
176
     0
 90
       50
176
     0
 90
       50
176
     0
 90
       50
176
     0
290
     0
176
     0
 90
       50
176
     0
 62
   256
176
     0
 40
1.0
176
     0
 90
        2
176
     0
  1
strokes_ogs.tif
176
     0
290
     0
176
     0
 40
1.0
176
     0
 40
1.0
176
     0
  0
VISUALSTYLE
  5
39
102
{ACAD_REACTORS
330
2A
102
}
330
2A
100
AcDbVisualStyle
  2
Facepattern
 70
    15
177
     3
291
     1
 70
    58
 90
        2
176
     1
 90
        2
176
     1
 90
        0
176
     1
 90
        0
176
     1
 40
0.6
176
     1
 40
30.0
176
     1
 62
     7
420
 16777215
176
     1
 90
        1
176
     1
 90
        4
176
     1
 62
     7
176
     1
 62
   257
176
     1
 90
        1
176
     1
 90
        1
176
     1
 40
1.0
176
     1
 90
        8
176
     1
 62
     7
176
     1
 40
1.0
176
     1
 90
        1
176
     1
 90
        6
176
     1
 90
        2
176
     1
 62
     7
176
     1
 90
        5
176
     1
 90
        0
176
     1
 90
        0
176
     1
290
     0
176
     1
 90
        1
176
     1
 40
0.0
176
     1
 90
        0
176
     1
290
     0
176
     1
290
     1
176
     1
290
     1
176
     1
290
     0
176
     1
290
     0
176
     1
290
     0
176
     1
290
     0
176
     1
290
     0
176
     1
290
     0
176
     1
 90
       50
176
     1
 40
0.0
176
     1
 40
1.0
176
     1
 90
        0
176
     1
 62
    18
420
        0
176
     1
 90
       50
176
     1
 90
        3
176
     1
 62
     5
420
      255
176
     1
290
     0
176
     1
 90
       50
176
     1
 90
       50
176
     1
 90
       50
176
     1
290
     0
176
     1
 90
       50
176
     1
 62
   256
176
     0
 40
1.0
176
     0
 90
        2
176
     1
  1
strokes_ogs.tif
176
     1
290
     0
176
     1
 40
1.0
176
     1
 40
1.0
176
     1
  0
VISUALSTYLE
  5
2B
102
{ACAD_REACTORS
330
2A
102
}
330
2A
100
AcDbVisualStyle
  2
Flat
 70
     0
177
     3
291
     1
 70
    58
 90
        2
176
     1
 90
        1
176
     1
 90
        1
176
     1
 90
        2
176
     1
 40
0.6
176
     1
 40
30.0
176
     1
 62
     7
420
 16777215
176
     1
 90
        0
176
     1
 90
        0
176
     1
 62
     7
176
     1
 62
   257
176
     1
 90
        1
176
     1
 90
        1
176
     1
 40
1.0
176
     1
 90
        8
176
     1
 62
     7
176
     1
 40
1.0
176
     1
 90
        1
176
     1
 90
        6
176
     1
 90
        2
176
     1
 62
     7
176
     1
 90
        5
176
     1
 90
        0
176
     1
 90
        0
176
     1
290
     0
176
     1
 90
       13
176
     1
 40
0.0
176
     1
 90
        0
176
     1
290
     0
176
     1
290
     1
176
     1
290
     1
176
     1
290
     0
176
     1
290
     0
176
     1
290
     0
176
     1
290
     0
176
     1
290
     0
176
     1
290
     0
176
     1
 90
       50
176
     1
 40
0.0
176
     1
 40
1.0
176
     1
 90
        0
176
     1
 62
    18
420
        0
176
     1
 90
       50
176
     1
 90
        3
176
     1
 62
     5
420
      255
176
     1
290
     0
176
     1
 90
       50
176
     1
 90
       50
176
     1
 90
       50
176
     1
290
     0
176
     1
 90
       50
176
     1
 62
   256
176
     0
 40
1.0
176
     0
 90
        2
176
     1
  1
strokes_ogs.tif
176
     1
290
     0
176
     1
 40
1.0
176
     1
 40
1.0
176
     1
  0
VISUALSTYLE
  5
2C
102
{ACAD_REACTORS
330
2A
102
}
330
2A
100
AcDbVisualStyle
  2
FlatWithEdges
 70
     1
177
     3
291
     1
 70
    58
 90
        2
176
     1
 90
        1
176
     1
 90
        1
176
     1
 90
        2
176
     1
 40
0.6
176
     1
 40
30.0
176
     1
 62
     7
420
 16777215
176
     1
 90
        1
176
     1
 90
        0
176
     1
 62
     7
176
     1
 62
   257
176
     1
 90
        1
176
     1
 90
        1
176
     1
 40
1.0
176
     1
 90
        0
176
     1
 62
   257
176
     1
 40
1.0
176
     1
 90
        1
176
     1
 90
        6
176
     1
 90
        2
176
     1
 62
     7
176
     1
 90
        5
176
     1
 90
        0
176
     1
 90
        0
176
     1
290
     0
176
     1
 90
       13
176
     1
 40
0.0
176
     1
 90
        0
176
     1
290
     0
176
     1
290
     1
176
     1
290
     1
176
     1
290
     0
176
     1
290
     0
176
     1
290
     0
176
     1
290
     0
176
     1
290
     0
176
     1
290
     0
176
     1
 90
       50
176
     1
 40
0.0
176
     1
 40
1.0
176
     1
 90
        0
176
     1
 62
    18
420
        0
176
     1
 90
       50
176
     1
 90
        3
176
     1
 62
     5
420
      255
176
     1
290
     0
176
     1
 90
       50
176
     1
 90
       50
176
     1
 90
       50
176
     1
290
     0
176
     1
 90
       50
176
     1
 62
   256
176
     0
 40
1.0
176
     0
 90
        2
176
     1
  1
strokes_ogs.tif
176
     1
290
     0
176
     1
 40
1.0
176
     1
 40
1.0
176
     1
  0
VISUALSTYLE
  5
2D
102
{ACAD_REACTORS
330
2A
102
}
330
2A
100
AcDbVisualStyle
  2
Gouraud
 70
     2
177
     3
291
     1
 70
    58
 90
        2
176
     1
 90
        2
176
     1
 90
        1
176
     1
 90
        2
176
     1
 40
0.6
176
     1
 40
30.0
176
     1
 62
     7
420
 16777215
176
     1
 90
        0
176
     1
 90
        0
176
     1
 62
     7
176
     1
 62
   257
176
     1
 90
        1
176
     1
 90
        1
176
     1
 40
1.0
176
     1
 90
        0
176
     1
 62
     7
176
     1
 40
1.0
176
     1
 90
        1
176
     1
 90
        6
176
     1
 90
        2
176
     1
 62
     7
176
     1
 90
        5
176
     1
 90
        0
176
     1
 90
        0
176
     1
290
     0
176
     1
 90
       13
176
     1
 40
0.0
176
     1
 90
        0
176
     1
290
     0
176
     1
290
     1
176
     1
290
     1
176
     1
290
     0
176
     1
290
     0
176
     1
290
     0
176
     1
290
     0
176
     1
290
     0
176
     1
290
     0
176
     1
 90
       50
176
     1
 40
0.0
176
     1
 40
1.0
176
     1
 90
        0
176
     1
 62
    18
420
        0
176
     1
 90
       50
176
     1
 90
        3
176
     1
 62
     5
420
      255
176
     1
290
     0
176
     1
 90
       50
176
     1
 90
       50
176
     1
 90
       50
176
     1
290
     0
176
     1
 90
       50
176
     1
 62
   256
176
     0
 40
1.0
176
     0
 90
        2
176
     1
  1
strokes_ogs.tif
176
     1
290
     0
176
     1
 40
1.0
176
     1
 40
1.0
176
     1
  0
VISUALSTYLE
  5
2E
102
{ACAD_REACTORS
330
2A
102
}
330
2A
100
AcDbVisualStyle
  2
GouraudWithEdges
 70
     3
177
     3
291
     1
 70
    58
 90
        2
176
     1
 90
        2
176
     1
 90
        1
176
     1
 90
        2
176
     1
 40
0.6
176
     1
 40
30.0
176
     1
 62
     7
420
 16777215
176
     1
 90
        1
176
     1
 90
        0
176
     1
 62
     7
176
     1
 62
   257
176
     1
 90
        1
176
     1
 90
        1
176
     1
 40
1.0
176
     1
 90
        0
176
     1
 62
   257
176
     1
 40
1.0
176
     1
 90
        1
176
     1
 90
        6
176
     1
 90
        2
176
     1
 62
     7
176
     1
 90
        5
176
     1
 90
        0
176
     1
 90
        0
176
     1
290
     0
176
     1
 90
       13
176
     1
 40
0.0
176
     1
 90
        0
176
     1
290
     0
176
     1
290
     1
176
     1
290
     1
176
     1
290
     0
176
     1
290
     0
176
     1
290
     0
176
     1
290
     0
176
     1
290
     0
176
     1
290
     0
176
     1
 90
       50
176
     1
 40
0.0
176
     1
 40
1.0
176
     1
 90
        0
176
     1
 62
    18
420
        0
176
     1
 90
       50
176
     1
 90
        3
176
     1
 62
     5
420
      255
176
     1
290
     0
176
     1
 90
       50
176
     1
 90
       50
176
     1
 90
       50
176
     1
290
     0
176
     1
 90
       50
176
     1
 62
   256
176
     0
 40
1.0
176
     0
 90
        2
176
     1
  1
strokes_ogs.tif
176
     1
290
     0
176
     1
 40
1.0
176
     1
 40
1.0
176
     1
  0
VISUALSTYLE
  5
31
102
{ACAD_REACTORS
330
2A
102
}
330
2A
100
AcDbVisualStyle
  2
Hidden
 70
     6
177
     3
291
     0
 70
    58
 90
        1
176
     1
 90
        2
176
     1
 90
        2
176
     1
 90
        0
176
     1
 40
0.6
176
     1
 40
30.0
176
     1
 62
     7
420
 16777215
176
     1
 90
        2
176
     1
 90
        2
176
     1
 62
     7
176
     1
 62
   257
176
     1
 90
        2
176
     1
 90
        1
176
     1
 40
40.0
176
     1
 90
        0
176
     1
 62
   257
176
     1
 40
1.0
176
     1
 90
        1
176
     1
 90
        6
176
     1
 90
        2
176
     1
 62
     7
176
     1
 90
        3
176
     1
 90
        0
176
     1
 90
        0
176
     1
290
     0
176
     1
 90
        1
176
     1
 40
0.0
176
     1
 90
        0
176
     1
290
     0
176
     1
290
     1
176
     1
290
     1
176
     1
290
     0
176
     1
290
     0
176
     1
290
     0
176
     1
290
     0
176
     1
290
     0
176
     1
290
     0
176
     1
 90
       50
176
     1
 40
0.0
176
     1
 40
1.0
176
     1
 90
        0
176
     1
 62
    18
420
        0
176
     1
 90
       50
176
     1
 90
        3
176
     1
 62
     5
420
      255
176
     1
290
     0
176
     1
 90
       50
176
     1
 90
       50
176
     1
 90
       50
176
     1
290
     0
176
     1
 90
       50
176
     1
 62
   256
176
     0
 40
1.0
176
     0
 90
        2
176
     1
  1
strokes_ogs.tif
176
     1
290
     0
176
     1
 40
1.0
176
     1
 40
1.0
176
     1
  0
VISUALSTYLE
  5
3B
102
{ACAD_REACTORS
330
2A
102
}
330
2A
100
AcDbVisualStyle
  2
JitterOff
 70
    20
177
     3
291
     1
 70
    58
 90
        2
176
     0
 90
        2
176
     0
 90
        0
176
     0
 90
        0
176
     0
 40
0.6
176
     0
 40
30.0
176
     0
 62
     7
420
 16777215
176
     0
 90
        1
176
     0
 90
        4
176
     0
 62
     7
176
     0
 62
   257
176
     0
 90
        1
176
     0
 90
        1
176
     0
 40
1.0
176
     0
 90
       10
176
     2
 62
     7
176
     0
 40
1.0
176
     0
 90
        1
176
     0
 90
        6
176
     0
 90
        2
176
     0
 62
     7
176
     0
 90
        5
176
     0
 90
        0
176
     0
 90
        0
176
     0
290
     0
176
     0
 90
        1
176
     0
 40
0.0
176
     0
 90
        0
176
     0
290
     0
176
     0
290
     1
176
     0
290
     1
176
     0
290
     0
176
     0
290
     0
176
     0
290
     0
176
     0
290
     0
176
     0
290
     0
176
     0
290
     0
176
     0
 90
       50
176
     0
 40
0.0
176
     0
 40
1.0
176
     0
 90
        0
176
     0
 62
    18
420
        0
176
     0
 90
       50
176
     0
 90
        3
176
     0
 62
     5
420
      255
176
     0
290
     0
176
     0
 90
       50
176
     0
 90
       50
176
     0
 90
       50
176
     0
290
     0
176
     0
 90
       50
176
     0
 62
   256
176
     0
 40
1.0
176
     0
 90
        2
176
     0
  1
strokes_ogs.tif
176
     0
290
     0
176
     0
 40
1.0
176
     0
 40
1.0
176
     0
  0
VISUALSTYLE
  5
38
102
{ACAD_REACTORS
330
2A
102
}
330
2A
100
AcDbVisualStyle
  2
Linepattern
 70
    14
177
     3
291
     1
 70
    58
 90
        2
176
     1
 90
        2
176
     1
 90
        0
176
     1
 90
        0
176
     1
 40
0.6
176
     1
 40
30.0
176
     1
 62
     7
420
 16777215
176
     1
 90
        1
176
     1
 90
        4
176
     1
 62
     7
176
     1
 62
   257
176
     1
 90
        7
176
     1
 90
        7
176
     1
 40
1.0
176
     1
 90
        8
176
     1
 62
     7
176
     1
 40
1.0
176
     1
 90
        1
176
     1
 90
        6
176
     1
 90
        2
176
     1
 62
     7
176
     1
 90
        5
176
     1
 90
        0
176
     1
 90
        0
176
     1
290
     0
176
     1
 90
        1
176
     1
 40
0.0
176
     1
 90
        0
176
     1
290
     0
176
     1
290
     1
176
     1
290
     1
176
     1
290
     0
176
     1
290
     0
176
     1
290
     0
176
     1
290
     0
176
     1
290
     0
176
     1
290
     0
176
     1
 90
       50
176
     1
 40
0.0
176
     1
 40
1.0
176
     1
 90
        0
176
     1
 62
    18
420
        0
176
     1
 90
       50
176
     1
 90
        3
176
     1
 62
     5
420
      255
176
     1
290
     0
176
     1
 90
       50
176
     1
 90
       50
176
     1
 90
       50
176
     1
290
     0
176
     1
 90
       50
176
     1
 62
   256
176
     0
 40
1.0
176
     0
 90
        2
176
     1
  1
strokes_ogs.tif
176
     1
290
     0
176
     1
 40
1.0
176
     1
 40
1.0
176
     1
  0
VISUALSTYLE
  5
3C
102
{ACAD_REACTORS
330
2A
102
}
330
2A
100
AcDbVisualStyle
  2
OverhangOff
 70
    21
177
     3
291
     1
 70
    58
 90
        2
176
     0
 90
        2
176
     0
 90
        0
176
     0
 90
        0
176
     0
 40
0.6
176
     0
 40
30.0
176
     0
 62
     7
420
 16777215
176
     0
 90
        1
176
     0
 90
        4
176
     0
 62
     7
176
     0
 62
   257
176
     0
 90
        1
176
     0
 90
        1
176
     0
 40
1.0
176
     0
 90
        9
176
     2
 62
     7
176
     0
 40
1.0
176
     0
 90
        1
176
     0
 90
        6
176
     0
 90
        2
176
     0
 62
     7
176
     0
 90
        5
176
     0
 90
        0
176
     0
 90
        0
176
     0
290
     0
176
     0
 90
        1
176
     0
 40
0.0
176
     0
 90
        0
176
     0
290
     0
176
     0
290
     1
176
     0
290
     1
176
     0
290
     0
176
     0
290
     0
176
     0
290
     0
176
     0
290
     0
176
     0
290
     0
176
     0
290
     0
176
     0
 90
       50
176
     0
 40
0.0
176
     0
 40
1.0
176
     0
 90
        0
176
     0
 62
    18
420
        0
176
     0
 90
       50
176
     0
 90
        3
176
     0
 62
     5
420
      255
176
     0
290
     0
176
     0
 90
       50
176
     0
 90
       50
176
     0
 90
       50
176
     0
290
     0
176
     0
 90
       50
176
     0
 62
   256
176
     0
 40
1.0
176
     0
 90
        2
176
     0
  1
strokes_ogs.tif
176
     0
290
     0
176
     0
 40
1.0
176
     0
 40
1.0
176
     0
  0
VISUALSTYLE
  5
33
102
{ACAD_REACTORS
330
2A
102
}
330
2A
100
AcDbVisualStyle
  2
Realistic
 70
     8
177
     3
291
     0
 70
    58
 90
        2
176
     1
 90
        3
176
     1
 90
        0
176
     1
 90
        2
176
     1
 40
0.6
176
     1
 40
30.0
176
     1
 62
     7
420
 16777215
176
     1
 90
        0
176
     1
 90
        0
176
     1
 62
     7
176
     1
 62
   257
176
     1
 90
        1
176
     1
 90
        1
176
     1
 40
1.0
176
     1
 90
        8
176
     1
 62
   257
176
     1
 40
1.0
176
     1
 90
        1
176
     1
 90
        6
176
     1
 90
        2
176
     1
 62
     7
176
     1
 90
        3
176
     1
 90
        0
176
     1
 90
        0
176
     1
290
     0
176
     1
 90
       13
176
     1
 40
0.0
176
     1
 90
        0
176
     1
290
     0
176
     1
290
     1
176
     1
290
     1
176
     1
290
     0
176
     1
290
     0
176
     1
290
     0
176
     1
290
     0
176
     1
290
     0
176
     1
290
     0
176
     1
 90
       50
176
     1
 40
0.0
176
     1
 40
1.0
176
     1
 90
        0
176
     1
 62
    18
420
        0
176
     1
 90
       50
176
     1
 90
        3
176
     1
 62
     5
420
      255
176
     1
290
     0
176
     1
 90
       50
176
     1
 90
       50
176
     1
 90
       50
176
     1
290
     0
176
     1
 90
       50
176
     1
 62
   256
176
     0
 40
1.0
176
     0
 90
        2
176
     1
  1
strokes_ogs.tif
176
     1
290
     0
176
     1
 40
1.0
176
     1
 40
1.0
176
     1
  0
VISUALSTYLE
  5
42
102
{ACAD_REACTORS
330
2A
102
}
330
2A
100
AcDbVisualStyle
  2
Shaded
 70
    27
177
     3
291
     0
 70
    58
 90
        2
176
     1
 90
        2
176
     1
 90
        1
176
     1
 90
        2
176
     1
 40
0.6
176
     1
 40
30.0
176
     1
 62
     7
420
 16777215
176
     1
 90
        0
176
     1
 90
        4
176
     1
 62
     7
176
     1
 62
   257
176
     1
 90
        1
176
     1
 90
        1
176
     1
 40
1.0
176
     1
 90
        8
176
     1
 62
   257
176
     1
 40
1.0
176
     1
 90
        1
176
     1
 90
        6
176
     1
 90
        2
176
     1
 62
     8
420
  7895160
176
     1
 90
        3
176
     1
 90
        0
176
     1
 90
        0
176
     1
290
     0
176
     1
 90
        5
176
     1
 40
0.0
176
     1
 90
        0
176
     1
290
     0
176
     1
290
     1
176
     1
290
     1
176
     1
290
     0
176
     1
290
     0
176
     1
290
     0
176
     1
290
     0
176
     1
290
     0
176
     1
290
     0
176
     1
 90
       50
176
     1
 40
0.0
176
     1
 40
1.0
176
     1
 90
        0
176
     1
 62
    18
420
        0
176
     1
 90
       50
176
     1
 90
        3
176
     1
 62
     5
420
      255
176
     1
290
     0
176
     1
 90
       50
176
     1
 90
       50
176
     1
 90
       50
176
     1
290
     0
176
     1
 90
       50
176
     1
 62
   256
176
     0
 40
1.0
176
     0
 90
        2
176
     1
  1
strokes_ogs.tif
176
     1
290
     0
176
     1
 40
1.0
176
     1
 40
1.0
176
     1
  0
VISUALSTYLE
  5
41
102
{ACAD_REACTORS
330
2A
102
}
330
2A
100
AcDbVisualStyle
  2
Shaded with edges
 70
    26
177
     3
291
     0
 70
    58
 90
        2
176
     1
 90
        2
176
     1
 90
        1
176
     1
 90
        2
176
     1
 40
0.6
176
     1
 40
30.0
176
     1
 62
     7
420
 16777215
176
     1
 90
        1
176
     1
 90
       10
176
     1
 62
     7
176
     1
 62
   257
176
     1
 90
        2
176
     1
 90
        1
176
     1
 40
1.0
176
     1
 90
        8
176
     1
 62
   257
176
     1
 40
1.0
176
     1
 90
        1
176
     1
 90
        6
176
     1
 90
        2
176
     1
 62
     7
176
     1
 90
        3
176
     1
 90
        0
176
     1
 90
        0
176
     1
290
     0
176
     1
 90
        5
176
     1
 40
0.0
176
     1
 90
        0
176
     1
290
     0
176
     1
290
     1
176
     1
290
     1
176
     1
290
     0
176
     1
290
     0
176
     1
290
     0
176
     1
290
     0
176
     1
290
     0
176
     1
290
     0
176
     1
 90
       50
176
     1
 40
0.0
176
     1
 40
1.0
176
     1
 90
        0
176
     1
 62
    18
420
        0
176
     1
 90
       50
176
     1
 90
        3
176
     1
 62
     5
420
      255
176
     1
290
     0
176
     1
 90
       50
176
     1
 90
       50
176
     1
 90
       50
176
     1
290
     0
176
     1
 90
       50
176
     1
 62
   256
176
     0
 40
1.0
176
     0
 90
        2
176
     1
  1
strokes_ogs.tif
176
     1
290
     0
176
     1
 40
1.0
176
     1
 40
1.0
176
     1
  0
VISUALSTYLE
  5
3E
102
{ACAD_REACTORS
330
2A
102
}
330
2A
100
AcDbVisualStyle
  2
Shades of Gray
 70
    23
177
     3
291
     0
 70
    58
 90
        2
176
     1
 90
        2
176
     1
 90
        3
176
     1
 90
        0
176
     1
 40
0.6
176
     1
 40
30.0
176
     1
 62
     7
420
 16777215
176
     1
 90
        2
176
     1
 90
        2
176
     1
 62
     7
176
     1
 62
     7
176
     1
 90
        1
176
     1
 90
        1
176
     1
 40
40.0
176
     1
 90
        8
176
     1
 62
     7
176
     1
 40
1.0
176
     1
 90
        1
176
     1
 90
        6
176
     1
 90
        2
176
     1
 62
     7
176
     1
 90
        3
176
     1
 90
        0
176
     1
 90
        0
176
     1
290
     0
176
     1
 90
        1
176
     1
 40
0.0
176
     1
 90
        0
176
     1
290
     0
176
     1
290
     1
176
     1
290
     1
176
     1
290
     0
176
     1
290
     0
176
     1
290
     0
176
     1
290
     0
176
     1
290
     0
176
     1
290
     0
176
     1
 90
       50
176
     1
 40
0.0
176
     1
 40
1.0
176
     1
 90
        0
176
     1
 62
    18
420
        0
176
     1
 90
       50
176
     1
 90
        3
176
     1
 62
     5
420
      255
176
     1
290
     0
176
     1
 90
       50
176
     1
 90
       50
176
     1
 90
       50
176
     1
290
     0
176
     1
 90
       50
176
     1
 62
   256
176
     0
 40
1.0
176
     0
 90
        2
176
     1
  1
strokes_ogs.tif
176
     1
290
     0
176
     1
 40
1.0
176
     1
 40
1.0
176
     1
  0
VISUALSTYLE
  5
3F
102
{ACAD_REACTORS
330
2A
102
}
330
2A
100
AcDbVisualStyle
  2
Sketchy
 70
    24
177
     3
291
     0
 70
    58
 90
        1
176
     1
 90
        2
176
     1
 90
        2
176
     1
 90
        0
176
     1
 40
0.6
176
     1
 40
30.0
176
     1
 62
     7
420
 16777215
176
     1
 90
        2
176
     1
 90
        2
176
     1
 62
     7
176
     1
 62
     7
176
     1
 90
        1
176
     1
 90
        1
176
     1
 40
40.0
176
     1
 90
       11
176
     1
 62
     7
176
     1
 40
1.0
176
     1
 90
        1
176
     1
 90
        6
176
     1
 90
        2
176
     1
 62
     7
176
     1
 90
        6
176
     1
 90
        0
176
     1
 90
        0
176
     1
290
     0
176
     1
 90
        1
176
     1
 40
0.0
176
     1
 90
        0
176
     1
290
     0
176
     1
290
     1
176
     1
290
     1
176
     1
290
     0
176
     1
290
     0
176
     1
290
     0
176
     1
290
     0
176
     1
290
     0
176
     1
290
     0
176
     1
 90
       50
176
     1
 40
0.0
176
     1
 40
1.0
176
     1
 90
        0
176
     1
 62
    18
420
        0
176
     1
 90
       50
176
     1
 90
        3
176
     1
 62
     5
420
      255
176
     1
290
     0
176
     1
 90
       50
176
     1
 90
       50
176
     1
 90
       50
176
     1
290
     0
176
     1
 90
       50
176
     1
 62
   256
176
     0
 40
1.0
176
     0
 90
        2
176
     1
  1
strokes_ogs.tif
176
     1
290
     0
176
     1
 40
1.0
176
     1
 40
1.0
176
     1
  0
VISUALSTYLE
  5
37
102
{ACAD_REACTORS
330
2A
102
}
330
2A
100
AcDbVisualStyle
  2
Thicken
 70
    13
177
     3
291
     1
 70
    58
 90
        2
176
     1
 90
        2
176
     1
 90
        0
176
     1
 90
        0
176
     1
 40
0.6
176
     1
 40
30.0
176
     1
 62
     7
420
 16777215
176
     1
 90
        1
176
     1
 90
        4
176
     1
 62
     7
176
     1
 62
   257
176
     1
 90
        1
176
     1
 90
        1
176
     1
 40
1.0
176
     1
 90
       12
176
     1
 62
     7
176
     1
 40
1.0
176
     1
 90
        1
176
     1
 90
        6
176
     1
 90
        2
176
     1
 62
     7
176
     1
 90
        5
176
     1
 90
        0
176
     1
 90
        0
176
     1
290
     0
176
     1
 90
        1
176
     1
 40
0.0
176
     1
 90
        0
176
     1
290
     0
176
     1
290
     1
176
     1
290
     1
176
     1
290
     0
176
     1
290
     0
176
     1
290
     0
176
     1
290
     0
176
     1
290
     0
176
     1
290
     0
176
     1
 90
       50
176
     1
 40
0.0
176
     1
 40
1.0
176
     1
 90
        0
176
     1
 62
    18
420
        0
176
     1
 90
       50
176
     1
 90
        3
176
     1
 62
     5
420
      255
176
     1
290
     0
176
     1
 90
       50
176
     1
 90
       50
176
     1
 90
       50
176
     1
290
     0
176
     1
 90
       50
176
     1
 62
   256
176
     0
 40
1.0
176
     0
 90
        2
176
     1
  1
strokes_ogs.tif
176
     1
290
     0
176
     1
 40
1.0
176
     1
 40
1.0
176
     1
  0
VISUALSTYLE
  5
30
102
{ACAD_REACTORS
330
2A
102
}
330
2A
100
AcDbVisualStyle
  2
Wireframe
 70
     5
177
     3
291
     0
 70
    58
 90
        0
176
     1
 90
        2
176
     1
 90
        0
176
     1
 90
        0
176
     1
 40
0.6
176
     1
 40
30.0
176
     1
 62
     7
420
 16777215
176
     1
 90
        1
176
     1
 90
        4
176
     1
 62
     7
176
     1
 62
   257
176
     1
 90
        1
176
     1
 90
        1
176
     1
 40
1.0
176
     1
 90
        0
176
     1
 62
   257
176
     1
 40
1.0
176
     1
 90
        1
176
     1
 90
        6
176
     1
 90
        2
176
     1
 62
     7
176
     1
 90
        3
176
     1
 90
        0
176
     1
 90
        0
176
     1
290
     0
176
     1
 90
        1
176
     1
 40
0.0
176
     1
 90
        0
176
     1
290
     0
176
     1
290
     1
176
     1
290
     1
176
     1
290
     0
176
     1
290
     0
176
     1
290
     0
176
     1
290
     0
176
     1
290
     0
176
     1
290
     0
176
     1
 90
       50
176
     1
 40
0.0
176
     1
 40
1.0
176
     1
 90
        0
176
     1
 62
    18
420
        0
176
     1
 90
       50
176
     1
 90
        3
176
     1
 62
     5
420
      255
176
     1
290
     0
176
     1
 90
       50
176
     1
 90
       50
176
     1
 90
       50
176
     1
290
     0
176
     1
 90
       50
176
     1
 62
   256
176
     0
 40
1.0
176
     0
 90
        2
176
     1
  1
strokes_ogs.tif
176
     1
290
     0
176
     1
 40
1.0
176
     1
 40
1.0
176
     1
  0
VISUALSTYLE
  5
40
102
{ACAD_REACTORS
330
2A
102
}
330
2A
100
AcDbVisualStyle
  2
X-Ray
 70
    25
177
     3
291
     0
 70
    58
 90
        2
176
     1
 90
        2
176
     1
 90
        1
176
     1
 90
        1
176
     1
 40
0.5
176
     1
 40
30.0
176
     1
 62
     7
420
 16777215
176
     1
 90
        1
176
     1
 90
        0
176
     1
 62
     7
176
     1
 62
   257
176
     1
 90
        1
176
     1
 90
        1
176
     1
 40
1.0
176
     1
 90
        8
176
     1
 62
     7
176
     1
 40
1.0
176
     1
 90
        1
176
     1
 90
        6
176
     1
 90
        2
176
     1
 62
     7
176
     1
 90
        3
176
     1
 90
        0
176
     1
 90
        0
176
     1
290
     0
176
     1
 90
       13
176
     1
 40
0.0
176
     1
 90
        0
176
     1
290
     0
176
     1
290
     1
176
     1
290
     1
176
     1
290
     0
176
     1
290
     0
176
     1
290
     0
176
     1
290
     0
176
     1
290
     0
176
     1
290
     0
176
     1
 90
       50
176
     1
 40
0.0
176
     1
 40
1.0
176
     1
 90
        0
176
     1
 62
    18
420
        0
176
     1
 90
       50
176
     1
 90
        3
176
     1
 62
     5
420
      255
176
     1
290
     0
176
     1
 90
       50
176
     1
 90
       50
176
     1
 90
       50
176
     1
290
     0
176
     1
 90
       50
176
     1
 62
   256
176
     0
 40
1.0
176
     0
 90
        2
176
     1
  1
strokes_ogs.tif
176
     1
290
     0
176
     1
 40
1.0
176
     1
 40
1.0
176
     1
  0
DICTIONARYVAR
  5
271
102
{ACAD_REACTORS
330
270
102
}
330
270
100
DictionaryVariables
280
     0
  1
1:1
  0
DICTIONARYVAR
  5
276
102
{ACAD_REACTORS
330
270
102
}
330
270
100
DictionaryVariables
280
     0
  1
Standard
  0
DICTIONARYVAR
  5
275
102
{ACAD_REACTORS
330
270
102
}
330
270
100
DictionaryVariables
280
     0
  1
Standard
  0
DICTIONARY
  5
272
330
6A
100
AcDbDictionary
280
     1
281
     1
  3
ACAD_ROUNDTRIP_2008_TABLESTYLE_CELLSTYLEMAP
360
273
  0
CELLSTYLEMAP
  5
273
102
{ACAD_REACTORS
330
272
102
}
330
272
100
AcDbCellStyleMap
 90
        3
300
CELLSTYLE
  1
TABLEFORMAT_BEGIN
 90
        5
170
     1
 91
        0
 92
    32768
 62
   257
 93
        1
300
CONTENTFORMAT
  1
CONTENTFORMAT_BEGIN
 90
        0
 91
        0
 92
        4
 93
        0
300

 40
0.0
140
1.0
 94
        5
 62
     0
340
11
144
0.25
309
CONTENTFORMAT_END
171
     1
301
MARGIN
  1
CELLMARGIN_BEGIN
 40
0.06
 40
0.06
 40
0.06
 40
0.06
 40
0.06
 40
0.06
309
CELLMARGIN_END
 94
        6
 95
        1
302
GRIDFORMAT
  1
GRIDFORMAT_BEGIN
 90
        0
 91
        1
 62
     0
 92
       -2
340
14
 93
        0
 40
0.045
309
GRIDFORMAT_END
 95
        2
302
GRIDFORMAT
  1
GRIDFORMAT_BEGIN
 90
        0
 91
        1
 62
     0
 92
       -2
340
14
 93
        0
 40
0.045
309
GRIDFORMAT_END
 95
        4
302
GRIDFORMAT
  1
GRIDFORMAT_BEGIN
 90
        0
 91
        1
 62
     0
 92
       -2
340
14
 93
        0
 40
0.045
309
GRIDFORMAT_END
 95
        8
302
GRIDFORMAT
  1
GRIDFORMAT_BEGIN
 90
        0
 91
        1
 62
     0
 92
       -2
340
14
 93
        0
 40
0.045
309
GRIDFORMAT_END
 95
       16
302
GRIDFORMAT
  1
GRIDFORMAT_BEGIN
 90
        0
 91
        1
 62
     0
 92
       -2
340
14
 93
        0
 40
0.045
309
GRIDFORMAT_END
 95
       32
302
GRIDFORMAT
  1
GRIDFORMAT_BEGIN
 90
        0
 91
        1
 62
     0
 92
       -2
340
14
 93
        0
 40
0.045
309
GRIDFORMAT_END
309
TABLEFORMAT_END
  1
CELLSTYLE_BEGIN
 90
        1
 91
        1
300
_TITLE
309
CELLSTYLE_END
300
CELLSTYLE
  1
TABLEFORMAT_BEGIN
 90
        5
170
     1
 91
        0
 92
        0
 62
   257
 93
        1
300
CONTENTFORMAT
  1
CONTENTFORMAT_BEGIN
 90
        0
 91
        0
 92
        4
 93
        0
300

 40
0.0
140
1.0
 94
        5
 62
     0
340
11
144
0.18
309
CONTENTFORMAT_END
171
     1
301
MARGIN
  1
CELLMARGIN_BEGIN
 40
0.06
 40
0.06
 40
0.06
 40
0.06
 40
0.06
 40
0.06
309
CELLMARGIN_END
 94
        6
 95
        1
302
GRIDFORMAT
  1
GRIDFORMAT_BEGIN
 90
        0
 91
        1
 62
     0
 92
       -2
340
14
 93
        0
 40
0.045
309
GRIDFORMAT_END
 95
        2
302
GRIDFORMAT
  1
GRIDFORMAT_BEGIN
 90
        0
 91
        1
 62
     0
 92
       -2
340
14
 93
        0
 40
0.045
309
GRIDFORMAT_END
 95
        4
302
GRIDFORMAT
  1
GRIDFORMAT_BEGIN
 90
        0
 91
        1
 62
     0
 92
       -2
340
14
 93
        0
 40
0.045
309
GRIDFORMAT_END
 95
        8
302
GRIDFORMAT
  1
GRIDFORMAT_BEGIN
 90
        0
 91
        1
 62
     0
 92
       -2
340
14
 93
        0
 40
0.045
309
GRIDFORMAT_END
 95
       16
302
GRIDFORMAT
  1
GRIDFORMAT_BEGIN
 90
        0
 91
        1
 62
     0
 92
       -2
340
14
 93
        0
 40
0.045
309
GRIDFORMAT_END
 95
       32
302
GRIDFORMAT
  1
GRIDFORMAT_BEGIN
 90
        0
 91
        1
 62
     0
 92
       -2
340
14
 93
        0
 40
0.045
309
GRIDFORMAT_END
309
TABLEFORMAT_END
  1
CELLSTYLE_BEGIN
 90
        2
 91
        1
300
_HEADER
309
CELLSTYLE_END
300
CELLSTYLE
  1
TABLEFORMAT_BEGIN
 90
        5
170
     1
 91
        0
 92
        0
 62
   257
 93
        1
300
CONTENTFORMAT
  1
CONTENTFORMAT_BEGIN
 90
        0
 91
        0
 92
        4
 93
        0
300

 40
0.0
140
1.0
 94
        2
 62
     0
340
11
144
0.18
309
CONTENTFORMAT_END
171
     1
301
MARGIN
  1
CELLMARGIN_BEGIN
 40
0.06
 40
0.06
 40
0.06
 40
0.06
 40
0.06
 40
0.06
309
CELLMARGIN_END
 94
        6
 95
        1
302
GRIDFORMAT
  1
GRIDFORMAT_BEGIN
 90
        0
 91
        1
 62
     0
 92
       -2
340
14
 93
        0
 40
0.045
309
GRIDFORMAT_END
 95
        2
302
GRIDFORMAT
  1
GRIDFORMAT_BEGIN
 90
        0
 91
        1
 62
     0
 92
       -2
340
14
 93
        0
 40
0.045
309
GRIDFORMAT_END
 95
        4
302
GRIDFORMAT
  1
GRIDFORMAT_BEGIN
 90
        0
 91
        1
 62
     0
 92
       -2
340
14
 93
        0
 40
0.045
309
GRIDFORMAT_END
 95
        8
302
GRIDFORMAT
  1
GRIDFORMAT_BEGIN
 90
        0
 91
        1
 62
     0
 92
       -2
340
14
 93
        0
 40
0.045
309
GRIDFORMAT_END
 95
       16
302
GRIDFORMAT
  1
GRIDFORMAT_BEGIN
 90
        0
 91
        1
 62
     0
 92
       -2
340
14
 93
        0
 40
0.045
309
GRIDFORMAT_END
 95
       32
302
GRIDFORMAT
  1
GRIDFORMAT_BEGIN
 90
        0
 91
        1
 62
     0
 92
       -2
340
14
 93
        0
 40
0.045
309
GRIDFORMAT_END
309
TABLEFORMAT_END
  1
CELLSTYLE_BEGIN
 90
        3
 91
        2
300
_DATA
309
CELLSTYLE_END
  0
ENDSEC
  0
EOF