0
SECTION
  2
HEADER
  9
$ACADVER
  1
AC1027
  9
$ACADMAINTVER
 70
     8
  9
$DWGCODEPAGE
  3
ANSI_1252
  9
$REQUIREDVERSIONS
160
                 0
  9
$COMMENTS
  1
File was created by Cadenas
  9
$CUSTOMPROPERTYTAG
  1
NN
  9
$CUSTOMPROPERTY
  1
Imperial - IP Pillow Block with Type E Dimensions 2-1/4 thru 7 inch 4-Bolt Trident Seal Expansion
  9
$CUSTOMPROPERTYTAG
  1
NT
  9
$CUSTOMPROPERTY
  1
Imperial/E 4 Bolt Piliow Block Bearings
  9
$CUSTOMPROPERTYTAG
  1
NB
  9
$CUSTOMPROPERTY
  1
071610
  9
$CUSTOMPROPERTYTAG
  1
NBSYN
  9
$CUSTOMPROPERTY
  1
$PN.
  9
$CUSTOMPROPERTYTAG
  1
LINA
  9
$CUSTOMPROPERTY
  1
071610
  9
$CUSTOMPROPERTYTAG
  1
SS
  9
$CUSTOMPROPERTY
  1
5-7/16
  9
$CUSTOMPROPERTYTAG
  1
TYPE
  9
$CUSTOMPROPERTY
  1
Non-Expansion
  9
$CUSTOMPROPERTYTAG
  1
PN
  9
$CUSTOMPROPERTY
  1
071610
  9
$CUSTOMPROPERTYTAG
  1
DESCRIPTION
  9
$CUSTOMPROPERTY
  1
EP4B-IP-507R
  9
$CUSTOMPROPERTYTAG
  1
ST
  9
$CUSTOMPROPERTY
  1
Contact Seal
  9
$CUSTOMPROPERTYTAG
  1
A
  9
$CUSTOMPROPERTY
  1
6.17
  9
$CUSTOMPROPERTYTAG
  1
B
  9
$CUSTOMPROPERTY
  1
22
  9
$CUSTOMPROPERTYTAG
  1
C
  9
$CUSTOMPROPERTY
  1
6.25
  9
$CUSTOMPROPERTYTAG
  1
DMIN
  9
$CUSTOMPROPERTY
  1
17.38
  9
$CUSTOMPROPERTYTAG
  1
DMAX
  9
$CUSTOMPROPERTY
  1
19.12
  9
$CUSTOMPROPERTYTAG
  1
E
  9
$CUSTOMPROPERTY
  1
3.75
  9
$CUSTOMPROPERTYTAG
  1
F
  9
$CUSTOMPROPERTY
  1
1
  9
$CUSTOMPROPERTYTAG
  1
G
  9
$CUSTOMPROPERTY
  1
2
  9
$CUSTOMPROPERTYTAG
  1
H
  9
$CUSTOMPROPERTY
  1
3.25
  9
$CUSTOMPROPERTYTAG
  1
J
  9
$CUSTOMPROPERTY
  1
13.19
  9
$CUSTOMPROPERTYTAG
  1
L
  9
$CUSTOMPROPERTY
  1
8.75
  9
$CUSTOMPROPERTYTAG
  1
M
  9
$CUSTOMPROPERTY
  1
6.69
  9
$CUSTOMPROPERTYTAG
  1
R
  9
$CUSTOMPROPERTY
  1
1.4
  9
$CUSTOMPROPERTYTAG
  1
S
  9
$CUSTOMPROPERTY
  1
4.77
  9
$CUSTOMPROPERTYTAG
  1
X
  9
$CUSTOMPROPERTY
  1
0.38
  9
$CUSTOMPROPERTYTAG
  1
Y
  9
$CUSTOMPROPERTY
  1
0.036
  9
$CUSTOMPROPERTYTAG
  1
Z
  9
$CUSTOMPROPERTY
  1
5.92
  9
$CUSTOMPROPERTYTAG
  1
COMPANY
  9
$CUSTOMPROPERTY
  1
baldor
  9
$INSBASE
 10
0.0
 20
0.0
 30
0.0
  9
$EXTMIN
 10
1.000000000000000E+20
 20
1.000000000000000E+20
 30
1.000000000000000E+20
  9
$EXTMAX
 10
-1.000000000000000E+20
 20
-1.000000000000000E+20
 30
-1.000000000000000E+20
  9
$LIMMIN
 10
0.0
 20
0.0
  9
$LIMMAX
 10
12.0
 20
9.0
  9
$ORTHOMODE
 70
     0
  9
$REGENMODE
 70
     1
  9
$FILLMODE
 70
     1
  9
$QTEXTMODE
 70
     0
  9
$MIRRTEXT
 70
     1
  9
$LTSCALE
 40
1.0
  9
$ATTMODE
 70
     1
  9
$TEXTSIZE
 40
0.2
  9
$TRACEWID
 40
0.05
  9
$TEXTSTYLE
  7
Standard
  9
$CLAYER
  8
0
  9
$CELTYPE
  6
ByLayer
  9
$CECOLOR
 62
   256
  9
$CELTSCALE
 40
1.0
  9
$DISPSILH
 70
     0
  9
$DIMSCALE
 40
1.0
  9
$DIMASZ
 40
0.18
  9
$DIMEXO
 40
0.0625
  9
$DIMDLI
 40
0.38
  9
$DIMRND
 40
0.0
  9
$DIMDLE
 40
0.0
  9
$DIMEXE
 40
0.18
  9
$DIMTP
 40
0.0
  9
$DIMTM
 40
0.0
  9
$DIMTXT
 40
0.18
  9
$DIMCEN
 40
0.09
  9
$DIMTSZ
 40
0.0
  9
$DIMTOL
 70
     0
  9
$DIMLIM
 70
     0
  9
$DIMTIH
 70
     1
  9
$DIMTOH
 70
     1
  9
$DIMSE1
 70
     0
  9
$DIMSE2
 70
     0
  9
$DIMTAD
 70
     0
  9
$DIMZIN
 70
     0
  9
$DIMBLK
  1

  9
$DIMASO
 70
     1
  9
$DIMSHO
 70
     1
  9
$DIMPOST
  1

  9
$DIMAPOST
  1

  9
$DIMALT
 70
     0
  9
$DIMALTD
 70
     2
  9
$DIMALTF
 40
25.4
  9
$DIMLFAC
 40
1.0
  9
$DIMTOFL
 70
     0
  9
$DIMTVP
 40
0.0
  9
$DIMTIX
 70
     0
  9
$DIMSOXD
 70
     0
  9
$DIMSAH
 70
     0
  9
$DIMBLK1
  1

  9
$DIMBLK2
  1

  9
$DIMSTYLE
  2
Standard
  9
$DIMCLRD
 70
     0
  9
$DIMCLRE
 70
     0
  9
$DIMCLRT
 70
     0
  9
$DIMTFAC
 40
1.0
  9
$DIMGAP
 40
0.09
  9
$DIMJUST
 70
     0
  9
$DIMSD1
 70
     0
  9
$DIMSD2
 70
     0
  9
$DIMTOLJ
 70
     1
  9
$DIMTZIN
 70
     0
  9
$DIMALTZ
 70
     0
  9
$DIMALTTZ
 70
     0
  9
$DIMUPT
 70
     0
  9
$DIMDEC
 70
     4
  9
$DIMTDEC
 70
     4
  9
$DIMALTU
 70
     2
  9
$DIMALTTD
 70
     2
  9
$DIMTXSTY
  7
Standard
  9
$DIMAUNIT
 70
     0
  9
$DIMADEC
 70
     0
  9
$DIMALTRND
 40
0.0
  9
$DIMAZIN
 70
     0
  9
$DIMDSEP
 70
    46
  9
$DIMATFIT
 70
     3
  9
$DIMFRAC
 70
     0
  9
$DIMLDRBLK
  1

  9
$DIMLUNIT
 70
     2
  9
$DIMLWD
 70
    -2
  9
$DIMLWE
 70
    -2
  9
$DIMTMOVE
 70
     0
  9
$DIMFXL
 40
1.0
  9
$DIMFXLON
 70
     0
  9
$DIMJOGANG
 40
0.7853981633974483
  9
$DIMTFILL
 70
     0
  9
$DIMTFILLCLR
 70
     0
  9
$DIMARCSYM
 70
     0
  9
$DIMLTYPE
  6

  9
$DIMLTEX1
  6

  9
$DIMLTEX2
  6

  9
$DIMTXTDIRECTION
 70
     0
  9
$LUNITS
 70
     2
  9
$LUPREC
 70
     4
  9
$SKETCHINC
 40
0.1
  9
$FILLETRAD
 40
0.5
  9
$AUNITS
 70
     0
  9
$AUPREC
 70
     0
  9
$MENU
  1
.
  9
$ELEVATION
 40
0.0
  9
$PELEVATION
 40
0.0
  9
$THICKNESS
 40
0.0
  9
$LIMCHECK
 70
     0
  9
$CHAMFERA
 40
0.0
  9
$CHAMFERB
 40
0.0
  9
$CHAMFERC
 40
0.0
  9
$CHAMFERD
 40
0.0
  9
$SKPOLY
 70
     0
  9
$TDCREATE
 40
2458168.982198229
  9
$TDUCREATE
 40
2458168.940531563
  9
$TDUPDATE
 40
2458168.982198414
  9
$TDUUPDATE
 40
2458168.940531748
  9
$TDINDWG
 40
0.0000000116
  9
$TDUSRTIMER
 40
0.0000000116
  9
$USRTIMER
 70
     1
  9
$ANGBASE
 50
0.0
  9
$ANGDIR
 70
     0
  9
$PDMODE
 70
     0
  9
$PDSIZE
 40
0.0
  9
$PLINEWID
 40
0.0
  9
$SPLFRAME
 70
     0
  9
$SPLINETYPE
 70
     6
  9
$SPLINESEGS
 70
     8
  9
$HANDSEED
  5
275
  9
$SURFTAB1
 70
     6
  9
$SURFTAB2
 70
     6
  9
$SURFTYPE
 70
     6
  9
$SURFU
 70
     6
  9
$SURFV
 70
     6
  9
$UCSBASE
  2

  9
$UCSNAME
  2

  9
$UCSORG
 10
0.0
 20
0.0
 30
0.0
  9
$UCSXDIR
 10
1.0
 20
0.0
 30
0.0
  9
$UCSYDIR
 10
0.0
 20
1.0
 30
0.0
  9
$UCSORTHOREF
  2

  9
$UCSORTHOVIEW
 70
     0
  9
$UCSORGTOP
 10
0.0
 20
0.0
 30
0.0
  9
$UCSORGBOTTOM
 10
0.0
 20
0.0
 30
0.0
  9
$UCSORGLEFT
 10
0.0
 20
0.0
 30
0.0
  9
$UCSORGRIGHT
 10
0.0
 20
0.0
 30
0.0
  9
$UCSORGFRONT
 10
0.0
 20
0.0
 30
0.0
  9
$UCSORGBACK
 10
0.0
 20
0.0
 30
0.0
  9
$PUCSBASE
  2

  9
$PUCSNAME
  2

  9
$PUCSORG
 10
0.0
 20
0.0
 30
0.0
  9
$PUCSXDIR
 10
1.0
 20
0.0
 30
0.0
  9
$PUCSYDIR
 10
0.0
 20
1.0
 30
0.0
  9
$PUCSORTHOREF
  2

  9
$PUCSORTHOVIEW
 70
     0
  9
$PUCSORGTOP
 10
0.0
 20
0.0
 30
0.0
  9
$PUCSORGBOTTOM
 10
0.0
 20
0.0
 30
0.0
  9
$PUCSORGLEFT
 10
0.0
 20
0.0
 30
0.0
  9
$PUCSORGRIGHT
 10
0.0
 20
0.0
 30
0.0
  9
$PUCSORGFRONT
 10
0.0
 20
0.0
 30
0.0
  9
$PUCSORGBACK
 10
0.0
 20
0.0
 30
0.0
  9
$USERI1
 70
     0
  9
$USERI2
 70
     0
  9
$USERI3
 70
     0
  9
$USERI4
 70
     0
  9
$USERI5
 70
     0
  9
$USERR1
 40
0.0
  9
$USERR2
 40
0.0
  9
$USERR3
 40
0.0
  9
$USERR4
 40
0.0
  9
$USERR5
 40
0.0
  9
$WORLDVIEW
 70
     1
  9
$SHADEDGE
 70
     3
  9
$SHADEDIF
 70
    70
  9
$TILEMODE
 70
     1
  9
$MAXACTVP
 70
    64
  9
$PINSBASE
 10
0.0
 20
0.0
 30
0.0
  9
$PLIMCHECK
 70
     0
  9
$PEXTMIN
 10
1.000000000000000E+20
 20
1.000000000000000E+20
 30
1.000000000000000E+20
  9
$PEXTMAX
 10
-1.000000000000000E+20
 20
-1.000000000000000E+20
 30
-1.000000000000000E+20
  9
$PLIMMIN
 10
0.0
 20
0.0
  9
$PLIMMAX
 10
12.0
 20
9.0
  9
$UNITMODE
 70
     0
  9
$VISRETAIN
 70
     1
  9
$PLINEGEN
 70
     0
  9
$PSLTSCALE
 70
     1
  9
$TREEDEPTH
 70
  3020
  9
$CMLSTYLE
  2
Standard
  9
$CMLJUST
 70
     0
  9
$CMLSCALE
 40
1.0
  9
$PROXYGRAPHICS
 70
     1
  9
$MEASUREMENT
 70
     0
  9
$CELWEIGHT
370
    -1
  9
$ENDCAPS
280
     0
  9
$JOINSTYLE
280
     0
  9
$LWDISPLAY
290
     0
  9
$INSUNITS
 70
     1
  9
$HYPERLINKBASE
  1

  9
$STYLESHEET
  1

  9
$XEDIT
290
     1
  9
$CEPSNTYPE
380
     0
  9
$PSTYLEMODE
290
     1
  9
$FINGERPRINTGUID
  2
{2929E644-C50D-45F3-AA4D-718271DCD2B6}
  9
$VERSIONGUID
  2
{FAEB1C32-E019-11D5-929B-00C0DF256EC4}
  9
$EXTNAMES
290
     1
  9
$PSVPSCALE
 40
0.0
  9
$OLESTARTUP
290
     0
  9
$SORTENTS
280
   127
  9
$INDEXCTL
280
     0
  9
$HIDETEXT
280
     1
  9
$XCLIPFRAME
280
     2
  9
$HALOGAP
280
     0
  9
$OBSCOLOR
 70
   257
  9
$OBSLTYPE
280
     0
  9
$INTERSECTIONDISPLAY
280
     0
  9
$INTERSECTIONCOLOR
 70
   257
  9
$DIMASSOC
280
     2
  9
$PROJECTNAME
  1

  9
$CAMERADISPLAY
290
     0
  9
$LENSLENGTH
 40
50.0
  9
$CAMERAHEIGHT
 40
0.0
  9
$STEPSPERSEC
 40
2.0
  9
$STEPSIZE
 40
6.0
  9
$3DDWFPREC
 40
2.0
  9
$PSOLWIDTH
 40
0.25
  9
$PSOLHEIGHT
 40
4.0
  9
$LOFTANG1
 40
1.570796326794897
  9
$LOFTANG2
 40
1.570796326794897
  9
$LOFTMAG1
 40
0.0
  9
$LOFTMAG2
 40
0.0
  9
$LOFTPARAM
 70
     7
  9
$LOFTNORMALS
280
     1
  9
$LATITUDE
 40
37.795
  9
$LONGITUDE
 40
-122.394
  9
$NORTHDIRECTION
 40
0.0
  9
$TIMEZONE
 70
 -8000
  9
$LIGHTGLYPHDISPLAY
280
     1
  9
$TILEMODELIGHTSYNCH
280
     1
  9
$CMATERIAL
347
44
  9
$SOLIDHIST
280
     0
  9
$SHOWHIST
280
     1
  9
$DWFFRAME
280
     2
  9
$DGNFRAME
280
     2
  9
$REALWORLDSCALE
290
     1
  9
$INTERFERECOLOR
 62
   256
  9
$CSHADOW
280
     0
  9
$SHADOWPLANELOCATION
 40
0.0
  0
ENDSEC
  0
SECTION
  2
CLASSES
  0
CLASS
  1
ACDBDICTIONARYWDFLT
  2
AcDbDictionaryWithDefault
  3
ObjectDBX Classes
 90
        0
 91
        4
280
     0
281
     0
  0
CLASS
  1
VISUALSTYLE
  2
AcDbVisualStyle
  3
ObjectDBX Classes
 90
     4095
 91
        4
280
     0
281
     0
  0
CLASS
  1
MATERIAL
  2
AcDbMaterial
  3
ObjectDBX Classes
 90
     1153
 91
        4
280
     0
281
     0
  0
CLASS
  1
SCALE
  2
AcDbScale
  3
ObjectDBX Classes
 90
     1153
 91
        4
280
     0
281
     0
  0
CLASS
  1
TABLESTYLE
  2
AcDbTableStyle
  3
ObjectDBX Classes
 90
     4095
 91
        4
280
     0
281
     0
  0
CLASS
  1
MLEADERSTYLE
  2
AcDbMLeaderStyle
  3
ACDB_MLEADERSTYLE_CLASS
 90
     4095
 91
        4
280
     0
281
     0
  0
CLASS
  1
SUN
  2
AcDbSun
  3
SCENEOE
 90
     1153
 91
        4
280
     0
281
     0
  0
CLASS
  1
DICTIONARYVAR
  2
AcDbDictionaryVar
  3
ObjectDBX Classes
 90
        0
 91
        4
280
     0
281
     0
  0
CLASS
  1
CELLSTYLEMAP
  2
AcDbCellStyleMap
  3
ObjectDBX Classes
 90
     1152
 91
        4
280
     0
281
     0
  0
ENDSEC
  0
SECTION
  2
TABLES
  0
TABLE
  2
VPORT
  5
8
330
0
100
AcDbSymbolTable
 70
     1
  0
VPORT
  5
29
330
8
100
AcDbSymbolTableRecord
100
AcDbViewportTableRecord
  2
*Active
 70
     0
 10
0.0
 20
0.0
 11
1.0
 21
1.0
 12
0.0
 22
-0.8214468749999995
 13
0.0
 23
0.0
 14
0.5
 24
0.5
 15
0.5
 25
0.5
 16
0.0
 26
0.0
 36
1.0
 17
0.0
 27
0.0
 37
0.0
 40
8.688251625
 41
2.582798124242863
 42
50.0
 43
0.0
 44
0.0
 50
0.0
 51
0.0
 71
     0
 72
   100
 73
     1
 74
     3
 75
     0
 76
     0
 77
     0
 78
     0
281
     0
 65
     1
110
0.0
120
0.0
130
0.0
111
1.0
121
0.0
131
0.0
112
0.0
122
1.0
132
0.0
 79
     0
146
0.0
348
2F
 60
     3
 61
     5
292
     1
282
     1
141
0.0
142
0.0
 63
   250
361
6D
  0
ENDTAB
  0
TABLE
  2
LTYPE
  5
5
330
0
100
AcDbSymbolTable
 70
     3
  0
LTYPE
  5
14
330
5
100
AcDbSymbolTableRecord
100
AcDbLinetypeTableRecord
  2
ByBlock
 70
     0
  3

 72
    65
 73
     0
 40
0.0
  0
LTYPE
  5
15
330
5
100
AcDbSymbolTableRecord
100
AcDbLinetypeTableRecord
  2
ByLayer
 70
     0
  3

 72
    65
 73
     0
 40
0.0
  0
LTYPE
  5
16
330
5
100
AcDbSymbolTableRecord
100
AcDbLinetypeTableRecord
  2
Continuous
 70
     0
  3
Solid line
 72
    65
 73
     0
 40
0.0
  0
LTYPE
  5
9B
330
5
100
AcDbSymbolTableRecord
100
AcDbLinetypeTableRecord
  2
Dashed
 70
     0
  3

 72
    65
 73
     2
 40
2.0
 49
1.0
 74
     0
 49
-1.0
 74
     0
  0
LTYPE
  5
20C
330
5
100
AcDbSymbolTableRecord
100
AcDbLinetypeTableRecord
  2
Center
 70
     0
  3

 72
    65
 73
     4
 40
1.5
 49
0.45
 74
     0
 49
-0.5
 74
     0
 49
0.05
 74
     0
 49
-0.5
 74
     0
  0
ENDTAB
  0
TABLE
  2
LAYER
  5
2
330
0
100
AcDbSymbolTable
 70
     7
  0
LAYER
  5
10
330
2
100
AcDbSymbolTableRecord
100
AcDbLayerTableRecord
  2
0
 70
     0
 62
     7
  6
Continuous
370
    -3
390
F
347
46
348
0
  0
LAYER
  5
72
330
2
100
AcDbSymbolTableRecord
100
AcDbLayerTableRecord
  2
AM_6
 70
     0
 62
    -2
  6
Continuous
370
    35
390
F
347
46
348
0
  0
LAYER
  5
9C
330
2
100
AcDbSymbolTableRecord
100
AcDbLayerTableRecord
  2
AM_9
 70
     0
 62
     6
  6
Dashed
370
    25
390
F
347
46
348
0
  0
LAYER
  5
B8
330
2
100
AcDbSymbolTableRecord
100
AcDbLayerTableRecord
  2
AM_4
 70
     0
 62
     7
  6
Continuous
370
    50
390
F
347
46
348
0
  0
LAYER
  5
EB
330
2
100
AcDbSymbolTableRecord
100
AcDbLayerTableRecord
  2
AM_5
 70
     0
 62
     3
  6
Continuous
370
    25
390
F
347
46
348
0
  0
LAYER
  5
20D
330
2
100
AcDbSymbolTableRecord
100
AcDbLayerTableRecord
  2
AM_7
 70
     0
 62
     7
  6
Center
370
    25
390
F
347
46
348
0
  0
LAYER
  5
260
330
2
100
AcDbSymbolTableRecord
100
AcDbLayerTableRecord
  2
ConnectionPoints
 70
     0
 62
     7
  6
Continuous
370
    50
390
F
347
46
348
0
  0
ENDTAB
  0
TABLE
  2
STYLE
  5
3
330
0
100
AcDbSymbolTable
 70
     1
  0
STYLE
  5
11
330
3
100
AcDbSymbolTableRecord
100
AcDbTextStyleTableRecord
  2
Standard
 70
     0
 40
0.0
 41
1.0
 50
0.0
 71
     0
 42
0.2
  3
txt
  4

  0
ENDTAB
  0
TABLE
  2
VIEW
  5
6
330
0
100
AcDbSymbolTable
 70
     0
  0
ENDTAB
  0
TABLE
  2
UCS
  5
7
330
0
100
AcDbSymbolTable
 70
     0
  0
ENDTAB
  0
TABLE
  2
APPID
  5
9
330
0
100
AcDbSymbolTable
 70
     1
  0
APPID
  5
12
330
9
100
AcDbSymbolTableRecord
100
AcDbRegAppTableRecord
  2
ACAD
 70
     0
  0
ENDTAB
  0
TABLE
  2
DIMSTYLE
  5
A
330
0
100
AcDbSymbolTable
 70
     1
100
AcDbDimStyleTable
  0
DIMSTYLE
105
27
330
A
100
AcDbSymbolTableRecord
100
AcDbDimStyleTableRecord
  2
Standard
 70
     0
178
     0
340
11
  0
ENDTAB
  0
TABLE
  2
BLOCK_RECORD
  5
1
330
0
100
AcDbSymbolTable
 70
     8
  0
BLOCK_RECORD
  5
1F
330
1
100
AcDbSymbolTableRecord
100
AcDbBlockTableRecord
  2
*Model_Space
340
22
 70
     0
280
     1
281
     0
  0
BLOCK_RECORD
  5
1B
330
1
100
AcDbSymbolTableRecord
100
AcDbBlockTableRecord
  2
*Paper_Space
340
1E
 70
     0
280
     1
281
     0
  0
BLOCK_RECORD
  5
23
330
1
100
AcDbSymbolTableRecord
100
AcDbBlockTableRecord
  2
*Paper_Space0
340
26
 70
     0
280
     1
281
     0
  0
BLOCK_RECORD
  5
6E
330
1
100
AcDbSymbolTableRecord
100
AcDbBlockTableRecord
  2
1_071610_4
340
0
102
{BLKREFS
331
6F
102
}
 70
     0
280
     1
281
     0
  0
BLOCK_RECORD
  5
8F
330
1
100
AcDbSymbolTableRecord
100
AcDbBlockTableRecord
  2
2_405015E_Inch_0_in_071610_4
340
0
102
{BLKREFS
331
90
102
}
 70
     0
280
     1
281
     0
  0
BLOCK_RECORD
  5
DB
330
1
100
AcDbSymbolTableRecord
100
AcDbBlockTableRecord
  2
3_ASME_B18_3_5_16_1_0_in_071610_4
340
0
102
{BLKREFS
331
DC
102
}
 70
     0
280
     1
281
     0
  0
BLOCK_RECORD
  5
EE
330
1
100
AcDbSymbolTableRecord
100
AcDbBlockTableRecord
  2
4_ASME_B18_3_5_16_2_0_in_071610_4
340
0
102
{BLKREFS
331
EF
102
}
 70
     0
280
     1
281
     0
  0
BLOCK_RECORD
  5
10F
330
1
100
AcDbSymbolTableRecord
100
AcDbBlockTableRecord
  2
5_037925LWE_0_in_071610_4
340
0
102
{BLKREFS
331
110
102
}
 70
     0
280
     1
281
     0
  0
BLOCK_RECORD
  5
148
330
1
100
AcDbSymbolTableRecord
100
AcDbBlockTableRecord
  2
6_037933E_0_in_071610_4
340
0
102
{BLKREFS
331
149
102
}
 70
     0
280
     1
281
     0
  0
BLOCK_RECORD
  5
1C4
330
1
100
AcDbSymbolTableRecord
100
AcDbBlockTableRecord
  2
7_071610H_0_in_071610_4
340
0
102
{BLKREFS
331
1C5
102
}
 70
     0
280
     1
281
     0
  0
ENDTAB
  0
ENDSEC
  0
SECTION
  2
BLOCKS
  0
BLOCK
  5
20
330
1F
100
AcDbEntity
  8
0
100
AcDbBlockBegin
  2
*Model_Space
 70
     0
 10
0.0
 20
0.0
 30
0.0
  3
*Model_Space
  1

  0
ENDBLK
  5
21
330
1F
100
AcDbEntity
  8
0
100
AcDbBlockEnd
  0
BLOCK
  5
1C
330
1B
100
AcDbEntity
 67
     1
  8
0
100
AcDbBlockBegin
  2
*Paper_Space
 70
     0
 10
0.0
 20
0.0
 30
0.0
  3
*Paper_Space
  1

  0
ENDBLK
  5
1D
330
1B
100
AcDbEntity
 67
     1
  8
0
100
AcDbBlockEnd
  0
BLOCK
  5
24
330
23
100
AcDbEntity
  8
0
100
AcDbBlockBegin
  2
*Paper_Space0
 70
     0
 10
0.0
 20
0.0
 30
0.0
  3
*Paper_Space0
  1

  0
ENDBLK
  5
25
330
23
100
AcDbEntity
  8
0
100
AcDbBlockEnd
  0
BLOCK
  5
70
330
6E
100
AcDbEntity
  8
0
100
AcDbBlockBegin
  2
1_071610_4
 70
     2
 10
0.0
 20
0.0
 30
0.0
  3
1_071610_4
  1

  0
ATTDEF
  5
73
330
6E
100
AcDbEntity
  8
AM_6
100
AcDbText
 10
16.0
 20
3.4375
 30
0.0
 40
0.5
  1
Imperial - IP Pillow Block with Type E Dimensions 2-1/4 thru 7 inch 4-Bolt Trident Seal Expansion
100
AcDbAttributeDefinition
  3

  2
NN
 70
     8
280
     0
  0
ATTDEF
  5
74
330
6E
100
AcDbEntity
  8
AM_6
100
AcDbText
 10
16.0
 20
2.9375
 30
0.0
 40
0.5
  1
Imperial/E 4 Bolt Piliow Block Bearings
100
AcDbAttributeDefinition
  3

  2
NT
 70
     8
280
     0
  0
ATTDEF
  5
75
330
6E
100
AcDbEntity
  8
AM_6
100
AcDbText
 10
16.0
 20
2.4375
 30
0.0
 40
0.5
  1
071610
100
AcDbAttributeDefinition
  3

  2
NB
 70
     8
280
     0
  0
ATTDEF
  5
76
330
6E
100
AcDbEntity
  8
AM_6
100
AcDbText
 10
16.0
 20
1.9375
 30
0.0
 40
0.5
  1
$PN.
100
AcDbAttributeDefinition
  3

  2
NBSYN
 70
     8
280
     0
  0
ATTDEF
  5
77
330
6E
100
AcDbEntity
  8
AM_6
100
AcDbText
 10
16.0
 20
1.4375
 30
0.0
 40
0.5
  1
071610
100
AcDbAttributeDefinition
  3

  2
LINA
 70
     8
280
     0
  0
ATTDEF
  5
78
330
6E
100
AcDbEntity
  8
AM_6
100
AcDbText
 10
16.0
 20
0.9375
 30
0.0
 40
0.5
  1
5-7/16
100
AcDbAttributeDefinition
  3

  2
SS
 70
     8
280
     0
  0
ATTDEF
  5
79
330
6E
100
AcDbEntity
  8
AM_6
100
AcDbText
 10
16.0
 20
0.4375
 30
0.0
 40
0.5
  1
Non-Expansion
100
AcDbAttributeDefinition
  3

  2
TYPE
 70
     8
280
     0
  0
ATTDEF
  5
7A
330
6E
100
AcDbEntity
  8
AM_6
100
AcDbText
 10
16.0
 20
-0.0625
 30
0.0
 40
0.5
  1
071610
100
AcDbAttributeDefinition
  3

  2
PN
 70
     8
280
     0
  0
ATTDEF
  5
7B
330
6E
100
AcDbEntity
  8
AM_6
100
AcDbText
 10
16.0
 20
-0.5625
 30
0.0
 40
0.5
  1
EP4B-IP-507R
100
AcDbAttributeDefinition
  3

  2
DESCRIPTION
 70
     8
280
     0
  0
ATTDEF
  5
7C
330
6E
100
AcDbEntity
  8
AM_6
100
AcDbText
 10
16.0
 20
-1.0625
 30
0.0
 40
0.5
  1
Contact Seal
100
AcDbAttributeDefinition
  3

  2
ST
 70
     8
280
     0
  0
ATTDEF
  5
7D
330
6E
100
AcDbEntity
  8
AM_6
100
AcDbText
 10
16.0
 20
-1.5625
 30
0.0
 40
0.5
  1
6.17
100
AcDbAttributeDefinition
  3

  2
A
 70
     8
280
     0
  0
ATTDEF
  5
7E
330
6E
100
AcDbEntity
  8
AM_6
100
AcDbText
 10
16.0
 20
-2.0625
 30
0.0
 40
0.5
  1
22
100
AcDbAttributeDefinition
  3

  2
B
 70
     8
280
     0
  0
ATTDEF
  5
7F
330
6E
100
AcDbEntity
  8
AM_6
100
AcDbText
 10
16.0
 20
-2.5625
 30
0.0
 40
0.5
  1
6.25
100
AcDbAttributeDefinition
  3

  2
C
 70
     8
280
     0
  0
ATTDEF
  5
80
330
6E
100
AcDbEntity
  8
AM_6
100
AcDbText
 10
16.0
 20
-3.0625
 30
0.0
 40
0.5
  1
17.38
100
AcDbAttributeDefinition
  3

  2
DMIN
 70
     8
280
     0
  0
ATTDEF
  5
81
330
6E
100
AcDbEntity
  8
AM_6
100
AcDbText
 10
16.0
 20
-3.5625
 30
0.0
 40
0.5
  1
19.12
100
AcDbAttributeDefinition
  3

  2
DMAX
 70
     8
280
     0
  0
ATTDEF
  5
82
330
6E
100
AcDbEntity
  8
AM_6
100
AcDbText
 10
16.0
 20
-4.0625
 30
0.0
 40
0.5
  1
3.75
100
AcDbAttributeDefinition
  3

  2
E
 70
     8
280
     0
  0
ATTDEF
  5
83
330
6E
100
AcDbEntity
  8
AM_6
100
AcDbText
 10
16.0
 20
-4.5625
 30
0.0
 40
0.5
  1
1
100
AcDbAttributeDefinition
  3

  2
F
 70
     8
280
     0
  0
ATTDEF
  5
84
330
6E
100
AcDbEntity
  8
AM_6
100
AcDbText
 10
16.0
 20
-5.0625
 30
0.0
 40
0.5
  1
2
100
AcDbAttributeDefinition
  3

  2
G
 70
     8
280
     0
  0
ATTDEF
  5
85
330
6E
100
AcDbEntity
  8
AM_6
100
AcDbText
 10
16.0
 20
-5.5625
 30
0.0
 40
0.5
  1
3.25
100
AcDbAttributeDefinition
  3

  2
H
 70
     8
280
     0
  0
ATTDEF
  5
86
330
6E
100
AcDbEntity
  8
AM_6
100
AcDbText
 10
16.0
 20
-6.0625
 30
0.0
 40
0.5
  1
13.19
100
AcDbAttributeDefinition
  3

  2
J
 70
     8
280
     0
  0
ATTDEF
  5
87
330
6E
100
AcDbEntity
  8
AM_6
100
AcDbText
 10
16.0
 20
-6.5625
 30
0.0
 40
0.5
  1
8.75
100
AcDbAttributeDefinition
  3

  2
L
 70
     8
280
     0
  0
ATTDEF
  5
88
330
6E
100
AcDbEntity
  8
AM_6
100
AcDbText
 10
16.0
 20
-7.0625
 30
0.0
 40
0.5
  1
6.69
100
AcDbAttributeDefinition
  3

  2
M
 70
     8
280
     0
  0
ATTDEF
  5
89
330
6E
100
AcDbEntity
  8
AM_6
100
AcDbText
 10
16.0
 20
-7.5625
 30
0.0
 40
0.5
  1
1.4
100
AcDbAttributeDefinition
  3

  2
R
 70
     8
280
     0
  0
ATTDEF
  5
8A
330
6E
100
AcDbEntity
  8
AM_6
100
AcDbText
 10
16.0
 20
-8.0625
 30
0.0
 40
0.5
  1
4.77
100
AcDbAttributeDefinition
  3

  2
S
 70
     8
280
     0
  0
ATTDEF
  5
8B
330
6E
100
AcDbEntity
  8
AM_6
100
AcDbText
 10
16.0
 20
-8.5625
 30
0.0
 40
0.5
  1
0.38
100
AcDbAttributeDefinition
  3

  2
X
 70
     8
280
     0
  0
ATTDEF
  5
8C
330
6E
100
AcDbEntity
  8
AM_6
100
AcDbText
 10
16.0
 20
-9.0625
 30
0.0
 40
0.5
  1
0.036
100
AcDbAttributeDefinition
  3

  2
Y
 70
     8
280
     0
  0
ATTDEF
  5
8D
330
6E
100
AcDbEntity
  8
AM_6
100
AcDbText
 10
16.0
 20
-9.5625
 30
0.0
 40
0.5
  1
5.92
100
AcDbAttributeDefinition
  3

  2
Z
 70
     8
280
     0
  0
ATTDEF
  5
8E
330
6E
100
AcDbEntity
  8
AM_6
100
AcDbText
 10
16.0
 20
-10.0625
 30
0.0
 40
0.5
  1
baldor
100
AcDbAttributeDefinition
  3

  2
COMPANY
 70
     8
280
     0
  0
INSERT
  5
90
330
6E
100
AcDbEntity
  8
0
100
AcDbBlockReference
  2
2_405015E_Inch_0_in_071610_4
 10
0.0
 20
0.0
 30
0.0
  0
INSERT
  5
DC
330
6E
100
AcDbEntity
  8
0
100
AcDbBlockReference
  2
3_ASME_B18_3_5_16_1_0_in_071610_4
 10
0.0
 20
0.0
 30
0.0
  0
INSERT
  5
EF
330
6E
100
AcDbEntity
  8
0
100
AcDbBlockReference
  2
4_ASME_B18_3_5_16_2_0_in_071610_4
 10
0.0
 20
0.0
 30
0.0
  0
INSERT
  5
110
330
6E
100
AcDbEntity
  8
0
100
AcDbBlockReference
  2
5_037925LWE_0_in_071610_4
 10
0.0
 20
0.0
 30
0.0
  0
INSERT
  5
149
330
6E
100
AcDbEntity
  8
0
100
AcDbBlockReference
  2
6_037933E_0_in_071610_4
 10
0.0
 20
0.0
 30
0.0
  0
INSERT
  5
1C5
330
6E
100
AcDbEntity
  8
0
100
AcDbBlockReference
  2
7_071610H_0_in_071610_4
 10
0.0
 20
0.0
 30
0.0
  0
ENDBLK
  5
71
330
6E
100
AcDbEntity
  8
0
100
AcDbBlockEnd
  0
BLOCK
  5
91
330
8F
100
AcDbEntity
  8
0
100
AcDbBlockBegin
  2
2_405015E_Inch_0_in_071610_4
 70
     2
 10
0.0
 20
0.0
 30
0.0
  3
2_405015E_Inch_0_in_071610_4
  1

  0
ATTDEF
  5
93
330
8F
100
AcDbEntity
  8
AM_6
100
AcDbText
 10
1.986150533277439
 20
0.2525907427704616
 30
0.0
 40
0.5
  1
405015E -Inch
100
AcDbAttributeDefinition
  3

  2
NN
 70
     8
280
     0
  0
ATTDEF
  5
94
330
8F
100
AcDbEntity
  8
AM_6
100
AcDbText
 10
1.986150533277439
 20
-0.2474092572295384
 30
0.0
 40
0.5
  1
Grease Fitting
100
AcDbAttributeDefinition
  3

  2
NT
 70
     8
280
     0
  0
ATTDEF
  5
95
330
8F
100
AcDbEntity
  8
AM_6
100
AcDbText
 10
1.986150533277439
 20
-0.7474092572295384
 30
0.0
 40
0.5
  1
405015E-Inch
100
AcDbAttributeDefinition
  3

  2
NB
 70
     8
280
     0
  0
ATTDEF
  5
96
330
8F
100
AcDbEntity
  8
AM_6
100
AcDbText
 10
1.986150533277439
 20
-1.247409257229538
 30
0.0
 40
0.5
  1
$MN.-Inch
100
AcDbAttributeDefinition
  3

  2
NBSYN
 70
     8
280
     0
  0
ATTDEF
  5
97
330
8F
100
AcDbEntity
  8
AM_6
100
AcDbText
 10
1.986150533277439
 20
-1.747409257229538
 30
0.0
 40
0.5
  1
405015E
100
AcDbAttributeDefinition
  3

  2
LINA
 70
     8
280
     0
  0
ATTDEF
  5
98
330
8F
100
AcDbEntity
  8
AM_6
100
AcDbText
 10
1.986150533277439
 20
-2.247409257229538
 30
0.0
 40
0.5
  1
405015E
100
AcDbAttributeDefinition
  3

  2
MN
 70
     8
280
     0
  0
ATTDEF
  5
99
330
8F
100
AcDbEntity
  8
AM_6
100
AcDbText
 10
1.986150533277439
 20
-2.747409257229538
 30
0.0
 40
0.5
  1
1/8 x 27PTF
100
AcDbAttributeDefinition
  3

  2
T
 70
     8
280
     0
  0
ATTDEF
  5
9A
330
8F
100
AcDbEntity
  8
AM_6
100
AcDbText
 10
1.986150533277439
 20
-3.247409257229538
 30
0.0
 40
0.5
  1
baldor
100
AcDbAttributeDefinition
  3

  2
COMPANY
 70
     8
280
     0
  0
ELLIPSE
  5
9D
330
8F
100
AcDbEntity
  8
AM_9
100
AcDbEllipse
 10
-3.167499999999998
 20
0.0000000000000003
 30
0.0
 11
-2.974107518188895E-17
 21
-0.161902872472269
 31
0.0
210
0.0
220
0.0
230
1.0
 40
0.8660254037844397
 41
0.0
 42
6.283185307179586
  0
LWPOLYLINE
  5
9E
330
8F
100
AcDbEntity
  8
AM_9
100
AcDbPolyline
 90
        3
 70
     0
 43
0.0
 10
-3.493976856926151
 20
0.126295371385231
 10
-3.443502502032309
 20
0.1577272497321279
 10
-3.394721528538922
 20
0.1894430570778463
  0
LWPOLYLINE
  5
9F
330
8F
100
AcDbEntity
  8
AM_9
100
AcDbPolyline
 90
        3
 70
     0
 43
0.0
 10
-3.489443057077844
 20
0.0000000000000003
 10
-3.490639747470362
 20
0.0631476856926157
 10
-3.493976856926151
 20
0.126295371385231
  0
LWPOLYLINE
  5
A0
330
8F
100
AcDbEntity
  8
AM_9
100
AcDbPolyline
 90
        3
 70
     0
 43
0.0
 10
-3.394721528538922
 20
-0.1894430570778456
 10
-3.443278983200901
 20
-0.157869214231538
 10
-3.493976856926151
 20
-0.1262953713852303
  0
LWPOLYLINE
  5
A1
330
8F
100
AcDbEntity
  8
AM_9
100
AcDbPolyline
 90
        4
 70
     0
 43
0.0
 10
-3.493976856926151
 20
-0.1262953713852303
 10
-3.492184263336767
 20
-0.0967996321117974
 10
-3.49015597119938
 20
-0.048542441247754
 10
-3.489443057077844
 20
0.0000000000000003
  0
LINE
  5
A2
330
8F
100
AcDbEntity
  8
AM_9
100
AcDbLine
 10
-3.534909257229538
 20
0.126295371385231
 30
0.0
 11
-3.493976856926151
 21
0.126295371385231
 31
0.0
  0
LINE
  5
A3
330
8F
100
AcDbEntity
  8
AM_9
100
AcDbLine
 10
-3.534909257229538
 20
-0.1262953713852303
 30
0.0
 11
-3.493976856926151
 21
-0.1262953713852303
 31
0.0
  0
LWPOLYLINE
  5
A4
330
8F
100
AcDbEntity
  8
AM_9
100
AcDbPolyline
 90
        3
 70
     0
 43
0.0
 10
-3.539443057077845
 20
0.0000000000000003
 10
-3.538734276719276
 20
-0.0483998160558986
 10
-3.537177270281704
 20
-0.0876643906215054
  0
LWPOLYLINE
  5
A5
330
8F
100
AcDbEntity
  8
AM_9
100
AcDbPolyline
 90
        3
 70
     0
 43
0.0
 10
-3.537168054366514
 20
0.0878491423263093
 10
-3.538235794603035
 20
0.0634316146914371
 10
-3.539443057077845
 20
0.0000000000000003
  0
LWPOLYLINE
  5
A6
330
8F
100
AcDbEntity
  8
AM_9
100
AcDbPolyline
 90
        3
 70
     0
 43
0.0
 10
-3.304533799848306
 20
-0.2525907427704608
 10
-3.348355079995154
 20
-0.2211588644235639
 10
-3.394721528538922
 20
-0.1894430570778456
  0
LWPOLYLINE
  5
A7
330
8F
100
AcDbEntity
  8
AM_9
100
AcDbPolyline
 90
        3
 70
     0
 43
0.0
 10
-3.394721528538922
 20
0.1894430570778463
 10
-3.348557454661977
 20
0.2210168999241539
 10
-3.304533799848306
 20
0.2525907427704616
  0
LINE
  5
A8
330
8F
100
AcDbEntity
  8
AM_9
100
AcDbLine
 10
-3.176546710626153
 20
0.1983264404626883
 30
0.0
 11
-3.290354897832289
 21
0.2054502516015138
 31
0.0
  0
LINE
  5
A9
330
8F
100
AcDbEntity
  8
AM_9
100
AcDbLine
 10
-3.290354897832289
 20
-0.2054502516015131
 30
0.0
 11
-3.176546710626153
 21
-0.1983264404626876
 31
0.0
  0
ELLIPSE
  5
AA
330
8F
100
AcDbEntity
  8
AM_9
100
AcDbEllipse
 10
-3.349999999999984
 20
-0.0000000000000003
 30
0.0
 11
1.339457436567456E-17
 21
0.2187500000000063
 31
0.0
210
0.0
220
0.0
230
1.0
 40
0.86602540378448
 41
1.032970329614988
 42
2.108622323974799
  0
ELLIPSE
  5
AB
330
8F
100
AcDbEntity
  8
AM_9
100
AcDbEllipse
 10
-3.349999999999999
 20
0.0000000000000003
 30
0.0
 11
1.308841266588730E-17
 21
0.2137499999999994
 31
0.0
210
0.0
220
0.0
230
1.0
 40
0.8660254037844435
 41
0.9862868522350041
 42
2.155305801354789
  0
ELLIPSE
  5
AC
330
8F
100
AcDbEntity
  8
AM_9
100
AcDbEllipse
 10
-3.359159099270441
 20
0.0000000000000004
 30
0.0
 11
1.056466380484820E-17
 21
0.1725340532830156
 31
0.0
210
0.0
220
0.0
230
1.0
 40
0.8660254037844318
 41
0.6732704101477012
 42
2.468322243442092
  0
LINE
  5
AD
330
8F
100
AcDbEntity
  8
AM_9
100
AcDbLine
 10
-3.469999999999999
 20
-0.0703562363973513
 30
0.0
 11
-3.462760904853147
 21
-0.0796165180238017
 31
0.0
  0
LINE
  5
AE
330
8F
100
AcDbEntity
  8
AM_9
100
AcDbLine
 10
-3.462760904853147
 20
0.0796165180238025
 30
0.0
 11
-3.469999999999999
 21
0.070356236397352
 31
0.0
  0
ELLIPSE
  5
AF
330
8F
100
AcDbEntity
  8
AM_9
100
AcDbEllipse
 10
-3.386376560809282
 20
0.0000000000000026
 30
0.0
 11
7.275632189644661E-18
 21
0.1188200907348999
 31
0.0
210
0.0
220
0.0
230
1.0
 40
0.8660254037844417
 41
0.0521714424098194
 42
3.089421211179974
  0
LINE
  5
B0
330
8F
100
AcDbEntity
  8
AM_9
100
AcDbLine
 10
-3.402499999999999
 20
0.1050000000000004
 30
0.0
 11
-3.417499999999999
 21
0.1050000000000004
 31
0.0
  0
LINE
  5
B1
330
8F
100
AcDbEntity
  8
AM_9
100
AcDbLine
 10
-3.417499999999999
 20
-0.1049999999999996
 30
0.0
 11
-3.402499999999999
 21
-0.1049999999999996
 31
0.0
  0
ELLIPSE
  5
B2
330
8F
100
AcDbEntity
  8
AM_9
100
AcDbEllipse
 10
-3.417499999999999
 20
0.0000000000000016
 30
0.0
 11
6.429395695523693E-18
 21
0.1050000000000014
 31
0.0
210
0.0
220
0.0
230
1.0
 40
0.866025403784433
 41
5.235987755982976
 42
10.47197551196597
  0
ELLIPSE
  5
B3
330
8F
100
AcDbEntity
  8
AM_9
100
AcDbEllipse
 10
-3.402500000000006
 20
-0.0000000000000047
 30
0.0
 11
6.429395695523917E-18
 21
0.1050000000000051
 31
0.0
210
0.0
220
0.0
230
1.0
 40
0.8660254037844494
 41
5.858105981271488
 42
9.849857286677516
  0
ELLIPSE
  5
B4
330
8F
100
AcDbEntity
  8
AM_9
100
AcDbEllipse
 10
-3.447499999999999
 20
0.0000000000000004
 30
0.0
 11
8.266365894244543E-18
 21
0.1349999999999985
 31
0.0
210
0.0
220
0.0
230
1.0
 40
0.8660254037844474
 41
0.775109010715112
 42
2.366483642874681
  0
ELLIPSE
  5
B5
330
8F
100
AcDbEntity
  8
AM_9
100
AcDbEllipse
 10
-3.299999999999995
 20
0.0000000000000026
 30
0.0
 11
1.339457436567396E-17
 21
0.2187499999999964
 31
0.0
210
0.0
220
0.0
230
1.0
 40
0.8660254037844338
 41
0.0
 42
6.283185307179586
  0
ELLIPSE
  5
B6
330
8F
100
AcDbEntity
  8
AM_9
100
AcDbEllipse
 10
-3.299999999999999
 20
0.0000000000000001
 30
0.0
 11
1.259867011763636E-17
 21
0.2057518972230695
 31
0.0
210
0.0
220
0.0
230
1.0
 40
0.8660254037844252
 41
0.0
 42
6.283185307179586
  0
ELLIPSE
  5
B7
330
8F
100
AcDbEntity
  8
AM_9
100
AcDbEllipse
 10
-3.185857377154472
 20
0.0000000000000003
 30
0.0
 11
1.216182204459295E-17
 21
0.1986176267812154
 31
0.0
210
0.0
220
0.0
230
1.0
 40
0.8660254037844441
 41
0.0
 42
6.283185307179586
  0
LWPOLYLINE
  5
B9
330
8F
100
AcDbEntity
  8
AM_4
100
AcDbPolyline
 90
        3
 70
     0
 43
0.0
 10
-3.534909257229538
 20
-0.1262953713852303
 10
-3.491087977082689
 20
-0.1577272497321273
 10
-3.444721528538921
 20
-0.1894430570778456
  0
LINE
  5
BA
330
8F
100
AcDbEntity
  8
AM_4
100
AcDbLine
 10
-3.537177270281704
 20
-0.0876643906215054
 30
0.0
 11
-3.534909257229538
 21
-0.1262953713852303
 31
0.0
  0
LWPOLYLINE
  5
BB
330
8F
100
AcDbEntity
  8
AM_4
100
AcDbPolyline
 90
        3
 70
     0
 43
0.0
 10
-3.444721528538921
 20
0.1894430570778463
 10
-3.490885602415866
 20
0.1578692142315387
 10
-3.534909257229538
 20
0.126295371385231
  0
LINE
  5
BC
330
8F
100
AcDbEntity
  8
AM_4
100
AcDbLine
 10
-3.534909257229538
 20
0.126295371385231
 30
0.0
 11
-3.537168054366514
 21
0.0878491423263093
 31
0.0
  0
LWPOLYLINE
  5
BD
330
8F
100
AcDbEntity
  8
AM_4
100
AcDbPolyline
 90
        3
 70
     0
 43
0.0
 10
-3.444721528538921
 20
-0.1894430570778456
 10
-3.396164073876943
 20
-0.2210168999241532
 10
-3.345466200151692
 20
-0.2525907427704608
  0
LWPOLYLINE
  5
BE
330
8F
100
AcDbEntity
  8
AM_4
100
AcDbPolyline
 90
        3
 70
     0
 43
0.0
 10
-3.345466200151692
 20
0.2525907427704616
 10
-3.395940555045534
 20
0.2211588644235647
 10
-3.444721528538921
 20
0.1894430570778463
  0
LINE
  5
BF
330
8F
100
AcDbEntity
  8
AM_4
100
AcDbLine
 10
-3.345466200151692
 20
0.2525907427704616
 30
0.0
 11
-3.304533799848306
 21
0.2525907427704616
 31
0.0
  0
LWPOLYLINE
  5
C0
330
8F
100
AcDbEntity
  8
AM_4
100
AcDbPolyline
 90
        3
 70
     0
 43
0.0
 10
-3.255278471461076
 20
0.1894430570778463
 10
-3.30144254533802
 20
0.2210168999241539
 10
-3.345466200151692
 20
0.2525907427704616
  0
LWPOLYLINE
  5
C1
330
8F
100
AcDbEntity
  8
AM_4
100
AcDbPolyline
 90
        3
 70
     0
 43
0.0
 10
-3.205278471461076
 20
0.1894430570778463
 10
-3.159114397584132
 20
0.1578692142315386
 10
-3.11509074277046
 20
0.126295371385231
  0
LWPOLYLINE
  5
C2
330
8F
100
AcDbEntity
  8
AM_4
100
AcDbPolyline
 90
        3
 70
     0
 43
0.0
 10
-3.304533799848306
 20
0.2525907427704616
 10
-3.254059444954463
 20
0.2211588644235646
 10
-3.205278471461076
 20
0.1894430570778463
  0
ELLIPSE
  5
C3
330
8F
100
AcDbEntity
  8
AM_4
100
AcDbEllipse
 10
-3.350000000000001
 20
0.0000000000000017
 30
0.0
 11
1.339457436567431E-17
 21
0.2187500000000022
 31
0.0
210
0.0
220
0.0
230
1.0
 40
0.8660254037844415
 41
2.108622323974836
 42
7.316155636794555
  0
LWPOLYLINE
  5
C4
330
8F
100
AcDbEntity
  8
AM_4
100
AcDbPolyline
 90
        3
 70
     0
 43
0.0
 10
-3.156023143073845
 20
0.126295371385231
 10
-3.206497497967688
 20
0.1577272497321279
 10
-3.255278471461076
 20
0.1894430570778463
  0
LINE
  5
C5
330
8F
100
AcDbEntity
  8
AM_4
100
AcDbLine
 10
-3.156023143073845
 20
0.126295371385231
 30
0.0
 11
-3.11509074277046
 21
0.126295371385231
 31
0.0
  0
LWPOLYLINE
  5
C6
330
8F
100
AcDbEntity
  8
AM_4
100
AcDbPolyline
 90
        3
 70
     0
 43
0.0
 10
-3.160556942922153
 20
0.0000000000000004
 10
-3.159360252529635
 20
0.0631476856926157
 10
-3.156023143073845
 20
0.126295371385231
  0
LWPOLYLINE
  5
C7
330
8F
100
AcDbEntity
  8
AM_4
100
AcDbPolyline
 90
        4
 70
     0
 43
0.0
 10
-3.156023143073845
 20
-0.1262953713852303
 10
-3.157815736663231
 20
-0.0967996321117975
 10
-3.159844028800617
 20
-0.048542441247754
 10
-3.160556942922153
 20
0.0000000000000004
  0
LWPOLYLINE
  5
C8
330
8F
100
AcDbEntity
  8
AM_4
100
AcDbPolyline
 90
        4
 70
     0
 43
0.0
 10
-3.110556942922153
 20
0.0000000000000004
 10
-3.111265723280721
 20
-0.0483998160558985
 10
-3.113298149181075
 20
-0.0967996321117974
 10
-3.11509074277046
 20
-0.1262953713852303
  0
LWPOLYLINE
  5
C9
330
8F
100
AcDbEntity
  8
AM_4
100
AcDbPolyline
 90
        3
 70
     0
 43
0.0
 10
-3.11509074277046
 20
0.126295371385231
 10
-3.111764205396963
 20
0.0634316146914371
 10
-3.110556942922153
 20
0.0000000000000004
  0
LINE
  5
CA
330
8F
100
AcDbEntity
  8
AM_4
100
AcDbLine
 10
-3.156023143073845
 20
-0.1262953713852303
 30
0.0
 11
-3.11509074277046
 21
-0.1262953713852303
 31
0.0
  0
LWPOLYLINE
  5
CB
330
8F
100
AcDbEntity
  8
AM_4
100
AcDbPolyline
 90
        3
 70
     0
 43
0.0
 10
-3.255278471461076
 20
-0.1894430570778456
 10
-3.206721016799097
 20
-0.157869214231538
 10
-3.156023143073845
 20
-0.1262953713852303
  0
LWPOLYLINE
  5
CC
330
8F
100
AcDbEntity
  8
AM_4
100
AcDbPolyline
 90
        3
 70
     0
 43
0.0
 10
-3.345466200151692
 20
-0.2525907427704608
 10
-3.301644920004843
 20
-0.221158864423564
 10
-3.255278471461076
 20
-0.1894430570778456
  0
LINE
  5
CD
330
8F
100
AcDbEntity
  8
AM_4
100
AcDbLine
 10
-3.345466200151692
 20
-0.2525907427704608
 30
0.0
 11
-3.304533799848306
 21
-0.2525907427704608
 31
0.0
  0
LWPOLYLINE
  5
CE
330
8F
100
AcDbEntity
  8
AM_4
100
AcDbPolyline
 90
        3
 70
     0
 43
0.0
 10
-3.205278471461076
 20
-0.1894430570778456
 10
-3.253835926123054
 20
-0.2210168999241532
 10
-3.304533799848306
 20
-0.2525907427704608
  0
LWPOLYLINE
  5
CF
330
8F
100
AcDbEntity
  8
AM_4
100
AcDbPolyline
 90
        3
 70
     0
 43
0.0
 10
-3.11509074277046
 20
-0.1262953713852303
 10
-3.158912022917308
 20
-0.1577272497321273
 10
-3.205278471461076
 20
-0.1894430570778456
  0
ELLIPSE
  5
D0
330
8F
100
AcDbEntity
  8
AM_4
100
AcDbEllipse
 10
-3.349999999999999
 20
0.0000000000000004
 30
0.0
 11
1.308841266588734E-17
 21
0.21375
 31
0.0
210
0.0
220
0.0
230
1.0
 40
0.8660254037844388
 41
2.155305801354786
 42
7.269472159414593
  0
ELLIPSE
  5
D1
330
8F
100
AcDbEntity
  8
AM_4
100
AcDbEllipse
 10
-3.35915909927044
 20
0.0000000000000005
 30
0.0
 11
1.056466380484817E-17
 21
0.1725340532830152
 31
0.0
210
0.0
220
0.0
230
1.0
 40
0.8660254037844385
 41
2.468322243442089
 42
6.956455717327291
  0
ELLIPSE
  5
D2
330
8F
100
AcDbEntity
  8
AM_4
100
AcDbEllipse
 10
-3.386376560808308
 20
0.0000000000000186
 30
0.0
 11
7.275632189643399E-18
 21
0.1188200907348793
 31
0.0
210
0.0
220
0.0
230
1.0
 40
0.8660254037847153
 41
3.089421211170548
 42
6.33535674959885
  0
ELLIPSE
  5
D3
330
8F
100
AcDbEntity
  8
AM_4
100
AcDbEllipse
 10
-3.4025
 20
0.0000000000000004
 30
0.0
 11
6.429395695523638E-18
 21
0.1050000000000006
 31
0.0
210
0.0
220
0.0
230
1.0
 40
0.8660254037844488
 41
3.566671979497858
 42
5.858105981271521
  0
LINE
  5
D4
330
8F
100
AcDbEntity
  8
AM_4
100
AcDbLine
 10
-3.338749999999999
 20
0.0525000000000005
 30
0.0
 11
-3.346249999999999
 21
0.0675000000000006
 31
0.0
  0
LINE
  5
D5
330
8F
100
AcDbEntity
  8
AM_4
100
AcDbLine
 10
-3.346249999999999
 20
-0.0674999999999999
 30
0.0
 11
-3.338749999999999
 21
-0.0524999999999998
 31
0.0
  0
ELLIPSE
  5
D6
330
8F
100
AcDbEntity
  8
AM_4
100
AcDbEllipse
 10
-3.417499999999999
 20
0.0000000000000004
 30
0.0
 11
6.429395695523650E-18
 21
0.1050000000000007
 31
0.0
210
0.0
220
0.0
230
1.0
 40
0.8660254037844346
 41
4.188790204786393
 42
5.235987755982985
  0
ELLIPSE
  5
D7
330
8F
100
AcDbEntity
  8
AM_4
100
AcDbEllipse
 10
-3.4475
 20
0.0000000000000048
 30
0.0
 11
8.266365894244363E-18
 21
0.1349999999999956
 31
0.0
210
0.0
220
0.0
230
1.0
 40
0.86602540378444
 41
2.366483642874705
 42
7.058294317894719
  0
LINE
  5
D8
330
8F
100
AcDbEntity
  8
AM_4
100
AcDbLine
 10
-3.549726847792106
 20
-0.0733474205218684
 30
0.0
 11
-3.529315310731618
 21
-0.0964365416902988
 31
0.0
  0
LINE
  5
D9
330
8F
100
AcDbEntity
  8
AM_4
100
AcDbLine
 10
-3.529315310731618
 20
0.0964365416902996
 30
0.0
 11
-3.549726847792106
 21
0.0733474205218692
 31
0.0
  0
ELLIPSE
  5
DA
330
8F
100
AcDbEntity
  8
AM_4
100
AcDbEllipse
 10
-3.487499999999999
 20
-0.0000000000000027
 30
0.0
 11
6.287208197282382E-18
 21
0.1026779019331906
 31
0.0
210
0.0
220
0.0
230
1.0
 40
0.8660254037844314
 41
0.0
 42
6.283185307179586
  0
ENDBLK
  5
92
330
8F
100
AcDbEntity
  8
0
100
AcDbBlockEnd
  0
BLOCK
  5
DD
330
DB
100
AcDbEntity
  8
0
100
AcDbBlockBegin
  2
3_ASME_B18_3_5_16_1_0_in_071610_4
 70
     2
 10
0.0
 20
0.0
 30
0.0
  3
3_ASME_B18_3_5_16_1_0_in_071610_4
  1

  0
ATTDEF
  5
DF
330
DB
100
AcDbEntity
  8
AM_6
100
AcDbText
 10
5.15625
 20
-4.3005
 30
0.0
 40
0.5
  1
ANSI/ASME B18.3-1998
100
AcDbAttributeDefinition
  3

  2
NN
 70
     8
280
     0
  0
ATTDEF
  5
E0
330
DB
100
AcDbEntity
  8
AM_6
100
AcDbText
 10
5.15625
 20
-4.8005
 30
0.0
 40
0.5
  1
Socket Button Head Cap Screws
100
AcDbAttributeDefinition
  3

  2
NT
 70
     8
280
     0
  0
ATTDEF
  5
E1
330
DB
100
AcDbEntity
  8
AM_6
100
AcDbText
 10
5.15625
 20
-5.3005
 30
0.0
 40
0.5
  1
ASME B18.3-5/16
100
AcDbAttributeDefinition
  3

  2
NB
 70
     8
280
     0
  0
ATTDEF
  5
E2
330
DB
100
AcDbEntity
  8
AM_6
100
AcDbText
 10
5.15625
 20
-5.8005
 30
0.0
 40
0.5
  1
ASME B18.3-$NS.
100
AcDbAttributeDefinition
  3

  2
NBSYN
 70
     8
280
     0
  0
ATTDEF
  5
E3
330
DB
100
AcDbEntity
  8
AM_6
100
AcDbText
 10
5.15625
 20
-6.3005
 30
0.0
 40
0.5
  1
ASME B18.3-5/16
100
AcDbAttributeDefinition
  3

  2
LINA
 70
     8
280
     0
  0
ATTDEF
  5
E4
330
DB
100
AcDbEntity
  8
AM_6
100
AcDbText
 10
5.15625
 20
-6.8005
 30
0.0
 40
0.5
  1
5/16
100
AcDbAttributeDefinition
  3

  2
NS
 70
     8
280
     0
  0
ATTDEF
  5
E5
330
DB
100
AcDbEntity
  8
AM_6
100
AcDbText
 10
5.15625
 20
-7.3005
 30
0.0
 40
0.5
  1
0.547
100
AcDbAttributeDefinition
  3

  2
A
 70
     8
280
     0
  0
ATTDEF
  5
E6
330
DB
100
AcDbEntity
  8
AM_6
100
AcDbText
 10
5.15625
 20
-7.8005
 30
0.0
 40
0.5
  1
0.166
100
AcDbAttributeDefinition
  3

  2
H
 70
     8
280
     0
  0
ATTDEF
  5
E7
330
DB
100
AcDbEntity
  8
AM_6
100
AcDbText
 10
5.15625
 20
-8.3005
 30
0.0
 40
0.5
  1
1.000
100
AcDbAttributeDefinition
  3

  2
L
 70
     8
280
     0
  0
ATTDEF
  5
E8
330
DB
100
AcDbEntity
  8
AM_6
100
AcDbText
 10
5.15625
 20
-8.8005
 30
0.0
 40
0.5
  1
0.031
100
AcDbAttributeDefinition
  3

  2
S
 70
     8
280
     0
  0
ATTDEF
  5
E9
330
DB
100
AcDbEntity
  8
AM_6
100
AcDbText
 10
5.15625
 20
-9.3005
 30
0.0
 40
0.5
  1
0.187500
100
AcDbAttributeDefinition
  3

  2
J
 70
     8
280
     0
  0
ATTDEF
  5
EA
330
DB
100
AcDbEntity
  8
AM_6
100
AcDbText
 10
5.15625
 20
-9.8005
 30
0.0
 40
0.5
  1
baldor
100
AcDbAttributeDefinition
  3

  2
COMPANY
 70
     8
280
     0
  0
LINE
  5
EC
330
DB
100
AcDbEntity
  8
AM_5
100
AcDbLine
 10
0.15625
 20
-4.3005
 30
0.0
 11
-0.15625
 21
-4.3005
 31
0.0
  0
LINE
  5
ED
330
DB
100
AcDbEntity
  8
AM_5
100
AcDbLine
 10
0.13765
 20
-4.3005
 30
0.0
 11
0.1562500000000001
 21
-4.332716145020782
 31
0.0
  0
ENDBLK
  5
DE
330
DB
100
AcDbEntity
  8
0
100
AcDbBlockEnd
  0
BLOCK
  5
F0
330
EE
100
AcDbEntity
  8
0
100
AcDbBlockBegin
  2
4_ASME_B18_3_5_16_2_0_in_071610_4
 70
     2
 10
0.0
 20
0.0
 30
0.0
  3
4_ASME_B18_3_5_16_2_0_in_071610_4
  1

  0
ATTDEF
  5
F2
330
EE
100
AcDbEntity
  8
AM_6
100
AcDbText
 10
5.2735
 20
-3.3805
 30
0.0
 40
0.5
  1
ANSI/ASME B18.3-1998
100
AcDbAttributeDefinition
  3

  2
NN
 70
     8
280
     0
  0
ATTDEF
  5
F3
330
EE
100
AcDbEntity
  8
AM_6
100
AcDbText
 10
5.2735
 20
-3.8805
 30
0.0
 40
0.5
  1
Socket Button Head Cap Screws
100
AcDbAttributeDefinition
  3

  2
NT
 70
     8
280
     0
  0
ATTDEF
  5
F4
330
EE
100
AcDbEntity
  8
AM_6
100
AcDbText
 10
5.2735
 20
-4.3805
 30
0.0
 40
0.5
  1
ASME B18.3-5/16
100
AcDbAttributeDefinition
  3

  2
NB
 70
     8
280
     0
  0
ATTDEF
  5
F5
330
EE
100
AcDbEntity
  8
AM_6
100
AcDbText
 10
5.2735
 20
-4.8805
 30
0.0
 40
0.5
  1
ASME B18.3-$NS.
100
AcDbAttributeDefinition
  3

  2
NBSYN
 70
     8
280
     0
  0
ATTDEF
  5
F6
330
EE
100
AcDbEntity
  8
AM_6
100
AcDbText
 10
5.2735
 20
-5.3805
 30
0.0
 40
0.5
  1
ASME B18.3-5/16
100
AcDbAttributeDefinition
  3

  2
LINA
 70
     8
280
     0
  0
ATTDEF
  5
F7
330
EE
100
AcDbEntity
  8
AM_6
100
AcDbText
 10
5.2735
 20
-5.8805
 30
0.0
 40
0.5
  1
5/16
100
AcDbAttributeDefinition
  3

  2
NS
 70
     8
280
     0
  0
ATTDEF
  5
F8
330
EE
100
AcDbEntity
  8
AM_6
100
AcDbText
 10
5.2735
 20
-6.3805
 30
0.0
 40
0.5
  1
0.547
100
AcDbAttributeDefinition
  3

  2
A
 70
     8
280
     0
  0
ATTDEF
  5
F9
330
EE
100
AcDbEntity
  8
AM_6
100
AcDbText
 10
5.2735
 20
-6.8805
 30
0.0
 40
0.5
  1
0.166
100
AcDbAttributeDefinition
  3

  2
H
 70
     8
280
     0
  0
ATTDEF
  5
FA
330
EE
100
AcDbEntity
  8
AM_6
100
AcDbText
 10
5.2735
 20
-7.3805
 30
0.0
 40
0.5
  1
1.000
100
AcDbAttributeDefinition
  3

  2
L
 70
     8
280
     0
  0
ATTDEF
  5
FB
330
EE
100
AcDbEntity
  8
AM_6
100
AcDbText
 10
5.2735
 20
-7.8805
 30
0.0
 40
0.5
  1
0.031
100
AcDbAttributeDefinition
  3

  2
S
 70
     8
280
     0
  0
ATTDEF
  5
FC
330
EE
100
AcDbEntity
  8
AM_6
100
AcDbText
 10
5.2735
 20
-8.3805
 30
0.0
 40
0.5
  1
0.187500
100
AcDbAttributeDefinition
  3

  2
J
 70
     8
280
     0
  0
ATTDEF
  5
FD
330
EE
100
AcDbEntity
  8
AM_6
100
AcDbText
 10
5.2735
 20
-8.8805
 30
0.0
 40
0.5
  1
baldor
100
AcDbAttributeDefinition
  3

  2
COMPANY
 70
     8
280
     0
  0
LINE
  5
FE
330
EE
100
AcDbEntity
  8
AM_9
100
AcDbLine
 10
0.0
 20
-4.442499999999999
 30
0.0
 11
0.0
 21
-4.546499999999999
 31
0.0
  0
LINE
  5
FF
330
EE
100
AcDbEntity
  8
AM_9
100
AcDbLine
 10
0.09375
 20
-4.442499999999999
 30
0.0
 11
0.09375
 21
-4.546499999999999
 31
0.0
  0
LINE
  5
100
330
EE
100
AcDbEntity
  8
AM_9
100
AcDbLine
 10
-0.09375
 20
-4.442499999999999
 30
0.0
 11
-0.09375
 21
-4.546499999999999
 31
0.0
  0
LINE
  5
101
330
EE
100
AcDbEntity
  8
AM_9
100
AcDbLine
 10
-0.09375
 20
-4.442499999999999
 30
0.0
 11
0.09375
 21
-4.442499999999999
 31
0.0
  0
LINE
  5
102
330
EE
100
AcDbEntity
  8
AM_9
100
AcDbLine
 10
0.15625
 20
-4.3805
 30
0.0
 11
0.15625
 21
-3.399099999999999
 31
0.0
  0
LINE
  5
103
330
EE
100
AcDbEntity
  8
AM_9
100
AcDbLine
 10
-0.15625
 20
-3.399099999999999
 30
0.0
 11
-0.15625
 21
-4.3805
 31
0.0
  0
LINE
  5
104
330
EE
100
AcDbEntity
  8
AM_9
100
AcDbLine
 10
-0.13765
 20
-3.3805
 30
0.0
 11
-0.15625
 21
-3.399099999999999
 31
0.0
  0
LINE
  5
105
330
EE
100
AcDbEntity
  8
AM_9
100
AcDbLine
 10
0.15625
 20
-3.399099999999999
 30
0.0
 11
0.13765
 21
-3.3805
 31
0.0
  0
LINE
  5
106
330
EE
100
AcDbEntity
  8
AM_9
100
AcDbLine
 10
-0.13765
 20
-3.3805
 30
0.0
 11
0.13765
 21
-3.3805
 31
0.0
  0
LINE
  5
107
330
EE
100
AcDbEntity
  8
AM_9
100
AcDbLine
 10
-0.15625
 20
-3.399099999999999
 30
0.0
 11
0.15625
 21
-3.399099999999999
 31
0.0
  0
LINE
  5
108
330
EE
100
AcDbEntity
  8
AM_5
100
AcDbLine
 10
-0.1562500000000001
 20
-4.3005
 30
0.0
 11
0.1562499999999996
 21
-4.3005
 31
0.0
  0
LINE
  5
109
330
EE
100
AcDbEntity
  8
AM_4
100
AcDbLine
 10
-0.1384999833172092
 20
-4.546499999999999
 30
0.0
 11
0.1385
 21
-4.546499999999999
 31
0.0
  0
ARC
  5
10A
330
EE
100
AcDbEntity
  8
AM_4
100
AcDbCircle
 10
0.1384999999999994
 20
-4.411499999999998
 30
0.0
 40
0.1350000000000007
100
AcDbArc
 50
270.0
 51
0.0
  0
ARC
  5
10B
330
EE
100
AcDbEntity
  8
AM_4
100
AcDbCircle
 10
-0.1384999999999993
 20
-4.411499999999998
 30
0.0
 40
0.1350000000000007
100
AcDbArc
 50
180.0
 51
270.0
  0
LINE
  5
10C
330
EE
100
AcDbEntity
  8
AM_4
100
AcDbLine
 10
0.2735
 20
-4.411499999999999
 30
0.0
 11
0.2735
 21
-4.3805
 31
0.0
  0
LINE
  5
10D
330
EE
100
AcDbEntity
  8
AM_4
100
AcDbLine
 10
-0.2735
 20
-4.3805
 30
0.0
 11
-0.2735
 21
-4.411499999999999
 31
0.0
  0
LINE
  5
10E
330
EE
100
AcDbEntity
  8
AM_4
100
AcDbLine
 10
-0.2735
 20
-4.411499999999999
 30
0.0
 11
0.2735
 21
-4.411499999999999
 31
0.0
  0
ENDBLK
  5
F1
330
EE
100
AcDbEntity
  8
0
100
AcDbBlockEnd
  0
BLOCK
  5
111
330
10F
100
AcDbEntity
  8
0
100
AcDbBlockBegin
  2
5_037925LWE_0_in_071610_4
 70
     2
 10
0.0
 20
0.0
 30
0.0
  3
5_037925LWE_0_in_071610_4
  1

  0
ATTDEF
  5
113
330
10F
100
AcDbEntity
  8
AM_6
100
AcDbText
 10
9.375
 20
-3.380499999999999
 30
0.0
 40
0.5
  1
Imperial/E Insert Lockwasher -Inch
100
AcDbAttributeDefinition
  3

  2
NN
 70
     8
280
     0
  0
ATTDEF
  5
114
330
10F
100
AcDbEntity
  8
AM_6
100
AcDbText
 10
9.375
 20
-3.880499999999999
 30
0.0
 40
0.5
  1
Imperial/E Bearings
100
AcDbAttributeDefinition
  3

  2
NT
 70
     8
280
     0
  0
ATTDEF
  5
115
330
10F
100
AcDbEntity
  8
AM_6
100
AcDbText
 10
9.375
 20
-4.3805
 30
0.0
 40
0.5
  1
037925LWE
100
AcDbAttributeDefinition
  3

  2
NB
 70
     8
280
     0
  0
ATTDEF
  5
116
330
10F
100
AcDbEntity
  8
AM_6
100
AcDbText
 10
9.375
 20
-4.8805
 30
0.0
 40
0.5
  1
$PN.LWE
100
AcDbAttributeDefinition
  3

  2
NBSYN
 70
     8
280
     0
  0
ATTDEF
  5
117
330
10F
100
AcDbEntity
  8
AM_6
100
AcDbText
 10
9.375
 20
-5.3805
 30
0.0
 40
0.5
  1
037925
100
AcDbAttributeDefinition
  3

  2
LINA
 70
     8
280
     0
  0
ATTDEF
  5
118
330
10F
100
AcDbEntity
  8
AM_6
100
AcDbText
 10
9.375
 20
-5.8805
 30
0.0
 40
0.5
  1
5-7/16
100
AcDbAttributeDefinition
  3

  2
SS
 70
     8
280
     0
  0
ATTDEF
  5
119
330
10F
100
AcDbEntity
  8
AM_6
100
AcDbText
 10
9.375
 20
-6.3805
 30
0.0
 40
0.5
  1
8.750000
100
AcDbAttributeDefinition
  3

  2
E1
 70
     8
280
     0
  0
ATTDEF
  5
11A
330
10F
100
AcDbEntity
  8
AM_6
100
AcDbText
 10
9.375
 20
-6.8805
 30
0.0
 40
0.5
  1
5.437500
100
AcDbAttributeDefinition
  3

  2
SS1
 70
     8
280
     0
  0
ATTDEF
  5
11B
330
10F
100
AcDbEntity
  8
AM_6
100
AcDbText
 10
9.375
 20
-7.3805
 30
0.0
 40
0.5
  1
037925
100
AcDbAttributeDefinition
  3

  2
PN
 70
     8
280
     0
  0
ATTDEF
  5
11C
330
10F
100
AcDbEntity
  8
AM_6
100
AcDbText
 10
9.375
 20
-7.8805
 30
0.0
 40
0.5
  1
INS-IP-507R
100
AcDbAttributeDefinition
  3

  2
DESCRIPTION
 70
     8
280
     0
  0
ATTDEF
  5
11D
330
10F
100
AcDbEntity
  8
AM_6
100
AcDbText
 10
9.375
 20
-8.3805
 30
0.0
 40
0.5
  1
9.8425
100
AcDbAttributeDefinition
  3

  2
A
 70
     8
280
     0
  0
ATTDEF
  5
11E
330
10F
100
AcDbEntity
  8
AM_6
100
AcDbText
 10
9.375
 20
-8.8805
 30
0.0
 40
0.5
  1
2-3/4
100
AcDbAttributeDefinition
  3

  2
B
 70
     8
280
     0
  0
ATTDEF
  5
11F
330
10F
100
AcDbEntity
  8
AM_6
100
AcDbText
 10
9.375
 20
-9.3805
 30
0.0
 40
0.5
  1
2.750000
100
AcDbAttributeDefinition
  3

  2
B1
 70
     8
280
     0
  0
ATTDEF
  5
120
330
10F
100
AcDbEntity
  8
AM_6
100
AcDbText
 10
9.375
 20
-9.8805
 30
0.0
 40
0.5
  1
6-11/64
100
AcDbAttributeDefinition
  3

  2
C
 70
     8
280
     0
  0
ATTDEF
  5
121
330
10F
100
AcDbEntity
  8
AM_6
100
AcDbText
 10
9.375
 20
-10.3805
 30
0.0
 40
0.5
  1
6.171875
100
AcDbAttributeDefinition
  3

  2
C1
 70
     8
280
     0
  0
ATTDEF
  5
122
330
10F
100
AcDbEntity
  8
AM_6
100
AcDbText
 10
9.375
 20
-10.8805
 30
0.0
 40
0.5
  1
2.337
100
AcDbAttributeDefinition
  3

  2
D
 70
     8
280
     0
  0
ATTDEF
  5
123
330
10F
100
AcDbEntity
  8
AM_6
100
AcDbText
 10
9.375
 20
-11.3805
 30
0.0
 40
0.5
  1
8-3/4
100
AcDbAttributeDefinition
  3

  2
E
 70
     8
280
     0
  0
ATTDEF
  5
124
330
10F
100
AcDbEntity
  8
AM_6
100
AcDbText
 10
9.375
 20
-11.8805
 30
0.0
 40
0.5
  1
0.3125
100
AcDbAttributeDefinition
  3

  2
NDM
 70
     8
280
     0
  0
ATTDEF
  5
125
330
10F
100
AcDbEntity
  8
AM_6
100
AcDbText
 10
9.375
 20
-12.3805
 30
0.0
 40
0.5
  1
0.2580
100
AcDbAttributeDefinition
  3

  2
KDM
 70
     8
280
     0
  0
ATTDEF
  5
126
330
10F
100
AcDbEntity
  8
AM_6
100
AcDbText
 10
9.375
 20
-12.8805
 30
0.0
 40
0.5
  1
6.80
100
AcDbAttributeDefinition
  3

  2
AL
 70
     8
280
     0
  0
ATTDEF
  5
127
330
10F
100
AcDbEntity
  8
AM_6
100
AcDbText
 10
9.375
 20
-13.3805
 30
0.0
 40
0.5
  1
0.75
100
AcDbAttributeDefinition
  3

  2
BL
 70
     8
280
     0
  0
ATTDEF
  5
128
330
10F
100
AcDbEntity
  8
AM_6
100
AcDbText
 10
9.375
 20
-13.8805
 30
0.0
 40
0.5
  1
0.07
100
AcDbAttributeDefinition
  3

  2
CL
 70
     8
280
     0
  0
ATTDEF
  5
129
330
10F
100
AcDbEntity
  8
AM_6
100
AcDbText
 10
9.375
 20
-14.3805
 30
0.0
 40
0.5
  1
1.00
100
AcDbAttributeDefinition
  3

  2
DL
 70
     8
280
     0
  0
ATTDEF
  5
12A
330
10F
100
AcDbEntity
  8
AM_6
100
AcDbText
 10
9.375
 20
-14.8805
 30
0.0
 40
0.5
  1
baldor
100
AcDbAttributeDefinition
  3

  2
COMPANY
 70
     8
280
     0
  0
LINE
  5
12B
330
10F
100
AcDbEntity
  8
AM_9
100
AcDbLine
 10
-3.697916666666666
 20
-4.310499999999999
 30
0.0
 11
-3.697916666666666
 21
-4.3805
 31
0.0
  0
LINE
  5
12C
330
10F
100
AcDbEntity
  8
AM_9
100
AcDbLine
 10
-3.854201564245815
 20
-4.310499999999999
 30
0.0
 11
-3.854201564245815
 21
-4.3805
 31
0.0
  0
LINE
  5
12D
330
10F
100
AcDbEntity
  8
AM_9
100
AcDbLine
 10
3.697916666666667
 20
-4.310499999999999
 30
0.0
 11
3.697916666666667
 21
-4.3805
 31
0.0
  0
LINE
  5
12E
330
10F
100
AcDbEntity
  8
AM_9
100
AcDbLine
 10
3.854201564245815
 20
-4.3805
 30
0.0
 11
3.854201564245815
 21
-4.310499999999999
 31
0.0
  0
LINE
  5
12F
330
10F
100
AcDbEntity
  8
AM_9
100
AcDbLine
 10
-2.935033053876327
 20
-4.310499999999999
 30
0.0
 11
-2.935033053876327
 21
-4.3805
 31
0.0
  0
LINE
  5
130
330
10F
100
AcDbEntity
  8
AM_9
100
AcDbLine
 10
2.935033053876328
 20
-4.310499999999999
 30
0.0
 11
2.935033053876328
 21
-4.3805
 31
0.0
  0
LINE
  5
131
330
10F
100
AcDbEntity
  8
AM_9
100
AcDbLine
 10
2.185867209963011
 20
-4.310499999999999
 30
0.0
 11
2.185867209963011
 21
-4.3805
 31
0.0
  0
LINE
  5
132
330
10F
100
AcDbEntity
  8
AM_9
100
AcDbLine
 10
-2.185867209963011
 20
-4.310499999999999
 30
0.0
 11
-2.185867209963011
 21
-4.3805
 31
0.0
  0
LINE
  5
133
330
10F
100
AcDbEntity
  8
AM_9
100
AcDbLine
 10
-1.295715408551933
 20
-4.310499999999999
 30
0.0
 11
-1.295715408551933
 21
-4.3805
 31
0.0
  0
LINE
  5
134
330
10F
100
AcDbEntity
  8
AM_9
100
AcDbLine
 10
-1.211170798712208
 20
-3.380499999999999
 30
0.0
 11
-1.211170798712208
 21
-4.3805
 31
0.0
  0
LINE
  5
135
330
10F
100
AcDbEntity
  8
AM_9
100
AcDbLine
 10
1.964896340842215
 20
-4.310499999999999
 30
0.0
 11
1.96489634084221
 21
-4.3805
 31
0.0
  0
LINE
  5
136
330
10F
100
AcDbEntity
  8
AM_9
100
AcDbLine
 10
-1.964896340842215
 20
-4.310499999999999
 30
0.0
 11
-1.964896340842215
 21
-4.3805
 31
0.0
  0
LINE
  5
137
330
10F
100
AcDbEntity
  8
AM_9
100
AcDbLine
 10
-0.9492605838602007
 20
-4.310499999999999
 30
0.0
 11
-0.9492605838602007
 21
-4.3805
 31
0.0
  0
LINE
  5
138
330
10F
100
AcDbEntity
  8
AM_9
100
AcDbLine
 10
-0.8647159740204762
 20
-3.380499999999999
 30
0.0
 11
-1.266053910211075
 21
-3.380499999999999
 31
0.0
  0
LINE
  5
139
330
10F
100
AcDbEntity
  8
AM_9
100
AcDbLine
 10
-0.8647159740204762
 20
-3.380499999999999
 30
0.0
 11
-0.8647159740204762
 21
-4.3805
 31
0.0
  0
LINE
  5
13A
330
10F
100
AcDbEntity
  8
AM_9
100
AcDbLine
 10
-0.919599085519343
 20
-4.310499999999999
 30
0.0
 11
-0.9195990855193429
 21
-3.380499999999999
 31
0.0
  0
LINE
  5
13B
330
10F
100
AcDbEntity
  8
AM_9
100
AcDbLine
 10
-1.266053910211075
 20
-3.380499999999999
 30
0.0
 11
-1.266053910211075
 21
-4.310499999999999
 31
0.0
  0
LINE
  5
13C
330
10F
100
AcDbEntity
  8
AM_9
100
AcDbLine
 10
2.504336516702355
 20
-4.310499999999999
 30
0.0
 11
2.504336516702355
 21
-4.3805
 31
0.0
  0
LINE
  5
13D
330
10F
100
AcDbEntity
  8
AM_9
100
AcDbLine
 10
2.725307385823151
 20
-4.310499999999999
 30
0.0
 11
2.725307385823151
 21
-4.3805
 31
0.0
  0
LINE
  5
13E
330
10F
100
AcDbEntity
  8
AM_9
100
AcDbLine
 10
2.771096628718793
 20
-4.3805
 30
0.0
 11
2.771096628718793
 21
-4.310499999999999
 31
0.0
  0
LINE
  5
13F
330
10F
100
AcDbEntity
  8
AM_9
100
AcDbLine
 10
-2.725307385823151
 20
-4.310499999999999
 30
0.0
 11
-2.725307385823151
 21
-4.3805
 31
0.0
  0
LINE
  5
140
330
10F
100
AcDbEntity
  8
AM_9
100
AcDbLine
 10
-2.504336516702405
 20
-4.310499999999999
 30
0.0
 11
-2.504336516702405
 21
-4.3805
 31
0.0
  0
LINE
  5
141
330
10F
100
AcDbEntity
  8
AM_9
100
AcDbLine
 10
-2.771096628718793
 20
-4.310499999999999
 30
0.0
 11
-2.771096628718793
 21
-4.3805
 31
0.0
  0
LINE
  5
142
330
10F
100
AcDbEntity
  8
AM_9
100
AcDbLine
 10
-0.15625
 20
-4.310499999999999
 30
0.0
 11
-0.15625
 21
-4.3805
 31
0.0
  0
LINE
  5
143
330
10F
100
AcDbEntity
  8
AM_9
100
AcDbLine
 10
0.1562500000000003
 20
-4.310499999999999
 30
0.0
 11
0.1562499999999997
 21
-4.3805
 31
0.0
  0
LINE
  5
144
330
10F
100
AcDbEntity
  8
AM_4
100
AcDbLine
 10
-4.375
 20
-4.310499999999999
 30
0.0
 11
-4.375
 21
-4.3805
 31
0.0
  0
LINE
  5
145
330
10F
100
AcDbEntity
  8
AM_4
100
AcDbLine
 10
4.375
 20
-4.3805
 30
0.0
 11
4.375
 21
-4.310499999999999
 31
0.0
  0
LINE
  5
146
330
10F
100
AcDbEntity
  8
AM_4
100
AcDbLine
 10
-4.375
 20
-4.3805
 30
0.0
 11
4.375
 21
-4.3805
 31
0.0
  0
LINE
  5
147
330
10F
100
AcDbEntity
  8
AM_4
100
AcDbLine
 10
-4.375
 20
-4.310499999999999
 30
0.0
 11
4.375
 21
-4.310499999999999
 31
0.0
  0
ENDBLK
  5
112
330
10F
100
AcDbEntity
  8
0
100
AcDbBlockEnd
  0
BLOCK
  5
14A
330
148
100
AcDbEntity
  8
0
100
AcDbBlockBegin
  2
6_037933E_0_in_071610_4
 70
     2
 10
0.0
 20
0.0
 30
0.0
  3
6_037933E_0_in_071610_4
  1

  0
ATTDEF
  5
14C
330
148
100
AcDbEntity
  8
AM_6
100
AcDbText
 10
9.92125
 20
1.437875000000001
 30
0.0
 40
0.5
  1
Imperial/E Insert -Inch
100
AcDbAttributeDefinition
  3

  2
NN
 70
     8
280
     0
  0
ATTDEF
  5
14D
330
148
100
AcDbEntity
  8
AM_6
100
AcDbText
 10
9.92125
 20
0.9378750000000009
 30
0.0
 40
0.5
  1
Imperial Bearings
100
AcDbAttributeDefinition
  3

  2
NT
 70
     8
280
     0
  0
ATTDEF
  5
14E
330
148
100
AcDbEntity
  8
AM_6
100
AcDbText
 10
9.92125
 20
0.4378750000000009
 30
0.0
 40
0.5
  1
037933E
100
AcDbAttributeDefinition
  3

  2
NB
 70
     8
280
     0
  0
ATTDEF
  5
14F
330
148
100
AcDbEntity
  8
AM_6
100
AcDbText
 10
9.92125
 20
-0.0621249999999991
 30
0.0
 40
0.5
  1
$PN.
100
AcDbAttributeDefinition
  3

  2
NBSYN
 70
     8
280
     0
  0
ATTDEF
  5
150
330
148
100
AcDbEntity
  8
AM_6
100
AcDbText
 10
9.92125
 20
-0.5621249999999991
 30
0.0
 40
0.5
  1
037933E
100
AcDbAttributeDefinition
  3

  2
LINA
 70
     8
280
     0
  0
ATTDEF
  5
151
330
148
100
AcDbEntity
  8
AM_6
100
AcDbText
 10
9.92125
 20
-1.062124999999999
 30
0.0
 40
0.5
  1
5-7/16
100
AcDbAttributeDefinition
  3

  2
SS
 70
     8
280
     0
  0
ATTDEF
  5
152
330
148
100
AcDbEntity
  8
AM_6
100
AcDbText
 10
9.92125
 20
-1.562124999999999
 30
0.0
 40
0.5
  1
5.437500
100
AcDbAttributeDefinition
  3

  2
SS1
 70
     8
280
     0
  0
ATTDEF
  5
153
330
148
100
AcDbEntity
  8
AM_6
100
AcDbText
 10
9.92125
 20
-2.062124999999999
 30
0.0
 40
0.5
  1
037933E
100
AcDbAttributeDefinition
  3

  2
PN
 70
     8
280
     0
  0
ATTDEF
  5
154
330
148
100
AcDbEntity
  8
AM_6
100
AcDbText
 10
9.92125
 20
-2.562124999999999
 30
0.0
 40
0.5
  1
INS-IP-507L
100
AcDbAttributeDefinition
  3

  2
DESCRIPTION
 70
     8
280
     0
  0
ATTDEF
  5
155
330
148
100
AcDbEntity
  8
AM_6
100
AcDbText
 10
9.92125
 20
-3.062124999999999
 30
0.0
 40
0.5
  1
Contact Seal
100
AcDbAttributeDefinition
  3

  2
ST
 70
     8
280
     0
  0
ATTDEF
  5
156
330
148
100
AcDbEntity
  8
AM_6
100
AcDbText
 10
9.92125
 20
-3.562124999999999
 30
0.0
 40
0.5
  1
2
100
AcDbAttributeDefinition
  3

  2
ST1
 70
     8
280
     0
  0
ATTDEF
  5
157
330
148
100
AcDbEntity
  8
AM_6
100
AcDbText
 10
9.92125
 20
-4.062124999999999
 30
0.0
 40
0.5
  1
9.8425
100
AcDbAttributeDefinition
  3

  2
A
 70
     8
280
     0
  0
ATTDEF
  5
158
330
148
100
AcDbEntity
  8
AM_6
100
AcDbText
 10
9.92125
 20
-4.562124999999999
 30
0.0
 40
0.5
  1
2-3/4
100
AcDbAttributeDefinition
  3

  2
B
 70
     8
280
     0
  0
ATTDEF
  5
159
330
148
100
AcDbEntity
  8
AM_6
100
AcDbText
 10
9.92125
 20
-5.062124999999999
 30
0.0
 40
0.5
  1
2.750000
100
AcDbAttributeDefinition
  3

  2
B1
 70
     8
280
     0
  0
ATTDEF
  5
15A
330
148
100
AcDbEntity
  8
AM_6
100
AcDbText
 10
9.92125
 20
-5.562124999999999
 30
0.0
 40
0.5
  1
6-11/64
100
AcDbAttributeDefinition
  3

  2
C
 70
     8
280
     0
  0
ATTDEF
  5
15B
330
148
100
AcDbEntity
  8
AM_6
100
AcDbText
 10
9.92125
 20
-6.062124999999999
 30
0.0
 40
0.5
  1
6.171875
100
AcDbAttributeDefinition
  3

  2
C1
 70
     8
280
     0
  0
ATTDEF
  5
15C
330
148
100
AcDbEntity
  8
AM_6
100
AcDbText
 10
9.92125
 20
-6.562124999999999
 30
0.0
 40
0.5
  1
6.17188
100
AcDbAttributeDefinition
  3

  2
CR
 70
     8
280
     0
  0
ATTDEF
  5
15D
330
148
100
AcDbEntity
  8
AM_6
100
AcDbText
 10
9.92125
 20
-7.062124999999999
 30
0.0
 40
0.5
  1
2.337
100
AcDbAttributeDefinition
  3

  2
D
 70
     8
280
     0
  0
ATTDEF
  5
15E
330
148
100
AcDbEntity
  8
AM_6
100
AcDbText
 10
9.92125
 20
-7.562124999999999
 30
0.0
 40
0.5
  1
8-3/4
100
AcDbAttributeDefinition
  3

  2
E
 70
     8
280
     0
  0
ATTDEF
  5
15F
330
148
100
AcDbEntity
  8
AM_6
100
AcDbText
 10
9.92125
 20
-8.062124999999998
 30
0.0
 40
0.5
  1
8.750000
100
AcDbAttributeDefinition
  3

  2
E1
 70
     8
280
     0
  0
ATTDEF
  5
160
330
148
100
AcDbEntity
  8
AM_6
100
AcDbText
 10
9.92125
 20
-8.562124999999998
 30
0.0
 40
0.5
  1
0.3125
100
AcDbAttributeDefinition
  3

  2
NDM
 70
     8
280
     0
  0
ATTDEF
  5
161
330
148
100
AcDbEntity
  8
AM_6
100
AcDbText
 10
9.92125
 20
-9.062124999999998
 30
0.0
 40
0.5
  1
0.2580
100
AcDbAttributeDefinition
  3

  2
KDM
 70
     8
280
     0
  0
ATTDEF
  5
162
330
148
100
AcDbEntity
  8
AM_6
100
AcDbText
 10
9.92125
 20
-9.562124999999998
 30
0.0
 40
0.5
  1
7.97
100
AcDbAttributeDefinition
  3

  2
AL
 70
     8
280
     0
  0
ATTDEF
  5
163
330
148
100
AcDbEntity
  8
AM_6
100
AcDbText
 10
9.92125
 20
-10.062125
 30
0.0
 40
0.5
  1
0.75
100
AcDbAttributeDefinition
  3

  2
BL
 70
     8
280
     0
  0
ATTDEF
  5
164
330
148
100
AcDbEntity
  8
AM_6
100
AcDbText
 10
9.92125
 20
-10.562125
 30
0.0
 40
0.5
  1
0.07
100
AcDbAttributeDefinition
  3

  2
CL
 70
     8
280
     0
  0
ATTDEF
  5
165
330
148
100
AcDbEntity
  8
AM_6
100
AcDbText
 10
9.92125
 20
-11.062125
 30
0.0
 40
0.5
  1
1.00
100
AcDbAttributeDefinition
  3

  2
DL
 70
     8
280
     0
  0
ATTDEF
  5
166
330
148
100
AcDbEntity
  8
AM_6
100
AcDbText
 10
9.92125
 20
-11.562125
 30
0.0
 40
0.5
  1
1.0000
100
AcDbAttributeDefinition
  3

  2
LL
 70
     8
280
     0
  0
ATTDEF
  5
167
330
148
100
AcDbEntity
  8
AM_6
100
AcDbText
 10
9.92125
 20
-12.062125
 30
0.0
 40
0.5
  1
0.036
100
AcDbAttributeDefinition
  3

  2
Y
 70
     8
280
     0
  0
ATTDEF
  5
168
330
148
100
AcDbEntity
  8
AM_6
100
AcDbText
 10
9.92125
 20
-12.562125
 30
0.0
 40
0.5
  1
0.036000
100
AcDbAttributeDefinition
  3

  2
Y1
 70
     8
280
     0
  0
ATTDEF
  5
169
330
148
100
AcDbEntity
  8
AM_6
100
AcDbText
 10
9.92125
 20
-13.062125
 30
0.0
 40
0.5
  1
5-59/64
100
AcDbAttributeDefinition
  3

  2
Z
 70
     8
280
     0
  0
ATTDEF
  5
16A
330
148
100
AcDbEntity
  8
AM_6
100
AcDbText
 10
9.92125
 20
-13.562125
 30
0.0
 40
0.5
  1
5.921875
100
AcDbAttributeDefinition
  3

  2
Z1
 70
     8
280
     0
  0
ATTDEF
  5
16B
330
148
100
AcDbEntity
  8
AM_6
100
AcDbText
 10
9.92125
 20
-14.062125
 30
0.0
 40
0.5
  1
0.00000
100
AcDbAttributeDefinition
  3

  2
P1
 70
     8
280
     0
  0
ATTDEF
  5
16C
330
148
100
AcDbEntity
  8
AM_6
100
AcDbText
 10
9.92125
 20
-14.562125
 30
0.0
 40
0.5
  1
0.00000
100
AcDbAttributeDefinition
  3

  2
H1
 70
     8
280
     0
  0
ATTDEF
  5
16D
330
148
100
AcDbEntity
  8
AM_6
100
AcDbText
 10
9.92125
 20
-15.062125
 30
0.0
 40
0.5
  1
0.00000
100
AcDbAttributeDefinition
  3

  2
G1
 70
     8
280
     0
  0
ATTDEF
  5
16E
330
148
100
AcDbEntity
  8
AM_6
100
AcDbText
 10
9.92125
 20
-15.562125
 30
0.0
 40
0.5
  1
0.16600
100
AcDbAttributeDefinition
  3

  2
CW
 70
     8
280
     0
  0
ATTDEF
  5
16F
330
148
100
AcDbEntity
  8
AM_6
100
AcDbText
 10
9.92125
 20
-16.062125
 30
0.0
 40
0.5
  1
8.75000
100
AcDbAttributeDefinition
  3

  2
L1
 70
     8
280
     0
  0
ATTDEF
  5
170
330
148
100
AcDbEntity
  8
AM_6
100
AcDbText
 10
9.92125
 20
-16.562125
 30
0.0
 40
0.5
  1
baldor
100
AcDbAttributeDefinition
  3

  2
COMPANY
 70
     8
280
     0
  0
LINE
  5
171
330
148
100
AcDbEntity
  8
AM_9
100
AcDbLine
 10
-1.268949771589946
 20
0.4398750000000016
 30
0.0
 11
-1.268949771589946
 21
-4.3105
 31
0.0
  0
LINE
  5
172
330
148
100
AcDbEntity
  8
AM_9
100
AcDbLine
 10
-0.922494946898213
 20
0.4398750000000016
 30
0.0
 11
-0.922494946898213
 21
-4.3105
 31
0.0
  0
LINE
  5
173
330
148
100
AcDbEntity
  8
AM_9
100
AcDbLine
 10
-0.8647159740204755
 20
0.4398750000000016
 30
0.0
 11
-0.8647159740204757
 21
-4.77
 31
0.0
  0
LINE
  5
174
330
148
100
AcDbEntity
  8
AM_9
100
AcDbLine
 10
-1.211170798712208
 20
-4.3805
 30
0.0
 11
-1.211170798712208
 21
0.4398750000000016
 31
0.0
  0
LINE
  5
175
330
148
100
AcDbEntity
  8
AM_9
100
AcDbLine
 10
-2.71875
 20
0.4398750000000002
 30
0.0
 11
-2.71875
 21
-4.77
 31
0.0
  0
LINE
  5
176
330
148
100
AcDbEntity
  8
AM_9
100
AcDbLine
 10
2.71875
 20
-4.77
 30
0.0
 11
2.71875
 21
0.4398750000000002
 31
0.0
  0
LINE
  5
177
330
148
100
AcDbEntity
  8
AM_9
100
AcDbLine
 10
-0.9195990855193427
 20
-4.3805
 30
0.0
 11
-0.9195990855193429
 21
-4.3105
 31
0.0
  0
LINE
  5
178
330
148
100
AcDbEntity
  8
AM_9
100
AcDbLine
 10
-1.266053910211076
 20
-4.3105
 30
0.0
 11
-1.266053910211075
 21
-4.3805
 31
0.0
  0
LINE
  5
179
330
148
100
AcDbEntity
  8
AM_9
100
AcDbLine
 10
-2.861842105263158
 20
-4.3105
 30
0.0
 11
-2.861842105263158
 21
-4.3805
 31
0.0
  0
LINE
  5
17A
330
148
100
AcDbEntity
  8
AM_9
100
AcDbLine
 10
2.861842105263158
 20
-4.3805
 30
0.0
 11
2.861842105263158
 21
-4.3105
 31
0.0
  0
LINE
  5
17B
330
148
100
AcDbEntity
  8
AM_9
100
AcDbLine
 10
-2.861842105263158
 20
1.401875
 30
0.0
 11
-2.861842105263158
 21
0.4398750000000002
 31
0.0
  0
LINE
  5
17C
330
148
100
AcDbEntity
  8
AM_9
100
AcDbLine
 10
2.861842105263158
 20
0.4398750000000002
 30
0.0
 11
2.861842105263158
 21
1.401875
 31
0.0
  0
LINE
  5
17D
330
148
100
AcDbEntity
  8
AM_9
100
AcDbLine
 10
2.9609375
 20
1.401875
 30
0.0
 11
-2.9609375
 21
1.401875
 31
0.0
  0
LINE
  5
17E
330
148
100
AcDbEntity
  8
AM_9
100
AcDbLine
 10
-2.9609375
 20
1.437875000000001
 30
0.0
 11
-2.9609375
 21
1.401875
 31
0.0
  0
LINE
  5
17F
330
148
100
AcDbEntity
  8
AM_9
100
AcDbLine
 10
2.9609375
 20
1.401875
 30
0.0
 11
2.9609375
 21
1.437875000000001
 31
0.0
  0
LINE
  5
180
330
148
100
AcDbEntity
  8
AM_9
100
AcDbLine
 10
2.552655480083438
 20
-3.3105
 30
0.0
 11
2.552655480083438
 21
-4.3105
 31
0.0
  0
LINE
  5
181
330
148
100
AcDbEntity
  8
AM_9
100
AcDbLine
 10
-2.552655480083436
 20
-3.3105
 30
0.0
 11
-2.552655480083436
 21
-4.3105
 31
0.0
  0
LINE
  5
182
330
148
100
AcDbEntity
  8
AM_9
100
AcDbLine
 10
2.552655480083438
 20
-3.3105
 30
0.0
 11
2.829429962658651
 21
-3.3105
 31
0.0
  0
LINE
  5
183
330
148
100
AcDbEntity
  8
AM_9
100
AcDbLine
 10
-2.829429962658649
 20
-3.3105
 30
0.0
 11
-2.552655480083436
 21
-3.3105
 31
0.0
  0
LINE
  5
184
330
148
100
AcDbEntity
  8
AM_9
100
AcDbLine
 10
0.0
 20
-3.2605
 30
0.0
 11
-0.1261999999999999
 21
-3.33336160397173
 31
0.0
  0
LINE
  5
185
330
148
100
AcDbEntity
  8
AM_9
100
AcDbLine
 10
0.1261999999999999
 20
-3.33336160397173
 30
0.0
 11
0.0
 21
-3.2605
 31
0.0
  0
LINE
  5
186
330
148
100
AcDbEntity
  8
AM_9
100
AcDbLine
 10
0.1261999999999999
 20
-3.33336160397173
 30
0.0
 11
-0.1261999999999999
 21
-3.33336160397173
 31
0.0
  0
LINE
  5
187
330
148
100
AcDbEntity
  8
AM_9
100
AcDbLine
 10
-0.1261999999999999
 20
-3.33336160397173
 30
0.0
 11
-0.1261999999999999
 21
-4.280449999999999
 31
0.0
  0
LINE
  5
188
330
148
100
AcDbEntity
  8
AM_9
100
AcDbLine
 10
0.1261999999999999
 20
-4.280449999999999
 30
0.0
 11
0.1261999999999999
 21
-3.33336160397173
 31
0.0
  0
LINE
  5
189
330
148
100
AcDbEntity
  8
AM_9
100
AcDbLine
 10
0.1261999999999999
 20
-4.280449999999999
 30
0.0
 11
-0.1261999999999999
 21
-4.280449999999999
 31
0.0
  0
LINE
  5
18A
330
148
100
AcDbEntity
  8
AM_9
100
AcDbLine
 10
-0.1261999999999999
 20
-4.280449999999999
 30
0.0
 11
-0.1562499999999997
 21
-4.3105
 31
0.0
  0
LINE
  5
18B
330
148
100
AcDbEntity
  8
AM_9
100
AcDbLine
 10
0.1562499999999997
 20
-4.3105
 30
0.0
 11
0.1261999999999999
 21
-4.280449999999999
 31
0.0
  0
LINE
  5
18C
330
148
100
AcDbEntity
  8
AM_9
100
AcDbLine
 10
3.947916666666667
 20
1.437874999999998
 30
0.0
 11
-3.947916666666667
 21
1.437874999999998
 31
0.0
  0
LINE
  5
18D
330
148
100
AcDbEntity
  8
AM_9
100
AcDbLine
 10
-3.947916666666667
 20
1.437874999999998
 30
0.0
 11
-3.947916666666667
 21
0.9898750000000006
 31
0.0
  0
LINE
  5
18E
330
148
100
AcDbEntity
  8
AM_9
100
AcDbLine
 10
3.947916666666667
 20
0.9898750000000006
 30
0.0
 11
3.947916666666667
 21
1.437874999999998
 31
0.0
  0
LINE
  5
18F
330
148
100
AcDbEntity
  8
AM_9
100
AcDbLine
 10
4.40114768726247
 20
-2.8125
 30
0.0
 11
4.409059153903748
 21
-2.359252379678135
 31
0.0
  0
LINE
  5
190
330
148
100
AcDbEntity
  8
AM_9
100
AcDbLine
 10
-4.409059153903748
 20
-2.359252379678135
 30
0.0
 11
-4.40114768726247
 21
-2.8125
 31
0.0
  0
LINE
  5
191
330
148
100
AcDbEntity
  8
AM_9
100
AcDbLine
 10
4.345972326516858
 20
0.9898749999999995
 30
0.0
 11
-4.345972326489483
 21
0.9898749999999995
 31
0.0
  0
ARC
  5
192
330
148
100
AcDbEntity
  8
AM_9
100
AcDbCircle
 10
-4.345972325026742
 20
0.8898749999999997
 30
0.0
 40
0.1
100
AcDbArc
 50
90.0
 51
150.0000000000001
  0
ARC
  5
193
330
148
100
AcDbEntity
  8
AM_9
100
AcDbCircle
 10
4.345972325026743
 20
0.8898749999999997
 30
0.0
 40
0.0999999999999996
100
AcDbArc
 50
30.00000000000016
 51
90.0
  0
LINE
  5
194
330
148
100
AcDbEntity
  8
AM_9
100
AcDbLine
 10
4.409059153903748
 20
-2.359252379678135
 30
0.0
 11
-4.409059153903748
 21
-2.359252379678135
 31
0.0
  0
ARC
  5
195
330
148
100
AcDbEntity
  8
AM_9
100
AcDbCircle
 10
-4.459051538661568
 20
-2.360125
 30
0.0
 40
0.0500000000000012
100
AcDbArc
 50
1.000000000000629
 51
90.0
  0
ARC
  5
196
330
148
100
AcDbEntity
  8
AM_9
100
AcDbCircle
 10
4.459051538661568
 20
-2.360125
 30
0.0
 40
0.0500000000000012
100
AcDbArc
 50
90.0
 51
178.9999999999994
  0
LINE
  5
197
330
148
100
AcDbEntity
  8
AM_9
100
AcDbLine
 10
4.432574865405186
 20
0.9398749999999998
 30
0.0
 11
-4.432574865405186
 21
0.9398749999999998
 31
0.0
  0
LINE
  5
198
330
148
100
AcDbEntity
  8
AM_9
100
AcDbLine
 10
-4.432574865405186
 20
0.9398749999999998
 30
0.0
 11
-4.72125
 21
0.4398750000000002
 31
0.0
  0
LINE
  5
199
330
148
100
AcDbEntity
  8
AM_9
100
AcDbLine
 10
4.72125
 20
0.4398750000000002
 30
0.0
 11
4.432574865405186
 21
0.9398749999999998
 31
0.0
  0
LINE
  5
19A
330
148
100
AcDbEntity
  8
AM_9
100
AcDbLine
 10
-4.783749999999999
 20
-0.8757393379864262
 30
0.0
 11
-4.783749999999999
 21
-1.034510662013573
 31
0.0
  0
LINE
  5
19B
330
148
100
AcDbEntity
  8
AM_9
100
AcDbLine
 10
4.783749999999999
 20
-1.034510662013573
 30
0.0
 11
4.783749999999999
 21
-0.8757393379864262
 31
0.0
  0
LINE
  5
19C
330
148
100
AcDbEntity
  8
AM_9
100
AcDbLine
 10
4.78375
 20
-0.8757393379864262
 30
0.0
 11
-4.78375
 21
-0.8757393379864262
 31
0.0
  0
LINE
  5
19D
330
148
100
AcDbEntity
  8
AM_9
100
AcDbLine
 10
4.78375
 20
-0.8757393379864262
 30
0.0
 11
4.92125
 21
-0.7963536759728519
 31
0.0
  0
LINE
  5
19E
330
148
100
AcDbEntity
  8
AM_9
100
AcDbLine
 10
-4.92125
 20
-0.7963536759728519
 30
0.0
 11
-4.78375
 21
-0.8757393379864262
 31
0.0
  0
LINE
  5
19F
330
148
100
AcDbEntity
  8
AM_9
100
AcDbLine
 10
4.783749999999999
 20
-1.034510662013573
 30
0.0
 11
-4.783749999999999
 21
-1.034510662013573
 31
0.0
  0
LINE
  5
1A0
330
148
100
AcDbEntity
  8
AM_9
100
AcDbLine
 10
-4.783749999999999
 20
-1.034510662013573
 30
0.0
 11
-4.92125
 21
-1.113896324027147
 31
0.0
  0
LINE
  5
1A1
330
148
100
AcDbEntity
  8
AM_9
100
AcDbLine
 10
4.92125
 20
-1.113896324027147
 30
0.0
 11
4.783749999999999
 21
-1.034510662013573
 31
0.0
  0
LINE
  5
1A2
330
148
100
AcDbEntity
  8
AM_9
100
AcDbLine
 10
4.911250000000003
 20
-2.310125
 30
0.0
 11
-4.911249999978592
 21
-2.310125
 31
0.0
  0
ARC
  5
1A3
330
148
100
AcDbEntity
  8
AM_9
100
AcDbCircle
 10
-4.911250000000002
 20
-2.300125000000001
 30
0.0
 40
0.009999999999998
100
AcDbArc
 50
180.0
 51
270.0
  0
ARC
  5
1A4
330
148
100
AcDbEntity
  8
AM_9
100
AcDbCircle
 10
4.911250000000002
 20
-2.300125000000001
 30
0.0
 40
0.0099999999999985
100
AcDbArc
 50
270.0
 51
0.0
  0
LINE
  5
1A5
330
148
100
AcDbEntity
  8
AM_9
100
AcDbLine
 10
4.92125
 20
-0.7963536759728519
 30
0.0
 11
-4.92125
 21
-0.7963536759728519
 31
0.0
  0
LINE
  5
1A6
330
148
100
AcDbEntity
  8
AM_9
100
AcDbLine
 10
-4.92125
 20
0.3898750000000004
 30
0.0
 11
-4.92125
 21
-0.7963536759728519
 31
0.0
  0
LINE
  5
1A7
330
148
100
AcDbEntity
  8
AM_9
100
AcDbLine
 10
4.92125
 20
-0.7963536759728519
 30
0.0
 11
4.92125
 21
0.3898750000000004
 31
0.0
  0
LINE
  5
1A8
330
148
100
AcDbEntity
  8
AM_9
100
AcDbLine
 10
4.92125
 20
-1.113896324027147
 30
0.0
 11
-4.92125
 21
-1.113896324027147
 31
0.0
  0
LINE
  5
1A9
330
148
100
AcDbEntity
  8
AM_9
100
AcDbLine
 10
4.92125
 20
-2.300125000000001
 30
0.0
 11
-4.92125
 21
-2.300125000000001
 31
0.0
  0
LINE
  5
1AA
330
148
100
AcDbEntity
  8
AM_9
100
AcDbLine
 10
-4.92125
 20
-1.113896324027147
 30
0.0
 11
-4.92125
 21
-2.300125000000001
 31
0.0
  0
LINE
  5
1AB
330
148
100
AcDbEntity
  8
AM_9
100
AcDbLine
 10
4.92125
 20
-2.300125000000001
 30
0.0
 11
4.92125
 21
-1.113896324027147
 31
0.0
  0
LINE
  5
1AC
330
148
100
AcDbEntity
  8
AM_9
100
AcDbLine
 10
4.87125
 20
0.4398750000000002
 30
0.0
 11
-4.871249999992342
 21
0.4398750000000002
 31
0.0
  0
LINE
  5
1AD
330
148
100
AcDbEntity
  8
AM_9
100
AcDbLine
 10
4.92125
 20
0.3898750000000004
 30
0.0
 11
-4.92125
 21
0.3898750000000004
 31
0.0
  0
ARC
  5
1AE
330
148
100
AcDbEntity
  8
AM_9
100
AcDbCircle
 10
-4.87125
 20
0.3898750000000008
 30
0.0
 40
0.0499999999999994
100
AcDbArc
 50
90.0
 51
180.0
  0
ARC
  5
1AF
330
148
100
AcDbEntity
  8
AM_9
100
AcDbCircle
 10
4.87125
 20
0.3898750000000008
 30
0.0
 40
0.0499999999999998
100
AcDbArc
 50
0.0
 51
90.0
  0
LINE
  5
1B0
330
148
100
AcDbEntity
  8
AM_5
100
AcDbLine
 10
0.1562499999999997
 20
-4.3105
 30
0.0
 11
0.1562499999999997
 21
-3.610500000000005
 31
0.0
  0
LINE
  5
1B1
330
148
100
AcDbEntity
  8
AM_4
100
AcDbLine
 10
-1.211170798712209
 20
-4.77
 30
0.0
 11
-1.211170798712208
 21
-4.3805
 31
0.0
  0
LINE
  5
1B2
330
148
100
AcDbEntity
  8
AM_4
100
AcDbLine
 10
-0.9195990855193429
 20
-4.77
 30
0.0
 11
-0.9195990855193427
 21
-4.3805
 31
0.0
  0
LINE
  5
1B3
330
148
100
AcDbEntity
  8
AM_4
100
AcDbLine
 10
-1.266053910211075
 20
-4.3805
 30
0.0
 11
-1.266053910211075
 21
-4.77
 31
0.0
  0
LINE
  5
1B4
330
148
100
AcDbEntity
  8
AM_4
100
AcDbLine
 10
-2.861842105263158
 20
-4.3805
 30
0.0
 11
-2.861842105263158
 21
-4.77
 31
0.0
  0
LINE
  5
1B5
330
148
100
AcDbEntity
  8
AM_4
100
AcDbLine
 10
2.861842105263158
 20
-4.77
 30
0.0
 11
2.861842105263158
 21
-4.3805
 31
0.0
  0
LINE
  5
1B6
330
148
100
AcDbEntity
  8
AM_4
100
AcDbLine
 10
2.861842105263158
 20
-4.77
 30
0.0
 11
-2.861842105263158
 21
-4.77
 31
0.0
  0
LINE
  5
1B7
330
148
100
AcDbEntity
  8
AM_4
100
AcDbLine
 10
3.082985565973346
 20
-3.3105
 30
0.0
 11
3.082985565973346
 21
-4.3105
 31
0.0
  0
LINE
  5
1B8
330
148
100
AcDbEntity
  8
AM_4
100
AcDbLine
 10
-3.082985565973346
 20
-3.3105
 30
0.0
 11
-3.082985565973346
 21
-4.3105
 31
0.0
  0
LINE
  5
1B9
330
148
100
AcDbEntity
  8
AM_4
100
AcDbLine
 10
-3.347372044429444
 20
-4.3105
 30
0.0
 11
-4.375
 21
-4.3105
 31
0.0
  0
LINE
  5
1BA
330
148
100
AcDbEntity
  8
AM_4
100
AcDbLine
 10
-3.347372044429444
 20
-4.3105
 30
0.0
 11
-3.35976004854856
 21
-3.3105
 31
0.0
  0
LINE
  5
1BB
330
148
100
AcDbEntity
  8
AM_4
100
AcDbLine
 10
-3.35976004854856
 20
-3.3105
 30
0.0
 11
-2.829429962658649
 21
-3.3105
 31
0.0
  0
LINE
  5
1BC
330
148
100
AcDbEntity
  8
AM_4
100
AcDbLine
 10
-2.829429962658649
 20
-3.3105
 30
0.0
 11
-2.817041958539532
 21
-4.3105
 31
0.0
  0
LINE
  5
1BD
330
148
100
AcDbEntity
  8
AM_4
100
AcDbLine
 10
2.817041958539535
 20
-4.3105
 30
0.0
 11
-2.817041958539532
 21
-4.3105
 31
0.0
  0
LINE
  5
1BE
330
148
100
AcDbEntity
  8
AM_4
100
AcDbLine
 10
2.817041958539535
 20
-4.3105
 30
0.0
 11
2.829429962658651
 21
-3.3105
 31
0.0
  0
LINE
  5
1BF
330
148
100
AcDbEntity
  8
AM_4
100
AcDbLine
 10
2.829429962658651
 20
-3.3105
 30
0.0
 11
3.35976004854856
 21
-3.3105
 31
0.0
  0
LINE
  5
1C0
330
148
100
AcDbEntity
  8
AM_4
100
AcDbLine
 10
3.35976004854856
 20
-3.3105
 30
0.0
 11
3.347372044429444
 21
-4.3105
 31
0.0
  0
LINE
  5
1C1
330
148
100
AcDbEntity
  8
AM_4
100
AcDbLine
 10
4.375
 20
-4.3105
 30
0.0
 11
4.40114768726247
 21
-2.8125
 31
0.0
  0
LINE
  5
1C2
330
148
100
AcDbEntity
  8
AM_4
100
AcDbLine
 10
-4.40114768726247
 20
-2.8125
 30
0.0
 11
-4.375
 21
-4.3105
 31
0.0
  0
LINE
  5
1C3
330
148
100
AcDbEntity
  8
AM_4
100
AcDbLine
 10
4.375
 20
-4.3105
 30
0.0
 11
3.347372044429444
 21
-4.3105
 31
0.0
  0
ENDBLK
  5
14B
330
148
100
AcDbEntity
  8
0
100
AcDbBlockEnd
  0
BLOCK
  5
1C6
330
1C4
100
AcDbEntity
  8
0
100
AcDbBlockBegin
  2
7_071610H_0_in_071610_4
 70
     2
 10
0.0
 20
0.0
 30
0.0
  3
7_071610H_0_in_071610_4
  1

  0
ATTDEF
  5
1C8
330
1C4
100
AcDbEntity
  8
AM_6
100
AcDbText
 10
16.0
 20
3.4375
 30
0.0
 40
0.5
  1
EP4B-IP -(Contact Seal)-Housing -Inch
100
AcDbAttributeDefinition
  3

  2
NN
 70
     8
280
     0
  0
ATTDEF
  5
1C9
330
1C4
100
AcDbEntity
  8
AM_6
100
AcDbText
 10
16.0
 20
2.9375
 30
0.0
 40
0.5
  1
Imperial/E 4 Bolt Piliow Block Bearings
100
AcDbAttributeDefinition
  3

  2
NT
 70
     8
280
     0
  0
ATTDEF
  5
1CA
330
1C4
100
AcDbEntity
  8
AM_6
100
AcDbText
 10
16.0
 20
2.4375
 30
0.0
 40
0.5
  1
071610H
100
AcDbAttributeDefinition
  3

  2
NB
 70
     8
280
     0
  0
ATTDEF
  5
1CB
330
1C4
100
AcDbEntity
  8
AM_6
100
AcDbText
 10
16.0
 20
1.9375
 30
0.0
 40
0.5
  1
$PN.H
100
AcDbAttributeDefinition
  3

  2
NBSYN
 70
     8
280
     0
  0
ATTDEF
  5
1CC
330
1C4
100
AcDbEntity
  8
AM_6
100
AcDbText
 10
16.0
 20
1.4375
 30
0.0
 40
0.5
  1
071610
100
AcDbAttributeDefinition
  3

  2
LINA
 70
     8
280
     0
  0
ATTDEF
  5
1CD
330
1C4
100
AcDbEntity
  8
AM_6
100
AcDbText
 10
16.0
 20
0.9375
 30
0.0
 40
0.5
  1
5-7/16
100
AcDbAttributeDefinition
  3

  2
SS
 70
     8
280
     0
  0
ATTDEF
  5
1CE
330
1C4
100
AcDbEntity
  8
AM_6
100
AcDbText
 10
16.0
 20
0.4375
 30
0.0
 40
0.5
  1
5.437500
100
AcDbAttributeDefinition
  3

  2
SS1
 70
     8
280
     0
  0
ATTDEF
  5
1CF
330
1C4
100
AcDbEntity
  8
AM_6
100
AcDbText
 10
16.0
 20
-0.0625
 30
0.0
 40
0.5
  1
Non-Expansion
100
AcDbAttributeDefinition
  3

  2
TYPE
 70
     8
280
     0
  0
ATTDEF
  5
1D0
330
1C4
100
AcDbEntity
  8
AM_6
100
AcDbText
 10
16.0
 20
-0.5625
 30
0.0
 40
0.5
  1
071610
100
AcDbAttributeDefinition
  3

  2
PN1
 70
     8
280
     0
  0
ATTDEF
  5
1D1
330
1C4
100
AcDbEntity
  8
AM_6
100
AcDbText
 10
16.0
 20
-1.0625
 30
0.0
 40
0.5
  1
071618
100
AcDbAttributeDefinition
  3

  2
PN2
 70
     8
280
     0
  0
ATTDEF
  5
1D2
330
1C4
100
AcDbEntity
  8
AM_6
100
AcDbText
 10
16.0
 20
-1.5625
 30
0.0
 40
0.5
  1
EP4B-IP-507R
100
AcDbAttributeDefinition
  3

  2
DESCRIPTION
 70
     8
280
     0
  0
ATTDEF
  5
1D3
330
1C4
100
AcDbEntity
  8
AM_6
100
AcDbText
 10
16.0
 20
-2.0625
 30
0.0
 40
0.5
  1
Non-Expansion Type
100
AcDbAttributeDefinition
  3

  2
EF
 70
     8
280
     0
  0
ATTDEF
  5
1D4
330
1C4
100
AcDbEntity
  8
AM_6
100
AcDbText
 10
16.0
 20
-2.5625
 30
0.0
 40
0.5
  1
1
100
AcDbAttributeDefinition
  3

  2
EF1
 70
     8
280
     0
  0
ATTDEF
  5
1D5
330
1C4
100
AcDbEntity
  8
AM_6
100
AcDbText
 10
16.0
 20
-3.0625
 30
0.0
 40
0.5
  1
Contact Seal
100
AcDbAttributeDefinition
  3

  2
ST
 70
     8
280
     0
  0
ATTDEF
  5
1D6
330
1C4
100
AcDbEntity
  8
AM_6
100
AcDbText
 10
16.0
 20
-3.5625
 30
0.0
 40
0.5
  1
1
100
AcDbAttributeDefinition
  3

  2
ST1
 70
     8
280
     0
  0
ATTDEF
  5
1D7
330
1C4
100
AcDbEntity
  8
AM_6
100
AcDbText
 10
16.0
 20
-4.0625
 30
0.0
 40
0.5
  1
6.17
100
AcDbAttributeDefinition
  3

  2
A
 70
     8
280
     0
  0
ATTDEF
  5
1D8
330
1C4
100
AcDbEntity
  8
AM_6
100
AcDbText
 10
16.0
 20
-4.5625
 30
0.0
 40
0.5
  1
6.1700000
100
AcDbAttributeDefinition
  3

  2
A1
 70
     8
280
     0
  0
ATTDEF
  5
1D9
330
1C4
100
AcDbEntity
  8
AM_6
100
AcDbText
 10
16.0
 20
-5.0625
 30
0.0
 40
0.5
  1
22
100
AcDbAttributeDefinition
  3

  2
B
 70
     8
280
     0
  0
ATTDEF
  5
1DA
330
1C4
100
AcDbEntity
  8
AM_6
100
AcDbText
 10
16.0
 20
-5.5625
 30
0.0
 40
0.5
  1
22.0000000
100
AcDbAttributeDefinition
  3

  2
B1
 70
     8
280
     0
  0
ATTDEF
  5
1DB
330
1C4
100
AcDbEntity
  8
AM_6
100
AcDbText
 10
16.0
 20
-6.0625
 30
0.0
 40
0.5
  1
6.25
100
AcDbAttributeDefinition
  3

  2
C
 70
     8
280
     0
  0
ATTDEF
  5
1DC
330
1C4
100
AcDbEntity
  8
AM_6
100
AcDbText
 10
16.0
 20
-6.5625
 30
0.0
 40
0.5
  1
6.2500000
100
AcDbAttributeDefinition
  3

  2
C1
 70
     8
280
     0
  0
ATTDEF
  5
1DD
330
1C4
100
AcDbEntity
  8
AM_6
100
AcDbText
 10
16.0
 20
-7.0625
 30
0.0
 40
0.5
  1
17.38
100
AcDbAttributeDefinition
  3

  2
DMIN
 70
     8
280
     0
  0
ATTDEF
  5
1DE
330
1C4
100
AcDbEntity
  8
AM_6
100
AcDbText
 10
16.0
 20
-7.5625
 30
0.0
 40
0.5
  1
17.3800000
100
AcDbAttributeDefinition
  3

  2
DMIN1
 70
     8
280
     0
  0
ATTDEF
  5
1DF
330
1C4
100
AcDbEntity
  8
AM_6
100
AcDbText
 10
16.0
 20
-8.0625
 30
0.0
 40
0.5
  1
19.12
100
AcDbAttributeDefinition
  3

  2
DMAX
 70
     8
280
     0
  0
ATTDEF
  5
1E0
330
1C4
100
AcDbEntity
  8
AM_6
100
AcDbText
 10
16.0
 20
-8.5625
 30
0.0
 40
0.5
  1
19.1200000
100
AcDbAttributeDefinition
  3

  2
DMAX1
 70
     8
280
     0
  0
ATTDEF
  5
1E1
330
1C4
100
AcDbEntity
  8
AM_6
100
AcDbText
 10
16.0
 20
-9.0625
 30
0.0
 40
0.5
  1
3.75
100
AcDbAttributeDefinition
  3

  2
E
 70
     8
280
     0
  0
ATTDEF
  5
1E2
330
1C4
100
AcDbEntity
  8
AM_6
100
AcDbText
 10
16.0
 20
-9.5625
 30
0.0
 40
0.5
  1
3.750000
100
AcDbAttributeDefinition
  3

  2
E1
 70
     8
280
     0
  0
ATTDEF
  5
1E3
330
1C4
100
AcDbEntity
  8
AM_6
100
AcDbText
 10
16.0
 20
-10.0625
 30
0.0
 40
0.5
  1
1
100
AcDbAttributeDefinition
  3

  2
F
 70
     8
280
     0
  0
ATTDEF
  5
1E4
330
1C4
100
AcDbEntity
  8
AM_6
100
AcDbText
 10
16.0
 20
-10.5625
 30
0.0
 40
0.5
  1
1.0000000
100
AcDbAttributeDefinition
  3

  2
F1
 70
     8
280
     0
  0
ATTDEF
  5
1E5
330
1C4
100
AcDbEntity
  8
AM_6
100
AcDbText
 10
16.0
 20
-11.0625
 30
0.0
 40
0.5
  1
2
100
AcDbAttributeDefinition
  3

  2
G
 70
     8
280
     0
  0
ATTDEF
  5
1E6
330
1C4
100
AcDbEntity
  8
AM_6
100
AcDbText
 10
16.0
 20
-11.5625
 30
0.0
 40
0.5
  1
2.000000
100
AcDbAttributeDefinition
  3

  2
G1
 70
     8
280
     0
  0
ATTDEF
  5
1E7
330
1C4
100
AcDbEntity
  8
AM_6
100
AcDbText
 10
16.0
 20
-12.0625
 30
0.0
 40
0.5
  1
3.25
100
AcDbAttributeDefinition
  3

  2
H
 70
     8
280
     0
  0
ATTDEF
  5
1E8
330
1C4
100
AcDbEntity
  8
AM_6
100
AcDbText
 10
16.0
 20
-12.5625
 30
0.0
 40
0.5
  1
3.2500000
100
AcDbAttributeDefinition
  3

  2
H1
 70
     8
280
     0
  0
ATTDEF
  5
1E9
330
1C4
100
AcDbEntity
  8
AM_6
100
AcDbText
 10
16.0
 20
-13.0625
 30
0.0
 40
0.5
  1
13.19
100
AcDbAttributeDefinition
  3

  2
J
 70
     8
280
     0
  0
ATTDEF
  5
1EA
330
1C4
100
AcDbEntity
  8
AM_6
100
AcDbText
 10
16.0
 20
-13.5625
 30
0.0
 40
0.5
  1
13.190000
100
AcDbAttributeDefinition
  3

  2
J1
 70
     8
280
     0
  0
ATTDEF
  5
1EB
330
1C4
100
AcDbEntity
  8
AM_6
100
AcDbText
 10
16.0
 20
-14.0625
 30
0.0
 40
0.5
  1
8.75
100
AcDbAttributeDefinition
  3

  2
L
 70
     8
280
     0
  0
ATTDEF
  5
1EC
330
1C4
100
AcDbEntity
  8
AM_6
100
AcDbText
 10
16.0
 20
-14.5625
 30
0.0
 40
0.5
  1
8.7500000
100
AcDbAttributeDefinition
  3

  2
L1
 70
     8
280
     0
  0
ATTDEF
  5
1ED
330
1C4
100
AcDbEntity
  8
AM_6
100
AcDbText
 10
16.0
 20
-15.0625
 30
0.0
 40
0.5
  1
6.69
100
AcDbAttributeDefinition
  3

  2
M
 70
     8
280
     0
  0
ATTDEF
  5
1EE
330
1C4
100
AcDbEntity
  8
AM_6
100
AcDbText
 10
16.0
 20
-15.5625
 30
0.0
 40
0.5
  1
6.690000
100
AcDbAttributeDefinition
  3

  2
M1
 70
     8
280
     0
  0
ATTDEF
  5
1EF
330
1C4
100
AcDbEntity
  8
AM_6
100
AcDbText
 10
16.0
 20
-16.0625
 30
0.0
 40
0.5
  1
1.4
100
AcDbAttributeDefinition
  3

  2
R
 70
     8
280
     0
  0
ATTDEF
  5
1F0
330
1C4
100
AcDbEntity
  8
AM_6
100
AcDbText
 10
16.0
 20
-16.5625
 30
0.0
 40
0.5
  1
1.400000
100
AcDbAttributeDefinition
  3

  2
R1
 70
     8
280
     0
  0
ATTDEF
  5
1F1
330
1C4
100
AcDbEntity
  8
AM_6
100
AcDbText
 10
16.0
 20
-17.0625
 30
0.0
 40
0.5
  1
4.77
100
AcDbAttributeDefinition
  3

  2
S
 70
     8
280
     0
  0
ATTDEF
  5
1F2
330
1C4
100
AcDbEntity
  8
AM_6
100
AcDbText
 10
16.0
 20
-17.5625
 30
0.0
 40
0.5
  1
4.770000
100
AcDbAttributeDefinition
  3

  2
S1
 70
     8
280
     0
  0
ATTDEF
  5
1F3
330
1C4
100
AcDbEntity
  8
AM_6
100
AcDbText
 10
16.0
 20
-18.0625
 30
0.0
 40
0.5
  1
0.38
100
AcDbAttributeDefinition
  3

  2
X
 70
     8
280
     0
  0
ATTDEF
  5
1F4
330
1C4
100
AcDbEntity
  8
AM_6
100
AcDbText
 10
16.0
 20
-18.5625
 30
0.0
 40
0.5
  1
0.380000
100
AcDbAttributeDefinition
  3

  2
X1
 70
     8
280
     0
  0
ATTDEF
  5
1F5
330
1C4
100
AcDbEntity
  8
AM_6
100
AcDbText
 10
16.0
 20
-19.0625
 30
0.0
 40
0.5
  1
0.036
100
AcDbAttributeDefinition
  3

  2
Y
 70
     8
280
     0
  0
ATTDEF
  5
1F6
330
1C4
100
AcDbEntity
  8
AM_6
100
AcDbText
 10
16.0
 20
-19.5625
 30
0.0
 40
0.5
  1
5.92
100
AcDbAttributeDefinition
  3

  2
Z
 70
     8
280
     0
  0
ATTDEF
  5
1F7
330
1C4
100
AcDbEntity
  8
AM_6
100
AcDbText
 10
16.0
 20
-20.0625
 30
0.0
 40
0.5
  1
5.920000
100
AcDbAttributeDefinition
  3

  2
Z1
 70
     8
280
     0
  0
ATTDEF
  5
1F8
330
1C4
100
AcDbEntity
  8
AM_6
100
AcDbText
 10
16.0
 20
-20.5625
 30
0.0
 40
0.5
  1
9.8425
100
AcDbAttributeDefinition
  3

  2
BORE
 70
     8
280
     0
  0
ATTDEF
  5
1F9
330
1C4
100
AcDbEntity
  8
AM_6
100
AcDbText
 10
16.0
 20
-21.0625
 30
0.0
 40
0.5
  1
0.07000
100
AcDbAttributeDefinition
  3

  2
CR
 70
     8
280
     0
  0
ATTDEF
  5
1FA
330
1C4
100
AcDbEntity
  8
AM_6
100
AcDbText
 10
16.0
 20
-21.5625
 30
0.0
 40
0.5
  1
baldor
100
AcDbAttributeDefinition
  3

  2
COMPANY
 70
     8
280
     0
  0
LINE
  5
1FB
330
1C4
100
AcDbEntity
  8
AM_9
100
AcDbLine
 10
1.624999999999994
 20
-2.44
 30
0.0
 11
1.624999999999994
 21
2.439999999999999
 31
0.0
  0
LINE
  5
1FC
330
1C4
100
AcDbEntity
  8
AM_9
100
AcDbLine
 10
-1.625
 20
-2.44
 30
0.0
 11
-1.625
 21
2.439999999999999
 31
0.0
  0
LINE
  5
1FD
330
1C4
100
AcDbEntity
  8
AM_9
100
AcDbLine
 10
4.541105225136645
 20
-2.44
 30
0.0
 11
4.541105225136645
 21
2.439999999999999
 31
0.0
  0
LINE
  5
1FE
330
1C4
100
AcDbEntity
  8
AM_9
100
AcDbLine
 10
-4.541105225136649
 20
-2.44
 30
0.0
 11
-4.541105225136649
 21
2.439999999999999
 31
0.0
  0
LINE
  5
1FF
330
1C4
100
AcDbEntity
  8
AM_9
100
AcDbLine
 10
8.69
 20
2.439999999999999
 30
0.0
 11
1.624999999999994
 21
2.439999999999999
 31
0.0
  0
LINE
  5
200
330
1C4
100
AcDbEntity
  8
AM_9
100
AcDbLine
 10
8.69
 20
-2.439999999999999
 30
0.0
 11
1.624999999999994
 21
-2.44
 31
0.0
  0
LINE
  5
201
330
1C4
100
AcDbEntity
  8
AM_9
100
AcDbLine
 10
10.125
 20
-1.875
 30
0.0
 11
10.125
 21
1.875
 31
0.0
  0
LINE
  5
202
330
1C4
100
AcDbEntity
  8
AM_9
100
AcDbLine
 10
4.982318737294915
 20
-2.44
 30
0.0
 11
4.982318737294915
 21
2.439999999999999
 31
0.0
  0
LINE
  5
203
330
1C4
100
AcDbEntity
  8
AM_9
100
AcDbLine
 10
-10.125
 20
1.875
 30
0.0
 11
-10.125
 21
-1.875
 31
0.0
  0
LINE
  5
204
330
1C4
100
AcDbEntity
  8
AM_9
100
AcDbLine
 10
-4.982318737294922
 20
-2.44
 30
0.0
 11
-4.982318737294922
 21
2.439999999999999
 31
0.0
  0
LINE
  5
205
330
1C4
100
AcDbEntity
  8
AM_9
100
AcDbLine
 10
-1.625
 20
2.439999999999999
 30
0.0
 11
-8.69
 21
2.439999999999999
 31
0.0
  0
LINE
  5
206
330
1C4
100
AcDbEntity
  8
AM_9
100
AcDbLine
 10
-1.625
 20
-2.44
 30
0.0
 11
-8.69
 21
-2.44
 31
0.0
  0
LINE
  5
207
330
1C4
100
AcDbEntity
  8
AM_9
100
AcDbLine
 10
4.92125
 20
-2.8125
 30
0.0
 11
4.92125
 21
2.8125
 31
0.0
  0
LINE
  5
208
330
1C4
100
AcDbEntity
  8
AM_9
100
AcDbLine
 10
-4.92125
 20
2.8125
 30
0.0
 11
-4.92125
 21
-2.8125
 31
0.0
  0
ELLIPSE
  5
209
330
1C4
100
AcDbEntity
  8
AM_9
100
AcDbEllipse
 10
-3.249999999999999
 20
-0.0000000000000003
 30
0.0
 11
3.061616997868389E-17
 21
0.5000000000000009
 31
0.0
210
0.0
220
0.0
230
1.0
 40
0.8660254037843178
 41
0.0
 42
3.141592653589793
  0
LWPOLYLINE
  5
20A
330
1C4
100
AcDbEntity
  8
AM_9
100
AcDbPolyline
 90
       19
 70
     0
 43
0.0
 10
-3.260674037919457
 20
0.4998478968784503
 10
-3.324830812513521
 20
0.4923666128789693
 10
-3.394399698949015
 20
0.4709338568218396
 10
-3.459388766939717
 20
0.4361193689582466
 10
-3.518154582810388
 20
0.3890903965216261
 10
-3.569192440452089
 20
0.3308511247274288
 10
-3.611157717350415
 20
0.2632916349459415
 10
-3.642892244101072
 20
0.1881039329901788
 10
-3.663686744088498
 20
0.1075858066465007
 10
-3.673383051096147
 20
0.0000000000000003
 10
-3.667489021852872
 20
-0.0837952950295833
 10
-3.650110769569777
 20
-0.1652252252097493
 10
-3.621532422312399
 20
-0.2419240980208236
 10
-3.582610710189001
 20
-0.3118190283586702
 10
-3.534086989681926
 20
-0.3729413658543488
 10
-3.477380049869836
 20
-0.4235653484076866
 10
-3.413767395651552
 20
-0.4621413546385235
 10
-3.345094595592514
 20
-0.4876716413659404
 10
-3.250000000000002
 20
-0.5000000000000013
  0
LWPOLYLINE
  5
20B
330
1C4
100
AcDbEntity
  8
AM_9
100
AcDbPolyline
 90
        3
 70
     0
 43
0.0
 10
-3.250000000000001
 20
0.5000000000000006
 10
-3.25264460378934
 20
0.4999906721438054
 10
-3.260674037919457
 20
0.4998478968784503
  0
LINE
  5
20E
330
1C4
100
AcDbEntity
  8
AM_7
100
AcDbLine
 10
0.0
 20
3.4375
 30
0.0
 11
0.0
 21
-5.080393750000001
 31
0.0
  0
LINE
  5
20F
330
1C4
100
AcDbEntity
  8
AM_7
100
AcDbLine
 10
-10.15325
 20
1.874999999999999
 30
0.0
 11
-8.09675
 21
1.875
 31
0.0
  0
LINE
  5
210
330
1C4
100
AcDbEntity
  8
AM_7
100
AcDbLine
 10
-9.56
 20
1.28175
 30
0.0
 11
-9.56
 21
2.468249999999999
 31
0.0
  0
LINE
  5
211
330
1C4
100
AcDbEntity
  8
AM_7
100
AcDbLine
 10
8.09675
 20
1.874999999999999
 30
0.0
 11
10.15325
 21
1.875
 31
0.0
  0
LINE
  5
212
330
1C4
100
AcDbEntity
  8
AM_7
100
AcDbLine
 10
9.560000000000002
 20
1.281750000000002
 30
0.0
 11
9.560000000000002
 21
2.468249999999998
 31
0.0
  0
LINE
  5
213
330
1C4
100
AcDbEntity
  8
AM_7
100
AcDbLine
 10
8.69
 20
1.28175
 30
0.0
 11
8.69
 21
2.468249999999999
 31
0.0
  0
LINE
  5
214
330
1C4
100
AcDbEntity
  8
AM_7
100
AcDbLine
 10
8.09675
 20
-1.875
 30
0.0
 11
10.15325
 21
-1.875
 31
0.0
  0
LINE
  5
215
330
1C4
100
AcDbEntity
  8
AM_7
100
AcDbLine
 10
9.560000000000002
 20
-2.468249999999998
 30
0.0
 11
9.560000000000002
 21
-1.281750000000002
 31
0.0
  0
LINE
  5
216
330
1C4
100
AcDbEntity
  8
AM_7
100
AcDbLine
 10
-10.15325
 20
-1.875
 30
0.0
 11
-8.09675
 21
-1.875
 31
0.0
  0
LINE
  5
217
330
1C4
100
AcDbEntity
  8
AM_7
100
AcDbLine
 10
-9.56
 20
-2.46825
 30
0.0
 11
-9.56
 21
-1.281750000000001
 31
0.0
  0
LINE
  5
218
330
1C4
100
AcDbEntity
  8
AM_7
100
AcDbLine
 10
-8.69
 20
-2.468249999999999
 30
0.0
 11
-8.69
 21
-1.28175
 31
0.0
  0
LINE
  5
219
330
1C4
100
AcDbEntity
  8
AM_7
100
AcDbLine
 10
-8.69
 20
1.281750000000001
 30
0.0
 11
-8.69
 21
2.468249999999999
 31
0.0
  0
LINE
  5
21A
330
1C4
100
AcDbEntity
  8
AM_7
100
AcDbLine
 10
8.689999999999998
 20
-2.468249999999998
 30
0.0
 11
8.689999999999998
 21
-1.281750000000002
 31
0.0
  0
LINE
  5
21B
330
1C4
100
AcDbEntity
  8
AM_4
100
AcDbLine
 10
11.0
 20
2.5
 30
0.0
 11
10.375
 21
3.124999999999996
 31
0.0
  0
LINE
  5
21C
330
1C4
100
AcDbEntity
  8
AM_4
100
AcDbLine
 10
11.0
 20
-2.5
 30
0.0
 11
11.0
 21
2.5
 31
0.0
  0
LINE
  5
21D
330
1C4
100
AcDbEntity
  8
AM_4
100
AcDbLine
 10
10.375
 20
-3.125000000000001
 30
0.0
 11
11.0
 21
-2.5
 31
0.0
  0
LINE
  5
21E
330
1C4
100
AcDbEntity
  8
AM_4
100
AcDbLine
 10
-11.0
 20
2.5
 30
0.0
 11
-11.0
 21
-2.5
 31
0.0
  0
LINE
  5
21F
330
1C4
100
AcDbEntity
  8
AM_4
100
AcDbLine
 10
-11.0
 20
-2.5
 30
0.0
 11
-10.375
 21
-3.125000000000001
 31
0.0
  0
LINE
  5
220
330
1C4
100
AcDbEntity
  8
AM_4
100
AcDbLine
 10
-10.375
 20
3.125000000000002
 30
0.0
 11
-11.0
 21
2.5
 31
0.0
  0
LWPOLYLINE
  5
221
330
1C4
100
AcDbEntity
  8
AM_4
100
AcDbPolyline
 90
       15
 70
     0
 43
0.0
 10
10.675
 20
2.062224007508127
 10
10.73969014035171
 20
1.743679345448617
 10
10.79357322939891
 20
1.422748055272526
 10
10.85169253896927
 20
0.9600021303641469
 10
10.87231672733881
 20
0.7271209772486719
 10
10.88724904729254
 20
0.4936745521502525
 10
10.89652265890761
 20
0.2578309741024096
 10
10.89997534828754
 20
0.0217138835837966
 10
10.89757129349217
 20
-0.215464904939807
 10
10.8892927361293
 20
-0.4524096846555824
 10
10.86161019543591
 20
-0.8560239116648439
 10
10.81681114078481
 20
-1.258636397276543
 10
10.75461604237636
 20
-1.661175719349971
 10
10.71696056709739
 20
-1.862077066521096
 10
10.675
 20
-2.062224007508128
  0
LINE
  5
222
330
1C4
100
AcDbEntity
  8
AM_4
100
AcDbLine
 10
7.137499999999999
 20
3.125
 30
0.0
 11
6.824999999999999
 21
2.8125
 31
0.0
  0
LINE
  5
223
330
1C4
100
AcDbEntity
  8
AM_4
100
AcDbLine
 10
6.824999999999999
 20
-2.8125
 30
0.0
 11
7.137499999999999
 21
-3.125
 31
0.0
  0
ARC
  5
224
330
1C4
100
AcDbEntity
  8
AM_4
100
AcDbCircle
 10
1.336904761905949
 20
-0.0000000000003411
 30
0.0
 40
9.563095238094004
100
AcDbArc
 50
340.9267284830808
 51
347.5466885242544
  0
ARC
  5
225
330
1C4
100
AcDbEntity
  8
AM_4
100
AcDbCircle
 10
1.336904761905295
 20
0.0000000000001474
 30
0.0
 40
9.563095238094684
100
AcDbArc
 50
12.45331147574584
 51
19.07327151691903
  0
LINE
  5
226
330
1C4
100
AcDbEntity
  8
AM_4
100
AcDbLine
 10
10.375
 20
3.124999999999997
 30
0.0
 11
7.137499999999999
 21
3.125
 31
0.0
  0
ARC
  5
227
330
1C4
100
AcDbEntity
  8
AM_4
100
AcDbCircle
 10
8.689999999999998
 20
-1.875
 30
0.0
 40
0.5649999999999988
100
AcDbArc
 50
90.0
 51
270.0
  0
LINE
  5
228
330
1C4
100
AcDbEntity
  8
AM_4
100
AcDbLine
 10
9.56
 20
2.44
 30
0.0
 11
8.69
 21
2.439999999999999
 31
0.0
  0
ARC
  5
229
330
1C4
100
AcDbEntity
  8
AM_4
100
AcDbCircle
 10
9.56
 20
1.875
 30
0.0
 40
0.5649999999999995
100
AcDbArc
 50
270.0
 51
90.0
  0
LINE
  5
22A
330
1C4
100
AcDbEntity
  8
AM_4
100
AcDbLine
 10
8.69
 20
1.309999999999999
 30
0.0
 11
9.56
 21
1.31
 31
0.0
  0
ARC
  5
22B
330
1C4
100
AcDbEntity
  8
AM_4
100
AcDbCircle
 10
8.689999999999998
 20
1.874999999999999
 30
0.0
 40
0.565
100
AcDbArc
 50
90.0
 51
270.0
  0
LINE
  5
22C
330
1C4
100
AcDbEntity
  8
AM_4
100
AcDbLine
 10
9.56
 20
-1.31
 30
0.0
 11
8.69
 21
-1.310000000000001
 31
0.0
  0
ARC
  5
22D
330
1C4
100
AcDbEntity
  8
AM_4
100
AcDbCircle
 10
9.56
 20
-1.875
 30
0.0
 40
0.5649999999999995
100
AcDbArc
 50
270.0
 51
90.0
  0
LINE
  5
22E
330
1C4
100
AcDbEntity
  8
AM_4
100
AcDbLine
 10
8.69
 20
-2.439999999999999
 30
0.0
 11
9.56
 21
-2.44
 31
0.0
  0
LINE
  5
22F
330
1C4
100
AcDbEntity
  8
AM_4
100
AcDbLine
 10
10.375
 20
-3.124999999999998
 30
0.0
 11
7.137499999999999
 21
-3.125
 31
0.0
  0
LINE
  5
230
330
1C4
100
AcDbEntity
  8
AM_4
100
AcDbLine
 10
10.675
 20
-2.062224007508122
 30
0.0
 11
10.675
 21
2.062224007508122
 31
0.0
  0
LWPOLYLINE
  5
231
330
1C4
100
AcDbEntity
  8
AM_4
100
AcDbPolyline
 90
       14
 70
     0
 43
0.0
 10
-10.675
 20
-2.062224007508128
 10
-10.73969014035171
 20
-1.743679345448618
 10
-10.79357322939891
 20
-1.422748055272528
 10
-10.83486978715885
 20
-1.114195350789504
 10
-10.86610729358523
 20
-0.804406641490778
 10
-10.88724904729255
 20
-0.4936745521502209
 10
-10.89831977282954
 20
-0.1784995994555584
 10
-10.89900210238625
 20
0.1371625694347718
 10
-10.8892927361293
 20
0.4524096846556475
 10
-10.86157449674012
 20
0.8564083099451628
 10
-10.8168111407848
 20
1.258636397276575
 10
-10.777199138812
 20
1.527594125911771
 10
-10.7299101762445
 20
1.795592117698811
 10
-10.675
 20
2.062224007508127
  0
LINE
  5
232
330
1C4
100
AcDbEntity
  8
AM_4
100
AcDbLine
 10
-7.137499999999999
 20
-3.125
 30
0.0
 11
-6.824999999999999
 21
-2.8125
 31
0.0
  0
LINE
  5
233
330
1C4
100
AcDbEntity
  8
AM_4
100
AcDbLine
 10
-6.824999999999999
 20
2.812500000000001
 30
0.0
 11
-7.137499999999999
 21
3.125
 31
0.0
  0
LINE
  5
234
330
1C4
100
AcDbEntity
  8
AM_4
100
AcDbLine
 10
-8.69
 20
2.44
 30
0.0
 11
-9.56
 21
2.439999999999999
 31
0.0
  0
ARC
  5
235
330
1C4
100
AcDbEntity
  8
AM_4
100
AcDbCircle
 10
-8.69
 20
1.875
 30
0.0
 40
0.5649999999999997
100
AcDbArc
 50
270.0
 51
90.0
  0
LINE
  5
236
330
1C4
100
AcDbEntity
  8
AM_4
100
AcDbLine
 10
-9.56
 20
-2.44
 30
0.0
 11
-8.69
 21
-2.44
 31
0.0
  0
ARC
  5
237
330
1C4
100
AcDbEntity
  8
AM_4
100
AcDbCircle
 10
-9.560000000000002
 20
-1.875
 30
0.0
 40
0.5649999999999997
100
AcDbArc
 50
90.0
 51
270.0
  0
LINE
  5
238
330
1C4
100
AcDbEntity
  8
AM_4
100
AcDbLine
 10
-8.69
 20
-1.31
 30
0.0
 11
-9.56
 21
-1.310000000000001
 31
0.0
  0
ARC
  5
239
330
1C4
100
AcDbEntity
  8
AM_4
100
AcDbCircle
 10
-8.69
 20
-1.875
 30
0.0
 40
0.5649999999999995
100
AcDbArc
 50
270.0
 51
90.0
  0
LINE
  5
23A
330
1C4
100
AcDbEntity
  8
AM_4
100
AcDbLine
 10
-9.56
 20
1.309999999999999
 30
0.0
 11
-8.69
 21
1.31
 31
0.0
  0
ARC
  5
23B
330
1C4
100
AcDbEntity
  8
AM_4
100
AcDbCircle
 10
-9.560000000000002
 20
1.874999999999999
 30
0.0
 40
0.565
100
AcDbArc
 50
90.0
 51
270.0
  0
ARC
  5
23C
330
1C4
100
AcDbEntity
  8
AM_4
100
AcDbCircle
 10
-1.336904761905664
 20
-0.0000000000002625
 30
0.0
 40
9.5630952380943
100
AcDbArc
 50
192.4533114757457
 51
199.0732715169191
  0
LINE
  5
23D
330
1C4
100
AcDbEntity
  8
AM_4
100
AcDbLine
 10
-7.137499999999999
 20
-3.125
 30
0.0
 11
-10.375
 21
-3.125
 31
0.0
  0
LINE
  5
23E
330
1C4
100
AcDbEntity
  8
AM_4
100
AcDbLine
 10
-7.137499999999999
 20
3.125
 30
0.0
 11
-10.375
 21
3.125000000000002
 31
0.0
  0
ARC
  5
23F
330
1C4
100
AcDbEntity
  8
AM_4
100
AcDbCircle
 10
-1.336904761904904
 20
0.000000000000056
 30
0.0
 40
9.563095238095086
100
AcDbArc
 50
160.9267284830812
 51
167.5466885242541
  0
LINE
  5
240
330
1C4
100
AcDbEntity
  8
AM_4
100
AcDbLine
 10
-10.675
 20
-2.062224007508123
 30
0.0
 11
-10.675
 21
2.062224007508121
 31
0.0
  0
LINE
  5
241
330
1C4
100
AcDbEntity
  8
AM_4
100
AcDbLine
 10
-6.597499999999998
 20
-1.875
 30
0.0
 11
-6.597499999999998
 21
1.875
 31
0.0
  0
LINE
  5
242
330
1C4
100
AcDbEntity
  8
AM_4
100
AcDbLine
 10
6.597500000000001
 20
-1.875
 30
0.0
 11
6.597500000000001
 21
1.875
 31
0.0
  0
LINE
  5
243
330
1C4
100
AcDbEntity
  8
AM_4
100
AcDbLine
 10
7.122866141049247
 20
1.874999999999998
 30
0.0
 11
7.122866141049247
 21
3.110366141049248
 31
0.0
  0
LINE
  5
244
330
1C4
100
AcDbEntity
  8
AM_4
100
AcDbLine
 10
7.122866141049247
 20
-3.110366141049248
 30
0.0
 11
7.122866141049247
 21
-1.875
 31
0.0
  0
LINE
  5
245
330
1C4
100
AcDbEntity
  8
AM_4
100
AcDbLine
 10
-7.122866141049246
 20
-3.110366141049247
 30
0.0
 11
-7.122866141049246
 21
-1.875
 31
0.0
  0
LINE
  5
246
330
1C4
100
AcDbEntity
  8
AM_4
100
AcDbLine
 10
-7.122866141049246
 20
1.875
 30
0.0
 11
-7.122866141049246
 21
3.110366141049248
 31
0.0
  0
LINE
  5
247
330
1C4
100
AcDbEntity
  8
AM_4
100
AcDbLine
 10
-6.799097326982824
 20
1.875
 30
0.0
 11
-6.799097326982824
 21
2.8125
 31
0.0
  0
LINE
  5
248
330
1C4
100
AcDbEntity
  8
AM_4
100
AcDbLine
 10
-6.799097326982824
 20
-2.8125
 30
0.0
 11
-6.799097326982824
 21
-1.875
 31
0.0
  0
LINE
  5
249
330
1C4
100
AcDbEntity
  8
AM_4
100
AcDbLine
 10
6.799097326982824
 20
1.875
 30
0.0
 11
6.799097326982824
 21
2.8125
 31
0.0
  0
LINE
  5
24A
330
1C4
100
AcDbEntity
  8
AM_4
100
AcDbLine
 10
6.799097326982824
 20
-2.8125
 30
0.0
 11
6.799097326982824
 21
-1.875
 31
0.0
  0
ELLIPSE
  5
24B
330
1C4
100
AcDbEntity
  8
AM_4
100
AcDbEllipse
 10
-3.25
 20
-0.0000000000000003
 30
0.0
 11
3.061616997868390E-17
 21
0.5000000000000011
 31
0.0
210
0.0
220
0.0
230
1.0
 40
0.8660254037844382
 41
3.141592653589793
 42
6.283185307179586
  0
ELLIPSE
  5
24C
330
1C4
100
AcDbEntity
  8
AM_4
100
AcDbEllipse
 10
-3.299999999999998
 20
0.0000000000000003
 30
0.0
 11
-7.347880794884120E-17
 21
-0.4000000000000001
 31
0.0
210
0.0
220
0.0
230
1.0
 40
0.8660254037844382
 41
0.0
 42
6.283185307179586
  0
LWPOLYLINE
  5
24D
330
1C4
100
AcDbEntity
  8
AM_4
100
AcDbPolyline
 90
       16
 70
     0
 43
0.0
 10
-3.696410161513775
 20
0.0000000000000003
 10
-3.695581849264007
 20
-0.0304950889179548
 10
-3.690094475086692
 20
-0.0839434825210896
 10
-3.679508693045077
 20
-0.1364895896061912
 10
-3.663928334128267
 20
-0.1875063017732879
 10
-3.643513743333635
 20
-0.2363946738810766
 10
-3.618484416768445
 20
-0.2825723024635197
 10
-3.589120623419765
 20
-0.3254808135371051
 10
-3.555764017539715
 20
-0.364595256187348
 10
-3.518816018825796
 20
-0.3994352189241276
 10
-3.478732774783123
 20
-0.4295767347566192
 10
-3.436016101820445
 20
-0.4546632531538027
 10
-3.391200889471027
 20
-0.4744135921615179
 10
-3.344840647323486
 20
-0.4886252103760148
 10
-3.297493587622224
 20
-0.497172329088386
 10
-3.249936612515294
 20
-0.4999999949775333
  0
LWPOLYLINE
  5
24E
330
1C4
100
AcDbEntity
  8
AM_4
100
AcDbPolyline
 90
       16
 70
     0
 43
0.0
 10
-3.252040262557237
 20
0.4999947966333744
 10
-3.285866691783063
 20
0.4983893409210728
 10
-3.33312248985776
 20
0.4912862223144083
 10
-3.379353950037769
 20
0.4786205738582452
 10
-3.424071601939625
 20
0.4605449975625087
 10
-3.466801446963787
 20
0.4372567430354697
 10
-3.507083530779916
 20
0.4090001762907136
 10
-3.544473433923617
 20
0.3760708329268568
 10
-3.57854711805544
 20
0.3388188919568849
 10
-3.608908450234425
 20
0.2976501494101971
 10
-3.635197894469492
 20
0.2530234671522223
 10
-3.657100645979504
 20
0.2054448376390415
 10
-3.674352911020643
 20
0.1554591311260072
 10
-3.686745813521567
 20
0.1036409476059289
 10
-3.694127146038443
 20
0.0505857930772393
 10
-3.696410161513775
 20
0.0000000000000003
  0
LINE
  5
24F
330
1C4
100
AcDbEntity
  8
AM_4
100
AcDbLine
 10
-6.434999999999999
 20
-1.875
 30
0.0
 11
-6.434999999999999
 21
1.875
 31
0.0
  0
LINE
  5
250
330
1C4
100
AcDbEntity
  8
AM_4
100
AcDbLine
 10
-6.434999999999999
 20
-1.875
 30
0.0
 11
-7.122866141049246
 21
-1.875
 31
0.0
  0
LINE
  5
251
330
1C4
100
AcDbEntity
  8
AM_4
100
AcDbLine
 10
-6.475376281328458
 20
-2.8125
 30
0.0
 11
-6.475376281328458
 21
-1.875
 31
0.0
  0
LINE
  5
252
330
1C4
100
AcDbEntity
  8
AM_4
100
AcDbLine
 10
-6.475376281328457
 20
1.874999999999998
 30
0.0
 11
-6.475376281328458
 21
2.8125
 31
0.0
  0
LINE
  5
253
330
1C4
100
AcDbEntity
  8
AM_4
100
AcDbLine
 10
-6.434999999999999
 20
1.875
 30
0.0
 11
-7.122866141049246
 21
1.875
 31
0.0
  0
LWPOLYLINE
  5
254
330
1C4
100
AcDbEntity
  8
AM_4
100
AcDbPolyline
 90
       20
 70
     0
 43
0.0
 10
-3.250000000000002
 20
-0.5000000000000013
 10
-3.200352323443395
 20
-0.4967193446696979
 10
-3.128423697927551
 20
-0.4800888459505522
 10
-3.059446114922848
 20
-0.4500106495276764
 10
-2.995440929278603
 20
-0.4071081592264977
 10
-2.938321501625422
 20
-0.3527893638545723
 10
-2.88981908473619
 20
-0.2882556144785297
 10
-2.851466822711305
 20
-0.2155821227681589
 10
-2.824628895902751
 20
-0.1367142984190412
 10
-2.809999985240426
 20
-0.0539706326529387
 10
-2.808226243501815
 20
0.0301103828405
 10
-2.819124975598316
 20
0.1133409250951313
 10
-2.842490445338347
 20
0.1932317517800359
 10
-2.877407556712055
 20
0.2676927100919271
 10
-2.923035741698309
 20
0.3346675049291366
 10
-2.977757169275412
 20
0.3922327841321909
 10
-3.040150652560456
 20
0.4387099850749773
 10
-3.108130382060864
 20
0.4728082029895365
 10
-3.178333478202361
 20
0.493107622758937
 10
-3.250000000000001
 20
0.5000000000000006
  0
LINE
  5
255
330
1C4
100
AcDbEntity
  8
AM_4
100
AcDbLine
 10
6.475376281328458
 20
-2.8125
 30
0.0
 11
6.475376281328458
 21
-1.875
 31
0.0
  0
LINE
  5
256
330
1C4
100
AcDbEntity
  8
AM_4
100
AcDbLine
 10
7.122866141049247
 20
-1.875
 30
0.0
 11
6.434999999999999
 21
-1.875
 31
0.0
  0
LINE
  5
257
330
1C4
100
AcDbEntity
  8
AM_4
100
AcDbLine
 10
6.434999999999999
 20
1.875
 30
0.0
 11
6.434999999999999
 21
-1.875
 31
0.0
  0
LINE
  5
258
330
1C4
100
AcDbEntity
  8
AM_4
100
AcDbLine
 10
7.122866141049247
 20
1.874999999999998
 30
0.0
 11
6.434999999999999
 21
1.875
 31
0.0
  0
LINE
  5
259
330
1C4
100
AcDbEntity
  8
AM_4
100
AcDbLine
 10
6.475376281328458
 20
1.875
 30
0.0
 11
6.475376281328458
 21
2.8125
 31
0.0
  0
LINE
  5
25A
330
1C4
100
AcDbEntity
  8
AM_4
100
AcDbLine
 10
1.640416666666667
 20
-2.8125
 30
0.0
 11
1.640416666666667
 21
2.812500000000001
 31
0.0
  0
LINE
  5
25B
330
1C4
100
AcDbEntity
  8
AM_4
100
AcDbLine
 10
1.477916666666666
 20
-2.8125
 30
0.0
 11
1.477916666666666
 21
2.812500000000001
 31
0.0
  0
LINE
  5
25C
330
1C4
100
AcDbEntity
  8
AM_4
100
AcDbLine
 10
-6.824999999999999
 20
-2.8125
 30
0.0
 11
6.824999999999999
 21
-2.8125
 31
0.0
  0
LINE
  5
25D
330
1C4
100
AcDbEntity
  8
AM_4
100
AcDbLine
 10
-1.477916666666667
 20
-2.8125
 30
0.0
 11
-1.477916666666667
 21
2.812500000000001
 31
0.0
  0
LINE
  5
25E
330
1C4
100
AcDbEntity
  8
AM_4
100
AcDbLine
 10
6.824999999999999
 20
2.8125
 30
0.0
 11
-6.824999999999999
 21
2.8125
 31
0.0
  0
LINE
  5
25F
330
1C4
100
AcDbEntity
  8
AM_4
100
AcDbLine
 10
-1.640416666666667
 20
-2.8125
 30
0.0
 11
-1.640416666666667
 21
2.812500000000001
 31
0.0
  0
ENDBLK
  5
1C7
330
1C4
100
AcDbEntity
  8
0
100
AcDbBlockEnd
  0
ENDSEC
  0
SECTION
  2
ENTITIES
  0
INSERT
  5
6F
330
1F
100
AcDbEntity
  8
0
100
AcDbBlockReference
  2
1_071610_4
 10
0.0
 20
0.0
 30
0.0
  0
POINT
  5
261
330
1F
100
AcDbEntity
  8
ConnectionPoints
100
AcDbPoint
 10
0.0
 20
-4.3805
 30
-3.697916666666666
  0
POINT
  5
262
330
1F
100
AcDbEntity
  8
ConnectionPoints
100
AcDbPoint
 10
0.0
 20
-4.3805
 30
3.697916666666667
  0
POINT
  5
263
330
1F
100
AcDbEntity
  8
ConnectionPoints
100
AcDbPoint
 10
0.0
 20
-4.310499999999999
 30
0.0000000000000003
  0
POINT
  5
264
330
1F
100
AcDbEntity
  8
ConnectionPoints
100
AcDbPoint
 10
0.0
 20
-4.77
 30
0.0000000000000003
  0
POINT
  5
265
330
1F
100
AcDbEntity
  8
ConnectionPoints
100
AcDbPoint
 10
0.0
 20
-4.509499999999999
 30
0.0000000000000003
  0
POINT
  5
266
330
1F
100
AcDbEntity
  8
ConnectionPoints
100
AcDbPoint
 10
0.0
 20
-4.310499999999999
 30
3.697916666666667
  0
POINT
  5
267
330
1F
100
AcDbEntity
  8
ConnectionPoints
100
AcDbPoint
 10
0.0
 20
-4.3105
 30
-3.697916666666667
  0
POINT
  5
268
330
1F
100
AcDbEntity
  8
ConnectionPoints
100
AcDbPoint
 10
0.0
 20
-4.310499999999999
 30
0.0000000000000003
  0
POINT
  5
269
330
1F
100
AcDbEntity
  8
ConnectionPoints
100
AcDbPoint
 10
-3.299999999999999
 20
0.0000000000000003
 30
5.715767664977294
  0
POINT
  5
26A
330
1F
100
AcDbEntity
  8
ConnectionPoints
100
AcDbPoint
 10
0.0
 20
-4.39
 30
0.0000000000000003
  0
POINT
  5
26B
330
1F
100
AcDbEntity
  8
ConnectionPoints
100
AcDbPoint
 10
0.0
 20
-4.77
 30
0.0000000000000003
  0
ENDSEC
  0
SECTION
  2
OBJECTS
  0
DICTIONARY
  5
C
330
0
100
AcDbDictionary
281
     1
  3
ACAD_DETAILVIEWSTYLE
350
273
  3
ACAD_GROUP
350
D
  3
ACAD_LAYOUT
350
1A
  3
ACAD_MATERIAL
350
43
  3
ACAD_MLEADERSTYLE
350
6B
  3
ACAD_MLINESTYLE
350
17
  3
ACAD_PLOTSETTINGS
350
19
  3
ACAD_PLOTSTYLENAME
350
E
  3
ACAD_SCALELIST
350
47
  3
ACAD_SECTIONVIEWSTYLE
350
274
  3
ACAD_TABLESTYLE
350
69
  3
ACAD_VISUALSTYLE
350
2A
  3
ACDB_RECOMPOSE_DATA
350
270
  3
AcDbVariableDictionary
350
26C
  0
SUN
  5
6D
330
29
100
AcDbSun
 90
        1
290
     0
 63
     7
421
 16777215
 40
1.0
291
     1
 91
  2455826
 92
 54000000
292
     0
 70
     2
 71
   256
280
     1
  0
DICTIONARY
  5
273
102
{ACAD_REACTORS
330
C
102
}
330
C
100
AcDbDictionary
281
     1
  0
DICTIONARY
  5
D
102
{ACAD_REACTORS
330
C
102
}
330
C
100
AcDbDictionary
281
     1
  0
DICTIONARY
  5
1A
102
{ACAD_REACTORS
330
C
102
}
330
C
100
AcDbDictionary
281
     1
  3
Layout1
350
1E
  3
Layout2
350
26
  3
Model
350
22
  0
DICTIONARY
  5
43
102
{ACAD_REACTORS
330
C
102
}
330
C
100
AcDbDictionary
281
     1
  3
ByBlock
350
45
  3
ByLayer
350
44
  3
Global
350
46
  0
DICTIONARY
  5
6B
102
{ACAD_REACTORS
330
C
102
}
330
C
100
AcDbDictionary
281
     1
  3
Standard
350
6C
  0
DICTIONARY
  5
17
102
{ACAD_REACTORS
330
C
102
}
330
C
100
AcDbDictionary
281
     1
  3
Standard
350
18
  0
DICTIONARY
  5
19
102
{ACAD_REACTORS
330
C
102
}
330
C
100
AcDbDictionary
281
     1
  0
ACDBDICTIONARYWDFLT
  5
E
102
{ACAD_REACTORS
330
C
102
}
330
C
100
AcDbDictionary
281
     1
  3
Normal
350
F
100
AcDbDictionaryWithDefault
340
F
  0
DICTIONARY
  5
47
102
{ACAD_REACTORS
330
C
102
}
330
C
100
AcDbDictionary
281
     1
  3
A0
350
48
  3
A1
350
49
  3
A2
350
4A
  3
A3
350
4B
  3
A4
350
4C
  3
A5
350
4D
  3
A6
350
4E
  3
A7
350
4F
  3
A8
350
50
  3
A9
350
51
  3
B0
350
52
  3
B1
350
53
  3
B2
350
54
  3
B3
350
55
  3
B4
350
56
  3
B5
350
57
  3
B6
350
58
  3
B7
350
59
  3
B8
350
5A
  3
B9
350
5B
  3
C0
350
5C
  3
C1
350
5D
  3
C2
350
5E
  3
C3
350
5F
  3
C4
350
60
  3
C5
350
61
  3
C6
350
62
  3
C7
350
63
  3
C8
350
64
  3
C9
350
65
  3
D0
350
66
  3
D1
350
67
  3
D2
350
68
  0
DICTIONARY
  5
274
102
{ACAD_REACTORS
330
C
102
}
330
C
100
AcDbDictionary
281
     1
  0
DICTIONARY
  5
69
102
{ACAD_REACTORS
330
C
102
}
330
C
100
AcDbDictionary
281
     1
  3
Standard
350
6A
  0
DICTIONARY
  5
2A
102
{ACAD_REACTORS
330
C
102
}
330
C
100
AcDbDictionary
281
     1
  3
2dWireframe
350
2F
  3
Basic
350
32
  3
Brighten
350
36
  3
ColorChange
350
3A
  3
Conceptual
350
34
  3
Dim
350
35
  3
EdgeColorOff
350
3D
  3
Facepattern
350
39
  3
Flat
350
2B
  3
FlatWithEdges
350
2C
  3
Gouraud
350
2D
  3
GouraudWithEdges
350
2E
  3
Hidden
350
31
  3
JitterOff
350
3B
  3
Linepattern
350
38
  3
OverhangOff
350
3C
  3
Realistic
350
33
  3
Shaded
350
42
  3
Shaded with edges
350
41
  3
Shades of Gray
350
3E
  3
Sketchy
350
3F
  3
Thicken
350
37
  3
Wireframe
350
30
  3
X-Ray
350
40
  0
XRECORD
  5
270
102
{ACAD_REACTORS
330
C
102
}
330
C
100
AcDbXrecord
280
     1
 90
        1
330
6A
  0
DICTIONARY
  5
26C
102
{ACAD_REACTORS
330
C
102
}
330
C
100
AcDbDictionary
281
     1
  3
CANNOSCALE
350
26D
  3
CMLEADERSTYLE
350
272
  3
CTABLESTYLE
350
271
  0
LAYOUT
  5
1E
102
{ACAD_REACTORS
330
1A
102
}
330
1A
100
AcDbPlotSettings
  1

  2
none_device
  4

  6

 40
0.0
 41
0.0
 42
0.0
 43
0.0
 44
0.0
 45
0.0
 46
0.0
 47
0.0
 48
0.0
 49
0.0
140
0.0
141
0.0
142
1.0
143
1.0
 70
   688
 72
     0
 73
     0
 74
     5
  7

 75
    16
 76
     0
 77
     2
 78
   300
147
1.0
148
0.0
149
0.0
100
AcDbLayout
  1
Layout1
 70
     1
 71
     1
 10
0.0
 20
0.0
 11
12.0
 21
9.0
 12
0.0
 22
0.0
 32
0.0
 14
1.000000000000000E+20
 24
1.000000000000000E+20
 34
1.000000000000000E+20
 15
-1.000000000000000E+20
 25
-1.000000000000000E+20
 35
-1.000000000000000E+20
146
0.0
 13
0.0
 23
0.0
 33
0.0
 16
1.0
 26
0.0
 36
0.0
 17
0.0
 27
1.0
 37
0.0
 76
     0
330
1B
  0
LAYOUT
  5
26
102
{ACAD_REACTORS
330
1A
102
}
330
1A
100
AcDbPlotSettings
  1

  2
none_device
  4

  6

 40
0.0
 41
0.0
 42
0.0
 43
0.0
 44
0.0
 45
0.0
 46
0.0
 47
0.0
 48
0.0
 49
0.0
140
0.0
141
0.0
142
1.0
143
1.0
 70
   688
 72
     0
 73
     0
 74
     5
  7

 75
    16
 76
     0
 77
     2
 78
   300
147
1.0
148
0.0
149
0.0
100
AcDbLayout
  1
Layout2
 70
     1
 71
     2
 10
0.0
 20
0.0
 11
0.0
 21
0.0
 12
0.0
 22
0.0
 32
0.0
 14
0.0
 24
0.0
 34
0.0
 15
0.0
 25
0.0
 35
0.0
146
0.0
 13
0.0
 23
0.0
 33
0.0
 16
1.0
 26
0.0
 36
0.0
 17
0.0
 27
1.0
 37
0.0
 76
     0
330
23
  0
LAYOUT
  5
22
102
{ACAD_REACTORS
330
1A
102
}
330
1A
100
AcDbPlotSettings
  1

  2
none_device
  4
Letter_(8.50_x_11.00_Inches)
  6

 40
6.35
 41
6.35
 42
6.35000508
 43
6.35000508
 44
215.9
 45
279.4
 46
0.0
 47
0.0
 48
0.0
 49
0.0
140
0.0
141
0.0
142
1.0
143
1.0
 70
  1712
 72
     0
 73
     0
 74
     0
  7

 75
     0
 76
     0
 77
     2
 78
   300
147
1.0
148
0.0
149
0.0
100
AcDbLayout
  1
Model
 70
     1
 71
     0
 10
0.0
 20
0.0
 11
12.0
 21
9.0
 12
0.0
 22
0.0
 32
0.0
 14
1.000000000000000E+20
 24
1.000000000000000E+20
 34
1.000000000000000E+20
 15
-1.000000000000000E+20
 25
-1.000000000000000E+20
 35
-1.000000000000000E+20
146
0.0
 13
0.0
 23
0.0
 33
0.0
 16
1.0
 26
0.0
 36
0.0
 17
0.0
 27
1.0
 37
0.0
 76
     0
330
1F
331
29
  0
MATERIAL
  5
45
102
{ACAD_REACTORS
330
43
102
}
330
43
100
AcDbMaterial
  1
ByBlock
 72
     1
 94
      127
  0
MATERIAL
  5
44
102
{ACAD_REACTORS
330
43
102
}
330
43
100
AcDbMaterial
  1
ByLayer
 72
     1
 94
      127
  0
MATERIAL
  5
46
102
{ACAD_REACTORS
330
43
102
}
330
43
100
AcDbMaterial
  1
Global
 72
     1
 94
      127
  0
MLEADERSTYLE
  5
6C
102
{ACAD_REACTORS
330
6B
102
}
330
6B
100
AcDbMLeaderStyle
179
     2
170
     2
171
     1
172
     0
 90
        2
 40
0.0
 41
0.0
173
     1
 91
-1056964608
340
14
 92
       -2
290
     1
 42
0.09
291
     1
 43
0.36
  3
Standard
341
0
 44
0.18
300

342
11
174
     1
178
     6
175
     1
176
     0
 93
-1056964608
 45
0.18
292
     0
297
     0
 46
0.18
343
0
 94
-1056964608
 47
1.0
 49
1.0
140
1.0
293
     1
141
0.0
294
     1
177
     0
142
1.0
295
     0
296
     0
143
0.125
271
     0
272
     9
273
     9
298
     0
  0
MLINESTYLE
  5
18
102
{ACAD_REACTORS
330
17
102
}
330
17
100
AcDbMlineStyle
  2
Standard
 70
     0
  3

 62
   256
 51
90.0
 52
90.0
 71
     2
 49
0.5
 62
   256
  6
BYLAYER
 49
-0.5
 62
   256
  6
BYLAYER
  0
ACDBPLACEHOLDER
  5
F
102
{ACAD_REACTORS
330
E
102
}
330
E
  0
SCALE
  5
48
102
{ACAD_REACTORS
330
47
102
}
330
47
100
AcDbScale
 70
     0
300
1:1
140
1.0
141
1.0
290
     1
  0
SCALE
  5
49
102
{ACAD_REACTORS
330
47
102
}
330
47
100
AcDbScale
 70
     0
300
1:2
140
1.0
141
2.0
290
     0
  0
SCALE
  5
4A
102
{ACAD_REACTORS
330
47
102
}
330
47
100
AcDbScale
 70
     0
300
1:4
140
1.0
141
4.0
290
     0
  0
SCALE
  5
4B
102
{ACAD_REACTORS
330
47
102
}
330
47
100
AcDbScale
 70
     0
300
1:5
140
1.0
141
5.0
290
     0
  0
SCALE
  5
4C
102
{ACAD_REACTORS
330
47
102
}
330
47
100
AcDbScale
 70
     0
300
1:8
140
1.0
141
8.0
290
     0
  0
SCALE
  5
4D
102
{ACAD_REACTORS
330
47
102
}
330
47
100
AcDbScale
 70
     0
300
1:10
140
1.0
141
10.0
290
     0
  0
SCALE
  5
4E
102
{ACAD_REACTORS
330
47
102
}
330
47
100
AcDbScale
 70
     0
300
1:16
140
1.0
141
16.0
290
     0
  0
SCALE
  5
4F
102
{ACAD_REACTORS
330
47
102
}
330
47
100
AcDbScale
 70
     0
300
1:20
140
1.0
141
20.0
290
     0
  0
SCALE
  5
50
102
{ACAD_REACTORS
330
47
102
}
330
47
100
AcDbScale
 70
     0
300
1:30
140
1.0
141
30.0
290
     0
  0
SCALE
  5
51
102
{ACAD_REACTORS
330
47
102
}
330
47
100
AcDbScale
 70
     0
300
1:40
140
1.0
141
40.0
290
     0
  0
SCALE
  5
52
102
{ACAD_REACTORS
330
47
102
}
330
47
100
AcDbScale
 70
     0
300
1:50
140
1.0
141
50.0
290
     0
  0
SCALE
  5
53
102
{ACAD_REACTORS
330
47
102
}
330
47
100
AcDbScale
 70
     0
300
1:100
140
1.0
141
100.0
290
     0
  0
SCALE
  5
54
102
{ACAD_REACTORS
330
47
102
}
330
47
100
AcDbScale
 70
     0
300
2:1
140
2.0
141
1.0
290
     0
  0
SCALE
  5
55
102
{ACAD_REACTORS
330
47
102
}
330
47
100
AcDbScale
 70
     0
300
4:1
140
4.0
141
1.0
290
     0
  0
SCALE
  5
56
102
{ACAD_REACTORS
330
47
102
}
330
47
100
AcDbScale
 70
     0
300
8:1
140
8.0
141
1.0
290
     0
  0
SCALE
  5
57
102
{ACAD_REACTORS
330
47
102
}
330
47
100
AcDbScale
 70
     0
300
10:1
140
10.0
141
1.0
290
     0
  0
SCALE
  5
58
102
{ACAD_REACTORS
330
47
102
}
330
47
100
AcDbScale
 70
     0
300
100:1
140
100.0
141
1.0
290
     0
  0
SCALE
  5
59
102
{ACAD_REACTORS
330
47
102
}
330
47
100
AcDbScale
 70
     0
300
1/128" = 1'-0"
140
0.0078125
141
12.0
290
     0
  0
SCALE
  5
5A
102
{ACAD_REACTORS
330
47
102
}
330
47
100
AcDbScale
 70
     0
300
1/64" = 1'-0"
140
0.015625
141
12.0
290
     0
  0
SCALE
  5
5B
102
{ACAD_REACTORS
330
47
102
}
330
47
100
AcDbScale
 70
     0
300
1/32" = 1'-0"
140
0.03125
141
12.0
290
     0
  0
SCALE
  5
5C
102
{ACAD_REACTORS
330
47
102
}
330
47
100
AcDbScale
 70
     0
300
1/16" = 1'-0"
140
0.0625
141
12.0
290
     0
  0
SCALE
  5
5D
102
{ACAD_REACTORS
330
47
102
}
330
47
100
AcDbScale
 70
     0
300
3/32" = 1'-0"
140
0.09375
141
12.0
290
     0
  0
SCALE
  5
5E
102
{ACAD_REACTORS
330
47
102
}
330
47
100
AcDbScale
 70
     0
300
1/8" = 1'-0"
140
0.125
141
12.0
290
     0
  0
SCALE
  5
5F
102
{ACAD_REACTORS
330
47
102
}
330
47
100
AcDbScale
 70
     0
300
3/16" = 1'-0"
140
0.1875
141
12.0
290
     0
  0
SCALE
  5
60
102
{ACAD_REACTORS
330
47
102
}
330
47
100
AcDbScale
 70
     0
300
1/4" = 1'-0"
140
0.25
141
12.0
290
     0
  0
SCALE
  5
61
102
{ACAD_REACTORS
330
47
102
}
330
47
100
AcDbScale
 70
     0
300
3/8" = 1'-0"
140
0.375
141
12.0
290
     0
  0
SCALE
  5
62
102
{ACAD_REACTORS
330
47
102
}
330
47
100
AcDbScale
 70
     0
300
1/2" = 1'-0"
140
0.5
141
12.0
290
     0
  0
SCALE
  5
63
102
{ACAD_REACTORS
330
47
102
}
330
47
100
AcDbScale
 70
     0
300
3/4" = 1'-0"
140
0.75
141
12.0
290
     0
  0
SCALE
  5
64
102
{ACAD_REACTORS
330
47
102
}
330
47
100
AcDbScale
 70
     0
300
1" = 1'-0"
140
1.0
141
12.0
290
     0
  0
SCALE
  5
65
102
{ACAD_REACTORS
330
47
102
}
330
47
100
AcDbScale
 70
     0
300
1-1/2" = 1'-0"
140
1.5
141
12.0
290
     0
  0
SCALE
  5
66
102
{ACAD_REACTORS
330
47
102
}
330
47
100
AcDbScale
 70
     0
300
3" = 1'-0"
140
3.0
141
12.0
290
     0
  0
SCALE
  5
67
102
{ACAD_REACTORS
330
47
102
}
330
47
100
AcDbScale
 70
     0
300
6" = 1'-0"
140
6.0
141
12.0
290
     0
  0
SCALE
  5
68
102
{ACAD_REACTORS
330
47
102
}
330
47
100
AcDbScale
 70
     0
300
1'-0" = 1'-0"
140
12.0
141
12.0
290
     0
  0
TABLESTYLE
  5
6A
102
{ACAD_REACTORS
330
69
102
}
102
{ACAD_XDICTIONARY
360
26E
102
}
330
69
100
AcDbTableStyle
  3
Standard
 70
     0
 71
     0
 40
0.06
 41
0.06
280
     0
281
     0
  7
Standard
140
0.18
170
     2
 62
     0
 63
   257
283
     0
 90
        4
 91
        0
  1

274
    -2
284
     1
 64
     0
275
    -2
285
     1
 65
     0
276
    -2
286
     1
 66
     0
277
    -2
287
     1
 67
     0
278
    -2
288
     1
 68
     0
279
    -2
289
     1
 69
     0
  7
Standard
140
0.25
170
     5
 62
     0
 63
   257
283
     0
 90
        4
 91
        0
  1

274
    -2
284
     1
 64
     0
275
    -2
285
     1
 65
     0
276
    -2
286
     1
 66
     0
277
    -2
287
     1
 67
     0
278
    -2
288
     1
 68
     0
279
    -2
289
     1
 69
     0
  7
Standard
140
0.18
170
     5
 62
     0
 63
   257
283
     0
 90
        4
 91
        0
  1

274
    -2
284
     1
 64
     0
275
    -2
285
     1
 65
     0
276
    -2
286
     1
 66
     0
277
    -2
287
     1
 67
     0
278
    -2
288
     1
 68
     0
279
    -2
289
     1
 69
     0
  0
VISUALSTYLE
  5
2F
102
{ACAD_REACTORS
330
2A
102
}
330
2A
100
AcDbVisualStyle
  2
2dWireframe
 70
     4
177
     3
291
     0
 70
    58
 90
        0
176
     1
 90
        2
176
     1
 90
        0
176
     1
 90
        0
176
     1
 40
0.6
176
     1
 40
30.0
176
     1
 62
     7
420
 16777215
176
     1
 90
        1
176
     1
 90
        4
176
     1
 62
     7
176
     1
 62
   257
176
     1
 90
        1
176
     1
 90
        1
176
     1
 40
1.0
176
     1
 90
        0
176
     1
 62
   257
176
     1
 40
1.0
176
     1
 90
        1
176
     1
 90
        6
176
     1
 90
        2
176
     1
 62
     7
176
     1
 90
        5
176
     1
 90
        0
176
     1
 90
        0
176
     1
290
     0
176
     1
 90
        1
176
     1
 40
0.0
176
     1
 90
        0
176
     1
290
     1
176
     1
290
     1
176
     1
290
     0
176
     1
290
     0
176
     1
290
     0
176
     1
290
     0
176
     1
290
     0
176
     1
290
     0
176
     1
290
     0
176
     1
 90
       50
176
     1
 40
0.0
176
     1
 40
1.0
176
     1
 90
        0
176
     1
 62
    18
420
        0
176
     1
 90
       50
176
     1
 90
        3
176
     1
 62
     5
420
      255
176
     1
290
     0
176
     1
 90
       50
176
     1
 90
       50
176
     1
 90
       50
176
     1
290
     0
176
     1
 90
       50
176
     1
 62
   256
176
     0
 40
1.0
176
     0
 90
        2
176
     1
  1
strokes_ogs.tif
176
     1
290
     0
176
     1
 40
1.0
176
     1
 40
1.0
176
     1
  0
VISUALSTYLE
  5
32
102
{ACAD_REACTORS
330
2A
102
}
330
2A
100
AcDbVisualStyle
  2
Basic
 70
     7
177
     3
291
     1
 70
    58
 90
        1
176
     1
 90
        0
176
     1
 90
        1
176
     1
 90
        0
176
     1
 40
0.6
176
     1
 40
30.0
176
     1
 62
     7
420
 16777215
176
     1
 90
        0
176
     1
 90
        4
176
     1
 62
     7
176
     1
 62
   257
176
     1
 90
        1
176
     1
 90
        1
176
     1
 40
1.0
176
     1
 90
        8
176
     1
 62
     7
176
     1
 40
1.0
176
     1
 90
        1
176
     1
 90
        6
176
     1
 90
        2
176
     1
 62
     7
176
     1
 90
        5
176
     1
 90
        0
176
     1
 90
        0
176
     1
290
     0
176
     1
 90
        1
176
     1
 40
0.0
176
     1
 90
        0
176
     1
290
     0
176
     1
290
     1
176
     1
290
     1
176
     1
290
     0
176
     1
290
     0
176
     1
290
     0
176
     1
290
     0
176
     1
290
     0
176
     1
290
     0
176
     1
 90
       50
176
     1
 40
0.0
176
     1
 40
1.0
176
     1
 90
        0
176
     1
 62
    18
420
        0
176
     1
 90
       50
176
     1
 90
        3
176
     1
 62
     5
420
      255
176
     1
290
     0
176
     1
 90
       50
176
     1
 90
       50
176
     1
 90
       50
176
     1
290
     0
176
     1
 90
       50
176
     1
 62
   256
176
     0
 40
1.0
176
     0
 90
        2
176
     1
  1
strokes_ogs.tif
176
     1
290
     0
176
     1
 40
1.0
176
     1
 40
1.0
176
     1
  0
VISUALSTYLE
  5
36
102
{ACAD_REACTORS
330
2A
102
}
330
2A
100
AcDbVisualStyle
  2
Brighten
 70
    12
177
     3
291
     1
 70
    58
 90
        2
176
     1
 90
        2
176
     1
 90
        0
176
     1
 90
        0
176
     1
 40
0.6
176
     1
 40
30.0
176
     1
 62
     7
420
 16777215
176
     1
 90
        1
176
     1
 90
        4
176
     1
 62
     7
176
     1
 62
   257
176
     1
 90
        1
176
     1
 90
        1
176
     1
 40
1.0
176
     1
 90
        8
176
     1
 62
     7
176
     1
 40
1.0
176
     1
 90
        1
176
     1
 90
        6
176
     1
 90
        2
176
     1
 62
     7
176
     1
 90
        5
176
     1
 90
        0
176
     1
 90
        0
176
     1
290
     0
176
     1
 90
        1
176
     1
 40
50.0
176
     1
 90
        0
176
     1
290
     0
176
     1
290
     1
176
     1
290
     1
176
     1
290
     0
176
     1
290
     0
176
     1
290
     0
176
     1
290
     0
176
     1
290
     0
176
     1
290
     0
176
     1
 90
       50
176
     1
 40
0.0
176
     1
 40
1.0
176
     1
 90
        0
176
     1
 62
    18
420
        0
176
     1
 90
       50
176
     1
 90
        3
176
     1
 62
     5
420
      255
176
     1
290
     0
176
     1
 90
       50
176
     1
 90
       50
176
     1
 90
       50
176
     1
290
     0
176
     1
 90
       50
176
     1
 62
   256
176
     0
 40
1.0
176
     0
 90
        2
176
     1
  1
strokes_ogs.tif
176
     1
290
     0
176
     1
 40
1.0
176
     1
 40
1.0
176
     1
  0
VISUALSTYLE
  5
3A
102
{ACAD_REACTORS
330
2A
102
}
330
2A
100
AcDbVisualStyle
  2
ColorChange
 70
    16
177
     3
291
     1
 70
    58
 90
        2
176
     1
 90
        2
176
     1
 90
        3
176
     1
 90
        0
176
     1
 40
0.6
176
     1
 40
30.0
176
     1
 62
     8
420
  8421504
176
     1
 90
        1
176
     1
 90
        4
176
     1
 62
     7
176
     1
 62
   257
176
     1
 90
        1
176
     1
 90
        1
176
     1
 40
1.0
176
     1
 90
        8
176
     1
 62
     8
420
  8421504
176
     1
 40
1.0
176
     1
 90
        1
176
     1
 90
        6
176
     1
 90
        2
176
     1
 62
     7
176
     1
 90
        5
176
     1
 90
        0
176
     1
 90
        0
176
     1
290
     0
176
     1
 90
        1
176
     1
 40
0.0
176
     1
 90
        0
176
     1
290
     0
176
     1
290
     1
176
     1
290
     1
176
     1
290
     0
176
     1
290
     0
176
     1
290
     0
176
     1
290
     0
176
     1
290
     0
176
     1
290
     0
176
     1
 90
       50
176
     1
 40
0.0
176
     1
 40
1.0
176
     1
 90
        0
176
     1
 62
    18
420
        0
176
     1
 90
       50
176
     1
 90
        3
176
     1
 62
     5
420
      255
176
     1
290
     0
176
     1
 90
       50
176
     1
 90
       50
176
     1
 90
       50
176
     1
290
     0
176
     1
 90
       50
176
     1
 62
   256
176
     0
 40
1.0
176
     0
 90
        2
176
     1
  1
strokes_ogs.tif
176
     1
290
     0
176
     1
 40
1.0
176
     1
 40
1.0
176
     1
  0
VISUALSTYLE
  5
34
102
{ACAD_REACTORS
330
2A
102
}
330
2A
100
AcDbVisualStyle
  2
Conceptual
 70
     9
177
     3
291
     0
 70
    58
 90
        3
176
     1
 90
        2
176
     1
 90
        0
176
     1
 90
        0
176
     1
 40
0.6
176
     1
 40
30.0
176
     1
 62
     7
420
 16777215
176
     1
 90
        2
176
     1
 90
        2
176
     1
 62
     7
176
     1
 62
   257
176
     1
 90
        1
176
     1
 90
        1
176
     1
 40
179.0
176
     1
 90
        8
176
     1
 62
     7
176
     1
 40
1.0
176
     1
 90
        1
176
     1
 90
        6
176
     1
 90
        2
176
     1
 62
     7
176
     1
 90
        3
176
     1
 90
        0
176
     1
 90
        0
176
     1
290
     0
176
     1
 90
        1
176
     1
 40
0.0
176
     1
 90
        0
176
     1
290
     0
176
     1
290
     1
176
     1
290
     1
176
     1
290
     0
176
     1
290
     0
176
     1
290
     0
176
     1
290
     0
176
     1
290
     0
176
     1
290
     0
176
     1
 90
       50
176
     1
 40
0.0
176
     1
 40
1.0
176
     1
 90
        0
176
     1
 62
    18
420
        0
176
     1
 90
       50
176
     1
 90
        3
176
     1
 62
     5
420
      255
176
     1
290
     0
176
     1
 90
       50
176
     1
 90
       50
176
     1
 90
       50
176
     1
290
     0
176
     1
 90
       50
176
     1
 62
   256
176
     0
 40
1.0
176
     0
 90
        2
176
     1
  1
strokes_ogs.tif
176
     1
290
     0
176
     1
 40
1.0
176
     1
 40
1.0
176
     1
  0
VISUALSTYLE
  5
35
102
{ACAD_REACTORS
330
2A
102
}
330
2A
100
AcDbVisualStyle
  2
Dim
 70
    11
177
     3
291
     1
 70
    58
 90
        2
176
     1
 90
        2
176
     1
 90
        0
176
     1
 90
        0
176
     1
 40
0.6
176
     1
 40
30.0
176
     1
 62
     7
420
 16777215
176
     1
 90
        1
176
     1
 90
        4
176
     1
 62
     7
176
     1
 62
   257
176
     1
 90
        1
176
     1
 90
        1
176
     1
 40
1.0
176
     1
 90
        8
176
     1
 62
     7
176
     1
 40
1.0
176
     1
 90
        1
176
     1
 90
        6
176
     1
 90
        2
176
     1
 62
     7
176
     1
 90
        5
176
     1
 90
        0
176
     1
 90
        0
176
     1
290
     0
176
     1
 90
        1
176
     1
 40
-50.0
176
     1
 90
        0
176
     1
290
     0
176
     1
290
     1
176
     1
290
     1
176
     1
290
     0
176
     1
290
     0
176
     1
290
     0
176
     1
290
     0
176
     1
290
     0
176
     1
290
     0
176
     1
 90
       50
176
     1
 40
0.0
176
     1
 40
1.0
176
     1
 90
        0
176
     1
 62
    18
420
        0
176
     1
 90
       50
176
     1
 90
        3
176
     1
 62
     5
420
      255
176
     1
290
     0
176
     1
 90
       50
176
     1
 90
       50
176
     1
 90
       50
176
     1
290
     0
176
     1
 90
       50
176
     1
 62
   256
176
     0
 40
1.0
176
     0
 90
        2
176
     1
  1
strokes_ogs.tif
176
     1
290
     0
176
     1
 40
1.0
176
     1
 40
1.0
176
     1
  0
VISUALSTYLE
  5
3D
102
{ACAD_REACTORS
330
2A
102
}
330
2A
100
AcDbVisualStyle
  2
EdgeColorOff
 70
    22
177
     3
291
     1
 70
    58
 90
        2
176
     0
 90
        2
176
     0
 90
        0
176
     0
 90
        0
176
     0
 40
0.6
176
     0
 40
30.0
176
     0
 62
     7
420
 16777215
176
     0
 90
        1
176
     0
 90
        4
176
     0
 62
     7
176
     0
 62
   257
176
     0
 90
        1
176
     0
 90
        1
176
     0
 40
1.0
176
     0
 90
        8
176
     2
 62
     7
176
     0
 40
1.0
176
     0
 90
        1
176
     0
 90
        6
176
     0
 90
        2
176
     0
 62
     7
176
     0
 90
        5
176
     0
 90
        0
176
     0
 90
        0
176
     0
290
     0
176
     0
 90
        1
176
     0
 40
0.0
176
     0
 90
        0
176
     0
290
     0
176
     0
290
     1
176
     0
290
     1
176
     0
290
     0
176
     0
290
     0
176
     0
290
     0
176
     0
290
     0
176
     0
290
     0
176
     0
290
     0
176
     0
 90
       50
176
     0
 40
0.0
176
     0
 40
1.0
176
     0
 90
        0
176
     0
 62
    18
420
        0
176
     0
 90
       50
176
     0
 90
        3
176
     0
 62
     5
420
      255
176
     0
290
     0
176
     0
 90
       50
176
     0
 90
       50
176
     0
 90
       50
176
     0
290
     0
176
     0
 90
       50
176
     0
 62
   256
176
     0
 40
1.0
176
     0
 90
        2
176
     0
  1
strokes_ogs.tif
176
     0
290
     0
176
     0
 40
1.0
176
     0
 40
1.0
176
     0
  0
VISUALSTYLE
  5
39
102
{ACAD_REACTORS
330
2A
102
}
330
2A
100
AcDbVisualStyle
  2
Facepattern
 70
    15
177
     3
291
     1
 70
    58
 90
        2
176
     1
 90
        2
176
     1
 90
        0
176
     1
 90
        0
176
     1
 40
0.6
176
     1
 40
30.0
176
     1
 62
     7
420
 16777215
176
     1
 90
        1
176
     1
 90
        4
176
     1
 62
     7
176
     1
 62
   257
176
     1
 90
        1
176
     1
 90
        1
176
     1
 40
1.0
176
     1
 90
        8
176
     1
 62
     7
176
     1
 40
1.0
176
     1
 90
        1
176
     1
 90
        6
176
     1
 90
        2
176
     1
 62
     7
176
     1
 90
        5
176
     1
 90
        0
176
     1
 90
        0
176
     1
290
     0
176
     1
 90
        1
176
     1
 40
0.0
176
     1
 90
        0
176
     1
290
     0
176
     1
290
     1
176
     1
290
     1
176
     1
290
     0
176
     1
290
     0
176
     1
290
     0
176
     1
290
     0
176
     1
290
     0
176
     1
290
     0
176
     1
 90
       50
176
     1
 40
0.0
176
     1
 40
1.0
176
     1
 90
        0
176
     1
 62
    18
420
        0
176
     1
 90
       50
176
     1
 90
        3
176
     1
 62
     5
420
      255
176
     1
290
     0
176
     1
 90
       50
176
     1
 90
       50
176
     1
 90
       50
176
     1
290
     0
176
     1
 90
       50
176
     1
 62
   256
176
     0
 40
1.0
176
     0
 90
        2
176
     1
  1
strokes_ogs.tif
176
     1
290
     0
176
     1
 40
1.0
176
     1
 40
1.0
176
     1
  0
VISUALSTYLE
  5
2B
102
{ACAD_REACTORS
330
2A
102
}
330
2A
100
AcDbVisualStyle
  2
Flat
 70
     0
177
     3
291
     1
 70
    58
 90
        2
176
     1
 90
        1
176
     1
 90
        1
176
     1
 90
        2
176
     1
 40
0.6
176
     1
 40
30.0
176
     1
 62
     7
420
 16777215
176
     1
 90
        0
176
     1
 90
        0
176
     1
 62
     7
176
     1
 62
   257
176
     1
 90
        1
176
     1
 90
        1
176
     1
 40
1.0
176
     1
 90
        8
176
     1
 62
     7
176
     1
 40
1.0
176
     1
 90
        1
176
     1
 90
        6
176
     1
 90
        2
176
     1
 62
     7
176
     1
 90
        5
176
     1
 90
        0
176
     1
 90
        0
176
     1
290
     0
176
     1
 90
       13
176
     1
 40
0.0
176
     1
 90
        0
176
     1
290
     0
176
     1
290
     1
176
     1
290
     1
176
     1
290
     0
176
     1
290
     0
176
     1
290
     0
176
     1
290
     0
176
     1
290
     0
176
     1
290
     0
176
     1
 90
       50
176
     1
 40
0.0
176
     1
 40
1.0
176
     1
 90
        0
176
     1
 62
    18
420
        0
176
     1
 90
       50
176
     1
 90
        3
176
     1
 62
     5
420
      255
176
     1
290
     0
176
     1
 90
       50
176
     1
 90
       50
176
     1
 90
       50
176
     1
290
     0
176
     1
 90
       50
176
     1
 62
   256
176
     0
 40
1.0
176
     0
 90
        2
176
     1
  1
strokes_ogs.tif
176
     1
290
     0
176
     1
 40
1.0
176
     1
 40
1.0
176
     1
  0
VISUALSTYLE
  5
2C
102
{ACAD_REACTORS
330
2A
102
}
330
2A
100
AcDbVisualStyle
  2
FlatWithEdges
 70
     1
177
     3
291
     1
 70
    58
 90
        2
176
     1
 90
        1
176
     1
 90
        1
176
     1
 90
        2
176
     1
 40
0.6
176
     1
 40
30.0
176
     1
 62
     7
420
 16777215
176
     1
 90
        1
176
     1
 90
        0
176
     1
 62
     7
176
     1
 62
   257
176
     1
 90
        1
176
     1
 90
        1
176
     1
 40
1.0
176
     1
 90
        0
176
     1
 62
   257
176
     1
 40
1.0
176
     1
 90
        1
176
     1
 90
        6
176
     1
 90
        2
176
     1
 62
     7
176
     1
 90
        5
176
     1
 90
        0
176
     1
 90
        0
176
     1
290
     0
176
     1
 90
       13
176
     1
 40
0.0
176
     1
 90
        0
176
     1
290
     0
176
     1
290
     1
176
     1
290
     1
176
     1
290
     0
176
     1
290
     0
176
     1
290
     0
176
     1
290
     0
176
     1
290
     0
176
     1
290
     0
176
     1
 90
       50
176
     1
 40
0.0
176
     1
 40
1.0
176
     1
 90
        0
176
     1
 62
    18
420
        0
176
     1
 90
       50
176
     1
 90
        3
176
     1
 62
     5
420
      255
176
     1
290
     0
176
     1
 90
       50
176
     1
 90
       50
176
     1
 90
       50
176
     1
290
     0
176
     1
 90
       50
176
     1
 62
   256
176
     0
 40
1.0
176
     0
 90
        2
176
     1
  1
strokes_ogs.tif
176
     1
290
     0
176
     1
 40
1.0
176
     1
 40
1.0
176
     1
  0
VISUALSTYLE
  5
2D
102
{ACAD_REACTORS
330
2A
102
}
330
2A
100
AcDbVisualStyle
  2
Gouraud
 70
     2
177
     3
291
     1
 70
    58
 90
        2
176
     1
 90
        2
176
     1
 90
        1
176
     1
 90
        2
176
     1
 40
0.6
176
     1
 40
30.0
176
     1
 62
     7
420
 16777215
176
     1
 90
        0
176
     1
 90
        0
176
     1
 62
     7
176
     1
 62
   257
176
     1
 90
        1
176
     1
 90
        1
176
     1
 40
1.0
176
     1
 90
        0
176
     1
 62
     7
176
     1
 40
1.0
176
     1
 90
        1
176
     1
 90
        6
176
     1
 90
        2
176
     1
 62
     7
176
     1
 90
        5
176
     1
 90
        0
176
     1
 90
        0
176
     1
290
     0
176
     1
 90
       13
176
     1
 40
0.0
176
     1
 90
        0
176
     1
290
     0
176
     1
290
     1
176
     1
290
     1
176
     1
290
     0
176
     1
290
     0
176
     1
290
     0
176
     1
290
     0
176
     1
290
     0
176
     1
290
     0
176
     1
 90
       50
176
     1
 40
0.0
176
     1
 40
1.0
176
     1
 90
        0
176
     1
 62
    18
420
        0
176
     1
 90
       50
176
     1
 90
        3
176
     1
 62
     5
420
      255
176
     1
290
     0
176
     1
 90
       50
176
     1
 90
       50
176
     1
 90
       50
176
     1
290
     0
176
     1
 90
       50
176
     1
 62
   256
176
     0
 40
1.0
176
     0
 90
        2
176
     1
  1
strokes_ogs.tif
176
     1
290
     0
176
     1
 40
1.0
176
     1
 40
1.0
176
     1
  0
VISUALSTYLE
  5
2E
102
{ACAD_REACTORS
330
2A
102
}
330
2A
100
AcDbVisualStyle
  2
GouraudWithEdges
 70
     3
177
     3
291
     1
 70
    58
 90
        2
176
     1
 90
        2
176
     1
 90
        1
176
     1
 90
        2
176
     1
 40
0.6
176
     1
 40
30.0
176
     1
 62
     7
420
 16777215
176
     1
 90
        1
176
     1
 90
        0
176
     1
 62
     7
176
     1
 62
   257
176
     1
 90
        1
176
     1
 90
        1
176
     1
 40
1.0
176
     1
 90
        0
176
     1
 62
   257
176
     1
 40
1.0
176
     1
 90
        1
176
     1
 90
        6
176
     1
 90
        2
176
     1
 62
     7
176
     1
 90
        5
176
     1
 90
        0
176
     1
 90
        0
176
     1
290
     0
176
     1
 90
       13
176
     1
 40
0.0
176
     1
 90
        0
176
     1
290
     0
176
     1
290
     1
176
     1
290
     1
176
     1
290
     0
176
     1
290
     0
176
     1
290
     0
176
     1
290
     0
176
     1
290
     0
176
     1
290
     0
176
     1
 90
       50
176
     1
 40
0.0
176
     1
 40
1.0
176
     1
 90
        0
176
     1
 62
    18
420
        0
176
     1
 90
       50
176
     1
 90
        3
176
     1
 62
     5
420
      255
176
     1
290
     0
176
     1
 90
       50
176
     1
 90
       50
176
     1
 90
       50
176
     1
290
     0
176
     1
 90
       50
176
     1
 62
   256
176
     0
 40
1.0
176
     0
 90
        2
176
     1
  1
strokes_ogs.tif
176
     1
290
     0
176
     1
 40
1.0
176
     1
 40
1.0
176
     1
  0
VISUALSTYLE
  5
31
102
{ACAD_REACTORS
330
2A
102
}
330
2A
100
AcDbVisualStyle
  2
Hidden
 70
     6
177
     3
291
     0
 70
    58
 90
        1
176
     1
 90
        2
176
     1
 90
        2
176
     1
 90
        0
176
     1
 40
0.6
176
     1
 40
30.0
176
     1
 62
     7
420
 16777215
176
     1
 90
        2
176
     1
 90
        2
176
     1
 62
     7
176
     1
 62
   257
176
     1
 90
        2
176
     1
 90
        1
176
     1
 40
40.0
176
     1
 90
        0
176
     1
 62
   257
176
     1
 40
1.0
176
     1
 90
        1
176
     1
 90
        6
176
     1
 90
        2
176
     1
 62
     7
176
     1
 90
        3
176
     1
 90
        0
176
     1
 90
        0
176
     1
290
     0
176
     1
 90
        1
176
     1
 40
0.0
176
     1
 90
        0
176
     1
290
     0
176
     1
290
     1
176
     1
290
     1
176
     1
290
     0
176
     1
290
     0
176
     1
290
     0
176
     1
290
     0
176
     1
290
     0
176
     1
290
     0
176
     1
 90
       50
176
     1
 40
0.0
176
     1
 40
1.0
176
     1
 90
        0
176
     1
 62
    18
420
        0
176
     1
 90
       50
176
     1
 90
        3
176
     1
 62
     5
420
      255
176
     1
290
     0
176
     1
 90
       50
176
     1
 90
       50
176
     1
 90
       50
176
     1
290
     0
176
     1
 90
       50
176
     1
 62
   256
176
     0
 40
1.0
176
     0
 90
        2
176
     1
  1
strokes_ogs.tif
176
     1
290
     0
176
     1
 40
1.0
176
     1
 40
1.0
176
     1
  0
VISUALSTYLE
  5
3B
102
{ACAD_REACTORS
330
2A
102
}
330
2A
100
AcDbVisualStyle
  2
JitterOff
 70
    20
177
     3
291
     1
 70
    58
 90
        2
176
     0
 90
        2
176
     0
 90
        0
176
     0
 90
        0
176
     0
 40
0.6
176
     0
 40
30.0
176
     0
 62
     7
420
 16777215
176
     0
 90
        1
176
     0
 90
        4
176
     0
 62
     7
176
     0
 62
   257
176
     0
 90
        1
176
     0
 90
        1
176
     0
 40
1.0
176
     0
 90
       10
176
     2
 62
     7
176
     0
 40
1.0
176
     0
 90
        1
176
     0
 90
        6
176
     0
 90
        2
176
     0
 62
     7
176
     0
 90
        5
176
     0
 90
        0
176
     0
 90
        0
176
     0
290
     0
176
     0
 90
        1
176
     0
 40
0.0
176
     0
 90
        0
176
     0
290
     0
176
     0
290
     1
176
     0
290
     1
176
     0
290
     0
176
     0
290
     0
176
     0
290
     0
176
     0
290
     0
176
     0
290
     0
176
     0
290
     0
176
     0
 90
       50
176
     0
 40
0.0
176
     0
 40
1.0
176
     0
 90
        0
176
     0
 62
    18
420
        0
176
     0
 90
       50
176
     0
 90
        3
176
     0
 62
     5
420
      255
176
     0
290
     0
176
     0
 90
       50
176
     0
 90
       50
176
     0
 90
       50
176
     0
290
     0
176
     0
 90
       50
176
     0
 62
   256
176
     0
 40
1.0
176
     0
 90
        2
176
     0
  1
strokes_ogs.tif
176
     0
290
     0
176
     0
 40
1.0
176
     0
 40
1.0
176
     0
  0
VISUALSTYLE
  5
38
102
{ACAD_REACTORS
330
2A
102
}
330
2A
100
AcDbVisualStyle
  2
Linepattern
 70
    14
177
     3
291
     1
 70
    58
 90
        2
176
     1
 90
        2
176
     1
 90
        0
176
     1
 90
        0
176
     1
 40
0.6
176
     1
 40
30.0
176
     1
 62
     7
420
 16777215
176
     1
 90
        1
176
     1
 90
        4
176
     1
 62
     7
176
     1
 62
   257
176
     1
 90
        7
176
     1
 90
        7
176
     1
 40
1.0
176
     1
 90
        8
176
     1
 62
     7
176
     1
 40
1.0
176
     1
 90
        1
176
     1
 90
        6
176
     1
 90
        2
176
     1
 62
     7
176
     1
 90
        5
176
     1
 90
        0
176
     1
 90
        0
176
     1
290
     0
176
     1
 90
        1
176
     1
 40
0.0
176
     1
 90
        0
176
     1
290
     0
176
     1
290
     1
176
     1
290
     1
176
     1
290
     0
176
     1
290
     0
176
     1
290
     0
176
     1
290
     0
176
     1
290
     0
176
     1
290
     0
176
     1
 90
       50
176
     1
 40
0.0
176
     1
 40
1.0
176
     1
 90
        0
176
     1
 62
    18
420
        0
176
     1
 90
       50
176
     1
 90
        3
176
     1
 62
     5
420
      255
176
     1
290
     0
176
     1
 90
       50
176
     1
 90
       50
176
     1
 90
       50
176
     1
290
     0
176
     1
 90
       50
176
     1
 62
   256
176
     0
 40
1.0
176
     0
 90
        2
176
     1
  1
strokes_ogs.tif
176
     1
290
     0
176
     1
 40
1.0
176
     1
 40
1.0
176
     1
  0
VISUALSTYLE
  5
3C
102
{ACAD_REACTORS
330
2A
102
}
330
2A
100
AcDbVisualStyle
  2
OverhangOff
 70
    21
177
     3
291
     1
 70
    58
 90
        2
176
     0
 90
        2
176
     0
 90
        0
176
     0
 90
        0
176
     0
 40
0.6
176
     0
 40
30.0
176
     0
 62
     7
420
 16777215
176
     0
 90
        1
176
     0
 90
        4
176
     0
 62
     7
176
     0
 62
   257
176
     0
 90
        1
176
     0
 90
        1
176
     0
 40
1.0
176
     0
 90
        9
176
     2
 62
     7
176
     0
 40
1.0
176
     0
 90
        1
176
     0
 90
        6
176
     0
 90
        2
176
     0
 62
     7
176
     0
 90
        5
176
     0
 90
        0
176
     0
 90
        0
176
     0
290
     0
176
     0
 90
        1
176
     0
 40
0.0
176
     0
 90
        0
176
     0
290
     0
176
     0
290
     1
176
     0
290
     1
176
     0
290
     0
176
     0
290
     0
176
     0
290
     0
176
     0
290
     0
176
     0
290
     0
176
     0
290
     0
176
     0
 90
       50
176
     0
 40
0.0
176
     0
 40
1.0
176
     0
 90
        0
176
     0
 62
    18
420
        0
176
     0
 90
       50
176
     0
 90
        3
176
     0
 62
     5
420
      255
176
     0
290
     0
176
     0
 90
       50
176
     0
 90
       50
176
     0
 90
       50
176
     0
290
     0
176
     0
 90
       50
176
     0
 62
   256
176
     0
 40
1.0
176
     0
 90
        2
176
     0
  1
strokes_ogs.tif
176
     0
290
     0
176
     0
 40
1.0
176
     0
 40
1.0
176
     0
  0
VISUALSTYLE
  5
33
102
{ACAD_REACTORS
330
2A
102
}
330
2A
100
AcDbVisualStyle
  2
Realistic
 70
     8
177
     3
291
     0
 70
    58
 90
        2
176
     1
 90
        3
176
     1
 90
        0
176
     1
 90
        2
176
     1
 40
0.6
176
     1
 40
30.0
176
     1
 62
     7
420
 16777215
176
     1
 90
        0
176
     1
 90
        0
176
     1
 62
     7
176
     1
 62
   257
176
     1
 90
        1
176
     1
 90
        1
176
     1
 40
1.0
176
     1
 90
        8
176
     1
 62
   257
176
     1
 40
1.0
176
     1
 90
        1
176
     1
 90
        6
176
     1
 90
        2
176
     1
 62
     7
176
     1
 90
        3
176
     1
 90
        0
176
     1
 90
        0
176
     1
290
     0
176
     1
 90
       13
176
     1
 40
0.0
176
     1
 90
        0
176
     1
290
     0
176
     1
290
     1
176
     1
290
     1
176
     1
290
     0
176
     1
290
     0
176
     1
290
     0
176
     1
290
     0
176
     1
290
     0
176
     1
290
     0
176
     1
 90
       50
176
     1
 40
0.0
176
     1
 40
1.0
176
     1
 90
        0
176
     1
 62
    18
420
        0
176
     1
 90
       50
176
     1
 90
        3
176
     1
 62
     5
420
      255
176
     1
290
     0
176
     1
 90
       50
176
     1
 90
       50
176
     1
 90
       50
176
     1
290
     0
176
     1
 90
       50
176
     1
 62
   256
176
     0
 40
1.0
176
     0
 90
        2
176
     1
  1
strokes_ogs.tif
176
     1
290
     0
176
     1
 40
1.0
176
     1
 40
1.0
176
     1
  0
VISUALSTYLE
  5
42
102
{ACAD_REACTORS
330
2A
102
}
330
2A
100
AcDbVisualStyle
  2
Shaded
 70
    27
177
     3
291
     0
 70
    58
 90
        2
176
     1
 90
        2
176
     1
 90
        1
176
     1
 90
        2
176
     1
 40
0.6
176
     1
 40
30.0
176
     1
 62
     7
420
 16777215
176
     1
 90
        0
176
     1
 90
        4
176
     1
 62
     7
176
     1
 62
   257
176
     1
 90
        1
176
     1
 90
        1
176
     1
 40
1.0
176
     1
 90
        8
176
     1
 62
   257
176
     1
 40
1.0
176
     1
 90
        1
176
     1
 90
        6
176
     1
 90
        2
176
     1
 62
     8
420
  7895160
176
     1
 90
        3
176
     1
 90
        0
176
     1
 90
        0
176
     1
290
     0
176
     1
 90
        5
176
     1
 40
0.0
176
     1
 90
        0
176
     1
290
     0
176
     1
290
     1
176
     1
290
     1
176
     1
290
     0
176
     1
290
     0
176
     1
290
     0
176
     1
290
     0
176
     1
290
     0
176
     1
290
     0
176
     1
 90
       50
176
     1
 40
0.0
176
     1
 40
1.0
176
     1
 90
        0
176
     1
 62
    18
420
        0
176
     1
 90
       50
176
     1
 90
        3
176
     1
 62
     5
420
      255
176
     1
290
     0
176
     1
 90
       50
176
     1
 90
       50
176
     1
 90
       50
176
     1
290
     0
176
     1
 90
       50
176
     1
 62
   256
176
     0
 40
1.0
176
     0
 90
        2
176
     1
  1
strokes_ogs.tif
176
     1
290
     0
176
     1
 40
1.0
176
     1
 40
1.0
176
     1
  0
VISUALSTYLE
  5
41
102
{ACAD_REACTORS
330
2A
102
}
330
2A
100
AcDbVisualStyle
  2
Shaded with edges
 70
    26
177
     3
291
     0
 70
    58
 90
        2
176
     1
 90
        2
176
     1
 90
        1
176
     1
 90
        2
176
     1
 40
0.6
176
     1
 40
30.0
176
     1
 62
     7
420
 16777215
176
     1
 90
        1
176
     1
 90
       10
176
     1
 62
     7
176
     1
 62
   257
176
     1
 90
        2
176
     1
 90
        1
176
     1
 40
1.0
176
     1
 90
        8
176
     1
 62
   257
176
     1
 40
1.0
176
     1
 90
        1
176
     1
 90
        6
176
     1
 90
        2
176
     1
 62
     7
176
     1
 90
        3
176
     1
 90
        0
176
     1
 90
        0
176
     1
290
     0
176
     1
 90
        5
176
     1
 40
0.0
176
     1
 90
        0
176
     1
290
     0
176
     1
290
     1
176
     1
290
     1
176
     1
290
     0
176
     1
290
     0
176
     1
290
     0
176
     1
290
     0
176
     1
290
     0
176
     1
290
     0
176
     1
 90
       50
176
     1
 40
0.0
176
     1
 40
1.0
176
     1
 90
        0
176
     1
 62
    18
420
        0
176
     1
 90
       50
176
     1
 90
        3
176
     1
 62
     5
420
      255
176
     1
290
     0
176
     1
 90
       50
176
     1
 90
       50
176
     1
 90
       50
176
     1
290
     0
176
     1
 90
       50
176
     1
 62
   256
176
     0
 40
1.0
176
     0
 90
        2
176
     1
  1
strokes_ogs.tif
176
     1
290
     0
176
     1
 40
1.0
176
     1
 40
1.0
176
     1
  0
VISUALSTYLE
  5
3E
102
{ACAD_REACTORS
330
2A
102
}
330
2A
100
AcDbVisualStyle
  2
Shades of Gray
 70
    23
177
     3
291
     0
 70
    58
 90
        2
176
     1
 90
        2
176
     1
 90
        3
176
     1
 90
        0
176
     1
 40
0.6
176
     1
 40
30.0
176
     1
 62
     7
420
 16777215
176
     1
 90
        2
176
     1
 90
        2
176
     1
 62
     7
176
     1
 62
     7
176
     1
 90
        1
176
     1
 90
        1
176
     1
 40
40.0
176
     1
 90
        8
176
     1
 62
     7
176
     1
 40
1.0
176
     1
 90
        1
176
     1
 90
        6
176
     1
 90
        2
176
     1
 62
     7
176
     1
 90
        3
176
     1
 90
        0
176
     1
 90
        0
176
     1
290
     0
176
     1
 90
        1
176
     1
 40
0.0
176
     1
 90
        0
176
     1
290
     0
176
     1
290
     1
176
     1
290
     1
176
     1
290
     0
176
     1
290
     0
176
     1
290
     0
176
     1
290
     0
176
     1
290
     0
176
     1
290
     0
176
     1
 90
       50
176
     1
 40
0.0
176
     1
 40
1.0
176
     1
 90
        0
176
     1
 62
    18
420
        0
176
     1
 90
       50
176
     1
 90
        3
176
     1
 62
     5
420
      255
176
     1
290
     0
176
     1
 90
       50
176
     1
 90
       50
176
     1
 90
       50
176
     1
290
     0
176
     1
 90
       50
176
     1
 62
   256
176
     0
 40
1.0
176
     0
 90
        2
176
     1
  1
strokes_ogs.tif
176
     1
290
     0
176
     1
 40
1.0
176
     1
 40
1.0
176
     1
  0
VISUALSTYLE
  5
3F
102
{ACAD_REACTORS
330
2A
102
}
330
2A
100
AcDbVisualStyle
  2
Sketchy
 70
    24
177
     3
291
     0
 70
    58
 90
        1
176
     1
 90
        2
176
     1
 90
        2
176
     1
 90
        0
176
     1
 40
0.6
176
     1
 40
30.0
176
     1
 62
     7
420
 16777215
176
     1
 90
        2
176
     1
 90
        2
176
     1
 62
     7
176
     1
 62
     7
176
     1
 90
        1
176
     1
 90
        1
176
     1
 40
40.0
176
     1
 90
       11
176
     1
 62
     7
176
     1
 40
1.0
176
     1
 90
        1
176
     1
 90
        6
176
     1
 90
        2
176
     1
 62
     7
176
     1
 90
        6
176
     1
 90
        0
176
     1
 90
        0
176
     1
290
     0
176
     1
 90
        1
176
     1
 40
0.0
176
     1
 90
        0
176
     1
290
     0
176
     1
290
     1
176
     1
290
     1
176
     1
290
     0
176
     1
290
     0
176
     1
290
     0
176
     1
290
     0
176
     1
290
     0
176
     1
290
     0
176
     1
 90
       50
176
     1
 40
0.0
176
     1
 40
1.0
176
     1
 90
        0
176
     1
 62
    18
420
        0
176
     1
 90
       50
176
     1
 90
        3
176
     1
 62
     5
420
      255
176
     1
290
     0
176
     1
 90
       50
176
     1
 90
       50
176
     1
 90
       50
176
     1
290
     0
176
     1
 90
       50
176
     1
 62
   256
176
     0
 40
1.0
176
     0
 90
        2
176
     1
  1
strokes_ogs.tif
176
     1
290
     0
176
     1
 40
1.0
176
     1
 40
1.0
176
     1
  0
VISUALSTYLE
  5
37
102
{ACAD_REACTORS
330
2A
102
}
330
2A
100
AcDbVisualStyle
  2
Thicken
 70
    13
177
     3
291
     1
 70
    58
 90
        2
176
     1
 90
        2
176
     1
 90
        0
176
     1
 90
        0
176
     1
 40
0.6
176
     1
 40
30.0
176
     1
 62
     7
420
 16777215
176
     1
 90
        1
176
     1
 90
        4
176
     1
 62
     7
176
     1
 62
   257
176
     1
 90
        1
176
     1
 90
        1
176
     1
 40
1.0
176
     1
 90
       12
176
     1
 62
     7
176
     1
 40
1.0
176
     1
 90
        1
176
     1
 90
        6
176
     1
 90
        2
176
     1
 62
     7
176
     1
 90
        5
176
     1
 90
        0
176
     1
 90
        0
176
     1
290
     0
176
     1
 90
        1
176
     1
 40
0.0
176
     1
 90
        0
176
     1
290
     0
176
     1
290
     1
176
     1
290
     1
176
     1
290
     0
176
     1
290
     0
176
     1
290
     0
176
     1
290
     0
176
     1
290
     0
176
     1
290
     0
176
     1
 90
       50
176
     1
 40
0.0
176
     1
 40
1.0
176
     1
 90
        0
176
     1
 62
    18
420
        0
176
     1
 90
       50
176
     1
 90
        3
176
     1
 62
     5
420
      255
176
     1
290
     0
176
     1
 90
       50
176
     1
 90
       50
176
     1
 90
       50
176
     1
290
     0
176
     1
 90
       50
176
     1
 62
   256
176
     0
 40
1.0
176
     0
 90
        2
176
     1
  1
strokes_ogs.tif
176
     1
290
     0
176
     1
 40
1.0
176
     1
 40
1.0
176
     1
  0
VISUALSTYLE
  5
30
102
{ACAD_REACTORS
330
2A
102
}
330
2A
100
AcDbVisualStyle
  2
Wireframe
 70
     5
177
     3
291
     0
 70
    58
 90
        0
176
     1
 90
        2
176
     1
 90
        0
176
     1
 90
        0
176
     1
 40
0.6
176
     1
 40
30.0
176
     1
 62
     7
420
 16777215
176
     1
 90
        1
176
     1
 90
        4
176
     1
 62
     7
176
     1
 62
   257
176
     1
 90
        1
176
     1
 90
        1
176
     1
 40
1.0
176
     1
 90
        0
176
     1
 62
   257
176
     1
 40
1.0
176
     1
 90
        1
176
     1
 90
        6
176
     1
 90
        2
176
     1
 62
     7
176
     1
 90
        3
176
     1
 90
        0
176
     1
 90
        0
176
     1
290
     0
176
     1
 90
        1
176
     1
 40
0.0
176
     1
 90
        0
176
     1
290
     0
176
     1
290
     1
176
     1
290
     1
176
     1
290
     0
176
     1
290
     0
176
     1
290
     0
176
     1
290
     0
176
     1
290
     0
176
     1
290
     0
176
     1
 90
       50
176
     1
 40
0.0
176
     1
 40
1.0
176
     1
 90
        0
176
     1
 62
    18
420
        0
176
     1
 90
       50
176
     1
 90
        3
176
     1
 62
     5
420
      255
176
     1
290
     0
176
     1
 90
       50
176
     1
 90
       50
176
     1
 90
       50
176
     1
290
     0
176
     1
 90
       50
176
     1
 62
   256
176
     0
 40
1.0
176
     0
 90
        2
176
     1
  1
strokes_ogs.tif
176
     1
290
     0
176
     1
 40
1.0
176
     1
 40
1.0
176
     1
  0
VISUALSTYLE
  5
40
102
{ACAD_REACTORS
330
2A
102
}
330
2A
100
AcDbVisualStyle
  2
X-Ray
 70
    25
177
     3
291
     0
 70
    58
 90
        2
176
     1
 90
        2
176
     1
 90
        1
176
     1
 90
        1
176
     1
 40
0.5
176
     1
 40
30.0
176
     1
 62
     7
420
 16777215
176
     1
 90
        1
176
     1
 90
        0
176
     1
 62
     7
176
     1
 62
   257
176
     1
 90
        1
176
     1
 90
        1
176
     1
 40
1.0
176
     1
 90
        8
176
     1
 62
     7
176
     1
 40
1.0
176
     1
 90
        1
176
     1
 90
        6
176
     1
 90
        2
176
     1
 62
     7
176
     1
 90
        3
176
     1
 90
        0
176
     1
 90
        0
176
     1
290
     0
176
     1
 90
       13
176
     1
 40
0.0
176
     1
 90
        0
176
     1
290
     0
176
     1
290
     1
176
     1
290
     1
176
     1
290
     0
176
     1
290
     0
176
     1
290
     0
176
     1
290
     0
176
     1
290
     0
176
     1
290
     0
176
     1
 90
       50
176
     1
 40
0.0
176
     1
 40
1.0
176
     1
 90
        0
176
     1
 62
    18
420
        0
176
     1
 90
       50
176
     1
 90
        3
176
     1
 62
     5
420
      255
176
     1
290
     0
176
     1
 90
       50
176
     1
 90
       50
176
     1
 90
       50
176
     1
290
     0
176
     1
 90
       50
176
     1
 62
   256
176
     0
 40
1.0
176
     0
 90
        2
176
     1
  1
strokes_ogs.tif
176
     1
290
     0
176
     1
 40
1.0
176
     1
 40
1.0
176
     1
  0
DICTIONARYVAR
  5
26D
102
{ACAD_REACTORS
330
26C
102
}
330
26C
100
DictionaryVariables
280
     0
  1
1:1
  0
DICTIONARYVAR
  5
272
102
{ACAD_REACTORS
330
26C
102
}
330
26C
100
DictionaryVariables
280
     0
  1
Standard
  0
DICTIONARYVAR
  5
271
102
{ACAD_REACTORS
330
26C
102
}
330
26C
100
DictionaryVariables
280
     0
  1
Standard
  0
DICTIONARY
  5
26E
330
6A
100
AcDbDictionary
280
     1
281
     1
  3
ACAD_ROUNDTRIP_2008_TABLESTYLE_CELLSTYLEMAP
360
26F
  0
CELLSTYLEMAP
  5
26F
102
{ACAD_REACTORS
330
26E
102
}
330
26E
100
AcDbCellStyleMap
 90
        3
300
CELLSTYLE
  1
TABLEFORMAT_BEGIN
 90
        5
170
     1
 91
        0
 92
    32768
 62
   257
 93
        1
300
CONTENTFORMAT
  1
CONTENTFORMAT_BEGIN
 90
        0
 91
        0
 92
        4
 93
        0
300

 40
0.0
140
1.0
 94
        5
 62
     0
340
11
144
0.25
309
CONTENTFORMAT_END
171
     1
301
MARGIN
  1
CELLMARGIN_BEGIN
 40
0.06
 40
0.06
 40
0.06
 40
0.06
 40
0.06
 40
0.06
309
CELLMARGIN_END
 94
        6
 95
        1
302
GRIDFORMAT
  1
GRIDFORMAT_BEGIN
 90
        0
 91
        1
 62
     0
 92
       -2
340
14
 93
        0
 40
0.045
309
GRIDFORMAT_END
 95
        2
302
GRIDFORMAT
  1
GRIDFORMAT_BEGIN
 90
        0
 91
        1
 62
     0
 92
       -2
340
14
 93
        0
 40
0.045
309
GRIDFORMAT_END
 95
        4
302
GRIDFORMAT
  1
GRIDFORMAT_BEGIN
 90
        0
 91
        1
 62
     0
 92
       -2
340
14
 93
        0
 40
0.045
309
GRIDFORMAT_END
 95
        8
302
GRIDFORMAT
  1
GRIDFORMAT_BEGIN
 90
        0
 91
        1
 62
     0
 92
       -2
340
14
 93
        0
 40
0.045
309
GRIDFORMAT_END
 95
       16
302
GRIDFORMAT
  1
GRIDFORMAT_BEGIN
 90
        0
 91
        1
 62
     0
 92
       -2
340
14
 93
        0
 40
0.045
309
GRIDFORMAT_END
 95
       32
302
GRIDFORMAT
  1
GRIDFORMAT_BEGIN
 90
        0
 91
        1
 62
     0
 92
       -2
340
14
 93
        0
 40
0.045
309
GRIDFORMAT_END
309
TABLEFORMAT_END
  1
CELLSTYLE_BEGIN
 90
        1
 91
        1
300
_TITLE
309
CELLSTYLE_END
300
CELLSTYLE
  1
TABLEFORMAT_BEGIN
 90
        5
170
     1
 91
        0
 92
        0
 62
   257
 93
        1
300
CONTENTFORMAT
  1
CONTENTFORMAT_BEGIN
 90
        0
 91
        0
 92
        4
 93
        0
300

 40
0.0
140
1.0
 94
        5
 62
     0
340
11
144
0.18
309
CONTENTFORMAT_END
171
     1
301
MARGIN
  1
CELLMARGIN_BEGIN
 40
0.06
 40
0.06
 40
0.06
 40
0.06
 40
0.06
 40
0.06
309
CELLMARGIN_END
 94
        6
 95
        1
302
GRIDFORMAT
  1
GRIDFORMAT_BEGIN
 90
        0
 91
        1
 62
     0
 92
       -2
340
14
 93
        0
 40
0.045
309
GRIDFORMAT_END
 95
        2
302
GRIDFORMAT
  1
GRIDFORMAT_BEGIN
 90
        0
 91
        1
 62
     0
 92
       -2
340
14
 93
        0
 40
0.045
309
GRIDFORMAT_END
 95
        4
302
GRIDFORMAT
  1
GRIDFORMAT_BEGIN
 90
        0
 91
        1
 62
     0
 92
       -2
340
14
 93
        0
 40
0.045
309
GRIDFORMAT_END
 95
        8
302
GRIDFORMAT
  1
GRIDFORMAT_BEGIN
 90
        0
 91
        1
 62
     0
 92
       -2
340
14
 93
        0
 40
0.045
309
GRIDFORMAT_END
 95
       16
302
GRIDFORMAT
  1
GRIDFORMAT_BEGIN
 90
        0
 91
        1
 62
     0
 92
       -2
340
14
 93
        0
 40
0.045
309
GRIDFORMAT_END
 95
       32
302
GRIDFORMAT
  1
GRIDFORMAT_BEGIN
 90
        0
 91
        1
 62
     0
 92
       -2
340
14
 93
        0
 40
0.045
309
GRIDFORMAT_END
309
TABLEFORMAT_END
  1
CELLSTYLE_BEGIN
 90
        2
 91
        1
300
_HEADER
309
CELLSTYLE_END
300
CELLSTYLE
  1
TABLEFORMAT_BEGIN
 90
        5
170
     1
 91
        0
 92
        0
 62
   257
 93
        1
300
CONTENTFORMAT
  1
CONTENTFORMAT_BEGIN
 90
        0
 91
        0
 92
        4
 93
        0
300

 40
0.0
140
1.0
 94
        2
 62
     0
340
11
144
0.18
309
CONTENTFORMAT_END
171
     1
301
MARGIN
  1
CELLMARGIN_BEGIN
 40
0.06
 40
0.06
 40
0.06
 40
0.06
 40
0.06
 40
0.06
309
CELLMARGIN_END
 94
        6
 95
        1
302
GRIDFORMAT
  1
GRIDFORMAT_BEGIN
 90
        0
 91
        1
 62
     0
 92
       -2
340
14
 93
        0
 40
0.045
309
GRIDFORMAT_END
 95
        2
302
GRIDFORMAT
  1
GRIDFORMAT_BEGIN
 90
        0
 91
        1
 62
     0
 92
       -2
340
14
 93
        0
 40
0.045
309
GRIDFORMAT_END
 95
        4
302
GRIDFORMAT
  1
GRIDFORMAT_BEGIN
 90
        0
 91
        1
 62
     0
 92
       -2
340
14
 93
        0
 40
0.045
309
GRIDFORMAT_END
 95
        8
302
GRIDFORMAT
  1
GRIDFORMAT_BEGIN
 90
        0
 91
        1
 62
     0
 92
       -2
340
14
 93
        0
 40
0.045
309
GRIDFORMAT_END
 95
       16
302
GRIDFORMAT
  1
GRIDFORMAT_BEGIN
 90
        0
 91
        1
 62
     0
 92
       -2
340
14
 93
        0
 40
0.045
309
GRIDFORMAT_END
 95
       32
302
GRIDFORMAT
  1
GRIDFORMAT_BEGIN
 90
        0
 91
        1
 62
     0
 92
       -2
340
14
 93
        0
 40
0.045
309
GRIDFORMAT_END
309
TABLEFORMAT_END
  1
CELLSTYLE_BEGIN
 90
        3
 91
        2
300
_DATA
309
CELLSTYLE_END
  0
ENDSEC
  0
EOF