0
SECTION
  2
HEADER
  9
$ACADVER
  1
AC1027
  9
$ACADMAINTVER
 70
     8
  9
$DWGCODEPAGE
  3
ANSI_1252
  9
$REQUIREDVERSIONS
160
                 0
  9
$COMMENTS
  1
File was created by Cadenas
  9
$CUSTOMPROPERTYTAG
  1
NN
  9
$CUSTOMPROPERTY
  1
Imperial - IP Piloted Flange with Type E Dimensions 1-3/8 thru 2-1/2 inch Trident Seal Expansion
  9
$CUSTOMPROPERTYTAG
  1
NT
  9
$CUSTOMPROPERTY
  1
Imperial Piloted Flange Bearings
  9
$CUSTOMPROPERTYTAG
  1
NB
  9
$CUSTOMPROPERTY
  1
071580
  9
$CUSTOMPROPERTYTAG
  1
NBSYN
  9
$CUSTOMPROPERTY
  1
$PN.
  9
$CUSTOMPROPERTYTAG
  1
LINA
  9
$CUSTOMPROPERTY
  1
071580
  9
$CUSTOMPROPERTYTAG
  1
SS
  9
$CUSTOMPROPERTY
  1
1-3/4
  9
$CUSTOMPROPERTYTAG
  1
TYPE
  9
$CUSTOMPROPERTY
  1
Expansion
  9
$CUSTOMPROPERTYTAG
  1
PN
  9
$CUSTOMPROPERTY
  1
071580
  9
$CUSTOMPROPERTYTAG
  1
DESCRIPTION
  9
$CUSTOMPROPERTY
  1
EFC-IP-112RE
  9
$CUSTOMPROPERTYTAG
  1
ST
  9
$CUSTOMPROPERTY
  1
Contact Seal
  9
$CUSTOMPROPERTYTAG
  1
A
  9
$CUSTOMPROPERTY
  1
2.86
  9
$CUSTOMPROPERTYTAG
  1
B
  9
$CUSTOMPROPERTY
  1
6.38
  9
$CUSTOMPROPERTYTAG
  1
C
  9
$CUSTOMPROPERTY
  1
2.00
  9
$CUSTOMPROPERTYTAG
  1
D
  9
$CUSTOMPROPERTY
  1
3.8
  9
$CUSTOMPROPERTYTAG
  1
DD
  9
$CUSTOMPROPERTY
  1
5.375
  9
$CUSTOMPROPERTYTAG
  1
E
  9
$CUSTOMPROPERTY
  1
0.88
  9
$CUSTOMPROPERTYTAG
  1
F
  9
$CUSTOMPROPERTY
  1
7/16
  9
$CUSTOMPROPERTYTAG
  1
G
  9
$CUSTOMPROPERTY
  1
1.59
  9
$CUSTOMPROPERTYTAG
  1
H
  9
$CUSTOMPROPERTY
  1
0.56
  9
$CUSTOMPROPERTYTAG
  1
K
  9
$CUSTOMPROPERTY
  1
4.500
  9
$CUSTOMPROPERTYTAG
  1
L
  9
$CUSTOMPROPERTY
  1
3.28
  9
$CUSTOMPROPERTYTAG
  1
M
  9
$CUSTOMPROPERTY
  1
7/16-14
  9
$CUSTOMPROPERTYTAG
  1
N
  9
$CUSTOMPROPERTY
  1
2.86
  9
$CUSTOMPROPERTYTAG
  1
P
  9
$CUSTOMPROPERTY
  1
1.26
  9
$CUSTOMPROPERTYTAG
  1
Q
  9
$CUSTOMPROPERTY
  1
1.26
  9
$CUSTOMPROPERTYTAG
  1
X
  9
$CUSTOMPROPERTY
  1
0.25
  9
$CUSTOMPROPERTYTAG
  1
Y
  9
$CUSTOMPROPERTY
  1
0.020
  9
$CUSTOMPROPERTYTAG
  1
Z
  9
$CUSTOMPROPERTY
  1
2.3
  9
$CUSTOMPROPERTYTAG
  1
COMPANY
  9
$CUSTOMPROPERTY
  1
baldor
  9
$INSBASE
 10
0.0
 20
0.0
 30
0.0
  9
$EXTMIN
 10
1.000000000000000E+20
 20
1.000000000000000E+20
 30
1.000000000000000E+20
  9
$EXTMAX
 10
-1.000000000000000E+20
 20
-1.000000000000000E+20
 30
-1.000000000000000E+20
  9
$LIMMIN
 10
0.0
 20
0.0
  9
$LIMMAX
 10
12.0
 20
9.0
  9
$ORTHOMODE
 70
     0
  9
$REGENMODE
 70
     1
  9
$FILLMODE
 70
     1
  9
$QTEXTMODE
 70
     0
  9
$MIRRTEXT
 70
     1
  9
$LTSCALE
 40
1.0
  9
$ATTMODE
 70
     1
  9
$TEXTSIZE
 40
0.2
  9
$TRACEWID
 40
0.05
  9
$TEXTSTYLE
  7
Standard
  9
$CLAYER
  8
0
  9
$CELTYPE
  6
ByLayer
  9
$CECOLOR
 62
   256
  9
$CELTSCALE
 40
1.0
  9
$DISPSILH
 70
     0
  9
$DIMSCALE
 40
1.0
  9
$DIMASZ
 40
0.18
  9
$DIMEXO
 40
0.0625
  9
$DIMDLI
 40
0.38
  9
$DIMRND
 40
0.0
  9
$DIMDLE
 40
0.0
  9
$DIMEXE
 40
0.18
  9
$DIMTP
 40
0.0
  9
$DIMTM
 40
0.0
  9
$DIMTXT
 40
0.18
  9
$DIMCEN
 40
0.09
  9
$DIMTSZ
 40
0.0
  9
$DIMTOL
 70
     0
  9
$DIMLIM
 70
     0
  9
$DIMTIH
 70
     1
  9
$DIMTOH
 70
     1
  9
$DIMSE1
 70
     0
  9
$DIMSE2
 70
     0
  9
$DIMTAD
 70
     0
  9
$DIMZIN
 70
     0
  9
$DIMBLK
  1

  9
$DIMASO
 70
     1
  9
$DIMSHO
 70
     1
  9
$DIMPOST
  1

  9
$DIMAPOST
  1

  9
$DIMALT
 70
     0
  9
$DIMALTD
 70
     2
  9
$DIMALTF
 40
25.4
  9
$DIMLFAC
 40
1.0
  9
$DIMTOFL
 70
     0
  9
$DIMTVP
 40
0.0
  9
$DIMTIX
 70
     0
  9
$DIMSOXD
 70
     0
  9
$DIMSAH
 70
     0
  9
$DIMBLK1
  1

  9
$DIMBLK2
  1

  9
$DIMSTYLE
  2
Standard
  9
$DIMCLRD
 70
     0
  9
$DIMCLRE
 70
     0
  9
$DIMCLRT
 70
     0
  9
$DIMTFAC
 40
1.0
  9
$DIMGAP
 40
0.09
  9
$DIMJUST
 70
     0
  9
$DIMSD1
 70
     0
  9
$DIMSD2
 70
     0
  9
$DIMTOLJ
 70
     1
  9
$DIMTZIN
 70
     0
  9
$DIMALTZ
 70
     0
  9
$DIMALTTZ
 70
     0
  9
$DIMUPT
 70
     0
  9
$DIMDEC
 70
     4
  9
$DIMTDEC
 70
     4
  9
$DIMALTU
 70
     2
  9
$DIMALTTD
 70
     2
  9
$DIMTXSTY
  7
Standard
  9
$DIMAUNIT
 70
     0
  9
$DIMADEC
 70
     0
  9
$DIMALTRND
 40
0.0
  9
$DIMAZIN
 70
     0
  9
$DIMDSEP
 70
    46
  9
$DIMATFIT
 70
     3
  9
$DIMFRAC
 70
     0
  9
$DIMLDRBLK
  1

  9
$DIMLUNIT
 70
     2
  9
$DIMLWD
 70
    -2
  9
$DIMLWE
 70
    -2
  9
$DIMTMOVE
 70
     0
  9
$DIMFXL
 40
1.0
  9
$DIMFXLON
 70
     0
  9
$DIMJOGANG
 40
0.7853981633974483
  9
$DIMTFILL
 70
     0
  9
$DIMTFILLCLR
 70
     0
  9
$DIMARCSYM
 70
     0
  9
$DIMLTYPE
  6

  9
$DIMLTEX1
  6

  9
$DIMLTEX2
  6

  9
$DIMTXTDIRECTION
 70
     0
  9
$LUNITS
 70
     2
  9
$LUPREC
 70
     4
  9
$SKETCHINC
 40
0.1
  9
$FILLETRAD
 40
0.5
  9
$AUNITS
 70
     0
  9
$AUPREC
 70
     0
  9
$MENU
  1
.
  9
$ELEVATION
 40
0.0
  9
$PELEVATION
 40
0.0
  9
$THICKNESS
 40
0.0
  9
$LIMCHECK
 70
     0
  9
$CHAMFERA
 40
0.0
  9
$CHAMFERB
 40
0.0
  9
$CHAMFERC
 40
0.0
  9
$CHAMFERD
 40
0.0
  9
$SKPOLY
 70
     0
  9
$TDCREATE
 40
2458168.983591655
  9
$TDUCREATE
 40
2458168.941924988
  9
$TDUPDATE
 40
2458168.983591828
  9
$TDUUPDATE
 40
2458168.941925162
  9
$TDINDWG
 40
0.0000000116
  9
$TDUSRTIMER
 40
0.0000000116
  9
$USRTIMER
 70
     1
  9
$ANGBASE
 50
0.0
  9
$ANGDIR
 70
     0
  9
$PDMODE
 70
     0
  9
$PDSIZE
 40
0.0
  9
$PLINEWID
 40
0.0
  9
$SPLFRAME
 70
     0
  9
$SPLINETYPE
 70
     6
  9
$SPLINESEGS
 70
     8
  9
$HANDSEED
  5
27A
  9
$SURFTAB1
 70
     6
  9
$SURFTAB2
 70
     6
  9
$SURFTYPE
 70
     6
  9
$SURFU
 70
     6
  9
$SURFV
 70
     6
  9
$UCSBASE
  2

  9
$UCSNAME
  2

  9
$UCSORG
 10
0.0
 20
0.0
 30
0.0
  9
$UCSXDIR
 10
1.0
 20
0.0
 30
0.0
  9
$UCSYDIR
 10
0.0
 20
1.0
 30
0.0
  9
$UCSORTHOREF
  2

  9
$UCSORTHOVIEW
 70
     0
  9
$UCSORGTOP
 10
0.0
 20
0.0
 30
0.0
  9
$UCSORGBOTTOM
 10
0.0
 20
0.0
 30
0.0
  9
$UCSORGLEFT
 10
0.0
 20
0.0
 30
0.0
  9
$UCSORGRIGHT
 10
0.0
 20
0.0
 30
0.0
  9
$UCSORGFRONT
 10
0.0
 20
0.0
 30
0.0
  9
$UCSORGBACK
 10
0.0
 20
0.0
 30
0.0
  9
$PUCSBASE
  2

  9
$PUCSNAME
  2

  9
$PUCSORG
 10
0.0
 20
0.0
 30
0.0
  9
$PUCSXDIR
 10
1.0
 20
0.0
 30
0.0
  9
$PUCSYDIR
 10
0.0
 20
1.0
 30
0.0
  9
$PUCSORTHOREF
  2

  9
$PUCSORTHOVIEW
 70
     0
  9
$PUCSORGTOP
 10
0.0
 20
0.0
 30
0.0
  9
$PUCSORGBOTTOM
 10
0.0
 20
0.0
 30
0.0
  9
$PUCSORGLEFT
 10
0.0
 20
0.0
 30
0.0
  9
$PUCSORGRIGHT
 10
0.0
 20
0.0
 30
0.0
  9
$PUCSORGFRONT
 10
0.0
 20
0.0
 30
0.0
  9
$PUCSORGBACK
 10
0.0
 20
0.0
 30
0.0
  9
$USERI1
 70
     0
  9
$USERI2
 70
     0
  9
$USERI3
 70
     0
  9
$USERI4
 70
     0
  9
$USERI5
 70
     0
  9
$USERR1
 40
0.0
  9
$USERR2
 40
0.0
  9
$USERR3
 40
0.0
  9
$USERR4
 40
0.0
  9
$USERR5
 40
0.0
  9
$WORLDVIEW
 70
     1
  9
$SHADEDGE
 70
     3
  9
$SHADEDIF
 70
    70
  9
$TILEMODE
 70
     1
  9
$MAXACTVP
 70
    64
  9
$PINSBASE
 10
0.0
 20
0.0
 30
0.0
  9
$PLIMCHECK
 70
     0
  9
$PEXTMIN
 10
1.000000000000000E+20
 20
1.000000000000000E+20
 30
1.000000000000000E+20
  9
$PEXTMAX
 10
-1.000000000000000E+20
 20
-1.000000000000000E+20
 30
-1.000000000000000E+20
  9
$PLIMMIN
 10
0.0
 20
0.0
  9
$PLIMMAX
 10
12.0
 20
9.0
  9
$UNITMODE
 70
     0
  9
$VISRETAIN
 70
     1
  9
$PLINEGEN
 70
     0
  9
$PSLTSCALE
 70
     1
  9
$TREEDEPTH
 70
  3020
  9
$CMLSTYLE
  2
Standard
  9
$CMLJUST
 70
     0
  9
$CMLSCALE
 40
1.0
  9
$PROXYGRAPHICS
 70
     1
  9
$MEASUREMENT
 70
     0
  9
$CELWEIGHT
370
    -1
  9
$ENDCAPS
280
     0
  9
$JOINSTYLE
280
     0
  9
$LWDISPLAY
290
     0
  9
$INSUNITS
 70
     1
  9
$HYPERLINKBASE
  1

  9
$STYLESHEET
  1

  9
$XEDIT
290
     1
  9
$CEPSNTYPE
380
     0
  9
$PSTYLEMODE
290
     1
  9
$FINGERPRINTGUID
  2
{8A02428B-7354-4A4E-A768-E159E2BEEE0C}
  9
$VERSIONGUID
  2
{FAEB1C32-E019-11D5-929B-00C0DF256EC4}
  9
$EXTNAMES
290
     1
  9
$PSVPSCALE
 40
0.0
  9
$OLESTARTUP
290
     0
  9
$SORTENTS
280
   127
  9
$INDEXCTL
280
     0
  9
$HIDETEXT
280
     1
  9
$XCLIPFRAME
280
     2
  9
$HALOGAP
280
     0
  9
$OBSCOLOR
 70
   257
  9
$OBSLTYPE
280
     0
  9
$INTERSECTIONDISPLAY
280
     0
  9
$INTERSECTIONCOLOR
 70
   257
  9
$DIMASSOC
280
     2
  9
$PROJECTNAME
  1

  9
$CAMERADISPLAY
290
     0
  9
$LENSLENGTH
 40
50.0
  9
$CAMERAHEIGHT
 40
0.0
  9
$STEPSPERSEC
 40
2.0
  9
$STEPSIZE
 40
6.0
  9
$3DDWFPREC
 40
2.0
  9
$PSOLWIDTH
 40
0.25
  9
$PSOLHEIGHT
 40
4.0
  9
$LOFTANG1
 40
1.570796326794897
  9
$LOFTANG2
 40
1.570796326794897
  9
$LOFTMAG1
 40
0.0
  9
$LOFTMAG2
 40
0.0
  9
$LOFTPARAM
 70
     7
  9
$LOFTNORMALS
280
     1
  9
$LATITUDE
 40
37.795
  9
$LONGITUDE
 40
-122.394
  9
$NORTHDIRECTION
 40
0.0
  9
$TIMEZONE
 70
 -8000
  9
$LIGHTGLYPHDISPLAY
280
     1
  9
$TILEMODELIGHTSYNCH
280
     1
  9
$CMATERIAL
347
44
  9
$SOLIDHIST
280
     0
  9
$SHOWHIST
280
     1
  9
$DWFFRAME
280
     2
  9
$DGNFRAME
280
     2
  9
$REALWORLDSCALE
290
     1
  9
$INTERFERECOLOR
 62
   256
  9
$CSHADOW
280
     0
  9
$SHADOWPLANELOCATION
 40
0.0
  0
ENDSEC
  0
SECTION
  2
CLASSES
  0
CLASS
  1
ACDBDICTIONARYWDFLT
  2
AcDbDictionaryWithDefault
  3
ObjectDBX Classes
 90
        0
 91
        4
280
     0
281
     0
  0
CLASS
  1
VISUALSTYLE
  2
AcDbVisualStyle
  3
ObjectDBX Classes
 90
     4095
 91
        4
280
     0
281
     0
  0
CLASS
  1
MATERIAL
  2
AcDbMaterial
  3
ObjectDBX Classes
 90
     1153
 91
        4
280
     0
281
     0
  0
CLASS
  1
SCALE
  2
AcDbScale
  3
ObjectDBX Classes
 90
     1153
 91
        4
280
     0
281
     0
  0
CLASS
  1
TABLESTYLE
  2
AcDbTableStyle
  3
ObjectDBX Classes
 90
     4095
 91
        4
280
     0
281
     0
  0
CLASS
  1
MLEADERSTYLE
  2
AcDbMLeaderStyle
  3
ACDB_MLEADERSTYLE_CLASS
 90
     4095
 91
        4
280
     0
281
     0
  0
CLASS
  1
SUN
  2
AcDbSun
  3
SCENEOE
 90
     1153
 91
        4
280
     0
281
     0
  0
CLASS
  1
DICTIONARYVAR
  2
AcDbDictionaryVar
  3
ObjectDBX Classes
 90
        0
 91
        4
280
     0
281
     0
  0
CLASS
  1
CELLSTYLEMAP
  2
AcDbCellStyleMap
  3
ObjectDBX Classes
 90
     1152
 91
        4
280
     0
281
     0
  0
ENDSEC
  0
SECTION
  2
TABLES
  0
TABLE
  2
VPORT
  5
8
330
0
100
AcDbSymbolTable
 70
     1
  0
VPORT
  5
29
330
8
100
AcDbSymbolTableRecord
100
AcDbViewportTableRecord
  2
*Active
 70
     0
 10
0.0
 20
0.0
 11
1.0
 21
1.0
 12
0.0
 22
0.0
 13
0.0
 23
0.0
 14
0.5
 24
0.5
 15
0.5
 25
0.5
 16
0.0
 26
0.0
 36
1.0
 17
0.0
 27
0.0
 37
0.0
 40
6.507599999999999
 41
1.0
 42
50.0
 43
0.0
 44
0.0
 50
0.0
 51
0.0
 71
     0
 72
   100
 73
     1
 74
     3
 75
     0
 76
     0
 77
     0
 78
     0
281
     0
 65
     1
110
0.0
120
0.0
130
0.0
111
1.0
121
0.0
131
0.0
112
0.0
122
1.0
132
0.0
 79
     0
146
0.0
348
2F
 60
     3
 61
     5
292
     1
282
     1
141
0.0
142
0.0
 63
   250
361
6D
  0
ENDTAB
  0
TABLE
  2
LTYPE
  5
5
330
0
100
AcDbSymbolTable
 70
     3
  0
LTYPE
  5
14
330
5
100
AcDbSymbolTableRecord
100
AcDbLinetypeTableRecord
  2
ByBlock
 70
     0
  3

 72
    65
 73
     0
 40
0.0
  0
LTYPE
  5
15
330
5
100
AcDbSymbolTableRecord
100
AcDbLinetypeTableRecord
  2
ByLayer
 70
     0
  3

 72
    65
 73
     0
 40
0.0
  0
LTYPE
  5
16
330
5
100
AcDbSymbolTableRecord
100
AcDbLinetypeTableRecord
  2
Continuous
 70
     0
  3
Solid line
 72
    65
 73
     0
 40
0.0
  0
LTYPE
  5
9C
330
5
100
AcDbSymbolTableRecord
100
AcDbLinetypeTableRecord
  2
Dashed
 70
     0
  3

 72
    65
 73
     2
 40
2.0
 49
1.0
 74
     0
 49
-1.0
 74
     0
  0
LTYPE
  5
F9
330
5
100
AcDbSymbolTableRecord
100
AcDbLinetypeTableRecord
  2
Center
 70
     0
  3

 72
    65
 73
     4
 40
1.5
 49
0.45
 74
     0
 49
-0.5
 74
     0
 49
0.05
 74
     0
 49
-0.5
 74
     0
  0
ENDTAB
  0
TABLE
  2
LAYER
  5
2
330
0
100
AcDbSymbolTable
 70
     7
  0
LAYER
  5
10
330
2
100
AcDbSymbolTableRecord
100
AcDbLayerTableRecord
  2
0
 70
     0
 62
     7
  6
Continuous
370
    -3
390
F
347
46
348
0
  0
LAYER
  5
72
330
2
100
AcDbSymbolTableRecord
100
AcDbLayerTableRecord
  2
AM_6
 70
     0
 62
    -2
  6
Continuous
370
    35
390
F
347
46
348
0
  0
LAYER
  5
9D
330
2
100
AcDbSymbolTableRecord
100
AcDbLayerTableRecord
  2
AM_9
 70
     0
 62
     6
  6
Dashed
370
    25
390
F
347
46
348
0
  0
LAYER
  5
BF
330
2
100
AcDbSymbolTableRecord
100
AcDbLayerTableRecord
  2
AM_4
 70
     0
 62
     7
  6
Continuous
370
    50
390
F
347
46
348
0
  0
LAYER
  5
F7
330
2
100
AcDbSymbolTableRecord
100
AcDbLayerTableRecord
  2
AM_5
 70
     0
 62
     3
  6
Continuous
370
    25
390
F
347
46
348
0
  0
LAYER
  5
FA
330
2
100
AcDbSymbolTableRecord
100
AcDbLayerTableRecord
  2
AM_7
 70
     0
 62
     7
  6
Center
370
    25
390
F
347
46
348
0
  0
LAYER
  5
264
330
2
100
AcDbSymbolTableRecord
100
AcDbLayerTableRecord
  2
ConnectionPoints
 70
     0
 62
     7
  6
Continuous
370
    50
390
F
347
46
348
0
  0
ENDTAB
  0
TABLE
  2
STYLE
  5
3
330
0
100
AcDbSymbolTable
 70
     1
  0
STYLE
  5
11
330
3
100
AcDbSymbolTableRecord
100
AcDbTextStyleTableRecord
  2
Standard
 70
     0
 40
0.0
 41
1.0
 50
0.0
 71
     0
 42
0.2
  3
txt
  4

  0
ENDTAB
  0
TABLE
  2
VIEW
  5
6
330
0
100
AcDbSymbolTable
 70
     0
  0
ENDTAB
  0
TABLE
  2
UCS
  5
7
330
0
100
AcDbSymbolTable
 70
     0
  0
ENDTAB
  0
TABLE
  2
APPID
  5
9
330
0
100
AcDbSymbolTable
 70
     1
  0
APPID
  5
12
330
9
100
AcDbSymbolTableRecord
100
AcDbRegAppTableRecord
  2
ACAD
 70
     0
  0
ENDTAB
  0
TABLE
  2
DIMSTYLE
  5
A
330
0
100
AcDbSymbolTable
 70
     1
100
AcDbDimStyleTable
  0
DIMSTYLE
105
27
330
A
100
AcDbSymbolTableRecord
100
AcDbDimStyleTableRecord
  2
Standard
 70
     0
178
     0
340
11
  0
ENDTAB
  0
TABLE
  2
BLOCK_RECORD
  5
1
330
0
100
AcDbSymbolTable
 70
     8
  0
BLOCK_RECORD
  5
1F
330
1
100
AcDbSymbolTableRecord
100
AcDbBlockTableRecord
  2
*Model_Space
340
22
 70
     0
280
     1
281
     0
  0
BLOCK_RECORD
  5
1B
330
1
100
AcDbSymbolTableRecord
100
AcDbBlockTableRecord
  2
*Paper_Space
340
1E
 70
     0
280
     1
281
     0
  0
BLOCK_RECORD
  5
23
330
1
100
AcDbSymbolTableRecord
100
AcDbBlockTableRecord
  2
*Paper_Space0
340
26
 70
     0
280
     1
281
     0
  0
BLOCK_RECORD
  5
6E
330
1
100
AcDbSymbolTableRecord
100
AcDbBlockTableRecord
  2
1_071580_0
340
0
102
{BLKREFS
331
6F
102
}
 70
     0
280
     1
281
     0
  0
BLOCK_RECORD
  5
90
330
1
100
AcDbSymbolTableRecord
100
AcDbBlockTableRecord
  2
2_405015E_Inch_0_in_071580_0
340
0
102
{BLKREFS
331
91
102
}
 70
     0
280
     1
281
     0
  0
BLOCK_RECORD
  5
E7
330
1
100
AcDbSymbolTableRecord
100
AcDbBlockTableRecord
  2
3_ASME_B18_3_10_1_0_in_071580_0
340
0
102
{BLKREFS
331
E8
102
}
 70
     0
280
     1
281
     0
  0
BLOCK_RECORD
  5
106
330
1
100
AcDbSymbolTableRecord
100
AcDbBlockTableRecord
  2
4_ASME_B18_3_10_2_0_in_071580_0
340
0
102
{BLKREFS
331
107
102
}
 70
     0
280
     1
281
     0
  0
BLOCK_RECORD
  5
122
330
1
100
AcDbSymbolTableRecord
100
AcDbBlockTableRecord
  2
5_070888LWE_0_in_071580_0
340
0
102
{BLKREFS
331
123
102
}
 70
     0
280
     1
281
     0
  0
BLOCK_RECORD
  5
173
330
1
100
AcDbSymbolTableRecord
100
AcDbBlockTableRecord
  2
6_070888E_0_in_071580_0
340
0
102
{BLKREFS
331
174
102
}
 70
     0
280
     1
281
     0
  0
BLOCK_RECORD
  5
1CF
330
1
100
AcDbSymbolTableRecord
100
AcDbBlockTableRecord
  2
7_071580H_0_in_071580_0
340
0
102
{BLKREFS
331
1D0
102
}
 70
     0
280
     1
281
     0
  0
ENDTAB
  0
ENDSEC
  0
SECTION
  2
BLOCKS
  0
BLOCK
  5
20
330
1F
100
AcDbEntity
  8
0
100
AcDbBlockBegin
  2
*Model_Space
 70
     0
 10
0.0
 20
0.0
 30
0.0
  3
*Model_Space
  1

  0
ENDBLK
  5
21
330
1F
100
AcDbEntity
  8
0
100
AcDbBlockEnd
  0
BLOCK
  5
1C
330
1B
100
AcDbEntity
 67
     1
  8
0
100
AcDbBlockBegin
  2
*Paper_Space
 70
     0
 10
0.0
 20
0.0
 30
0.0
  3
*Paper_Space
  1

  0
ENDBLK
  5
1D
330
1B
100
AcDbEntity
 67
     1
  8
0
100
AcDbBlockEnd
  0
BLOCK
  5
24
330
23
100
AcDbEntity
  8
0
100
AcDbBlockBegin
  2
*Paper_Space0
 70
     0
 10
0.0
 20
0.0
 30
0.0
  3
*Paper_Space0
  1

  0
ENDBLK
  5
25
330
23
100
AcDbEntity
  8
0
100
AcDbBlockEnd
  0
BLOCK
  5
70
330
6E
100
AcDbEntity
  8
0
100
AcDbBlockBegin
  2
1_071580_0
 70
     2
 10
0.0
 20
0.0
 30
0.0
  3
1_071580_0
  1

  0
ATTDEF
  5
73
330
6E
100
AcDbEntity
  8
AM_6
100
AcDbText
 10
8.19
 20
3.19
 30
0.0
 40
0.5
  1
Imperial - IP Piloted Flange with Type E Dimensions 1-3/8 thru 2-1/2 inch Trident Seal Expansion
100
AcDbAttributeDefinition
  3

  2
NN
 70
     8
280
     0
  0
ATTDEF
  5
74
330
6E
100
AcDbEntity
  8
AM_6
100
AcDbText
 10
8.19
 20
2.69
 30
0.0
 40
0.5
  1
Imperial Piloted Flange Bearings
100
AcDbAttributeDefinition
  3

  2
NT
 70
     8
280
     0
  0
ATTDEF
  5
75
330
6E
100
AcDbEntity
  8
AM_6
100
AcDbText
 10
8.19
 20
2.19
 30
0.0
 40
0.5
  1
071580
100
AcDbAttributeDefinition
  3

  2
NB
 70
     8
280
     0
  0
ATTDEF
  5
76
330
6E
100
AcDbEntity
  8
AM_6
100
AcDbText
 10
8.19
 20
1.69
 30
0.0
 40
0.5
  1
$PN.
100
AcDbAttributeDefinition
  3

  2
NBSYN
 70
     8
280
     0
  0
ATTDEF
  5
77
330
6E
100
AcDbEntity
  8
AM_6
100
AcDbText
 10
8.19
 20
1.19
 30
0.0
 40
0.5
  1
071580
100
AcDbAttributeDefinition
  3

  2
LINA
 70
     8
280
     0
  0
ATTDEF
  5
78
330
6E
100
AcDbEntity
  8
AM_6
100
AcDbText
 10
8.19
 20
0.69
 30
0.0
 40
0.5
  1
1-3/4
100
AcDbAttributeDefinition
  3

  2
SS
 70
     8
280
     0
  0
ATTDEF
  5
79
330
6E
100
AcDbEntity
  8
AM_6
100
AcDbText
 10
8.19
 20
0.1899999999999999
 30
0.0
 40
0.5
  1
Expansion
100
AcDbAttributeDefinition
  3

  2
TYPE
 70
     8
280
     0
  0
ATTDEF
  5
7A
330
6E
100
AcDbEntity
  8
AM_6
100
AcDbText
 10
8.19
 20
-0.3100000000000001
 30
0.0
 40
0.5
  1
071580
100
AcDbAttributeDefinition
  3

  2
PN
 70
     8
280
     0
  0
ATTDEF
  5
7B
330
6E
100
AcDbEntity
  8
AM_6
100
AcDbText
 10
8.19
 20
-0.81
 30
0.0
 40
0.5
  1
EFC-IP-112RE
100
AcDbAttributeDefinition
  3

  2
DESCRIPTION
 70
     8
280
     0
  0
ATTDEF
  5
7C
330
6E
100
AcDbEntity
  8
AM_6
100
AcDbText
 10
8.19
 20
-1.31
 30
0.0
 40
0.5
  1
Contact Seal
100
AcDbAttributeDefinition
  3

  2
ST
 70
     8
280
     0
  0
ATTDEF
  5
7D
330
6E
100
AcDbEntity
  8
AM_6
100
AcDbText
 10
8.19
 20
-1.81
 30
0.0
 40
0.5
  1
2.86
100
AcDbAttributeDefinition
  3

  2
A
 70
     8
280
     0
  0
ATTDEF
  5
7E
330
6E
100
AcDbEntity
  8
AM_6
100
AcDbText
 10
8.19
 20
-2.31
 30
0.0
 40
0.5
  1
6.38
100
AcDbAttributeDefinition
  3

  2
B
 70
     8
280
     0
  0
ATTDEF
  5
7F
330
6E
100
AcDbEntity
  8
AM_6
100
AcDbText
 10
8.19
 20
-2.81
 30
0.0
 40
0.5
  1
2.00
100
AcDbAttributeDefinition
  3

  2
C
 70
     8
280
     0
  0
ATTDEF
  5
80
330
6E
100
AcDbEntity
  8
AM_6
100
AcDbText
 10
8.19
 20
-3.31
 30
0.0
 40
0.5
  1
3.8
100
AcDbAttributeDefinition
  3

  2
D
 70
     8
280
     0
  0
ATTDEF
  5
81
330
6E
100
AcDbEntity
  8
AM_6
100
AcDbText
 10
8.19
 20
-3.81
 30
0.0
 40
0.5
  1
5.375
100
AcDbAttributeDefinition
  3

  2
DD
 70
     8
280
     0
  0
ATTDEF
  5
82
330
6E
100
AcDbEntity
  8
AM_6
100
AcDbText
 10
8.19
 20
-4.31
 30
0.0
 40
0.5
  1
0.88
100
AcDbAttributeDefinition
  3

  2
E
 70
     8
280
     0
  0
ATTDEF
  5
83
330
6E
100
AcDbEntity
  8
AM_6
100
AcDbText
 10
8.19
 20
-4.81
 30
0.0
 40
0.5
  1
7/16
100
AcDbAttributeDefinition
  3

  2
F
 70
     8
280
     0
  0
ATTDEF
  5
84
330
6E
100
AcDbEntity
  8
AM_6
100
AcDbText
 10
8.19
 20
-5.31
 30
0.0
 40
0.5
  1
1.59
100
AcDbAttributeDefinition
  3

  2
G
 70
     8
280
     0
  0
ATTDEF
  5
85
330
6E
100
AcDbEntity
  8
AM_6
100
AcDbText
 10
8.19
 20
-5.81
 30
0.0
 40
0.5
  1
0.56
100
AcDbAttributeDefinition
  3

  2
H
 70
     8
280
     0
  0
ATTDEF
  5
86
330
6E
100
AcDbEntity
  8
AM_6
100
AcDbText
 10
8.19
 20
-6.31
 30
0.0
 40
0.5
  1
4.500
100
AcDbAttributeDefinition
  3

  2
K
 70
     8
280
     0
  0
ATTDEF
  5
87
330
6E
100
AcDbEntity
  8
AM_6
100
AcDbText
 10
8.19
 20
-6.81
 30
0.0
 40
0.5
  1
3.28
100
AcDbAttributeDefinition
  3

  2
L
 70
     8
280
     0
  0
ATTDEF
  5
88
330
6E
100
AcDbEntity
  8
AM_6
100
AcDbText
 10
8.19
 20
-7.31
 30
0.0
 40
0.5
  1
7/16-14
100
AcDbAttributeDefinition
  3

  2
M
 70
     8
280
     0
  0
ATTDEF
  5
89
330
6E
100
AcDbEntity
  8
AM_6
100
AcDbText
 10
8.19
 20
-7.81
 30
0.0
 40
0.5
  1
2.86
100
AcDbAttributeDefinition
  3

  2
N
 70
     8
280
     0
  0
ATTDEF
  5
8A
330
6E
100
AcDbEntity
  8
AM_6
100
AcDbText
 10
8.19
 20
-8.31
 30
0.0
 40
0.5
  1
1.26
100
AcDbAttributeDefinition
  3

  2
P
 70
     8
280
     0
  0
ATTDEF
  5
8B
330
6E
100
AcDbEntity
  8
AM_6
100
AcDbText
 10
8.19
 20
-8.81
 30
0.0
 40
0.5
  1
1.26
100
AcDbAttributeDefinition
  3

  2
Q
 70
     8
280
     0
  0
ATTDEF
  5
8C
330
6E
100
AcDbEntity
  8
AM_6
100
AcDbText
 10
8.19
 20
-9.31
 30
0.0
 40
0.5
  1
0.25
100
AcDbAttributeDefinition
  3

  2
X
 70
     8
280
     0
  0
ATTDEF
  5
8D
330
6E
100
AcDbEntity
  8
AM_6
100
AcDbText
 10
8.19
 20
-9.81
 30
0.0
 40
0.5
  1
0.020
100
AcDbAttributeDefinition
  3

  2
Y
 70
     8
280
     0
  0
ATTDEF
  5
8E
330
6E
100
AcDbEntity
  8
AM_6
100
AcDbText
 10
8.19
 20
-10.31
 30
0.0
 40
0.5
  1
2.3
100
AcDbAttributeDefinition
  3

  2
Z
 70
     8
280
     0
  0
ATTDEF
  5
8F
330
6E
100
AcDbEntity
  8
AM_6
100
AcDbText
 10
8.19
 20
-10.81
 30
0.0
 40
0.5
  1
baldor
100
AcDbAttributeDefinition
  3

  2
COMPANY
 70
     8
280
     0
  0
INSERT
  5
91
330
6E
100
AcDbEntity
  8
0
100
AcDbBlockReference
  2
2_405015E_Inch_0_in_071580_0
 10
0.0
 20
0.0
 30
0.0
  0
INSERT
  5
E8
330
6E
100
AcDbEntity
  8
0
100
AcDbBlockReference
  2
3_ASME_B18_3_10_1_0_in_071580_0
 10
0.0
 20
0.0
 30
0.0
  0
INSERT
  5
107
330
6E
100
AcDbEntity
  8
0
100
AcDbBlockReference
  2
4_ASME_B18_3_10_2_0_in_071580_0
 10
0.0
 20
0.0
 30
0.0
  0
INSERT
  5
123
330
6E
100
AcDbEntity
  8
0
100
AcDbBlockReference
  2
5_070888LWE_0_in_071580_0
 10
0.0
 20
0.0
 30
0.0
  0
INSERT
  5
174
330
6E
100
AcDbEntity
  8
0
100
AcDbBlockReference
  2
6_070888E_0_in_071580_0
 10
0.0
 20
0.0
 30
0.0
  0
INSERT
  5
1D0
330
6E
100
AcDbEntity
  8
0
100
AcDbBlockReference
  2
7_071580H_0_in_071580_0
 10
0.0
 20
0.0
 30
0.0
  0
ENDBLK
  5
71
330
6E
100
AcDbEntity
  8
0
100
AcDbBlockEnd
  0
BLOCK
  5
92
330
90
100
AcDbEntity
  8
0
100
AcDbBlockBegin
  2
2_405015E_Inch_0_in_071580_0
 70
     2
 10
0.0
 20
0.0
 30
0.0
  3
2_405015E_Inch_0_in_071580_0
  1

  0
ATTDEF
  5
94
330
90
100
AcDbEntity
  8
AM_6
100
AcDbText
 10
5.252590742770462
 20
2.778435063982701
 30
0.0
 40
0.5
  1
405015E -Inch
100
AcDbAttributeDefinition
  3

  2
NN
 70
     8
280
     0
  0
ATTDEF
  5
95
330
90
100
AcDbEntity
  8
AM_6
100
AcDbText
 10
5.252590742770462
 20
2.278435063982701
 30
0.0
 40
0.5
  1
Grease Fitting
100
AcDbAttributeDefinition
  3

  2
NT
 70
     8
280
     0
  0
ATTDEF
  5
96
330
90
100
AcDbEntity
  8
AM_6
100
AcDbText
 10
5.252590742770462
 20
1.778435063982701
 30
0.0
 40
0.5
  1
405015E-Inch
100
AcDbAttributeDefinition
  3

  2
NB
 70
     8
280
     0
  0
ATTDEF
  5
97
330
90
100
AcDbEntity
  8
AM_6
100
AcDbText
 10
5.252590742770462
 20
1.278435063982701
 30
0.0
 40
0.5
  1
$MN.-Inch
100
AcDbAttributeDefinition
  3

  2
NBSYN
 70
     8
280
     0
  0
ATTDEF
  5
98
330
90
100
AcDbEntity
  8
AM_6
100
AcDbText
 10
5.252590742770462
 20
0.7784350639827009
 30
0.0
 40
0.5
  1
405015E
100
AcDbAttributeDefinition
  3

  2
LINA
 70
     8
280
     0
  0
ATTDEF
  5
99
330
90
100
AcDbEntity
  8
AM_6
100
AcDbText
 10
5.252590742770462
 20
0.2784350639827009
 30
0.0
 40
0.5
  1
405015E
100
AcDbAttributeDefinition
  3

  2
MN
 70
     8
280
     0
  0
ATTDEF
  5
9A
330
90
100
AcDbEntity
  8
AM_6
100
AcDbText
 10
5.252590742770462
 20
-0.2215649360172991
 30
0.0
 40
0.5
  1
1/8 x 27PTF
100
AcDbAttributeDefinition
  3

  2
T
 70
     8
280
     0
  0
ATTDEF
  5
9B
330
90
100
AcDbEntity
  8
AM_6
100
AcDbText
 10
5.252590742770462
 20
-0.7215649360172991
 30
0.0
 40
0.5
  1
baldor
100
AcDbAttributeDefinition
  3

  2
COMPANY
 70
     8
280
     0
  0
ELLIPSE
  5
9E
330
90
100
AcDbEntity
  8
AM_9
100
AcDbEllipse
 10
0.0
 20
2.369513392501271
 30
0.0
 11
-0.161902872472269
 21
1.982738345459263E-17
 31
0.0
210
0.0
220
0.0
230
1.0
 40
0.8660254037844397
 41
0.0
 42
6.283185307179586
  0
ELLIPSE
  5
9F
330
90
100
AcDbEntity
  8
AM_9
100
AcDbEllipse
 10
0.0000000000000001
 20
2.502013392501272
 30
0.0
 11
0.2187499999999998
 21
0.0
 31
0.0
210
0.0
220
0.0
230
1.0
 40
0.8660254037844387
 41
0.5235987755983
 42
1.570796326794897
  0
LWPOLYLINE
  5
A0
330
90
100
AcDbEntity
  8
AM_9
100
AcDbPolyline
 90
        3
 70
     0
 43
0.0
 10
0.1262953713852306
 20
2.695990249427425
 10
0.1577272497321276
 20
2.645515894533582
 10
0.1894430570778459
 20
2.596734921040195
  0
LWPOLYLINE
  5
A1
330
90
100
AcDbEntity
  8
AM_9
100
AcDbPolyline
 90
        3
 70
     0
 43
0.0
 10
0.0
 20
2.691456449579118
 10
0.0631476856926153
 20
2.692653139971635
 10
0.1262953713852306
 20
2.695990249427425
  0
LWPOLYLINE
  5
A2
330
90
100
AcDbEntity
  8
AM_9
100
AcDbPolyline
 90
        3
 70
     0
 43
0.0
 10
-0.1894430570778459
 20
2.596734921040195
 10
-0.1578692142315383
 20
2.645292375702173
 10
-0.1262953713852306
 20
2.695990249427425
  0
LWPOLYLINE
  5
A3
330
90
100
AcDbEntity
  8
AM_9
100
AcDbPolyline
 90
        4
 70
     0
 43
0.0
 10
-0.1262953713852306
 20
2.695990249427425
 10
-0.0967996321117978
 20
2.694197655838039
 10
-0.0485424412477544
 20
2.692169363700654
 10
0.0
 20
2.691456449579118
  0
LINE
  5
A4
330
90
100
AcDbEntity
  8
AM_9
100
AcDbLine
 10
0.1262953713852306
 20
2.73692264973081
 30
0.0
 11
0.1262953713852306
 21
2.695990249427425
 31
0.0
  0
LINE
  5
A5
330
90
100
AcDbEntity
  8
AM_9
100
AcDbLine
 10
-0.1262953713852306
 20
2.73692264973081
 30
0.0
 11
-0.1262953713852306
 21
2.695990249427425
 31
0.0
  0
LWPOLYLINE
  5
A6
330
90
100
AcDbEntity
  8
AM_9
100
AcDbPolyline
 90
        3
 70
     0
 43
0.0
 10
0.0
 20
2.741456449579117
 10
-0.0483998160558989
 20
2.740747669220549
 10
-0.0876643906215056
 20
2.739190662782977
  0
LWPOLYLINE
  5
A7
330
90
100
AcDbEntity
  8
AM_9
100
AcDbPolyline
 90
        3
 70
     0
 43
0.0
 10
0.0878491423263088
 20
2.739181446867787
 10
0.0634316146914367
 20
2.740249187104308
 10
0.0
 20
2.741456449579117
  0
LWPOLYLINE
  5
A8
330
90
100
AcDbEntity
  8
AM_9
100
AcDbPolyline
 90
        3
 70
     0
 43
0.0
 10
0.1894430570778459
 20
2.596734921040195
 10
0.2210168999241536
 20
2.55057084716325
 10
0.2525907427704612
 20
2.506547192349579
  0
LWPOLYLINE
  5
A9
330
90
100
AcDbEntity
  8
AM_9
100
AcDbPolyline
 90
        3
 70
     0
 43
0.0
 10
-0.2525907427704612
 20
2.506547192349579
 10
-0.2211588644235643
 20
2.550368472496427
 10
-0.1894430570778459
 20
2.596734921040195
  0
LINE
  5
AA
330
90
100
AcDbEntity
  8
AM_9
100
AcDbLine
 10
0.1983264404626879
 20
2.378560103127426
 30
0.0
 11
0.2054502516015135
 21
2.492368290333562
 31
0.0
  0
LINE
  5
AB
330
90
100
AcDbEntity
  8
AM_9
100
AcDbLine
 10
-0.2054502516015135
 20
2.492368290333562
 30
0.0
 11
-0.1983264404626879
 21
2.378560103127426
 31
0.0
  0
ELLIPSE
  5
AC
330
90
100
AcDbEntity
  8
AM_9
100
AcDbEllipse
 10
-0.0000000000000015
 20
2.502013392501271
 30
0.0
 11
0.2187499999999979
 21
0.0
 31
0.0
210
0.0
220
0.0
230
1.0
 40
0.866025403784442
 41
1.570796326794897
 42
6.806784082777885
  0
ELLIPSE
  5
AD
330
90
100
AcDbEntity
  8
AM_9
100
AcDbEllipse
 10
0.0000000000000005
 20
2.552013392501272
 30
0.0
 11
0.2187499999999968
 21
0.0
 31
0.0
210
0.0
220
0.0
230
1.0
 40
0.8660254037844508
 41
1.032970329614903
 42
1.570796326794897
  0
ELLIPSE
  5
AE
330
90
100
AcDbEntity
  8
AM_9
100
AcDbEllipse
 10
-0.0000000000000005
 20
2.552013392501272
 30
0.0
 11
0.2187499999999967
 21
3.259629011154126E-9
 31
0.0
210
0.0
220
0.0
230
1.0
 40
0.866025403784451
 41
1.57079631389011
 42
2.108622309941278
  0
ELLIPSE
  5
AF
330
90
100
AcDbEntity
  8
AM_9
100
AcDbEllipse
 10
0.0000000000000007
 20
2.55201339250127
 30
0.0
 11
0.2137500000000021
 21
3.185123205184968E-9
 31
0.0
210
0.0
220
0.0
230
1.0
 40
0.8660254037844387
 41
0.9862868380207095
 42
2.155305787140084
  0
ELLIPSE
  5
B0
330
90
100
AcDbEntity
  8
AM_9
100
AcDbEllipse
 10
0.0
 20
2.561172491771713
 30
0.0
 11
0.1725340532830151
 21
0.0
 31
0.0
210
0.0
220
0.0
230
1.0
 40
0.8660254037844392
 41
0.6732704101474383
 42
2.468322243442355
  0
ELLIPSE
  5
B1
330
90
100
AcDbEntity
  8
AM_9
100
AcDbEllipse
 10
-0.0000000000000006
 20
2.588389953310558
 30
0.0
 11
0.118820090734898
 21
1.770557325108321E-9
 31
0.0
210
0.0
220
0.0
230
1.0
 40
0.8660254037844362
 41
0.0521714252158176
 42
2.305085109538273
  0
LINE
  5
B2
330
90
100
AcDbEntity
  8
AM_9
100
AcDbLine
 10
-0.0703562363973515
 20
2.672013392501272
 30
0.0
 11
-0.079616518023802
 21
2.664774297354421
 31
0.0
  0
LINE
  5
B3
330
90
100
AcDbEntity
  8
AM_9
100
AcDbLine
 10
0.079616518023802
 20
2.664774297354421
 30
0.0
 11
0.0703562363973515
 21
2.672013392501272
 31
0.0
  0
ELLIPSE
  5
B4
330
90
100
AcDbEntity
  8
AM_9
100
AcDbEllipse
 10
0.0
 20
2.604513392501271
 30
0.0
 11
0.1050000000000003
 21
0.0
 31
0.0
210
0.0
220
0.0
230
1.0
 40
0.8660254037844378
 41
0.8365075292154085
 42
3.141592653589793
  0
ELLIPSE
  5
B5
330
90
100
AcDbEntity
  8
AM_9
100
AcDbEllipse
 10
0.0000000000000006
 20
2.588389953310558
 30
0.0
 11
0.1188200907348981
 21
0.0
 31
0.0
210
0.0
220
0.0
230
1.0
 40
0.8660254037844358
 41
2.305085124374393
 42
3.089421211179294
  0
ELLIPSE
  5
B6
330
90
100
AcDbEntity
  8
AM_9
100
AcDbEllipse
 10
-0.0000000000000006
 20
2.604513392501271
 30
0.0
 11
0.1050000000000006
 21
0.0
 31
0.0
210
0.0
220
0.0
230
1.0
 40
0.8660254037844397
 41
5.858105981271469
 42
7.119692836394994
  0
LINE
  5
B7
330
90
100
AcDbEntity
  8
AM_9
100
AcDbLine
 10
0.105
 20
2.604513392501271
 30
0.0
 11
0.105
 21
2.619513392501271
 31
0.0
  0
LINE
  5
B8
330
90
100
AcDbEntity
  8
AM_9
100
AcDbLine
 10
-0.105
 20
2.619513392501271
 30
0.0
 11
-0.105
 21
2.604513392501271
 31
0.0
  0
ELLIPSE
  5
B9
330
90
100
AcDbEntity
  8
AM_9
100
AcDbEllipse
 10
-0.0000000000000019
 20
2.619513392501271
 30
0.0
 11
0.104999999999998
 21
0.0
 31
0.0
210
0.0
220
0.0
230
1.0
 40
0.8660254037844402
 41
3.141592653589793
 42
4.188790204786402
  0
ELLIPSE
  5
BA
330
90
100
AcDbEntity
  8
AM_9
100
AcDbEllipse
 10
0.0000000000000004
 20
2.60451339250127
 30
0.0
 11
0.1050000000000004
 21
0.0
 31
0.0
210
0.0
220
0.0
230
1.0
 40
0.866025403784437
 41
3.141592653589793
 42
3.566671979497909
  0
ELLIPSE
  5
BB
330
90
100
AcDbEntity
  8
AM_9
100
AcDbEllipse
 10
0.0
 20
2.619513392501271
 30
0.0
 11
0.1050000000000002
 21
0.0
 31
0.0
210
0.0
220
0.0
230
1.0
 40
0.8660254037844392
 41
5.235987755982993
 42
9.42477796076938
  0
ELLIPSE
  5
BC
330
90
100
AcDbEntity
  8
AM_9
100
AcDbEllipse
 10
0.0
 20
2.649513392501271
 30
0.0
 11
0.1350000000000005
 21
0.0
 31
0.0
210
0.0
220
0.0
230
1.0
 40
0.866025403784438
 41
0.7751090107151244
 42
2.366483642874669
  0
ELLIPSE
  5
BD
330
90
100
AcDbEntity
  8
AM_9
100
AcDbEllipse
 10
-0.0000000000000249
 20
2.502013392501235
 30
0.0
 11
0.2057518972230944
 21
0.0
 31
0.0
210
0.0
220
0.0
230
1.0
 40
0.8660254037844324
 41
0.0
 42
6.283185307179586
  0
ELLIPSE
  5
BE
330
90
100
AcDbEntity
  8
AM_9
100
AcDbEllipse
 10
0.0000000000000105
 20
2.387870769655604
 30
0.0
 11
0.1986176267812049
 21
0.0
 31
0.0
210
0.0
220
0.0
230
1.0
 40
0.8660254037844272
 41
0.0
 42
6.283185307179586
  0
LWPOLYLINE
  5
C0
330
90
100
AcDbEntity
  8
AM_4
100
AcDbPolyline
 90
        3
 70
     0
 43
0.0
 10
-0.1262953713852306
 20
2.73692264973081
 10
-0.1577272497321276
 20
2.693101369583962
 10
-0.1894430570778459
 20
2.646734921040194
  0
LINE
  5
C1
330
90
100
AcDbEntity
  8
AM_4
100
AcDbLine
 10
-0.0876643906215056
 20
2.739190662782977
 30
0.0
 11
-0.1262953713852306
 21
2.73692264973081
 31
0.0
  0
LWPOLYLINE
  5
C2
330
90
100
AcDbEntity
  8
AM_4
100
AcDbPolyline
 90
        3
 70
     0
 43
0.0
 10
0.1894430570778459
 20
2.646734921040194
 10
0.1578692142315383
 20
2.692898994917139
 10
0.1262953713852306
 20
2.73692264973081
  0
LINE
  5
C3
330
90
100
AcDbEntity
  8
AM_4
100
AcDbLine
 10
0.1262953713852306
 20
2.73692264973081
 30
0.0
 11
0.0878491423263088
 21
2.739181446867787
 31
0.0
  0
LWPOLYLINE
  5
C4
330
90
100
AcDbEntity
  8
AM_4
100
AcDbPolyline
 90
        3
 70
     0
 43
0.0
 10
0.2525907427704612
 20
2.547479592652965
 10
0.2211588644235643
 20
2.597953947546807
 10
0.1894430570778459
 20
2.646734921040194
  0
LWPOLYLINE
  5
C5
330
90
100
AcDbEntity
  8
AM_4
100
AcDbPolyline
 90
        3
 70
     0
 43
0.0
 10
-0.1894430570778459
 20
2.646734921040194
 10
-0.2210168999241536
 20
2.598177466378216
 10
-0.2525907427704612
 20
2.547479592652965
  0
LWPOLYLINE
  5
C6
330
90
100
AcDbEntity
  8
AM_4
100
AcDbPolyline
 90
        3
 70
     0
 43
0.0
 10
-0.2525907427704612
 20
2.547479592652965
 10
-0.2211588644235643
 20
2.503658312506116
 10
-0.1894430570778459
 20
2.457291863962348
  0
LINE
  5
C7
330
90
100
AcDbEntity
  8
AM_4
100
AcDbLine
 10
-0.2525907427704612
 20
2.547479592652965
 30
0.0
 11
-0.2525907427704612
 21
2.506547192349579
 31
0.0
  0
LWPOLYLINE
  5
C8
330
90
100
AcDbEntity
  8
AM_4
100
AcDbPolyline
 90
        3
 70
     0
 43
0.0
 10
-0.1894430570778459
 20
2.407291863962349
 10
-0.2210168999241536
 20
2.455849318624328
 10
-0.2525907427704612
 20
2.506547192349579
  0
LWPOLYLINE
  5
C9
330
90
100
AcDbEntity
  8
AM_4
100
AcDbPolyline
 90
        3
 70
     0
 43
0.0
 10
-0.1262953713852306
 20
2.317104135271733
 10
-0.1577272497321276
 20
2.360925415418581
 10
-0.1894430570778459
 20
2.407291863962349
  0
LWPOLYLINE
  5
CA
330
90
100
AcDbEntity
  8
AM_4
100
AcDbPolyline
 90
        3
 70
     0
 43
0.0
 10
-0.1894430570778459
 20
2.457291863962348
 10
-0.1578692142315383
 20
2.40873440930037
 10
-0.1262953713852306
 20
2.358036535575118
  0
LWPOLYLINE
  5
CB
330
90
100
AcDbEntity
  8
AM_4
100
AcDbPolyline
 90
        4
 70
     0
 43
0.0
 10
-0.1262953713852306
 20
2.358036535575118
 10
-0.0967996321117978
 20
2.359829129164504
 10
-0.0485424412477544
 20
2.36185742130189
 10
0.0
 20
2.362570335423426
  0
LINE
  5
CC
330
90
100
AcDbEntity
  8
AM_4
100
AcDbLine
 10
-0.1262953713852306
 20
2.358036535575118
 30
0.0
 11
-0.1262953713852306
 21
2.317104135271733
 31
0.0
  0
LWPOLYLINE
  5
CD
330
90
100
AcDbEntity
  8
AM_4
100
AcDbPolyline
 90
        4
 70
     0
 43
0.0
 10
0.0
 20
2.312570335423426
 10
-0.0483998160558989
 20
2.313279115781994
 10
-0.0967996321117978
 20
2.315311541682348
 10
-0.1262953713852306
 20
2.317104135271733
  0
LWPOLYLINE
  5
CE
330
90
100
AcDbEntity
  8
AM_4
100
AcDbPolyline
 90
        3
 70
     0
 43
0.0
 10
0.1262953713852306
 20
2.317104135271733
 10
0.0634316146914367
 20
2.313777597898236
 10
0.0
 20
2.312570335423426
  0
LINE
  5
CF
330
90
100
AcDbEntity
  8
AM_4
100
AcDbLine
 10
0.2525907427704612
 20
2.547479592652965
 30
0.0
 11
0.2525907427704612
 21
2.506547192349579
 31
0.0
  0
LWPOLYLINE
  5
D0
330
90
100
AcDbEntity
  8
AM_4
100
AcDbPolyline
 90
        3
 70
     0
 43
0.0
 10
0.1894430570778459
 20
2.457291863962348
 10
0.2210168999241535
 20
2.503455937839293
 10
0.2525907427704612
 20
2.547479592652965
  0
LINE
  5
D1
330
90
100
AcDbEntity
  8
AM_4
100
AcDbLine
 10
0.1262953713852306
 20
2.358036535575118
 30
0.0
 11
0.1262953713852306
 21
2.317104135271733
 31
0.0
  0
LWPOLYLINE
  5
D2
330
90
100
AcDbEntity
  8
AM_4
100
AcDbPolyline
 90
        3
 70
     0
 43
0.0
 10
0.1894430570778459
 20
2.407291863962349
 10
0.1578692142315383
 20
2.361127790085404
 10
0.1262953713852306
 20
2.317104135271733
  0
LWPOLYLINE
  5
D3
330
90
100
AcDbEntity
  8
AM_4
100
AcDbPolyline
 90
        3
 70
     0
 43
0.0
 10
0.2525907427704612
 20
2.506547192349579
 10
0.2211588644235643
 20
2.456072837455736
 10
0.1894430570778459
 20
2.407291863962349
  0
LWPOLYLINE
  5
D4
330
90
100
AcDbEntity
  8
AM_4
100
AcDbPolyline
 90
        3
 70
     0
 43
0.0
 10
0.0
 20
2.362570335423426
 10
0.0631476856926153
 20
2.361373645030908
 10
0.1262953713852306
 20
2.358036535575118
  0
LWPOLYLINE
  5
D5
330
90
100
AcDbEntity
  8
AM_4
100
AcDbPolyline
 90
        3
 70
     0
 43
0.0
 10
0.1262953713852306
 20
2.358036535575118
 10
0.1577272497321276
 20
2.408510890468961
 10
0.1894430570778459
 20
2.457291863962348
  0
ELLIPSE
  5
D6
330
90
100
AcDbEntity
  8
AM_4
100
AcDbEllipse
 10
-0.0000000000000004
 20
2.552013392501271
 30
0.0
 11
0.2187499999999992
 21
0.0
 31
0.0
210
0.0
220
0.0
230
1.0
 40
0.8660254037844372
 41
3.665191429188091
 42
4.71238898038469
  0
ELLIPSE
  5
D7
330
90
100
AcDbEntity
  8
AM_4
100
AcDbEllipse
 10
0.0000000000000004
 20
2.552013392501271
 30
0.0
 11
0.2187499999999995
 21
0.0
 31
0.0
210
0.0
220
0.0
230
1.0
 40
0.8660254037844378
 41
4.71238898038469
 42
6.806784082777888
  0
ELLIPSE
  5
D8
330
90
100
AcDbEntity
  8
AM_4
100
AcDbEllipse
 10
0.0000000000000029
 20
2.552013392501271
 30
0.0
 11
0.2187499999999959
 21
0.0
 31
0.0
210
0.0
220
0.0
230
1.0
 40
0.866025403784448
 41
0.5235987755983018
 42
1.032970329614915
  0
ELLIPSE
  5
D9
330
90
100
AcDbEntity
  8
AM_4
100
AcDbEllipse
 10
-0.0000000000000029
 20
2.552013392501271
 30
0.0
 11
0.2187499999999961
 21
0.0
 31
0.0
210
0.0
220
0.0
230
1.0
 40
0.8660254037844475
 41
2.108622323974878
 42
2.617993877991491
  0
ELLIPSE
  5
DA
330
90
100
AcDbEntity
  8
AM_4
100
AcDbEllipse
 10
-0.0000000000000006
 20
2.552013392501272
 30
0.0
 11
0.2187499999999993
 21
3.259629011154166E-9
 31
0.0
210
0.0
220
0.0
230
1.0
 40
0.8660254037844385
 41
2.617993861860514
 42
3.665191413057113
  0
ELLIPSE
  5
DB
330
90
100
AcDbEntity
  8
AM_4
100
AcDbEllipse
 10
0.0
 20
2.552013392501272
 30
0.0
 11
0.2137500000000003
 21
0.0
 31
0.0
210
0.0
220
0.0
230
1.0
 40
0.8660254037844397
 41
2.155305801354589
 42
7.269472159414791
  0
ELLIPSE
  5
DC
330
90
100
AcDbEntity
  8
AM_4
100
AcDbEllipse
 10
0.0000000000000001
 20
2.561172491771713
 30
0.0
 11
0.1725340532830155
 21
0.0
 31
0.0
210
0.0
220
0.0
230
1.0
 40
0.8660254037844372
 41
2.468322243442355
 42
6.956455717327025
  0
ELLIPSE
  5
DD
330
90
100
AcDbEntity
  8
AM_4
100
AcDbEllipse
 10
0.0000000000000493
 20
2.588389953310478
 30
0.0
 11
0.1188200907348482
 21
0.0
 31
0.0
210
0.0
220
0.0
230
1.0
 40
0.8660254037844557
 41
3.089421211178537
 42
6.335356749590888
  0
ELLIPSE
  5
DE
330
90
100
AcDbEntity
  8
AM_4
100
AcDbEllipse
 10
0.0
 20
2.604513392501272
 30
0.0
 11
0.1050000000000003
 21
0.0
 31
0.0
210
0.0
220
0.0
230
1.0
 40
0.8660254037844383
 41
3.566671979497922
 42
5.858105981271455
  0
LINE
  5
DF
330
90
100
AcDbEntity
  8
AM_4
100
AcDbLine
 10
0.0525
 20
2.540763392501272
 30
0.0
 11
0.0675000000000001
 21
2.548263392501272
 31
0.0
  0
LINE
  5
E0
330
90
100
AcDbEntity
  8
AM_4
100
AcDbLine
 10
-0.0675000000000001
 20
2.548263392501272
 30
0.0
 11
-0.0525
 21
2.540763392501272
 31
0.0
  0
ELLIPSE
  5
E1
330
90
100
AcDbEntity
  8
AM_4
100
AcDbEllipse
 10
0.0
 20
2.619513392501271
 30
0.0
 11
0.1049999999999982
 21
0.0
 31
0.0
210
0.0
220
0.0
230
1.0
 40
0.8660254037844425
 41
4.188790204786379
 42
5.235987755982999
  0
ELLIPSE
  5
E2
330
90
100
AcDbEntity
  8
AM_4
100
AcDbEllipse
 10
-0.0000000000000006
 20
2.649513392501272
 30
0.0
 11
0.1350000000000006
 21
0.0
 31
0.0
210
0.0
220
0.0
230
1.0
 40
0.8660254037844372
 41
4.188790204786393
 42
7.058294317894706
  0
LINE
  5
E3
330
90
100
AcDbEntity
  8
AM_4
100
AcDbLine
 10
-0.0733474205218687
 20
2.751740240293379
 30
0.0
 11
-0.0964365416902991
 21
2.731328703232891
 31
0.0
  0
LINE
  5
E4
330
90
100
AcDbEntity
  8
AM_4
100
AcDbLine
 10
0.0964365416902991
 20
2.731328703232891
 30
0.0
 11
0.0733474205218687
 21
2.751740240293379
 31
0.0
  0
ELLIPSE
  5
E5
330
90
100
AcDbEntity
  8
AM_4
100
AcDbEllipse
 10
-0.0000000000000001
 20
2.649513392501272
 30
0.0
 11
0.1349999999999999
 21
0.0
 31
0.0
210
0.0
220
0.0
230
1.0
 40
0.8660254037844385
 41
2.36648364287467
 42
4.18879020478639
  0
ELLIPSE
  5
E6
330
90
100
AcDbEntity
  8
AM_4
100
AcDbEllipse
 10
-0.0000000000000017
 20
2.689513392501272
 30
0.0
 11
0.1026779019331891
 21
0.0
 31
0.0
210
0.0
220
0.0
230
1.0
 40
0.8660254037844348
 41
0.0
 42
6.283185307179586
  0
ENDBLK
  5
93
330
90
100
AcDbEntity
  8
0
100
AcDbBlockEnd
  0
BLOCK
  5
E9
330
E7
100
AcDbEntity
  8
0
100
AcDbBlockBegin
  2
3_ASME_B18_3_10_1_0_in_071580_0
 70
     2
 10
0.0
 20
0.0
 30
0.0
  3
3_ASME_B18_3_10_1_0_in_071580_0
  1

  0
ATTDEF
  5
EB
330
E7
100
AcDbEntity
  8
AM_6
100
AcDbText
 10
5.189525
 20
-1.055611111111111
 30
0.0
 40
0.5
  1
ANSI/ASME B18.3-1998
100
AcDbAttributeDefinition
  3

  2
NN
 70
     8
280
     0
  0
ATTDEF
  5
EC
330
E7
100
AcDbEntity
  8
AM_6
100
AcDbText
 10
5.189525
 20
-1.555611111111111
 30
0.0
 40
0.5
  1
Socket Button Head Cap Screws
100
AcDbAttributeDefinition
  3

  2
NT
 70
     8
280
     0
  0
ATTDEF
  5
ED
330
E7
100
AcDbEntity
  8
AM_6
100
AcDbText
 10
5.189525
 20
-2.055611111111111
 30
0.0
 40
0.5
  1
ASME B18.3-10
100
AcDbAttributeDefinition
  3

  2
NB
 70
     8
280
     0
  0
ATTDEF
  5
EE
330
E7
100
AcDbEntity
  8
AM_6
100
AcDbText
 10
5.189525
 20
-2.555611111111111
 30
0.0
 40
0.5
  1
ASME B18.3-$NS.
100
AcDbAttributeDefinition
  3

  2
NBSYN
 70
     8
280
     0
  0
ATTDEF
  5
EF
330
E7
100
AcDbEntity
  8
AM_6
100
AcDbText
 10
5.189525
 20
-3.055611111111111
 30
0.0
 40
0.5
  1
ASME B18.3-10
100
AcDbAttributeDefinition
  3

  2
LINA
 70
     8
280
     0
  0
ATTDEF
  5
F0
330
E7
100
AcDbEntity
  8
AM_6
100
AcDbText
 10
5.189525
 20
-3.555611111111111
 30
0.0
 40
0.5
  1
10
100
AcDbAttributeDefinition
  3

  2
NS
 70
     8
280
     0
  0
ATTDEF
  5
F1
330
E7
100
AcDbEntity
  8
AM_6
100
AcDbText
 10
5.189525
 20
-4.055611111111111
 30
0.0
 40
0.5
  1
0.361
100
AcDbAttributeDefinition
  3

  2
A
 70
     8
280
     0
  0
ATTDEF
  5
F2
330
E7
100
AcDbEntity
  8
AM_6
100
AcDbText
 10
5.189525
 20
-4.555611111111111
 30
0.0
 40
0.5
  1
0.101
100
AcDbAttributeDefinition
  3

  2
H
 70
     8
280
     0
  0
ATTDEF
  5
F3
330
E7
100
AcDbEntity
  8
AM_6
100
AcDbText
 10
5.189525
 20
-5.055611111111111
 30
0.0
 40
0.5
  1
0.800
100
AcDbAttributeDefinition
  3

  2
L
 70
     8
280
     0
  0
ATTDEF
  5
F4
330
E7
100
AcDbEntity
  8
AM_6
100
AcDbText
 10
5.189525
 20
-5.555611111111111
 30
0.0
 40
0.5
  1
0.020
100
AcDbAttributeDefinition
  3

  2
S
 70
     8
280
     0
  0
ATTDEF
  5
F5
330
E7
100
AcDbEntity
  8
AM_6
100
AcDbText
 10
5.189525
 20
-6.055611111111111
 30
0.0
 40
0.5
  1
0.125000
100
AcDbAttributeDefinition
  3

  2
J
 70
     8
280
     0
  0
ATTDEF
  5
F6
330
E7
100
AcDbEntity
  8
AM_6
100
AcDbText
 10
5.189525
 20
-6.555611111111111
 30
0.0
 40
0.5
  1
baldor
100
AcDbAttributeDefinition
  3

  2
COMPANY
 70
     8
280
     0
  0
ARC
  5
F8
330
E7
100
AcDbEntity
  8
AM_5
100
AcDbCircle
 10
0.0000000000000003
 20
-1.236111111111111
 30
0.0
 40
0.0702
100
AcDbArc
 50
75.00000000000024
 51
15.00000000000027
  0
LINE
  5
FB
330
E7
100
AcDbEntity
  8
AM_7
100
AcDbLine
 10
-0.1895249999999999
 20
-1.236111111111111
 30
0.0
 11
0.1895249999999999
 21
-1.236111111111111
 31
0.0
  0
LINE
  5
FC
330
E7
100
AcDbEntity
  8
AM_4
100
AcDbLine
 10
0.0625
 20
-1.272195502935463
 30
0.0
 11
0.0
 21
-1.308279894759814
 31
0.0
  0
LINE
  5
FD
330
E7
100
AcDbEntity
  8
AM_4
100
AcDbLine
 10
0.0
 20
-1.163942327462408
 30
0.0
 11
0.0625
 21
-1.20002671928676
 31
0.0
  0
CIRCLE
  5
FE
330
E7
100
AcDbEntity
  8
AM_4
100
AcDbCircle
 10
0.0
 20
-1.236111111111111
 30
0.0
 40
0.0995
  0
LINE
  5
FF
330
E7
100
AcDbEntity
  8
AM_4
100
AcDbLine
 10
-0.0625
 20
-1.272195502935463
 30
0.0
 11
-0.0625
 21
-1.20002671928676
 31
0.0
  0
LINE
  5
100
330
E7
100
AcDbEntity
  8
AM_4
100
AcDbLine
 10
-0.0625
 20
-1.20002671928676
 30
0.0
 11
0.0
 21
-1.163942327462408
 31
0.0
  0
LINE
  5
101
330
E7
100
AcDbEntity
  8
AM_4
100
AcDbLine
 10
0.0625
 20
-1.20002671928676
 30
0.0
 11
0.0625
 21
-1.272195502935463
 31
0.0
  0
LINE
  5
102
330
E7
100
AcDbEntity
  8
AM_4
100
AcDbLine
 10
0.0
 20
-1.308279894759814
 30
0.0
 11
-0.0625
 21
-1.272195502935463
 31
0.0
  0
ARC
  5
103
330
E7
100
AcDbEntity
  8
AM_5
100
AcDbCircle
 10
0.0
 20
-1.236111111111111
 30
0.0
 40
0.0702
100
AcDbArc
 50
344.9999999999998
 51
284.9999999999999
  0
CIRCLE
  5
104
330
E7
100
AcDbEntity
  8
AM_4
100
AcDbCircle
 10
0.0
 20
-1.236111111111111
 30
0.0
 40
0.1804999999999999
  0
CIRCLE
  5
105
330
E7
100
AcDbEntity
  8
AM_5
100
AcDbCircle
 10
0.0
 20
-1.236111111111111
 30
0.0
 40
0.0764
  0
ENDBLK
  5
EA
330
E7
100
AcDbEntity
  8
0
100
AcDbBlockEnd
  0
BLOCK
  5
108
330
106
100
AcDbEntity
  8
0
100
AcDbBlockBegin
  2
4_ASME_B18_3_10_2_0_in_071580_0
 70
     2
 10
0.0
 20
0.0
 30
0.0
  3
4_ASME_B18_3_10_2_0_in_071580_0
  1

  0
ATTDEF
  5
10A
330
106
100
AcDbEntity
  8
AM_6
100
AcDbText
 10
5.189525
 20
1.416611111111111
 30
0.0
 40
0.5
  1
ANSI/ASME B18.3-1998
100
AcDbAttributeDefinition
  3

  2
NN
 70
     8
280
     0
  0
ATTDEF
  5
10B
330
106
100
AcDbEntity
  8
AM_6
100
AcDbText
 10
5.189525
 20
0.916611111111111
 30
0.0
 40
0.5
  1
Socket Button Head Cap Screws
100
AcDbAttributeDefinition
  3

  2
NT
 70
     8
280
     0
  0
ATTDEF
  5
10C
330
106
100
AcDbEntity
  8
AM_6
100
AcDbText
 10
5.189525
 20
0.416611111111111
 30
0.0
 40
0.5
  1
ASME B18.3-10
100
AcDbAttributeDefinition
  3

  2
NB
 70
     8
280
     0
  0
ATTDEF
  5
10D
330
106
100
AcDbEntity
  8
AM_6
100
AcDbText
 10
5.189525
 20
-0.083388888888889
 30
0.0
 40
0.5
  1
ASME B18.3-$NS.
100
AcDbAttributeDefinition
  3

  2
NBSYN
 70
     8
280
     0
  0
ATTDEF
  5
10E
330
106
100
AcDbEntity
  8
AM_6
100
AcDbText
 10
5.189525
 20
-0.583388888888889
 30
0.0
 40
0.5
  1
ASME B18.3-10
100
AcDbAttributeDefinition
  3

  2
LINA
 70
     8
280
     0
  0
ATTDEF
  5
10F
330
106
100
AcDbEntity
  8
AM_6
100
AcDbText
 10
5.189525
 20
-1.083388888888889
 30
0.0
 40
0.5
  1
10
100
AcDbAttributeDefinition
  3

  2
NS
 70
     8
280
     0
  0
ATTDEF
  5
110
330
106
100
AcDbEntity
  8
AM_6
100
AcDbText
 10
5.189525
 20
-1.583388888888889
 30
0.0
 40
0.5
  1
0.361
100
AcDbAttributeDefinition
  3

  2
A
 70
     8
280
     0
  0
ATTDEF
  5
111
330
106
100
AcDbEntity
  8
AM_6
100
AcDbText
 10
5.189525
 20
-2.083388888888889
 30
0.0
 40
0.5
  1
0.101
100
AcDbAttributeDefinition
  3

  2
H
 70
     8
280
     0
  0
ATTDEF
  5
112
330
106
100
AcDbEntity
  8
AM_6
100
AcDbText
 10
5.189525
 20
-2.583388888888889
 30
0.0
 40
0.5
  1
0.800
100
AcDbAttributeDefinition
  3

  2
L
 70
     8
280
     0
  0
ATTDEF
  5
113
330
106
100
AcDbEntity
  8
AM_6
100
AcDbText
 10
5.189525
 20
-3.083388888888889
 30
0.0
 40
0.5
  1
0.020
100
AcDbAttributeDefinition
  3

  2
S
 70
     8
280
     0
  0
ATTDEF
  5
114
330
106
100
AcDbEntity
  8
AM_6
100
AcDbText
 10
5.189525
 20
-3.583388888888889
 30
0.0
 40
0.5
  1
0.125000
100
AcDbAttributeDefinition
  3

  2
J
 70
     8
280
     0
  0
ATTDEF
  5
115
330
106
100
AcDbEntity
  8
AM_6
100
AcDbText
 10
5.189525
 20
-4.083388888888889
 30
0.0
 40
0.5
  1
baldor
100
AcDbAttributeDefinition
  3

  2
COMPANY
 70
     8
280
     0
  0
ARC
  5
116
330
106
100
AcDbEntity
  8
AM_5
100
AcDbCircle
 10
-0.0000000000000001
 20
1.236111111111111
 30
0.0
 40
0.0702000000000003
100
AcDbArc
 50
75.0000000000001
 51
15.00000000000019
  0
LINE
  5
117
330
106
100
AcDbEntity
  8
AM_7
100
AcDbLine
 10
-0.1895249999999999
 20
1.236111111111111
 30
0.0
 11
0.1895249999999999
 21
1.236111111111111
 31
0.0
  0
LINE
  5
118
330
106
100
AcDbEntity
  8
AM_4
100
AcDbLine
 10
0.0625
 20
1.20002671928676
 30
0.0
 11
0.0
 21
1.163942327462408
 31
0.0
  0
LINE
  5
119
330
106
100
AcDbEntity
  8
AM_4
100
AcDbLine
 10
-0.0625
 20
1.20002671928676
 30
0.0
 11
-0.0625
 21
1.272195502935463
 31
0.0
  0
LINE
  5
11A
330
106
100
AcDbEntity
  8
AM_4
100
AcDbLine
 10
-0.0625
 20
1.272195502935463
 30
0.0
 11
0.0
 21
1.308279894759814
 31
0.0
  0
LINE
  5
11B
330
106
100
AcDbEntity
  8
AM_4
100
AcDbLine
 10
0.0
 20
1.308279894759814
 30
0.0
 11
0.0625
 21
1.272195502935463
 31
0.0
  0
LINE
  5
11C
330
106
100
AcDbEntity
  8
AM_4
100
AcDbLine
 10
0.0625
 20
1.272195502935463
 30
0.0
 11
0.0625
 21
1.20002671928676
 31
0.0
  0
LINE
  5
11D
330
106
100
AcDbEntity
  8
AM_4
100
AcDbLine
 10
0.0
 20
1.163942327462408
 30
0.0
 11
-0.0625
 21
1.20002671928676
 31
0.0
  0
CIRCLE
  5
11E
330
106
100
AcDbEntity
  8
AM_4
100
AcDbCircle
 10
0.0
 20
1.236111111111111
 30
0.0
 40
0.0995
  0
ARC
  5
11F
330
106
100
AcDbEntity
  8
AM_5
100
AcDbCircle
 10
0.0
 20
1.236111111111111
 30
0.0
 40
0.0702
100
AcDbArc
 50
344.9999999999998
 51
284.9999999999999
  0
CIRCLE
  5
120
330
106
100
AcDbEntity
  8
AM_4
100
AcDbCircle
 10
0.0
 20
1.236111111111111
 30
0.0
 40
0.1804999999999999
  0
CIRCLE
  5
121
330
106
100
AcDbEntity
  8
AM_5
100
AcDbCircle
 10
0.0
 20
1.236111111111111
 30
0.0
 40
0.0764
  0
ENDBLK
  5
109
330
106
100
AcDbEntity
  8
0
100
AcDbBlockEnd
  0
BLOCK
  5
124
330
122
100
AcDbEntity
  8
0
100
AcDbBlockBegin
  2
5_070888LWE_0_in_071580_0
 70
     2
 10
0.0
 20
0.0
 30
0.0
  3
5_070888LWE_0_in_071580_0
  1

  0
ATTDEF
  5
126
330
122
100
AcDbEntity
  8
AM_6
100
AcDbText
 10
6.5
 20
1.5
 30
0.0
 40
0.5
  1
Imperial/E Insert Lockwasher -Inch
100
AcDbAttributeDefinition
  3

  2
NN
 70
     8
280
     0
  0
ATTDEF
  5
127
330
122
100
AcDbEntity
  8
AM_6
100
AcDbText
 10
6.5
 20
0.9999999999999998
 30
0.0
 40
0.5
  1
Imperial/E Bearings
100
AcDbAttributeDefinition
  3

  2
NT
 70
     8
280
     0
  0
ATTDEF
  5
128
330
122
100
AcDbEntity
  8
AM_6
100
AcDbText
 10
6.5
 20
0.4999999999999998
 30
0.0
 40
0.5
  1
070888LWE
100
AcDbAttributeDefinition
  3

  2
NB
 70
     8
280
     0
  0
ATTDEF
  5
129
330
122
100
AcDbEntity
  8
AM_6
100
AcDbText
 10
6.5
 20
-0.0000000000000002
 30
0.0
 40
0.5
  1
$PN.LWE
100
AcDbAttributeDefinition
  3

  2
NBSYN
 70
     8
280
     0
  0
ATTDEF
  5
12A
330
122
100
AcDbEntity
  8
AM_6
100
AcDbText
 10
6.5
 20
-0.5000000000000002
 30
0.0
 40
0.5
  1
070888
100
AcDbAttributeDefinition
  3

  2
LINA
 70
     8
280
     0
  0
ATTDEF
  5
12B
330
122
100
AcDbEntity
  8
AM_6
100
AcDbText
 10
6.5
 20
-1.0
 30
0.0
 40
0.5
  1
1-3/4
100
AcDbAttributeDefinition
  3

  2
SS
 70
     8
280
     0
  0
ATTDEF
  5
12C
330
122
100
AcDbEntity
  8
AM_6
100
AcDbText
 10
6.5
 20
-1.5
 30
0.0
 40
0.5
  1
3.000000
100
AcDbAttributeDefinition
  3

  2
E1
 70
     8
280
     0
  0
ATTDEF
  5
12D
330
122
100
AcDbEntity
  8
AM_6
100
AcDbText
 10
6.5
 20
-2.0
 30
0.0
 40
0.5
  1
1.750000
100
AcDbAttributeDefinition
  3

  2
SS1
 70
     8
280
     0
  0
ATTDEF
  5
12E
330
122
100
AcDbEntity
  8
AM_6
100
AcDbText
 10
6.5
 20
-2.5
 30
0.0
 40
0.5
  1
070888
100
AcDbAttributeDefinition
  3

  2
PN
 70
     8
280
     0
  0
ATTDEF
  5
12F
330
122
100
AcDbEntity
  8
AM_6
100
AcDbText
 10
6.5
 20
-3.0
 30
0.0
 40
0.5
  1
INS-IP-112R
100
AcDbAttributeDefinition
  3

  2
DESCRIPTION
 70
     8
280
     0
  0
ATTDEF
  5
130
330
122
100
AcDbEntity
  8
AM_6
100
AcDbText
 10
6.5
 20
-3.5
 30
0.0
 40
0.5
  1
3.3465
100
AcDbAttributeDefinition
  3

  2
A
 70
     8
280
     0
  0
ATTDEF
  5
131
330
122
100
AcDbEntity
  8
AM_6
100
AcDbText
 10
6.5
 20
-4.0
 30
0.0
 40
0.5
  1
61/64
100
AcDbAttributeDefinition
  3

  2
B
 70
     8
280
     0
  0
ATTDEF
  5
132
330
122
100
AcDbEntity
  8
AM_6
100
AcDbText
 10
6.5
 20
-4.5
 30
0.0
 40
0.5
  1
0.953125
100
AcDbAttributeDefinition
  3

  2
B1
 70
     8
280
     0
  0
ATTDEF
  5
133
330
122
100
AcDbEntity
  8
AM_6
100
AcDbText
 10
6.5
 20
-5.0
 30
0.0
 40
0.5
  1
2-13/16
100
AcDbAttributeDefinition
  3

  2
C
 70
     8
280
     0
  0
ATTDEF
  5
134
330
122
100
AcDbEntity
  8
AM_6
100
AcDbText
 10
6.5
 20
-5.5
 30
0.0
 40
0.5
  1
2.812500
100
AcDbAttributeDefinition
  3

  2
C1
 70
     8
280
     0
  0
ATTDEF
  5
135
330
122
100
AcDbEntity
  8
AM_6
100
AcDbText
 10
6.5
 20
-6.0
 30
0.0
 40
0.5
  1
0.954
100
AcDbAttributeDefinition
  3

  2
D
 70
     8
280
     0
  0
ATTDEF
  5
136
330
122
100
AcDbEntity
  8
AM_6
100
AcDbText
 10
6.5
 20
-6.5
 30
0.0
 40
0.5
  1
3
100
AcDbAttributeDefinition
  3

  2
E
 70
     8
280
     0
  0
ATTDEF
  5
137
330
122
100
AcDbEntity
  8
AM_6
100
AcDbText
 10
6.5
 20
-7.0
 30
0.0
 40
0.5
  1
0.1900
100
AcDbAttributeDefinition
  3

  2
NDM
 70
     8
280
     0
  0
ATTDEF
  5
138
330
122
100
AcDbEntity
  8
AM_6
100
AcDbText
 10
6.5
 20
-7.5
 30
0.0
 40
0.5
  1
0.1450
100
AcDbAttributeDefinition
  3

  2
KDM
 70
     8
280
     0
  0
ATTDEF
  5
139
330
122
100
AcDbEntity
  8
AM_6
100
AcDbText
 10
6.5
 20
-8.0
 30
0.0
 40
0.5
  1
2.42
100
AcDbAttributeDefinition
  3

  2
AL
 70
     8
280
     0
  0
ATTDEF
  5
13A
330
122
100
AcDbEntity
  8
AM_6
100
AcDbText
 10
6.5
 20
-8.5
 30
0.0
 40
0.5
  1
0.38
100
AcDbAttributeDefinition
  3

  2
BL
 70
     8
280
     0
  0
ATTDEF
  5
13B
330
122
100
AcDbEntity
  8
AM_6
100
AcDbText
 10
6.5
 20
-9.0
 30
0.0
 40
0.5
  1
0.07
100
AcDbAttributeDefinition
  3

  2
CL
 70
     8
280
     0
  0
ATTDEF
  5
13C
330
122
100
AcDbEntity
  8
AM_6
100
AcDbText
 10
6.5
 20
-9.5
 30
0.0
 40
0.5
  1
0.44
100
AcDbAttributeDefinition
  3

  2
DL
 70
     8
280
     0
  0
ATTDEF
  5
13D
330
122
100
AcDbEntity
  8
AM_6
100
AcDbText
 10
6.5
 20
-10.0
 30
0.0
 40
0.5
  1
baldor
100
AcDbAttributeDefinition
  3

  2
COMPANY
 70
     8
280
     0
  0
ARC
  5
13E
330
122
100
AcDbEntity
  8
AM_9
100
AcDbCircle
 10
0.0000000000000239
 20
-0.0000000000000578
 30
0.0
 40
0.9210526315790099
100
AcDbArc
 50
106.579820863887
 51
118.420179136113
  0
LINE
  5
13F
330
122
100
AcDbEntity
  8
AM_9
100
AcDbLine
 10
0.0950000000000002
 20
1.236111111111111
 30
0.0
 11
0.0950000000000002
 21
1.082633914107778
 31
0.0
  0
ARC
  5
140
330
122
100
AcDbEntity
  8
AM_9
100
AcDbCircle
 10
0.0000000000000002
 20
1.232455142799261
 30
0.0
 40
0.0950703218901528
100
AcDbArc
 50
2.203876172194097
 51
177.7961238278059
  0
LINE
  5
141
330
122
100
AcDbEntity
  8
AM_9
100
AcDbLine
 10
-0.0949999999999997
 20
-1.236111111111111
 30
0.0
 11
-0.0949999999999997
 21
-1.082633914107778
 31
0.0
  0
LINE
  5
142
330
122
100
AcDbEntity
  8
AM_9
100
AcDbLine
 10
-0.0949999999999999
 20
1.082633914107778
 30
0.0
 11
-0.0949999999999999
 21
1.236111111111111
 31
0.0
  0
ARC
  5
143
330
122
100
AcDbEntity
  8
AM_9
100
AcDbCircle
 10
0.0000000000000003
 20
-1.239767079422961
 30
0.0
 40
0.0950703218901527
100
AcDbArc
 50
177.7961238278059
 51
2.203876172194097
  0
LINE
  5
144
330
122
100
AcDbEntity
  8
AM_9
100
AcDbLine
 10
0.0950000000000002
 20
-1.082633914107778
 30
0.0
 11
0.0950000000000003
 21
-1.236111111111111
 31
0.0
  0
LINE
  5
145
330
122
100
AcDbEntity
  8
AM_7
100
AcDbLine
 10
-0.09982383798466
 20
-1.239767079422961
 30
0.0
 11
0.0998238379846607
 21
-1.239767079422961
 31
0.0
  0
LINE
  5
146
330
122
100
AcDbEntity
  8
AM_7
100
AcDbLine
 10
-0.9738622829700471
 20
0.8741122556617006
 30
0.0
 11
-0.7743622283533534
 21
0.8741122556617006
 31
0.0
  0
LINE
  5
147
330
122
100
AcDbEntity
  8
AM_7
100
AcDbLine
 10
-0.8741122556617003
 20
0.7743622283533538
 30
0.0
 11
-0.8741122556617003
 21
0.9738622829700474
 31
0.0
  0
LINE
  5
148
330
122
100
AcDbEntity
  8
AM_7
100
AcDbLine
 10
-1.236181406993314
 20
-0.0997500273083475
 30
0.0
 11
-1.236181406993314
 21
0.0997500273083466
 31
0.0
  0
LINE
  5
149
330
122
100
AcDbEntity
  8
AM_7
100
AcDbLine
 10
0.7743622283533537
 20
-0.8741122556617003
 30
0.0
 11
0.9738622829700473
 21
-0.8741122556617003
 31
0.0
  0
LINE
  5
14A
330
122
100
AcDbEntity
  8
AM_7
100
AcDbLine
 10
0.8741122556617005
 20
-0.9738622829700471
 30
0.0
 11
0.8741122556617005
 21
-0.7743622283533534
 31
0.0
  0
LINE
  5
14B
330
122
100
AcDbEntity
  8
AM_7
100
AcDbLine
 10
-0.973862282970047
 20
-0.8741122556617007
 30
0.0
 11
-0.7743622283533533
 21
-0.8741122556617007
 31
0.0
  0
LINE
  5
14C
330
122
100
AcDbEntity
  8
AM_7
100
AcDbLine
 10
-0.8741122556617001
 20
-0.9738622829700475
 30
0.0
 11
-0.8741122556617001
 21
-0.7743622283533539
 31
0.0
  0
LINE
  5
14D
330
122
100
AcDbEntity
  8
AM_7
100
AcDbLine
 10
0.7743622283533534
 20
0.8741122556617001
 30
0.0
 11
0.9738622829700473
 21
0.8741122556617001
 31
0.0
  0
LINE
  5
14E
330
122
100
AcDbEntity
  8
AM_7
100
AcDbLine
 10
0.8741122556617004
 20
0.7743622283533532
 30
0.0
 11
0.8741122556617004
 21
0.9738622829700471
 31
0.0
  0
LINE
  5
14F
330
122
100
AcDbEntity
  8
AM_7
100
AcDbLine
 10
1.23976707942296
 20
-0.0998238379846605
 30
0.0
 11
1.23976707942296
 21
0.0998238379846602
 31
0.0
  0
LINE
  5
150
330
122
100
AcDbEntity
  8
AM_4
100
AcDbLine
 10
0.0950000000000002
 20
1.082633914107778
 30
0.0
 11
0.0950000000000002
 21
0.941163499425881
 31
0.0
  0
ARC
  5
151
330
122
100
AcDbEntity
  8
AM_4
100
AcDbCircle
 10
0.0000000000000016
 20
0.0000000000000028
 30
0.0
 40
0.9459459459459493
100
AcDbArc
 50
230.7638500515453
 51
264.2361499484547
  0
LINE
  5
152
330
122
100
AcDbEntity
  8
AM_4
100
AcDbLine
 10
-0.0949999999999997
 20
-1.082633914107778
 30
0.0
 11
-0.0949999999999997
 21
-0.9411634994258815
 31
0.0
  0
LINE
  5
153
330
122
100
AcDbEntity
  8
AM_4
100
AcDbLine
 10
-0.5983279484365799
 20
-0.732678236862024
 30
0.0
 11
-0.8068874047539824
 21
-0.941237693179427
 31
0.0
  0
LINE
  5
154
330
122
100
AcDbEntity
  8
AM_4
100
AcDbLine
 10
-0.0949999999999997
 20
0.9411634994258812
 30
0.0
 11
-0.0949999999999999
 21
1.082633914107778
 31
0.0
  0
ARC
  5
155
330
122
100
AcDbEntity
  8
AM_4
100
AcDbCircle
 10
0.0000000000000036
 20
-0.000000000000016
 30
0.0
 40
0.9459459459459623
100
AcDbArc
 50
95.7638500515453
 51
106.7361499484547
  0
LINE
  5
156
330
122
100
AcDbEntity
  8
AM_4
100
AcDbLine
 10
0.0949999999999999
 20
-0.9411634994258812
 30
0.0
 11
0.0950000000000002
 21
-1.082633914107778
 31
0.0
  0
ARC
  5
157
330
122
100
AcDbEntity
  8
AM_4
100
AcDbCircle
 10
-0.0000000000000015
 20
0.0000000000000019
 30
0.0
 40
0.945945945945948
100
AcDbArc
 50
275.7638500515453
 51
309.2361499484548
  0
LINE
  5
158
330
122
100
AcDbEntity
  8
AM_4
100
AcDbLine
 10
0.8068874047539794
 20
-0.9412376931794231
 30
0.0
 11
0.5983279484365798
 21
-0.7326782368620235
 31
0.0
  0
ARC
  5
159
330
122
100
AcDbEntity
  8
AM_4
100
AcDbCircle
 10
0.8741122556617005
 20
-0.8741122556617003
 30
0.0
 40
0.0950000260079493
100
AcDbArc
 50
224.9576036143936
 51
45.04239638560335
  0
LINE
  5
15A
330
122
100
AcDbEntity
  8
AM_4
100
AcDbLine
 10
0.7326782368620248
 20
-0.5983279484365791
 30
0.0
 11
0.9412376931794268
 21
-0.8068874047539826
 31
0.0
  0
ARC
  5
15B
330
122
100
AcDbEntity
  8
AM_4
100
AcDbCircle
 10
-0.0000000000000073
 20
0.0000000000000026
 30
0.0
 40
0.9459459459459536
100
AcDbArc
 50
320.7638500515454
 51
354.2361499484547
  0
LINE
  5
15C
330
122
100
AcDbEntity
  8
AM_4
100
AcDbLine
 10
1.236111111111111
 20
-0.0950000000000003
 30
0.0
 11
0.9411634994258812
 21
-0.0949999999999999
 31
0.0
  0
ARC
  5
15D
330
122
100
AcDbEntity
  8
AM_4
100
AcDbCircle
 10
1.23976707942296
 20
-0.0000000000000001
 30
0.0
 40
0.0950703218901528
100
AcDbArc
 50
267.7961238278063
 51
92.20387617219359
  0
LINE
  5
15E
330
122
100
AcDbEntity
  8
AM_4
100
AcDbLine
 10
0.9411634994258811
 20
0.0950000000000002
 30
0.0
 11
1.236111111111111
 21
0.0950000000000001
 31
0.0
  0
ARC
  5
15F
330
122
100
AcDbEntity
  8
AM_4
100
AcDbCircle
 10
-0.0000000000000044
 20
-0.0000000000000023
 30
0.0
 40
0.9459459459459506
100
AcDbArc
 50
5.763850051545384
 51
39.23614994845476
  0
LINE
  5
160
330
122
100
AcDbEntity
  8
AM_4
100
AcDbLine
 10
0.9412376931794268
 20
0.8068874047539826
 30
0.0
 11
0.7326782368620236
 21
0.5983279484365798
 31
0.0
  0
ARC
  5
161
330
122
100
AcDbEntity
  8
AM_4
100
AcDbCircle
 10
0.8741122556617004
 20
0.8741122556617003
 30
0.0
 40
0.0950000260079495
100
AcDbArc
 50
314.9576036143966
 51
135.0423963856034
  0
CIRCLE
  5
162
330
122
100
AcDbEntity
  8
AM_4
100
AcDbCircle
 10
0.0
 20
0.0
 30
0.0
 40
1.5
  0
ARC
  5
163
330
122
100
AcDbEntity
  8
AM_4
100
AcDbCircle
 10
0.0000000000000285
 20
-0.000000000000043
 30
0.0
 40
0.9459459459459975
100
AcDbArc
 50
118.2638500515455
 51
129.2361499484545
  0
LINE
  5
164
330
122
100
AcDbEntity
  8
AM_4
100
AcDbLine
 10
-0.2628231382362253
 20
0.8827581481618657
 30
0.0
 11
-0.2723991227884629
 21
0.9058766199409533
 31
0.0
  0
ARC
  5
165
330
122
100
AcDbEntity
  8
AM_4
100
AcDbCircle
 10
-0.0000000000000219
 20
0.0000000000000568
 30
0.0
 40
0.8749999999999393
100
AcDbArc
 50
106.2670287629114
 51
118.7329712370887
  0
LINE
  5
166
330
122
100
AcDbEntity
  8
AM_4
100
AcDbLine
 10
-0.4479362339656078
 20
0.8331667677915863
 30
0.0
 11
-0.4383602494133698
 21
0.8100482960124985
 31
0.0
  0
LINE
  5
167
330
122
100
AcDbEntity
  8
AM_4
100
AcDbLine
 10
0.5983279484365801
 20
0.7326782368620236
 30
0.0
 11
0.8068874047539827
 21
0.9412376931794266
 31
0.0
  0
ARC
  5
168
330
122
100
AcDbEntity
  8
AM_4
100
AcDbCircle
 10
-0.8741122556617
 20
-0.8741122556617007
 30
0.0
 40
0.0950000260079495
100
AcDbArc
 50
134.9576036143966
 51
315.0423963856034
  0
LINE
  5
169
330
122
100
AcDbEntity
  8
AM_4
100
AcDbLine
 10
-0.9412376931794264
 20
-0.8068874047539829
 30
0.0
 11
-0.7326782368620237
 21
-0.5983279484365803
 31
0.0
  0
ARC
  5
16A
330
122
100
AcDbEntity
  8
AM_4
100
AcDbCircle
 10
-0.0000000000000042
 20
-0.0000000000000019
 30
0.0
 40
0.9459459459459416
100
AcDbArc
 50
185.7638500515451
 51
219.2361499484549
  0
LINE
  5
16B
330
122
100
AcDbEntity
  8
AM_4
100
AcDbLine
 10
-0.9411634994258812
 20
-0.0950000000000002
 30
0.0
 11
-1.236111111111111
 21
-0.0950000000000006
 31
0.0
  0
ARC
  5
16C
330
122
100
AcDbEntity
  8
AM_4
100
AcDbCircle
 10
-1.236181406993314
 20
-0.0000000000000004
 30
0.0
 40
0.0950000260079495
100
AcDbArc
 50
89.95760361439689
 51
270.0423963856031
  0
LINE
  5
16D
330
122
100
AcDbEntity
  8
AM_4
100
AcDbLine
 10
-1.236111111111111
 20
0.0949999999999997
 30
0.0
 11
-0.9411634994258813
 21
0.0949999999999996
 31
0.0
  0
ARC
  5
16E
330
122
100
AcDbEntity
  8
AM_4
100
AcDbCircle
 10
0.0000000000000024
 20
-0.0000000000000004
 30
0.0
 40
0.9459459459459485
100
AcDbArc
 50
140.7638500515452
 51
174.2361499484549
  0
LINE
  5
16F
330
122
100
AcDbEntity
  8
AM_4
100
AcDbLine
 10
-0.732678236862024
 20
0.5983279484365803
 30
0.0
 11
-0.9412376931794265
 21
0.8068874047539828
 31
0.0
  0
ARC
  5
170
330
122
100
AcDbEntity
  8
AM_4
100
AcDbCircle
 10
-0.8741122556617004
 20
0.8741122556617006
 30
0.0
 40
0.0950000260079494
100
AcDbArc
 50
44.95760361438508
 51
225.0423963856035
  0
LINE
  5
171
330
122
100
AcDbEntity
  8
AM_4
100
AcDbLine
 10
-0.8068874047539691
 20
0.9412376931794134
 30
0.0
 11
-0.5983279484365799
 21
0.732678236862024
 31
0.0
  0
ARC
  5
172
330
122
100
AcDbEntity
  8
AM_4
100
AcDbCircle
 10
0.0000000000000013
 20
0.0000000000000026
 30
0.0
 40
0.9459459459459432
100
AcDbArc
 50
50.76385005154512
 51
84.23614994845487
  0
ENDBLK
  5
125
330
122
100
AcDbEntity
  8
0
100
AcDbBlockEnd
  0
BLOCK
  5
175
330
173
100
AcDbEntity
  8
0
100
AcDbBlockBegin
  2
6_070888E_0_in_071580_0
 70
     2
 10
0.0
 20
0.0
 30
0.0
  3
6_070888E_0_in_071580_0
  1

  0
ATTDEF
  5
177
330
173
100
AcDbEntity
  8
AM_6
100
AcDbText
 10
6.663249999999999
 20
1.663249999999999
 30
0.0
 40
0.5
  1
Imperial/E Insert -Inch
100
AcDbAttributeDefinition
  3

  2
NN
 70
     8
280
     0
  0
ATTDEF
  5
178
330
173
100
AcDbEntity
  8
AM_6
100
AcDbText
 10
6.663249999999999
 20
1.163249999999999
 30
0.0
 40
0.5
  1
Imperial Bearings
100
AcDbAttributeDefinition
  3

  2
NT
 70
     8
280
     0
  0
ATTDEF
  5
179
330
173
100
AcDbEntity
  8
AM_6
100
AcDbText
 10
6.663249999999999
 20
0.6632499999999988
 30
0.0
 40
0.5
  1
070888E
100
AcDbAttributeDefinition
  3

  2
NB
 70
     8
280
     0
  0
ATTDEF
  5
17A
330
173
100
AcDbEntity
  8
AM_6
100
AcDbText
 10
6.663249999999999
 20
0.1632499999999988
 30
0.0
 40
0.5
  1
$PN.
100
AcDbAttributeDefinition
  3

  2
NBSYN
 70
     8
280
     0
  0
ATTDEF
  5
17B
330
173
100
AcDbEntity
  8
AM_6
100
AcDbText
 10
6.663249999999999
 20
-0.3367500000000012
 30
0.0
 40
0.5
  1
070888E
100
AcDbAttributeDefinition
  3

  2
LINA
 70
     8
280
     0
  0
ATTDEF
  5
17C
330
173
100
AcDbEntity
  8
AM_6
100
AcDbText
 10
6.663249999999999
 20
-0.8367500000000012
 30
0.0
 40
0.5
  1
1-3/4
100
AcDbAttributeDefinition
  3

  2
SS
 70
     8
280
     0
  0
ATTDEF
  5
17D
330
173
100
AcDbEntity
  8
AM_6
100
AcDbText
 10
6.663249999999999
 20
-1.336750000000001
 30
0.0
 40
0.5
  1
1.750000
100
AcDbAttributeDefinition
  3

  2
SS1
 70
     8
280
     0
  0
ATTDEF
  5
17E
330
173
100
AcDbEntity
  8
AM_6
100
AcDbText
 10
6.663249999999999
 20
-1.836750000000001
 30
0.0
 40
0.5
  1
070888E
100
AcDbAttributeDefinition
  3

  2
PN
 70
     8
280
     0
  0
ATTDEF
  5
17F
330
173
100
AcDbEntity
  8
AM_6
100
AcDbText
 10
6.663249999999999
 20
-2.336750000000001
 30
0.0
 40
0.5
  1
INS-IP-112R
100
AcDbAttributeDefinition
  3

  2
DESCRIPTION
 70
     8
280
     0
  0
ATTDEF
  5
180
330
173
100
AcDbEntity
  8
AM_6
100
AcDbText
 10
6.663249999999999
 20
-2.836750000000001
 30
0.0
 40
0.5
  1
Contact Seal
100
AcDbAttributeDefinition
  3

  2
ST
 70
     8
280
     0
  0
ATTDEF
  5
181
330
173
100
AcDbEntity
  8
AM_6
100
AcDbText
 10
6.663249999999999
 20
-3.336750000000001
 30
0.0
 40
0.5
  1
1
100
AcDbAttributeDefinition
  3

  2
ST1
 70
     8
280
     0
  0
ATTDEF
  5
182
330
173
100
AcDbEntity
  8
AM_6
100
AcDbText
 10
6.663249999999999
 20
-3.836750000000001
 30
0.0
 40
0.5
  1
3.3465
100
AcDbAttributeDefinition
  3

  2
A
 70
     8
280
     0
  0
ATTDEF
  5
183
330
173
100
AcDbEntity
  8
AM_6
100
AcDbText
 10
6.663249999999999
 20
-4.336750000000001
 30
0.0
 40
0.5
  1
61/64
100
AcDbAttributeDefinition
  3

  2
B
 70
     8
280
     0
  0
ATTDEF
  5
184
330
173
100
AcDbEntity
  8
AM_6
100
AcDbText
 10
6.663249999999999
 20
-4.836750000000001
 30
0.0
 40
0.5
  1
0.953125
100
AcDbAttributeDefinition
  3

  2
B1
 70
     8
280
     0
  0
ATTDEF
  5
185
330
173
100
AcDbEntity
  8
AM_6
100
AcDbText
 10
6.663249999999999
 20
-5.336750000000001
 30
0.0
 40
0.5
  1
2-13/16
100
AcDbAttributeDefinition
  3

  2
C
 70
     8
280
     0
  0
ATTDEF
  5
186
330
173
100
AcDbEntity
  8
AM_6
100
AcDbText
 10
6.663249999999999
 20
-5.836750000000001
 30
0.0
 40
0.5
  1
2.860000
100
AcDbAttributeDefinition
  3

  2
C1
 70
     8
280
     0
  0
ATTDEF
  5
187
330
173
100
AcDbEntity
  8
AM_6
100
AcDbText
 10
6.663249999999999
 20
-6.336750000000001
 30
0.0
 40
0.5
  1
3.64000
100
AcDbAttributeDefinition
  3

  2
CR
 70
     8
280
     0
  0
ATTDEF
  5
188
330
173
100
AcDbEntity
  8
AM_6
100
AcDbText
 10
6.663249999999999
 20
-6.836750000000001
 30
0.0
 40
0.5
  1
0.954
100
AcDbAttributeDefinition
  3

  2
D
 70
     8
280
     0
  0
ATTDEF
  5
189
330
173
100
AcDbEntity
  8
AM_6
100
AcDbText
 10
6.663249999999999
 20
-7.336750000000001
 30
0.0
 40
0.5
  1
3
100
AcDbAttributeDefinition
  3

  2
E
 70
     8
280
     0
  0
ATTDEF
  5
18A
330
173
100
AcDbEntity
  8
AM_6
100
AcDbText
 10
6.663249999999999
 20
-7.836750000000001
 30
0.0
 40
0.5
  1
3.000000
100
AcDbAttributeDefinition
  3

  2
E1
 70
     8
280
     0
  0
ATTDEF
  5
18B
330
173
100
AcDbEntity
  8
AM_6
100
AcDbText
 10
6.663249999999999
 20
-8.336750000000002
 30
0.0
 40
0.5
  1
0.1900
100
AcDbAttributeDefinition
  3

  2
NDM
 70
     8
280
     0
  0
ATTDEF
  5
18C
330
173
100
AcDbEntity
  8
AM_6
100
AcDbText
 10
6.663249999999999
 20
-8.836750000000002
 30
0.0
 40
0.5
  1
0.1450
100
AcDbAttributeDefinition
  3

  2
KDM
 70
     8
280
     0
  0
ATTDEF
  5
18D
330
173
100
AcDbEntity
  8
AM_6
100
AcDbText
 10
6.663249999999999
 20
-9.336750000000002
 30
0.0
 40
0.5
  1
2.42
100
AcDbAttributeDefinition
  3

  2
AL
 70
     8
280
     0
  0
ATTDEF
  5
18E
330
173
100
AcDbEntity
  8
AM_6
100
AcDbText
 10
6.663249999999999
 20
-9.836750000000002
 30
0.0
 40
0.5
  1
0.38
100
AcDbAttributeDefinition
  3

  2
BL
 70
     8
280
     0
  0
ATTDEF
  5
18F
330
173
100
AcDbEntity
  8
AM_6
100
AcDbText
 10
6.663249999999999
 20
-10.33675
 30
0.0
 40
0.5
  1
0.07
100
AcDbAttributeDefinition
  3

  2
CL
 70
     8
280
     0
  0
ATTDEF
  5
190
330
173
100
AcDbEntity
  8
AM_6
100
AcDbText
 10
6.663249999999999
 20
-10.83675
 30
0.0
 40
0.5
  1
0.44
100
AcDbAttributeDefinition
  3

  2
DL
 70
     8
280
     0
  0
ATTDEF
  5
191
330
173
100
AcDbEntity
  8
AM_6
100
AcDbText
 10
6.663249999999999
 20
-11.33675
 30
0.0
 40
0.5
  1
0.8000
100
AcDbAttributeDefinition
  3

  2
LL
 70
     8
280
     0
  0
ATTDEF
  5
192
330
173
100
AcDbEntity
  8
AM_6
100
AcDbText
 10
6.663249999999999
 20
-11.83675
 30
0.0
 40
0.5
  1
0.020
100
AcDbAttributeDefinition
  3

  2
Y
 70
     8
280
     0
  0
ATTDEF
  5
193
330
173
100
AcDbEntity
  8
AM_6
100
AcDbText
 10
6.663249999999999
 20
-12.33675
 30
0.0
 40
0.5
  1
0.020000
100
AcDbAttributeDefinition
  3

  2
Y1
 70
     8
280
     0
  0
ATTDEF
  5
194
330
173
100
AcDbEntity
  8
AM_6
100
AcDbText
 10
6.663249999999999
 20
-12.83675
 30
0.0
 40
0.5
  1
2-5/64
100
AcDbAttributeDefinition
  3

  2
Z
 70
     8
280
     0
  0
ATTDEF
  5
195
330
173
100
AcDbEntity
  8
AM_6
100
AcDbText
 10
6.663249999999999
 20
-13.33675
 30
0.0
 40
0.5
  1
2.078125
100
AcDbAttributeDefinition
  3

  2
Z1
 70
     8
280
     0
  0
ATTDEF
  5
196
330
173
100
AcDbEntity
  8
AM_6
100
AcDbText
 10
6.663249999999999
 20
-13.83675
 30
0.0
 40
0.5
  1
0.79000
100
AcDbAttributeDefinition
  3

  2
P1
 70
     8
280
     0
  0
ATTDEF
  5
197
330
173
100
AcDbEntity
  8
AM_6
100
AcDbText
 10
6.663249999999999
 20
-14.33675
 30
0.0
 40
0.5
  1
1.18000
100
AcDbAttributeDefinition
  3

  2
H1
 70
     8
280
     0
  0
ATTDEF
  5
198
330
173
100
AcDbEntity
  8
AM_6
100
AcDbText
 10
6.663249999999999
 20
-14.83675
 30
0.0
 40
0.5
  1
0.65000
100
AcDbAttributeDefinition
  3

  2
G1
 70
     8
280
     0
  0
ATTDEF
  5
199
330
173
100
AcDbEntity
  8
AM_6
100
AcDbText
 10
6.663249999999999
 20
-15.33675
 30
0.0
 40
0.5
  1
0.10100
100
AcDbAttributeDefinition
  3

  2
CW
 70
     8
280
     0
  0
ATTDEF
  5
19A
330
173
100
AcDbEntity
  8
AM_6
100
AcDbText
 10
6.663249999999999
 20
-15.83675
 30
0.0
 40
0.5
  1
3.28000
100
AcDbAttributeDefinition
  3

  2
L1
 70
     8
280
     0
  0
ATTDEF
  5
19B
330
173
100
AcDbEntity
  8
AM_6
100
AcDbText
 10
6.663249999999999
 20
-16.33675
 30
0.0
 40
0.5
  1
baldor
100
AcDbAttributeDefinition
  3

  2
COMPANY
 70
     8
280
     0
  0
CIRCLE
  5
19C
330
173
100
AcDbEntity
  8
AM_9
100
AcDbCircle
 10
0.0
 20
0.0
 30
0.0
 40
1.0390625
  0
CIRCLE
  5
19D
330
173
100
AcDbEntity
  8
AM_9
100
AcDbCircle
 10
0.0
 20
0.0
 30
0.0
 40
1.392060118395209
  0
CIRCLE
  5
19E
330
173
100
AcDbEntity
  8
AM_9
100
AcDbCircle
 10
0.0
 20
0.0
 30
0.0
 40
1.47325
  0
CIRCLE
  5
19F
330
173
100
AcDbEntity
  8
AM_9
100
AcDbCircle
 10
0.0
 20
0.0
 30
0.0
 40
1.623250000745059
  0
CIRCLE
  5
1A0
330
173
100
AcDbEntity
  8
AM_9
100
AcDbCircle
 10
0.0
 20
0.0
 30
0.0
 40
1.62559375
  0
CIRCLE
  5
1A1
330
173
100
AcDbEntity
  8
AM_9
100
AcDbCircle
 10
0.0
 20
-1.236111111111111
 30
0.0
 40
0.0724499999999999
  0
LINE
  5
1A2
330
173
100
AcDbEntity
  8
AM_9
100
AcDbLine
 10
0.9899494936611664
 20
-0.7212489168102785
 30
0.0
 11
1.186467202080957
 21
-0.9177666252300689
 31
0.0
  0
LINE
  5
1A3
330
173
100
AcDbEntity
  8
AM_9
100
AcDbLine
 10
0.9227743494484447
 20
-0.7884240610230002
 30
0.0
 11
0.9899494936611664
 21
-0.7212489168102785
 31
0.0
  0
LINE
  5
1A4
330
173
100
AcDbEntity
  8
AM_9
100
AcDbLine
 10
0.7212489168102787
 20
-0.9899494936611661
 30
0.0
 11
0.7884240610230006
 21
-0.9227743494484444
 31
0.0
  0
LINE
  5
1A5
330
173
100
AcDbEntity
  8
AM_9
100
AcDbLine
 10
-0.7884240610230001
 20
-0.9227743494484447
 30
0.0
 11
-0.7212489168102785
 21
-0.9899494936611664
 31
0.0
  0
LINE
  5
1A6
330
173
100
AcDbEntity
  8
AM_9
100
AcDbLine
 10
-0.9899494936611667
 20
-0.7212489168102781
 30
0.0
 11
-0.9227743494484442
 21
-0.7884240610230007
 31
0.0
  0
LINE
  5
1A7
330
173
100
AcDbEntity
  8
AM_9
100
AcDbLine
 10
-0.9899494936611664
 20
0.7212489168102785
 30
0.0
 11
-1.186467202080957
 21
0.9177666252300689
 31
0.0
  0
LINE
  5
1A8
330
173
100
AcDbEntity
  8
AM_9
100
AcDbLine
 10
0.7212489168102785
 20
0.9899494936611664
 30
0.0
 11
0.9177666252300689
 21
1.186467202080957
 31
0.0
  0
LINE
  5
1A9
330
173
100
AcDbEntity
  8
AM_9
100
AcDbLine
 10
0.9177666252300689
 20
-1.186467202080956
 30
0.0
 11
0.7212489168102787
 21
-0.9899494936611661
 31
0.0
  0
LINE
  5
1AA
330
173
100
AcDbEntity
  8
AM_9
100
AcDbLine
 10
-0.9177666252300689
 20
1.186467202080956
 30
0.0
 11
-0.7212489168102787
 21
0.9899494936611661
 31
0.0
  0
LINE
  5
1AB
330
173
100
AcDbEntity
  8
AM_9
100
AcDbLine
 10
-1.186467202080957
 20
-0.9177666252300685
 30
0.0
 11
-0.9899494936611667
 21
-0.7212489168102781
 31
0.0
  0
LINE
  5
1AC
330
173
100
AcDbEntity
  8
AM_9
100
AcDbLine
 10
1.186467202080957
 20
0.9177666252300685
 30
0.0
 11
0.9899494936611667
 21
0.7212489168102781
 31
0.0
  0
LINE
  5
1AD
330
173
100
AcDbEntity
  8
AM_9
100
AcDbLine
 10
0.7884240610230003
 20
0.9227743494484444
 30
0.0
 11
0.7212489168102785
 21
0.9899494936611664
 31
0.0
  0
LINE
  5
1AE
330
173
100
AcDbEntity
  8
AM_9
100
AcDbLine
 10
0.9899494936611667
 20
0.7212489168102781
 30
0.0
 11
0.9227743494484445
 21
0.7884240610230002
 31
0.0
  0
LINE
  5
1AF
330
173
100
AcDbEntity
  8
AM_9
100
AcDbLine
 10
-0.7212489168102785
 20
-0.9899494936611664
 30
0.0
 11
-0.9177666252300689
 21
-1.186467202080957
 31
0.0
  0
LINE
  5
1B0
330
173
100
AcDbEntity
  8
AM_9
100
AcDbLine
 10
-0.9227743494484443
 20
0.7884240610230007
 30
0.0
 11
-0.9899494936611664
 21
0.7212489168102785
 31
0.0
  0
LINE
  5
1B1
330
173
100
AcDbEntity
  8
AM_9
100
AcDbLine
 10
-0.7212489168102787
 20
0.9899494936611661
 30
0.0
 11
-0.7884240610230002
 21
0.9227743494484444
 31
0.0
  0
ARC
  5
1B2
330
173
100
AcDbEntity
  8
AM_9
100
AcDbCircle
 10
0.0000000000000131
 20
-0.0000000000000321
 30
0.0
 40
0.9234828496042562
100
AcDbArc
 50
106.5954557434415
 51
118.4045442565584
  0
CIRCLE
  5
1B3
330
173
100
AcDbEntity
  8
AM_9
100
AcDbCircle
 10
0.0
 20
1.236111111111111
 30
0.0
 40
0.0724499999999999
  0
CIRCLE
  5
1B4
330
173
100
AcDbEntity
  8
AM_9
100
AcDbCircle
 10
0.0000000000000875
 20
0.0000000000000712
 30
0.0
 40
1.305457578016652
  0
CIRCLE
  5
1B5
330
173
100
AcDbEntity
  8
AM_9
100
AcDbCircle
 10
-0.0000000000000012
 20
-0.0000000000000038
 30
0.0
 40
1.385416666666671
  0
CIRCLE
  5
1B6
330
173
100
AcDbEntity
  8
AM_4
100
AcDbCircle
 10
0.0
 20
0.0
 30
0.0
 40
1.663249999999999
  0
CIRCLE
  5
1B7
330
173
100
AcDbEntity
  8
AM_4
100
AcDbCircle
 10
0.0
 20
0.0
 30
0.0
 40
1.570088577660552
  0
LINE
  5
1B8
330
173
100
AcDbEntity
  8
AM_4
100
AcDbLine
 10
1.186467202080957
 20
-0.9177666252300689
 30
0.0
 11
1.191941814397573
 21
-0.9232412375466852
 31
0.0
  0
LINE
  5
1B9
330
173
100
AcDbEntity
  8
AM_4
100
AcDbLine
 10
-1.186467202080957
 20
0.9177666252300689
 30
0.0
 11
-1.191941814397573
 21
0.9232412375466852
 31
0.0
  0
LINE
  5
1BA
330
173
100
AcDbEntity
  8
AM_4
100
AcDbLine
 10
0.9177666252300689
 20
1.186467202080957
 30
0.0
 11
0.9232412375466852
 21
1.191941814397573
 31
0.0
  0
LINE
  5
1BB
330
173
100
AcDbEntity
  8
AM_4
100
AcDbLine
 10
0.9232412375466852
 20
-1.191941814397573
 30
0.0
 11
0.9177666252300689
 21
-1.186467202080956
 31
0.0
  0
LINE
  5
1BC
330
173
100
AcDbEntity
  8
AM_4
100
AcDbLine
 10
-0.9232412375466852
 20
1.191941814397573
 30
0.0
 11
-0.9177666252300689
 21
1.186467202080956
 31
0.0
  0
LINE
  5
1BD
330
173
100
AcDbEntity
  8
AM_4
100
AcDbLine
 10
-1.191941814397573
 20
-0.9232412375466846
 30
0.0
 11
-1.186467202080957
 21
-0.9177666252300685
 31
0.0
  0
LINE
  5
1BE
330
173
100
AcDbEntity
  8
AM_4
100
AcDbLine
 10
1.191941814397573
 20
0.9232412375466846
 30
0.0
 11
1.186467202080957
 21
0.9177666252300685
 31
0.0
  0
LINE
  5
1BF
330
173
100
AcDbEntity
  8
AM_4
100
AcDbLine
 10
-0.9177666252300689
 20
-1.186467202080957
 30
0.0
 11
-0.9232412375466852
 21
-1.191941814397573
 31
0.0
  0
CIRCLE
  5
1C0
330
173
100
AcDbEntity
  8
AM_4
100
AcDbCircle
 10
0.0
 20
0.0
 30
0.0
 40
1.520096192902732
  0
ARC
  5
1C1
330
173
100
AcDbEntity
  8
AM_4
100
AcDbCircle
 10
0.0000000000000001
 20
0.0000000000000009
 30
0.0
 40
1.507680228568417
100
AcDbArc
 50
307.7602548139266
 51
322.2397451860734
  0
ARC
  5
1C2
330
173
100
AcDbEntity
  8
AM_4
100
AcDbCircle
 10
-0.0000000000000198
 20
-0.0000000000000216
 30
0.0
 40
1.507680228568387
100
AcDbArc
 50
217.7602548139264
 51
232.2397451860735
  0
ARC
  5
1C3
330
173
100
AcDbEntity
  8
AM_4
100
AcDbCircle
 10
-0.000000000000001
 20
0.0
 30
0.0
 40
1.507680228568416
100
AcDbArc
 50
127.7602548139266
 51
142.2397451860734
  0
ARC
  5
1C4
330
173
100
AcDbEntity
  8
AM_4
100
AcDbCircle
 10
0.0000000000000198
 20
0.0000000000000216
 30
0.0
 40
1.507680228568387
100
AcDbArc
 50
37.7602548139264
 51
52.2397451860735
  0
LINE
  5
1C5
330
173
100
AcDbEntity
  8
AM_4
100
AcDbLine
 10
0.7884240610230006
 20
-0.9227743494484444
 30
0.0
 11
0.9227743494484447
 21
-0.7884240610230002
 31
0.0
  0
LINE
  5
1C6
330
173
100
AcDbEntity
  8
AM_4
100
AcDbLine
 10
-0.9227743494484442
 20
-0.7884240610230007
 30
0.0
 11
-0.7884240610230001
 21
-0.9227743494484447
 31
0.0
  0
LINE
  5
1C7
330
173
100
AcDbEntity
  8
AM_4
100
AcDbLine
 10
0.9227743494484445
 20
0.7884240610230002
 30
0.0
 11
0.7884240610230003
 21
0.9227743494484444
 31
0.0
  0
LINE
  5
1C8
330
173
100
AcDbEntity
  8
AM_4
100
AcDbLine
 10
-0.7884240610230002
 20
0.9227743494484444
 30
0.0
 11
-0.9227743494484443
 21
0.7884240610230007
 31
0.0
  0
ARC
  5
1C9
330
173
100
AcDbEntity
  8
AM_4
100
AcDbCircle
 10
0.0
 20
0.0000000000000001
 30
0.0
 40
0.8749999999999999
100
AcDbArc
 50
118.7329712370882
 51
106.2670287629118
  0
LINE
  5
1CA
330
173
100
AcDbEntity
  8
AM_4
100
AcDbLine
 10
-0.245100044127786
 20
0.8399708139980564
 30
0.0
 11
-0.2628231382362254
 21
0.8827581481618656
 31
0.0
  0
LINE
  5
1CB
330
173
100
AcDbEntity
  8
AM_4
100
AcDbLine
 10
-0.4383602494133698
 20
0.8100482960124985
 30
0.0
 11
-0.4206371553049303
 21
0.7672609618486894
 31
0.0
  0
ARC
  5
1CC
330
173
100
AcDbEntity
  8
AM_4
100
AcDbCircle
 10
0.0000000000000011
 20
0.0000000000000005
 30
0.0
 40
0.9210526315789475
100
AcDbArc
 50
118.4201791361135
 51
106.5798208638866
  0
CIRCLE
  5
1CD
330
173
100
AcDbEntity
  8
AM_5
100
AcDbCircle
 10
0.0
 20
1.236111111111111
 30
0.0
 40
0.0950000000000001
  0
CIRCLE
  5
1CE
330
173
100
AcDbEntity
  8
AM_5
100
AcDbCircle
 10
0.0
 20
-1.236111111111111
 30
0.0
 40
0.0950000000000001
  0
ENDBLK
  5
176
330
173
100
AcDbEntity
  8
0
100
AcDbBlockEnd
  0
BLOCK
  5
1D1
330
1CF
100
AcDbEntity
  8
0
100
AcDbBlockBegin
  2
7_071580H_0_in_071580_0
 70
     2
 10
0.0
 20
0.0
 30
0.0
  3
7_071580H_0_in_071580_0
  1

  0
ATTDEF
  5
1D3
330
1CF
100
AcDbEntity
  8
AM_6
100
AcDbText
 10
8.19
 20
3.19
 30
0.0
 40
0.5
  1
EFC-IP -(Contact Seal)-Housing -Inch
100
AcDbAttributeDefinition
  3

  2
NN
 70
     8
280
     0
  0
ATTDEF
  5
1D4
330
1CF
100
AcDbEntity
  8
AM_6
100
AcDbText
 10
8.19
 20
2.69
 30
0.0
 40
0.5
  1
Imperial/E Piloted Flange Bearings
100
AcDbAttributeDefinition
  3

  2
NT
 70
     8
280
     0
  0
ATTDEF
  5
1D5
330
1CF
100
AcDbEntity
  8
AM_6
100
AcDbText
 10
8.19
 20
2.19
 30
0.0
 40
0.5
  1
071580H
100
AcDbAttributeDefinition
  3

  2
NB
 70
     8
280
     0
  0
ATTDEF
  5
1D6
330
1CF
100
AcDbEntity
  8
AM_6
100
AcDbText
 10
8.19
 20
1.69
 30
0.0
 40
0.5
  1
$PN.H
100
AcDbAttributeDefinition
  3

  2
NBSYN
 70
     8
280
     0
  0
ATTDEF
  5
1D7
330
1CF
100
AcDbEntity
  8
AM_6
100
AcDbText
 10
8.19
 20
1.19
 30
0.0
 40
0.5
  1
071580
100
AcDbAttributeDefinition
  3

  2
LINA
 70
     8
280
     0
  0
ATTDEF
  5
1D8
330
1CF
100
AcDbEntity
  8
AM_6
100
AcDbText
 10
8.19
 20
0.69
 30
0.0
 40
0.5
  1
1-3/4
100
AcDbAttributeDefinition
  3

  2
SS
 70
     8
280
     0
  0
ATTDEF
  5
1D9
330
1CF
100
AcDbEntity
  8
AM_6
100
AcDbText
 10
8.19
 20
0.1899999999999999
 30
0.0
 40
0.5
  1
1.750000
100
AcDbAttributeDefinition
  3

  2
SS1
 70
     8
280
     0
  0
ATTDEF
  5
1DA
330
1CF
100
AcDbEntity
  8
AM_6
100
AcDbText
 10
8.19
 20
-0.3100000000000001
 30
0.0
 40
0.5
  1
Expansion
100
AcDbAttributeDefinition
  3

  2
TYPE
 70
     8
280
     0
  0
ATTDEF
  5
1DB
330
1CF
100
AcDbEntity
  8
AM_6
100
AcDbText
 10
8.19
 20
-0.81
 30
0.0
 40
0.5
  1
071577
100
AcDbAttributeDefinition
  3

  2
PN1
 70
     8
280
     0
  0
ATTDEF
  5
1DC
330
1CF
100
AcDbEntity
  8
AM_6
100
AcDbText
 10
8.19
 20
-1.31
 30
0.0
 40
0.5
  1
071580
100
AcDbAttributeDefinition
  3

  2
PN2
 70
     8
280
     0
  0
ATTDEF
  5
1DD
330
1CF
100
AcDbEntity
  8
AM_6
100
AcDbText
 10
8.19
 20
-1.81
 30
0.0
 40
0.5
  1
FC-IP-112R
100
AcDbAttributeDefinition
  3

  2
DESCRIPTION
 70
     8
280
     0
  0
ATTDEF
  5
1DE
330
1CF
100
AcDbEntity
  8
AM_6
100
AcDbText
 10
8.19
 20
-2.31
 30
0.0
 40
0.5
  1
Non-Expansion Type
100
AcDbAttributeDefinition
  3

  2
EF
 70
     8
280
     0
  0
ATTDEF
  5
1DF
330
1CF
100
AcDbEntity
  8
AM_6
100
AcDbText
 10
8.19
 20
-2.81
 30
0.0
 40
0.5
  1
1
100
AcDbAttributeDefinition
  3

  2
EF1
 70
     8
280
     0
  0
ATTDEF
  5
1E0
330
1CF
100
AcDbEntity
  8
AM_6
100
AcDbText
 10
8.19
 20
-3.31
 30
0.0
 40
0.5
  1
Contact Seal
100
AcDbAttributeDefinition
  3

  2
ST
 70
     8
280
     0
  0
ATTDEF
  5
1E1
330
1CF
100
AcDbEntity
  8
AM_6
100
AcDbText
 10
8.19
 20
-3.81
 30
0.0
 40
0.5
  1
1
100
AcDbAttributeDefinition
  3

  2
ST1
 70
     8
280
     0
  0
ATTDEF
  5
1E2
330
1CF
100
AcDbEntity
  8
AM_6
100
AcDbText
 10
8.19
 20
-4.31
 30
0.0
 40
0.5
  1
2.86
100
AcDbAttributeDefinition
  3

  2
A
 70
     8
280
     0
  0
ATTDEF
  5
1E3
330
1CF
100
AcDbEntity
  8
AM_6
100
AcDbText
 10
8.19
 20
-4.81
 30
0.0
 40
0.5
  1
2.8600000
100
AcDbAttributeDefinition
  3

  2
A1
 70
     8
280
     0
  0
ATTDEF
  5
1E4
330
1CF
100
AcDbEntity
  8
AM_6
100
AcDbText
 10
8.19
 20
-5.31
 30
0.0
 40
0.5
  1
6.38
100
AcDbAttributeDefinition
  3

  2
B
 70
     8
280
     0
  0
ATTDEF
  5
1E5
330
1CF
100
AcDbEntity
  8
AM_6
100
AcDbText
 10
8.19
 20
-5.81
 30
0.0
 40
0.5
  1
6.3800000
100
AcDbAttributeDefinition
  3

  2
B1
 70
     8
280
     0
  0
ATTDEF
  5
1E6
330
1CF
100
AcDbEntity
  8
AM_6
100
AcDbText
 10
8.19
 20
-6.31
 30
0.0
 40
0.5
  1
2
100
AcDbAttributeDefinition
  3

  2
C
 70
     8
280
     0
  0
ATTDEF
  5
1E7
330
1CF
100
AcDbEntity
  8
AM_6
100
AcDbText
 10
8.19
 20
-6.81
 30
0.0
 40
0.5
  1
2.0000000
100
AcDbAttributeDefinition
  3

  2
C1
 70
     8
280
     0
  0
ATTDEF
  5
1E8
330
1CF
100
AcDbEntity
  8
AM_6
100
AcDbText
 10
8.19
 20
-7.31
 30
0.0
 40
0.5
  1
3.8
100
AcDbAttributeDefinition
  3

  2
D
 70
     8
280
     0
  0
ATTDEF
  5
1E9
330
1CF
100
AcDbEntity
  8
AM_6
100
AcDbText
 10
8.19
 20
-7.81
 30
0.0
 40
0.5
  1
3.8000000
100
AcDbAttributeDefinition
  3

  2
D1
 70
     8
280
     0
  0
ATTDEF
  5
1EA
330
1CF
100
AcDbEntity
  8
AM_6
100
AcDbText
 10
8.19
 20
-8.31
 30
0.0
 40
0.5
  1
5.375
100
AcDbAttributeDefinition
  3

  2
DD
 70
     8
280
     0
  0
ATTDEF
  5
1EB
330
1CF
100
AcDbEntity
  8
AM_6
100
AcDbText
 10
8.19
 20
-8.81
 30
0.0
 40
0.5
  1
5.3750000
100
AcDbAttributeDefinition
  3

  2
DD1
 70
     8
280
     0
  0
ATTDEF
  5
1EC
330
1CF
100
AcDbEntity
  8
AM_6
100
AcDbText
 10
8.19
 20
-9.31
 30
0.0
 40
0.5
  1
0.88
100
AcDbAttributeDefinition
  3

  2
E
 70
     8
280
     0
  0
ATTDEF
  5
1ED
330
1CF
100
AcDbEntity
  8
AM_6
100
AcDbText
 10
8.19
 20
-9.81
 30
0.0
 40
0.5
  1
0.880000
100
AcDbAttributeDefinition
  3

  2
E1
 70
     8
280
     0
  0
ATTDEF
  5
1EE
330
1CF
100
AcDbEntity
  8
AM_6
100
AcDbText
 10
8.19
 20
-10.31
 30
0.0
 40
0.5
  1
7/16
100
AcDbAttributeDefinition
  3

  2
F
 70
     8
280
     0
  0
ATTDEF
  5
1EF
330
1CF
100
AcDbEntity
  8
AM_6
100
AcDbText
 10
8.19
 20
-10.81
 30
0.0
 40
0.5
  1
0.4375000
100
AcDbAttributeDefinition
  3

  2
F1
 70
     8
280
     0
  0
ATTDEF
  5
1F0
330
1CF
100
AcDbEntity
  8
AM_6
100
AcDbText
 10
8.19
 20
-11.31
 30
0.0
 40
0.5
  1
1.59
100
AcDbAttributeDefinition
  3

  2
G
 70
     8
280
     0
  0
ATTDEF
  5
1F1
330
1CF
100
AcDbEntity
  8
AM_6
100
AcDbText
 10
8.19
 20
-11.81
 30
0.0
 40
0.5
  1
1.590000
100
AcDbAttributeDefinition
  3

  2
G1
 70
     8
280
     0
  0
ATTDEF
  5
1F2
330
1CF
100
AcDbEntity
  8
AM_6
100
AcDbText
 10
8.19
 20
-12.31
 30
0.0
 40
0.5
  1
0.56
100
AcDbAttributeDefinition
  3

  2
H
 70
     8
280
     0
  0
ATTDEF
  5
1F3
330
1CF
100
AcDbEntity
  8
AM_6
100
AcDbText
 10
8.19
 20
-12.81
 30
0.0
 40
0.5
  1
0.5600000
100
AcDbAttributeDefinition
  3

  2
H1
 70
     8
280
     0
  0
ATTDEF
  5
1F4
330
1CF
100
AcDbEntity
  8
AM_6
100
AcDbText
 10
8.19
 20
-13.31
 30
0.0
 40
0.5
  1
4.500
100
AcDbAttributeDefinition
  3

  2
K
 70
     8
280
     0
  0
ATTDEF
  5
1F5
330
1CF
100
AcDbEntity
  8
AM_6
100
AcDbText
 10
8.19
 20
-13.81
 30
0.0
 40
0.5
  1
3.28
100
AcDbAttributeDefinition
  3

  2
L
 70
     8
280
     0
  0
ATTDEF
  5
1F6
330
1CF
100
AcDbEntity
  8
AM_6
100
AcDbText
 10
8.19
 20
-14.31
 30
0.0
 40
0.5
  1
3.2800000
100
AcDbAttributeDefinition
  3

  2
L1
 70
     8
280
     0
  0
ATTDEF
  5
1F7
330
1CF
100
AcDbEntity
  8
AM_6
100
AcDbText
 10
8.19
 20
-14.81
 30
0.0
 40
0.5
  1
7/16-14
100
AcDbAttributeDefinition
  3

  2
M
 70
     8
280
     0
  0
ATTDEF
  5
1F8
330
1CF
100
AcDbEntity
  8
AM_6
100
AcDbText
 10
8.19
 20
-15.31
 30
0.0
 40
0.5
  1
0.437500
100
AcDbAttributeDefinition
  3

  2
NDM
 70
     8
280
     0
  0
ATTDEF
  5
1F9
330
1CF
100
AcDbEntity
  8
AM_6
100
AcDbText
 10
8.19
 20
-15.81
 30
0.0
 40
0.5
  1
0.360000
100
AcDbAttributeDefinition
  3

  2
KDM
 70
     8
280
     0
  0
ATTDEF
  5
1FA
330
1CF
100
AcDbEntity
  8
AM_6
100
AcDbText
 10
8.19
 20
-16.31
 30
0.0
 40
0.5
  1
2.86
100
AcDbAttributeDefinition
  3

  2
N
 70
     8
280
     0
  0
ATTDEF
  5
1FB
330
1CF
100
AcDbEntity
  8
AM_6
100
AcDbText
 10
8.19
 20
-16.81
 30
0.0
 40
0.5
  1
2.860000
100
AcDbAttributeDefinition
  3

  2
N1
 70
     8
280
     0
  0
ATTDEF
  5
1FC
330
1CF
100
AcDbEntity
  8
AM_6
100
AcDbText
 10
8.19
 20
-17.31
 30
0.0
 40
0.5
  1
1.26
100
AcDbAttributeDefinition
  3

  2
P
 70
     8
280
     0
  0
ATTDEF
  5
1FD
330
1CF
100
AcDbEntity
  8
AM_6
100
AcDbText
 10
8.19
 20
-17.81
 30
0.0
 40
0.5
  1
1.260000
100
AcDbAttributeDefinition
  3

  2
P1
 70
     8
280
     0
  0
ATTDEF
  5
1FE
330
1CF
100
AcDbEntity
  8
AM_6
100
AcDbText
 10
8.19
 20
-18.31
 30
0.0
 40
0.5
  1
1.26
100
AcDbAttributeDefinition
  3

  2
Q
 70
     8
280
     0
  0
ATTDEF
  5
1FF
330
1CF
100
AcDbEntity
  8
AM_6
100
AcDbText
 10
8.19
 20
-18.81
 30
0.0
 40
0.5
  1
1.260000
100
AcDbAttributeDefinition
  3

  2
Q1
 70
     8
280
     0
  0
ATTDEF
  5
200
330
1CF
100
AcDbEntity
  8
AM_6
100
AcDbText
 10
8.19
 20
-19.31
 30
0.0
 40
0.5
  1
0.25
100
AcDbAttributeDefinition
  3

  2
X
 70
     8
280
     0
  0
ATTDEF
  5
201
330
1CF
100
AcDbEntity
  8
AM_6
100
AcDbText
 10
8.19
 20
-19.81
 30
0.0
 40
0.5
  1
0.250000
100
AcDbAttributeDefinition
  3

  2
X1
 70
     8
280
     0
  0
ATTDEF
  5
202
330
1CF
100
AcDbEntity
  8
AM_6
100
AcDbText
 10
8.19
 20
-20.31
 30
0.0
 40
0.5
  1
0.020
100
AcDbAttributeDefinition
  3

  2
Y
 70
     8
280
     0
  0
ATTDEF
  5
203
330
1CF
100
AcDbEntity
  8
AM_6
100
AcDbText
 10
8.19
 20
-20.81
 30
0.0
 40
0.5
  1
2.3
100
AcDbAttributeDefinition
  3

  2
Z
 70
     8
280
     0
  0
ATTDEF
  5
204
330
1CF
100
AcDbEntity
  8
AM_6
100
AcDbText
 10
8.19
 20
-21.31
 30
0.0
 40
0.5
  1
2.300000
100
AcDbAttributeDefinition
  3

  2
Z1
 70
     8
280
     0
  0
ATTDEF
  5
205
330
1CF
100
AcDbEntity
  8
AM_6
100
AcDbText
 10
8.19
 20
-21.81
 30
0.0
 40
0.5
  1
3.3465
100
AcDbAttributeDefinition
  3

  2
BORE
 70
     8
280
     0
  0
ATTDEF
  5
206
330
1CF
100
AcDbEntity
  8
AM_6
100
AcDbText
 10
8.19
 20
-22.31
 30
0.0
 40
0.5
  1
baldor
100
AcDbAttributeDefinition
  3

  2
COMPANY
 70
     8
280
     0
  0
CIRCLE
  5
207
330
1CF
100
AcDbEntity
  8
AM_9
100
AcDbCircle
 10
0.0
 20
0.0
 30
0.0
 40
2.075508679061084
  0
CIRCLE
  5
208
330
1CF
100
AcDbEntity
  8
AM_9
100
AcDbCircle
 10
0.0
 20
0.0
 30
0.0
 40
2.131474565374152
  0
CIRCLE
  5
209
330
1CF
100
AcDbEntity
  8
AM_9
100
AcDbCircle
 10
0.0
 20
0.0
 30
0.0
 40
2.14096982793327
  0
CIRCLE
  5
20A
330
1CF
100
AcDbEntity
  8
AM_9
100
AcDbCircle
 10
0.0
 20
0.0
 30
0.0
 40
2.196935714246339
  0
ARC
  5
20B
330
1CF
100
AcDbEntity
  8
AM_9
100
AcDbCircle
 10
0.0000000000000295
 20
-0.0000000000000284
 30
0.0
 40
2.249999999999959
100
AcDbArc
 50
305.410348355751
 51
324.589651644249
  0
ARC
  5
20C
330
1CF
100
AcDbEntity
  8
AM_9
100
AcDbCircle
 10
0.0000000000000377
 20
0.0000000000000395
 30
0.0
 40
2.249999999999946
100
AcDbArc
 50
35.4103483557509
 51
54.58965164424904
  0
ARC
  5
20D
330
1CF
100
AcDbEntity
  8
AM_9
100
AcDbCircle
 10
0.0000000000000001
 20
0.0000000000000822
 30
0.0
 40
2.249999999999919
100
AcDbArc
 50
77.16041159309538
 51
102.8395884069046
  0
ARC
  5
20E
330
1CF
100
AcDbEntity
  8
AM_9
100
AcDbCircle
 10
0.0000000000000187
 20
-0.0000000000000001
 30
0.0
 40
2.250000000000011
100
AcDbArc
 50
125.4103483557516
 51
234.5896516442485
  0
LINE
  5
20F
330
1CF
100
AcDbEntity
  8
AM_9
100
AcDbLine
 10
0.0706643318516291
 20
2.754026785002543
 30
0.0
 11
-0.0706643318516291
 21
2.754026785002543
 31
0.0
  0
ARC
  5
210
330
1CF
100
AcDbEntity
  8
AM_5
100
AcDbCircle
 10
-2.6875
 20
0.0000000000000002
 30
0.0
 40
0.2187500000000001
100
AcDbArc
 50
75.00000000000001
 51
15.0
  0
LINE
  5
211
330
1CF
100
AcDbEntity
  8
AM_7
100
AcDbLine
 10
-2.306782499958656
 20
0.0
 30
0.0
 11
2.306782499958656
 21
0.0
 31
0.0
  0
LINE
  5
212
330
1CF
100
AcDbEntity
  8
AM_7
100
AcDbLine
 10
0.0
 20
-2.306782499958656
 30
0.0
 11
0.0
 21
2.306782499958656
 31
0.0
  0
LINE
  5
213
330
1CF
100
AcDbEntity
  8
AM_7
100
AcDbLine
 10
2.457812500000001
 20
0.0
 30
0.0
 11
2.9171875
 21
0.0
 31
0.0
  0
LINE
  5
214
330
1CF
100
AcDbEntity
  8
AM_7
100
AcDbLine
 10
2.6875
 20
-0.2296875
 30
0.0
 11
2.6875
 21
0.2296875
 31
0.0
  0
LINE
  5
215
330
1CF
100
AcDbEntity
  8
AM_7
100
AcDbLine
 10
-2.917187500000001
 20
0.0
 30
0.0
 11
-2.4578125
 21
0.0
 31
0.0
  0
LINE
  5
216
330
1CF
100
AcDbEntity
  8
AM_7
100
AcDbLine
 10
-2.6875
 20
-0.2296875000000005
 30
0.0
 11
-2.6875
 21
0.2296875000000005
 31
0.0
  0
LINE
  5
217
330
1CF
100
AcDbEntity
  8
AM_7
100
AcDbLine
 10
-2.130036974438847
 20
1.900349474438846
 30
0.0
 11
-1.670661974438846
 21
1.900349474438846
 31
0.0
  0
LINE
  5
218
330
1CF
100
AcDbEntity
  8
AM_7
100
AcDbLine
 10
-1.900349474438846
 20
1.670661974438846
 30
0.0
 11
-1.900349474438846
 21
2.130036974438847
 31
0.0
  0
LINE
  5
219
330
1CF
100
AcDbEntity
  8
AM_7
100
AcDbLine
 10
-2.130036974438847
 20
-1.900349474438846
 30
0.0
 11
-1.670661974438846
 21
-1.900349474438846
 31
0.0
  0
LINE
  5
21A
330
1CF
100
AcDbEntity
  8
AM_7
100
AcDbLine
 10
-1.900349474438846
 20
-2.130036974438847
 30
0.0
 11
-1.900349474438846
 21
-1.670661974438846
 31
0.0
  0
LINE
  5
21B
330
1CF
100
AcDbEntity
  8
AM_7
100
AcDbLine
 10
1.670661974438846
 20
1.900349474438846
 30
0.0
 11
2.130036974438847
 21
1.900349474438846
 31
0.0
  0
LINE
  5
21C
330
1CF
100
AcDbEntity
  8
AM_7
100
AcDbLine
 10
1.900349474438846
 20
1.670661974438846
 30
0.0
 11
1.900349474438846
 21
2.130036974438847
 31
0.0
  0
LINE
  5
21D
330
1CF
100
AcDbEntity
  8
AM_7
100
AcDbLine
 10
1.670661974438846
 20
-1.900349474438846
 30
0.0
 11
2.130036974438847
 21
-1.900349474438846
 31
0.0
  0
LINE
  5
21E
330
1CF
100
AcDbEntity
  8
AM_7
100
AcDbLine
 10
1.900349474438846
 20
-2.130036974438847
 30
0.0
 11
1.900349474438846
 21
-1.670661974438846
 31
0.0
  0
CIRCLE
  5
21F
330
1CF
100
AcDbEntity
  8
AM_4
100
AcDbCircle
 10
2.6875
 20
0.0
 30
0.0
 40
0.1799999999999997
  0
CIRCLE
  5
220
330
1CF
100
AcDbEntity
  8
AM_4
100
AcDbCircle
 10
-2.6875
 20
0.0
 30
0.0
 40
0.1800000000000003
  0
ARC
  5
221
330
1CF
100
AcDbEntity
  8
AM_4
100
AcDbCircle
 10
-1.87033053772016
 20
2.347203707003599
 30
0.0
 40
0.2187499999999951
100
AcDbArc
 50
54.9999999999994
 51
97.14856430356134
  0
ARC
  5
222
330
1CF
100
AcDbEntity
  8
AM_4
100
AcDbCircle
 10
-2.347203707003591
 20
1.870330537720162
 30
0.0
 40
0.218750000000002
100
AcDbArc
 50
172.8514356964393
 51
214.9999999999999
  0
LINE
  5
223
330
1CF
100
AcDbEntity
  8
AM_4
100
AcDbLine
 10
-2.52639321669181
 20
1.74486069226837
 30
0.0
 11
-2.048802271611104
 21
1.062790136013277
 31
0.0
  0
CIRCLE
  5
224
330
1CF
100
AcDbEntity
  8
AM_4
100
AcDbCircle
 10
-1.900349474438846
 20
1.900349474438846
 30
0.0
 40
0.21875
  0
ARC
  5
225
330
1CF
100
AcDbEntity
  8
AM_4
100
AcDbCircle
 10
-2.140547300571469
 20
0.9985495751419604
 30
0.0
 40
0.1119999999999987
100
AcDbArc
 50
334.9912946230236
 51
35.00000000000026
  0
LINE
  5
226
330
1CF
100
AcDbEntity
  8
AM_4
100
AcDbLine
 10
-1.062790136013276
 20
2.048802271611104
 30
0.0
 11
-1.744860692268369
 21
2.52639321669181
 31
0.0
  0
ARC
  5
227
330
1CF
100
AcDbEntity
  8
AM_4
100
AcDbCircle
 10
-0.998549575141959
 20
2.140547300571475
 30
0.0
 40
0.1120000000000032
100
AcDbArc
 50
235.0000000000012
 51
295.0087053769753
  0
LINE
  5
228
330
1CF
100
AcDbEntity
  8
AM_4
100
AcDbLine
 10
-2.048802271611104
 20
-1.062790136013276
 30
0.0
 11
-2.52639321669181
 21
-1.744860692268369
 31
0.0
  0
CIRCLE
  5
229
330
1CF
100
AcDbEntity
  8
AM_4
100
AcDbCircle
 10
-1.900349474438846
 20
-1.900349474438846
 30
0.0
 40
0.21875
  0
LINE
  5
22A
330
1CF
100
AcDbEntity
  8
AM_4
100
AcDbLine
 10
-1.74486069226837
 20
-2.52639321669181
 30
0.0
 11
-1.062790136013277
 21
-2.048802271611104
 31
0.0
  0
ARC
  5
22B
330
1CF
100
AcDbEntity
  8
AM_4
100
AcDbCircle
 10
-0.9985495751419609
 20
-2.140547300571471
 30
0.0
 40
0.1119999999999994
100
AcDbArc
 50
64.9912946230228
 51
124.9999999999997
  0
ARC
  5
22C
330
1CF
100
AcDbEntity
  8
AM_4
100
AcDbCircle
 10
-2.140547300571476
 20
-0.9985495751419586
 30
0.0
 40
0.1120000000000041
100
AcDbArc
 50
325.0000000000013
 51
25.00870537697567
  0
ARC
  5
22D
330
1CF
100
AcDbEntity
  8
AM_4
100
AcDbCircle
 10
-2.347203707003595
 20
-1.870330537720161
 30
0.0
 40
0.2187499999999992
100
AcDbArc
 50
144.9999999999997
 51
187.1485643035612
  0
ARC
  5
22E
330
1CF
100
AcDbEntity
  8
AM_4
100
AcDbCircle
 10
-1.870330537720162
 20
-2.347203707003591
 30
0.0
 40
0.218750000000002
100
AcDbArc
 50
262.8514356964394
 51
304.9999999999999
  0
CIRCLE
  5
22F
330
1CF
100
AcDbEntity
  8
AM_4
100
AcDbCircle
 10
1.900349474438846
 20
1.900349474438846
 30
0.0
 40
0.21875
  0
LINE
  5
230
330
1CF
100
AcDbEntity
  8
AM_4
100
AcDbLine
 10
1.74486069226837
 20
2.52639321669181
 30
0.0
 11
1.062790136013277
 21
2.048802271611104
 31
0.0
  0
ARC
  5
231
330
1CF
100
AcDbEntity
  8
AM_4
100
AcDbCircle
 10
0.9985495751419593
 20
2.140547300571474
 30
0.0
 40
0.1120000000000026
100
AcDbArc
 50
244.9912946230242
 51
304.9999999999993
  0
ARC
  5
232
330
1CF
100
AcDbEntity
  8
AM_4
100
AcDbCircle
 10
2.140547300571477
 20
0.9985495751419586
 30
0.0
 40
0.1120000000000052
100
AcDbArc
 50
145.0000000000016
 51
205.008705376975
  0
LINE
  5
233
330
1CF
100
AcDbEntity
  8
AM_4
100
AcDbLine
 10
2.048802271611104
 20
1.062790136013276
 30
0.0
 11
2.52639321669181
 21
1.744860692268369
 31
0.0
  0
ARC
  5
234
330
1CF
100
AcDbEntity
  8
AM_4
100
AcDbCircle
 10
2.347203707003592
 20
1.870330537720162
 30
0.0
 40
0.2187500000000015
100
AcDbArc
 50
324.9999999999998
 51
7.148564303560671
  0
ARC
  5
235
330
1CF
100
AcDbEntity
  8
AM_4
100
AcDbCircle
 10
1.870330537720163
 20
2.347203707003588
 30
0.0
 40
0.2187500000000047
100
AcDbArc
 50
82.85143569643944
 51
124.9999999999997
  0
ARC
  5
236
330
1CF
100
AcDbEntity
  8
AM_4
100
AcDbCircle
 10
2.140547300571474
 20
-0.9985495751419596
 30
0.0
 40
0.1120000000000031
100
AcDbArc
 50
154.9912946230242
 51
214.9999999999991
  0
CIRCLE
  5
237
330
1CF
100
AcDbEntity
  8
AM_4
100
AcDbCircle
 10
1.900349474438846
 20
-1.900349474438846
 30
0.0
 40
0.21875
  0
LINE
  5
238
330
1CF
100
AcDbEntity
  8
AM_4
100
AcDbLine
 10
2.52639321669181
 20
-1.74486069226837
 30
0.0
 11
2.048802271611104
 21
-1.062790136013277
 31
0.0
  0
ARC
  5
239
330
1CF
100
AcDbEntity
  8
AM_4
100
AcDbCircle
 10
0.9985495751419589
 20
-2.14054730057147
 30
0.0
 40
0.1119999999999985
100
AcDbArc
 50
54.99999999999984
 51
115.0087053769779
  0
LINE
  5
23A
330
1CF
100
AcDbEntity
  8
AM_4
100
AcDbLine
 10
1.062790136013275
 20
-2.048802271611104
 30
0.0
 11
1.744860692268369
 21
-2.52639321669181
 31
0.0
  0
ARC
  5
23B
330
1CF
100
AcDbEntity
  8
AM_4
100
AcDbCircle
 10
1.87033053772016
 20
-2.347203707003594
 30
0.0
 40
0.2187499999999994
100
AcDbArc
 50
234.9999999999999
 51
277.1485643035612
  0
ARC
  5
23C
330
1CF
100
AcDbEntity
  8
AM_4
100
AcDbCircle
 10
2.347203707003601
 20
-1.870330537720164
 30
0.0
 40
0.2187499999999947
100
AcDbArc
 50
352.8514356964406
 51
35.0000000000016
  0
LINE
  5
23D
330
1CF
100
AcDbEntity
  8
AM_4
100
AcDbLine
 10
0.5
 20
2.754026785002543
 30
0.0
 11
0.5
 21
2.164243462581517
 31
0.0
  0
LINE
  5
23E
330
1CF
100
AcDbEntity
  8
AM_4
100
AcDbLine
 10
-0.5
 20
2.754026785002543
 30
0.0
 11
-0.5
 21
2.164243462581517
 31
0.0
  0
LINE
  5
23F
330
1CF
100
AcDbEntity
  8
AM_4
100
AcDbLine
 10
0.5
 20
2.25
 30
0.0
 11
-0.5
 21
2.25
 31
0.0
  0
LINE
  5
240
330
1CF
100
AcDbEntity
  8
AM_4
100
AcDbLine
 10
-0.0706643318516291
 20
2.754026785002543
 30
0.0
 11
-0.5
 21
2.754026785002543
 31
0.0
  0
LINE
  5
241
330
1CF
100
AcDbEntity
  8
AM_4
100
AcDbLine
 10
0.5
 20
2.754026785002543
 30
0.0
 11
0.0706643318516291
 21
2.754026785002543
 31
0.0
  0
LWPOLYLINE
  5
242
330
1CF
100
AcDbEntity
  8
AM_4
100
AcDbPolyline
 90
        5
 70
     0
 43
0.0
 10
1.833802102784463
 20
-1.30371386731264
 10
1.833587389525539
 20
-1.304014804457617
 10
1.803706560358091
 20
-1.332405546908573
 10
1.775738668270273
 20
-1.345205190280616
 10
1.769770320724513
 20
-1.346792208101164
  0
LWPOLYLINE
  5
243
330
1CF
100
AcDbEntity
  8
AM_4
100
AcDbPolyline
 90
        5
 70
     0
 43
0.0
 10
1.769770314576707
 20
1.346792209551376
 10
1.795811269145235
 20
1.337015308564809
 10
1.825395995699411
 20
1.314125195805702
 10
1.833587389527354
 20
1.304014804455089
 10
1.833802102784463
 20
1.30371386731264
  0
LINE
  5
244
330
1CF
100
AcDbEntity
  8
AM_4
100
AcDbLine
 10
1.769770314576707
 20
1.346792209551376
 30
0.0
 11
1.75214840690063
 21
1.351247474733389
 31
0.0
  0
LWPOLYLINE
  5
245
330
1CF
100
AcDbEntity
  8
AM_4
100
AcDbPolyline
 90
        3
 70
     0
 43
0.0
 10
1.752148406900629
 20
-1.35124747473339
 10
1.75630892590525
 20
-1.350141438439607
 10
1.769770320724513
 20
-1.346792208101164
  0
ARC
  5
246
330
1CF
100
AcDbEntity
  8
AM_4
100
AcDbCircle
 10
-0.0000000000000044
 20
-0.0000000000000001
 30
0.0
 40
2.250000000000004
100
AcDbArc
 50
324.5896516442489
 51
35.4103483557511
  0
ARC
  5
247
330
1CF
100
AcDbEntity
  8
AM_4
100
AcDbCircle
 10
1.900349474438842
 20
1.900349474438842
 30
0.0
 40
0.5687499999999942
100
AcDbArc
 50
195.1040827786066
 51
254.8959172213934
  0
ARC
  5
248
330
1CF
100
AcDbEntity
  8
AM_4
100
AcDbCircle
 10
-1.900349474438843
 20
1.900349474438845
 30
0.0
 40
0.5687499999999962
100
AcDbArc
 50
285.1040827786066
 51
344.8959172213932
  0
ARC
  5
249
330
1CF
100
AcDbEntity
  8
AM_4
100
AcDbCircle
 10
-1.900349474438845
 20
-1.900349474438842
 30
0.0
 40
0.5687499999999958
100
AcDbArc
 50
15.10408277860656
 51
74.89591722139329
  0
ARC
  5
24A
330
1CF
100
AcDbEntity
  8
AM_4
100
AcDbCircle
 10
1.900349474438842
 20
-1.900349474438844
 30
0.0
 40
0.5687499999999956
100
AcDbArc
 50
105.1040827786066
 51
164.8959172213933
  0
ARC
  5
24B
330
1CF
100
AcDbEntity
  8
AM_4
100
AcDbCircle
 10
-0.0000000000000004
 20
-0.0000000000000001
 30
0.0
 40
2.212666666666666
100
AcDbArc
 50
322.3607827811453
 51
37.63921721885463
  0
CIRCLE
  5
24C
330
1CF
100
AcDbEntity
  8
AM_4
100
AcDbCircle
 10
0.0
 20
0.0
 30
0.0
 40
1.67325
  0
LWPOLYLINE
  5
24D
330
1CF
100
AcDbEntity
  8
AM_4
100
AcDbPolyline
 90
        5
 70
     0
 43
0.0
 10
-1.833802102784464
 20
1.30371386731264
 10
-1.833587389525554
 20
1.304014804457597
 10
-1.803706560356976
 20
1.332405546909289
 10
-1.775738668269141
 20
1.345205190280952
 10
-1.769770320724513
 20
1.346792208101164
  0
LWPOLYLINE
  5
24E
330
1CF
100
AcDbEntity
  8
AM_4
100
AcDbPolyline
 90
        5
 70
     0
 43
0.0
 10
-1.769770310961806
 20
-1.346792210404097
 10
-1.795811264810429
 20
-1.337015310858392
 10
-1.825395991510393
 20
-1.31412520038933
 10
-1.833587389527354
 20
-1.30401480445509
 10
-1.833802102784463
 20
-1.30371386731264
  0
LWPOLYLINE
  5
24F
330
1CF
100
AcDbEntity
  8
AM_4
100
AcDbPolyline
 90
        3
 70
     0
 43
0.0
 10
-1.752148406900629
 20
1.35124747473339
 10
-1.756308925905248
 20
1.350141438439608
 10
-1.769770320724513
 20
1.346792208101164
  0
LINE
  5
250
330
1CF
100
AcDbEntity
  8
AM_4
100
AcDbLine
 10
-1.769770310961806
 20
-1.346792210404097
 30
0.0
 11
-1.75214840690063
 21
-1.351247474733388
 31
0.0
  0
ARC
  5
251
330
1CF
100
AcDbEntity
  8
AM_4
100
AcDbCircle
 10
0.0000000000000044
 20
0.0000000000000008
 30
0.0
 40
2.250000000000004
100
AcDbArc
 50
144.5896516442489
 51
215.4103483557511
  0
ARC
  5
252
330
1CF
100
AcDbEntity
  8
AM_4
100
AcDbCircle
 10
0.0000000000000018
 20
0.0000000000000001
 30
0.0
 40
2.212666666666667
100
AcDbArc
 50
142.3607827811454
 51
217.6392172188545
  0
LWPOLYLINE
  5
253
330
1CF
100
AcDbEntity
  8
AM_4
100
AcDbPolyline
 90
        5
 70
     0
 43
0.0
 10
-1.30371386731264
 20
-1.833802102784464
 10
-1.304014804457597
 20
-1.833587389525554
 10
-1.332405546909289
 20
-1.803706560356976
 10
-1.345205190280952
 20
-1.775738668269141
 10
-1.346792208101164
 20
-1.769770320724513
  0
LWPOLYLINE
  5
254
330
1CF
100
AcDbEntity
  8
AM_4
100
AcDbPolyline
 90
        5
 70
     0
 43
0.0
 10
1.346792210788865
 20
-1.769770309330681
 10
1.337015311893309
 20
-1.795811262854466
 10
1.314125202457566
 20
-1.825395989620213
 10
1.304014804455076
 20
-1.833587389527364
 10
1.303713867312641
 20
-1.833802102784462
  0
LWPOLYLINE
  5
255
330
1CF
100
AcDbEntity
  8
AM_4
100
AcDbPolyline
 90
        3
 70
     0
 43
0.0
 10
-1.35124747473339
 20
-1.752148406900629
 10
-1.350141438439606
 20
-1.756308925905252
 10
-1.346792208101164
 20
-1.769770320724513
  0
LINE
  5
256
330
1CF
100
AcDbEntity
  8
AM_4
100
AcDbLine
 10
1.346792210788865
 20
-1.769770309330681
 30
0.0
 11
1.351247474733388
 21
-1.75214840690063
 31
0.0
  0
ARC
  5
257
330
1CF
100
AcDbEntity
  8
AM_4
100
AcDbCircle
 10
-0.0000000000000003
 20
-0.0000000000000004
 30
0.0
 40
2.212666666666665
100
AcDbArc
 50
232.3607827811453
 51
307.6392172188546
  0
ARC
  5
258
330
1CF
100
AcDbEntity
  8
AM_4
100
AcDbCircle
 10
-0.0000000000000006
 20
0.0000000000000049
 30
0.0
 40
2.250000000000004
100
AcDbArc
 50
234.5896516442489
 51
305.4103483557511
  0
LINE
  5
259
330
1CF
100
AcDbEntity
  8
AM_4
100
AcDbLine
 10
-1.346792210106992
 20
1.769770312221309
 30
0.0
 11
-1.351247474733388
 21
1.75214840690063
 31
0.0
  0
ARC
  5
25A
330
1CF
100
AcDbEntity
  8
AM_4
100
AcDbCircle
 10
0.0000000000000001
 20
0.0000000000000036
 30
0.0
 40
2.212666666666663
100
AcDbArc
 50
52.3607827811453
 51
127.6392172188547
  0
LWPOLYLINE
  5
25B
330
1CF
100
AcDbEntity
  8
AM_4
100
AcDbPolyline
 90
        3
 70
     0
 43
0.0
 10
1.351247474733389
 20
1.752148406900629
 10
1.350141438439606
 20
1.756308925905252
 10
1.346792208101163
 20
1.769770320724513
  0
LWPOLYLINE
  5
25C
330
1CF
100
AcDbEntity
  8
AM_4
100
AcDbPolyline
 90
        5
 70
     0
 43
0.0
 10
1.30371386731264
 20
1.833802102784464
 10
1.304014804457596
 20
1.833587389525554
 10
1.332405546909264
 20
1.803706560357013
 10
1.34520519028094
 20
1.775738668269178
 10
1.346792208101163
 20
1.769770320724513
  0
ARC
  5
25D
330
1CF
100
AcDbEntity
  8
AM_4
100
AcDbCircle
 10
-0.0000000000000044
 20
-0.0000000000000189
 30
0.0
 40
2.250000000000018
100
AcDbArc
 50
54.58965164424903
 51
77.16041159309584
  0
ARC
  5
25E
330
1CF
100
AcDbEntity
  8
AM_4
100
AcDbCircle
 10
0.0000000000000001
 20
0.0000000000275717
 30
0.0
 40
2.221249595432151
100
AcDbArc
 50
76.99132834801665
 51
103.0086716519834
  0
ARC
  5
25F
330
1CF
100
AcDbEntity
  8
AM_4
100
AcDbCircle
 10
0.0000000000000119
 20
-0.0000000000000351
 30
0.0
 40
2.250000000000036
100
AcDbArc
 50
102.8395884069043
 51
125.4103483557509
  0
LWPOLYLINE
  5
260
330
1CF
100
AcDbEntity
  8
AM_4
100
AcDbPolyline
 90
        5
 70
     0
 43
0.0
 10
-1.346792210106992
 20
1.769770312221309
 10
-1.337015310059263
 20
1.79581126632076
 10
-1.314125198792303
 20
1.825395992969929
 10
-1.304014804455099
 20
1.833587389527348
 10
-1.30371386731264
 20
1.833802102784463
  0
ARC
  5
261
330
1CF
100
AcDbEntity
  8
AM_5
100
AcDbCircle
 10
2.6875
 20
-0.0000000000000002
 30
0.0
 40
0.2187500000000002
100
AcDbArc
 50
75.00000000000001
 51
15.00000000000007
  0
ARC
  5
262
330
1CF
100
AcDbEntity
  8
AM_5
100
AcDbCircle
 10
-2.6875
 20
0.0000000000000005
 30
0.0
 40
0.2187500000000002
100
AcDbArc
 50
255.0
 51
195.0
  0
CIRCLE
  5
263
330
1CF
100
AcDbEntity
  8
AM_4
100
AcDbCircle
 10
0.0000000000000003
 20
0.0000000000000004
 30
0.0
 40
3.19
  0
ENDBLK
  5
1D2
330
1CF
100
AcDbEntity
  8
0
100
AcDbBlockEnd
  0
ENDSEC
  0
SECTION
  2
ENTITIES
  0
INSERT
  5
6F
330
1F
100
AcDbEntity
  8
0
100
AcDbBlockReference
  2
1_071580_0
 10
0.0
 20
0.0
 30
0.0
  0
POINT
  5
265
330
1F
100
AcDbEntity
  8
ConnectionPoints
100
AcDbPoint
 10
0.0
 20
-1.236111111111111
 30
1.191
  0
POINT
  5
266
330
1F
100
AcDbEntity
  8
ConnectionPoints
100
AcDbPoint
 10
0.0
 20
1.236111111111111
 30
1.191
  0
POINT
  5
267
330
1F
100
AcDbEntity
  8
ConnectionPoints
100
AcDbPoint
 10
0.0
 20
0.0
 30
1.121
  0
POINT
  5
268
330
1F
100
AcDbEntity
  8
ConnectionPoints
100
AcDbPoint
 10
0.0
 20
0.0
 30
1.35
  0
POINT
  5
269
330
1F
100
AcDbEntity
  8
ConnectionPoints
100
AcDbPoint
 10
0.0
 20
0.0
 30
1.32
  0
POINT
  5
26A
330
1F
100
AcDbEntity
  8
ConnectionPoints
100
AcDbPoint
 10
0.0
 20
1.236111111111111
 30
1.121
  0
POINT
  5
26B
330
1F
100
AcDbEntity
  8
ConnectionPoints
100
AcDbPoint
 10
0.0
 20
-1.236111111111111
 30
1.121
  0
POINT
  5
26C
330
1F
100
AcDbEntity
  8
ConnectionPoints
100
AcDbPoint
 10
0.0
 20
0.0
 30
1.121
  0
POINT
  5
26D
330
1F
100
AcDbEntity
  8
ConnectionPoints
100
AcDbPoint
 10
0.0
 20
2.502013392501272
 30
0.5935000000000001
  0
POINT
  5
26E
330
1F
100
AcDbEntity
  8
ConnectionPoints
100
AcDbPoint
 10
0.0
 20
2.644047619047619
 30
0.5114965010693258
  0
POINT
  5
26F
330
1F
100
AcDbEntity
  8
ConnectionPoints
100
AcDbPoint
 10
0.0
 20
0.0
 30
1.35
  0
POINT
  5
270
330
1F
100
AcDbEntity
  8
ConnectionPoints
100
AcDbPoint
 10
0.0
 20
0.0
 30
1.6
  0
ENDSEC
  0
SECTION
  2
OBJECTS
  0
DICTIONARY
  5
C
330
0
100
AcDbDictionary
281
     1
  3
ACAD_DETAILVIEWSTYLE
350
278
  3
ACAD_GROUP
350
D
  3
ACAD_LAYOUT
350
1A
  3
ACAD_MATERIAL
350
43
  3
ACAD_MLEADERSTYLE
350
6B
  3
ACAD_MLINESTYLE
350
17
  3
ACAD_PLOTSETTINGS
350
19
  3
ACAD_PLOTSTYLENAME
350
E
  3
ACAD_SCALELIST
350
47
  3
ACAD_SECTIONVIEWSTYLE
350
279
  3
ACAD_TABLESTYLE
350
69
  3
ACAD_VISUALSTYLE
350
2A
  3
ACDB_RECOMPOSE_DATA
350
275
  3
AcDbVariableDictionary
350
271
  0
SUN
  5
6D
330
29
100
AcDbSun
 90
        1
290
     0
 63
     7
421
 16777215
 40
1.0
291
     1
 91
  2455826
 92
 54000000
292
     0
 70
     2
 71
   256
280
     1
  0
DICTIONARY
  5
278
102
{ACAD_REACTORS
330
C
102
}
330
C
100
AcDbDictionary
281
     1
  0
DICTIONARY
  5
D
102
{ACAD_REACTORS
330
C
102
}
330
C
100
AcDbDictionary
281
     1
  0
DICTIONARY
  5
1A
102
{ACAD_REACTORS
330
C
102
}
330
C
100
AcDbDictionary
281
     1
  3
Layout1
350
1E
  3
Layout2
350
26
  3
Model
350
22
  0
DICTIONARY
  5
43
102
{ACAD_REACTORS
330
C
102
}
330
C
100
AcDbDictionary
281
     1
  3
ByBlock
350
45
  3
ByLayer
350
44
  3
Global
350
46
  0
DICTIONARY
  5
6B
102
{ACAD_REACTORS
330
C
102
}
330
C
100
AcDbDictionary
281
     1
  3
Standard
350
6C
  0
DICTIONARY
  5
17
102
{ACAD_REACTORS
330
C
102
}
330
C
100
AcDbDictionary
281
     1
  3
Standard
350
18
  0
DICTIONARY
  5
19
102
{ACAD_REACTORS
330
C
102
}
330
C
100
AcDbDictionary
281
     1
  0
ACDBDICTIONARYWDFLT
  5
E
102
{ACAD_REACTORS
330
C
102
}
330
C
100
AcDbDictionary
281
     1
  3
Normal
350
F
100
AcDbDictionaryWithDefault
340
F
  0
DICTIONARY
  5
47
102
{ACAD_REACTORS
330
C
102
}
330
C
100
AcDbDictionary
281
     1
  3
A0
350
48
  3
A1
350
49
  3
A2
350
4A
  3
A3
350
4B
  3
A4
350
4C
  3
A5
350
4D
  3
A6
350
4E
  3
A7
350
4F
  3
A8
350
50
  3
A9
350
51
  3
B0
350
52
  3
B1
350
53
  3
B2
350
54
  3
B3
350
55
  3
B4
350
56
  3
B5
350
57
  3
B6
350
58
  3
B7
350
59
  3
B8
350
5A
  3
B9
350
5B
  3
C0
350
5C
  3
C1
350
5D
  3
C2
350
5E
  3
C3
350
5F
  3
C4
350
60
  3
C5
350
61
  3
C6
350
62
  3
C7
350
63
  3
C8
350
64
  3
C9
350
65
  3
D0
350
66
  3
D1
350
67
  3
D2
350
68
  0
DICTIONARY
  5
279
102
{ACAD_REACTORS
330
C
102
}
330
C
100
AcDbDictionary
281
     1
  0
DICTIONARY
  5
69
102
{ACAD_REACTORS
330
C
102
}
330
C
100
AcDbDictionary
281
     1
  3
Standard
350
6A
  0
DICTIONARY
  5
2A
102
{ACAD_REACTORS
330
C
102
}
330
C
100
AcDbDictionary
281
     1
  3
2dWireframe
350
2F
  3
Basic
350
32
  3
Brighten
350
36
  3
ColorChange
350
3A
  3
Conceptual
350
34
  3
Dim
350
35
  3
EdgeColorOff
350
3D
  3
Facepattern
350
39
  3
Flat
350
2B
  3
FlatWithEdges
350
2C
  3
Gouraud
350
2D
  3
GouraudWithEdges
350
2E
  3
Hidden
350
31
  3
JitterOff
350
3B
  3
Linepattern
350
38
  3
OverhangOff
350
3C
  3
Realistic
350
33
  3
Shaded
350
42
  3
Shaded with edges
350
41
  3
Shades of Gray
350
3E
  3
Sketchy
350
3F
  3
Thicken
350
37
  3
Wireframe
350
30
  3
X-Ray
350
40
  0
XRECORD
  5
275
102
{ACAD_REACTORS
330
C
102
}
330
C
100
AcDbXrecord
280
     1
 90
        1
330
6A
  0
DICTIONARY
  5
271
102
{ACAD_REACTORS
330
C
102
}
330
C
100
AcDbDictionary
281
     1
  3
CANNOSCALE
350
272
  3
CMLEADERSTYLE
350
277
  3
CTABLESTYLE
350
276
  0
LAYOUT
  5
1E
102
{ACAD_REACTORS
330
1A
102
}
330
1A
100
AcDbPlotSettings
  1

  2
none_device
  4

  6

 40
0.0
 41
0.0
 42
0.0
 43
0.0
 44
0.0
 45
0.0
 46
0.0
 47
0.0
 48
0.0
 49
0.0
140
0.0
141
0.0
142
1.0
143
1.0
 70
   688
 72
     0
 73
     0
 74
     5
  7

 75
    16
 76
     0
 77
     2
 78
   300
147
1.0
148
0.0
149
0.0
100
AcDbLayout
  1
Layout1
 70
     1
 71
     1
 10
0.0
 20
0.0
 11
12.0
 21
9.0
 12
0.0
 22
0.0
 32
0.0
 14
1.000000000000000E+20
 24
1.000000000000000E+20
 34
1.000000000000000E+20
 15
-1.000000000000000E+20
 25
-1.000000000000000E+20
 35
-1.000000000000000E+20
146
0.0
 13
0.0
 23
0.0
 33
0.0
 16
1.0
 26
0.0
 36
0.0
 17
0.0
 27
1.0
 37
0.0
 76
     0
330
1B
  0
LAYOUT
  5
26
102
{ACAD_REACTORS
330
1A
102
}
330
1A
100
AcDbPlotSettings
  1

  2
none_device
  4

  6

 40
0.0
 41
0.0
 42
0.0
 43
0.0
 44
0.0
 45
0.0
 46
0.0
 47
0.0
 48
0.0
 49
0.0
140
0.0
141
0.0
142
1.0
143
1.0
 70
   688
 72
     0
 73
     0
 74
     5
  7

 75
    16
 76
     0
 77
     2
 78
   300
147
1.0
148
0.0
149
0.0
100
AcDbLayout
  1
Layout2
 70
     1
 71
     2
 10
0.0
 20
0.0
 11
0.0
 21
0.0
 12
0.0
 22
0.0
 32
0.0
 14
0.0
 24
0.0
 34
0.0
 15
0.0
 25
0.0
 35
0.0
146
0.0
 13
0.0
 23
0.0
 33
0.0
 16
1.0
 26
0.0
 36
0.0
 17
0.0
 27
1.0
 37
0.0
 76
     0
330
23
  0
LAYOUT
  5
22
102
{ACAD_REACTORS
330
1A
102
}
330
1A
100
AcDbPlotSettings
  1

  2
none_device
  4
Letter_(8.50_x_11.00_Inches)
  6

 40
6.35
 41
6.35
 42
6.35000508
 43
6.35000508
 44
215.9
 45
279.4
 46
0.0
 47
0.0
 48
0.0
 49
0.0
140
0.0
141
0.0
142
1.0
143
1.0
 70
  1712
 72
     0
 73
     0
 74
     0
  7

 75
     0
 76
     0
 77
     2
 78
   300
147
1.0
148
0.0
149
0.0
100
AcDbLayout
  1
Model
 70
     1
 71
     0
 10
0.0
 20
0.0
 11
12.0
 21
9.0
 12
0.0
 22
0.0
 32
0.0
 14
1.000000000000000E+20
 24
1.000000000000000E+20
 34
1.000000000000000E+20
 15
-1.000000000000000E+20
 25
-1.000000000000000E+20
 35
-1.000000000000000E+20
146
0.0
 13
0.0
 23
0.0
 33
0.0
 16
1.0
 26
0.0
 36
0.0
 17
0.0
 27
1.0
 37
0.0
 76
     0
330
1F
331
29
  0
MATERIAL
  5
45
102
{ACAD_REACTORS
330
43
102
}
330
43
100
AcDbMaterial
  1
ByBlock
 72
     1
 94
      127
  0
MATERIAL
  5
44
102
{ACAD_REACTORS
330
43
102
}
330
43
100
AcDbMaterial
  1
ByLayer
 72
     1
 94
      127
  0
MATERIAL
  5
46
102
{ACAD_REACTORS
330
43
102
}
330
43
100
AcDbMaterial
  1
Global
 72
     1
 94
      127
  0
MLEADERSTYLE
  5
6C
102
{ACAD_REACTORS
330
6B
102
}
330
6B
100
AcDbMLeaderStyle
179
     2
170
     2
171
     1
172
     0
 90
        2
 40
0.0
 41
0.0
173
     1
 91
-1056964608
340
14
 92
       -2
290
     1
 42
0.09
291
     1
 43
0.36
  3
Standard
341
0
 44
0.18
300

342
11
174
     1
178
     6
175
     1
176
     0
 93
-1056964608
 45
0.18
292
     0
297
     0
 46
0.18
343
0
 94
-1056964608
 47
1.0
 49
1.0
140
1.0
293
     1
141
0.0
294
     1
177
     0
142
1.0
295
     0
296
     0
143
0.125
271
     0
272
     9
273
     9
298
     0
  0
MLINESTYLE
  5
18
102
{ACAD_REACTORS
330
17
102
}
330
17
100
AcDbMlineStyle
  2
Standard
 70
     0
  3

 62
   256
 51
90.0
 52
90.0
 71
     2
 49
0.5
 62
   256
  6
BYLAYER
 49
-0.5
 62
   256
  6
BYLAYER
  0
ACDBPLACEHOLDER
  5
F
102
{ACAD_REACTORS
330
E
102
}
330
E
  0
SCALE
  5
48
102
{ACAD_REACTORS
330
47
102
}
330
47
100
AcDbScale
 70
     0
300
1:1
140
1.0
141
1.0
290
     1
  0
SCALE
  5
49
102
{ACAD_REACTORS
330
47
102
}
330
47
100
AcDbScale
 70
     0
300
1:2
140
1.0
141
2.0
290
     0
  0
SCALE
  5
4A
102
{ACAD_REACTORS
330
47
102
}
330
47
100
AcDbScale
 70
     0
300
1:4
140
1.0
141
4.0
290
     0
  0
SCALE
  5
4B
102
{ACAD_REACTORS
330
47
102
}
330
47
100
AcDbScale
 70
     0
300
1:5
140
1.0
141
5.0
290
     0
  0
SCALE
  5
4C
102
{ACAD_REACTORS
330
47
102
}
330
47
100
AcDbScale
 70
     0
300
1:8
140
1.0
141
8.0
290
     0
  0
SCALE
  5
4D
102
{ACAD_REACTORS
330
47
102
}
330
47
100
AcDbScale
 70
     0
300
1:10
140
1.0
141
10.0
290
     0
  0
SCALE
  5
4E
102
{ACAD_REACTORS
330
47
102
}
330
47
100
AcDbScale
 70
     0
300
1:16
140
1.0
141
16.0
290
     0
  0
SCALE
  5
4F
102
{ACAD_REACTORS
330
47
102
}
330
47
100
AcDbScale
 70
     0
300
1:20
140
1.0
141
20.0
290
     0
  0
SCALE
  5
50
102
{ACAD_REACTORS
330
47
102
}
330
47
100
AcDbScale
 70
     0
300
1:30
140
1.0
141
30.0
290
     0
  0
SCALE
  5
51
102
{ACAD_REACTORS
330
47
102
}
330
47
100
AcDbScale
 70
     0
300
1:40
140
1.0
141
40.0
290
     0
  0
SCALE
  5
52
102
{ACAD_REACTORS
330
47
102
}
330
47
100
AcDbScale
 70
     0
300
1:50
140
1.0
141
50.0
290
     0
  0
SCALE
  5
53
102
{ACAD_REACTORS
330
47
102
}
330
47
100
AcDbScale
 70
     0
300
1:100
140
1.0
141
100.0
290
     0
  0
SCALE
  5
54
102
{ACAD_REACTORS
330
47
102
}
330
47
100
AcDbScale
 70
     0
300
2:1
140
2.0
141
1.0
290
     0
  0
SCALE
  5
55
102
{ACAD_REACTORS
330
47
102
}
330
47
100
AcDbScale
 70
     0
300
4:1
140
4.0
141
1.0
290
     0
  0
SCALE
  5
56
102
{ACAD_REACTORS
330
47
102
}
330
47
100
AcDbScale
 70
     0
300
8:1
140
8.0
141
1.0
290
     0
  0
SCALE
  5
57
102
{ACAD_REACTORS
330
47
102
}
330
47
100
AcDbScale
 70
     0
300
10:1
140
10.0
141
1.0
290
     0
  0
SCALE
  5
58
102
{ACAD_REACTORS
330
47
102
}
330
47
100
AcDbScale
 70
     0
300
100:1
140
100.0
141
1.0
290
     0
  0
SCALE
  5
59
102
{ACAD_REACTORS
330
47
102
}
330
47
100
AcDbScale
 70
     0
300
1/128" = 1'-0"
140
0.0078125
141
12.0
290
     0
  0
SCALE
  5
5A
102
{ACAD_REACTORS
330
47
102
}
330
47
100
AcDbScale
 70
     0
300
1/64" = 1'-0"
140
0.015625
141
12.0
290
     0
  0
SCALE
  5
5B
102
{ACAD_REACTORS
330
47
102
}
330
47
100
AcDbScale
 70
     0
300
1/32" = 1'-0"
140
0.03125
141
12.0
290
     0
  0
SCALE
  5
5C
102
{ACAD_REACTORS
330
47
102
}
330
47
100
AcDbScale
 70
     0
300
1/16" = 1'-0"
140
0.0625
141
12.0
290
     0
  0
SCALE
  5
5D
102
{ACAD_REACTORS
330
47
102
}
330
47
100
AcDbScale
 70
     0
300
3/32" = 1'-0"
140
0.09375
141
12.0
290
     0
  0
SCALE
  5
5E
102
{ACAD_REACTORS
330
47
102
}
330
47
100
AcDbScale
 70
     0
300
1/8" = 1'-0"
140
0.125
141
12.0
290
     0
  0
SCALE
  5
5F
102
{ACAD_REACTORS
330
47
102
}
330
47
100
AcDbScale
 70
     0
300
3/16" = 1'-0"
140
0.1875
141
12.0
290
     0
  0
SCALE
  5
60
102
{ACAD_REACTORS
330
47
102
}
330
47
100
AcDbScale
 70
     0
300
1/4" = 1'-0"
140
0.25
141
12.0
290
     0
  0
SCALE
  5
61
102
{ACAD_REACTORS
330
47
102
}
330
47
100
AcDbScale
 70
     0
300
3/8" = 1'-0"
140
0.375
141
12.0
290
     0
  0
SCALE
  5
62
102
{ACAD_REACTORS
330
47
102
}
330
47
100
AcDbScale
 70
     0
300
1/2" = 1'-0"
140
0.5
141
12.0
290
     0
  0
SCALE
  5
63
102
{ACAD_REACTORS
330
47
102
}
330
47
100
AcDbScale
 70
     0
300
3/4" = 1'-0"
140
0.75
141
12.0
290
     0
  0
SCALE
  5
64
102
{ACAD_REACTORS
330
47
102
}
330
47
100
AcDbScale
 70
     0
300
1" = 1'-0"
140
1.0
141
12.0
290
     0
  0
SCALE
  5
65
102
{ACAD_REACTORS
330
47
102
}
330
47
100
AcDbScale
 70
     0
300
1-1/2" = 1'-0"
140
1.5
141
12.0
290
     0
  0
SCALE
  5
66
102
{ACAD_REACTORS
330
47
102
}
330
47
100
AcDbScale
 70
     0
300
3" = 1'-0"
140
3.0
141
12.0
290
     0
  0
SCALE
  5
67
102
{ACAD_REACTORS
330
47
102
}
330
47
100
AcDbScale
 70
     0
300
6" = 1'-0"
140
6.0
141
12.0
290
     0
  0
SCALE
  5
68
102
{ACAD_REACTORS
330
47
102
}
330
47
100
AcDbScale
 70
     0
300
1'-0" = 1'-0"
140
12.0
141
12.0
290
     0
  0
TABLESTYLE
  5
6A
102
{ACAD_REACTORS
330
69
102
}
102
{ACAD_XDICTIONARY
360
273
102
}
330
69
100
AcDbTableStyle
  3
Standard
 70
     0
 71
     0
 40
0.06
 41
0.06
280
     0
281
     0
  7
Standard
140
0.18
170
     2
 62
     0
 63
   257
283
     0
 90
        4
 91
        0
  1

274
    -2
284
     1
 64
     0
275
    -2
285
     1
 65
     0
276
    -2
286
     1
 66
     0
277
    -2
287
     1
 67
     0
278
    -2
288
     1
 68
     0
279
    -2
289
     1
 69
     0
  7
Standard
140
0.25
170
     5
 62
     0
 63
   257
283
     0
 90
        4
 91
        0
  1

274
    -2
284
     1
 64
     0
275
    -2
285
     1
 65
     0
276
    -2
286
     1
 66
     0
277
    -2
287
     1
 67
     0
278
    -2
288
     1
 68
     0
279
    -2
289
     1
 69
     0
  7
Standard
140
0.18
170
     5
 62
     0
 63
   257
283
     0
 90
        4
 91
        0
  1

274
    -2
284
     1
 64
     0
275
    -2
285
     1
 65
     0
276
    -2
286
     1
 66
     0
277
    -2
287
     1
 67
     0
278
    -2
288
     1
 68
     0
279
    -2
289
     1
 69
     0
  0
VISUALSTYLE
  5
2F
102
{ACAD_REACTORS
330
2A
102
}
330
2A
100
AcDbVisualStyle
  2
2dWireframe
 70
     4
177
     3
291
     0
 70
    58
 90
        0
176
     1
 90
        2
176
     1
 90
        0
176
     1
 90
        0
176
     1
 40
0.6
176
     1
 40
30.0
176
     1
 62
     7
420
 16777215
176
     1
 90
        1
176
     1
 90
        4
176
     1
 62
     7
176
     1
 62
   257
176
     1
 90
        1
176
     1
 90
        1
176
     1
 40
1.0
176
     1
 90
        0
176
     1
 62
   257
176
     1
 40
1.0
176
     1
 90
        1
176
     1
 90
        6
176
     1
 90
        2
176
     1
 62
     7
176
     1
 90
        5
176
     1
 90
        0
176
     1
 90
        0
176
     1
290
     0
176
     1
 90
        1
176
     1
 40
0.0
176
     1
 90
        0
176
     1
290
     1
176
     1
290
     1
176
     1
290
     0
176
     1
290
     0
176
     1
290
     0
176
     1
290
     0
176
     1
290
     0
176
     1
290
     0
176
     1
290
     0
176
     1
 90
       50
176
     1
 40
0.0
176
     1
 40
1.0
176
     1
 90
        0
176
     1
 62
    18
420
        0
176
     1
 90
       50
176
     1
 90
        3
176
     1
 62
     5
420
      255
176
     1
290
     0
176
     1
 90
       50
176
     1
 90
       50
176
     1
 90
       50
176
     1
290
     0
176
     1
 90
       50
176
     1
 62
   256
176
     0
 40
1.0
176
     0
 90
        2
176
     1
  1
strokes_ogs.tif
176
     1
290
     0
176
     1
 40
1.0
176
     1
 40
1.0
176
     1
  0
VISUALSTYLE
  5
32
102
{ACAD_REACTORS
330
2A
102
}
330
2A
100
AcDbVisualStyle
  2
Basic
 70
     7
177
     3
291
     1
 70
    58
 90
        1
176
     1
 90
        0
176
     1
 90
        1
176
     1
 90
        0
176
     1
 40
0.6
176
     1
 40
30.0
176
     1
 62
     7
420
 16777215
176
     1
 90
        0
176
     1
 90
        4
176
     1
 62
     7
176
     1
 62
   257
176
     1
 90
        1
176
     1
 90
        1
176
     1
 40
1.0
176
     1
 90
        8
176
     1
 62
     7
176
     1
 40
1.0
176
     1
 90
        1
176
     1
 90
        6
176
     1
 90
        2
176
     1
 62
     7
176
     1
 90
        5
176
     1
 90
        0
176
     1
 90
        0
176
     1
290
     0
176
     1
 90
        1
176
     1
 40
0.0
176
     1
 90
        0
176
     1
290
     0
176
     1
290
     1
176
     1
290
     1
176
     1
290
     0
176
     1
290
     0
176
     1
290
     0
176
     1
290
     0
176
     1
290
     0
176
     1
290
     0
176
     1
 90
       50
176
     1
 40
0.0
176
     1
 40
1.0
176
     1
 90
        0
176
     1
 62
    18
420
        0
176
     1
 90
       50
176
     1
 90
        3
176
     1
 62
     5
420
      255
176
     1
290
     0
176
     1
 90
       50
176
     1
 90
       50
176
     1
 90
       50
176
     1
290
     0
176
     1
 90
       50
176
     1
 62
   256
176
     0
 40
1.0
176
     0
 90
        2
176
     1
  1
strokes_ogs.tif
176
     1
290
     0
176
     1
 40
1.0
176
     1
 40
1.0
176
     1
  0
VISUALSTYLE
  5
36
102
{ACAD_REACTORS
330
2A
102
}
330
2A
100
AcDbVisualStyle
  2
Brighten
 70
    12
177
     3
291
     1
 70
    58
 90
        2
176
     1
 90
        2
176
     1
 90
        0
176
     1
 90
        0
176
     1
 40
0.6
176
     1
 40
30.0
176
     1
 62
     7
420
 16777215
176
     1
 90
        1
176
     1
 90
        4
176
     1
 62
     7
176
     1
 62
   257
176
     1
 90
        1
176
     1
 90
        1
176
     1
 40
1.0
176
     1
 90
        8
176
     1
 62
     7
176
     1
 40
1.0
176
     1
 90
        1
176
     1
 90
        6
176
     1
 90
        2
176
     1
 62
     7
176
     1
 90
        5
176
     1
 90
        0
176
     1
 90
        0
176
     1
290
     0
176
     1
 90
        1
176
     1
 40
50.0
176
     1
 90
        0
176
     1
290
     0
176
     1
290
     1
176
     1
290
     1
176
     1
290
     0
176
     1
290
     0
176
     1
290
     0
176
     1
290
     0
176
     1
290
     0
176
     1
290
     0
176
     1
 90
       50
176
     1
 40
0.0
176
     1
 40
1.0
176
     1
 90
        0
176
     1
 62
    18
420
        0
176
     1
 90
       50
176
     1
 90
        3
176
     1
 62
     5
420
      255
176
     1
290
     0
176
     1
 90
       50
176
     1
 90
       50
176
     1
 90
       50
176
     1
290
     0
176
     1
 90
       50
176
     1
 62
   256
176
     0
 40
1.0
176
     0
 90
        2
176
     1
  1
strokes_ogs.tif
176
     1
290
     0
176
     1
 40
1.0
176
     1
 40
1.0
176
     1
  0
VISUALSTYLE
  5
3A
102
{ACAD_REACTORS
330
2A
102
}
330
2A
100
AcDbVisualStyle
  2
ColorChange
 70
    16
177
     3
291
     1
 70
    58
 90
        2
176
     1
 90
        2
176
     1
 90
        3
176
     1
 90
        0
176
     1
 40
0.6
176
     1
 40
30.0
176
     1
 62
     8
420
  8421504
176
     1
 90
        1
176
     1
 90
        4
176
     1
 62
     7
176
     1
 62
   257
176
     1
 90
        1
176
     1
 90
        1
176
     1
 40
1.0
176
     1
 90
        8
176
     1
 62
     8
420
  8421504
176
     1
 40
1.0
176
     1
 90
        1
176
     1
 90
        6
176
     1
 90
        2
176
     1
 62
     7
176
     1
 90
        5
176
     1
 90
        0
176
     1
 90
        0
176
     1
290
     0
176
     1
 90
        1
176
     1
 40
0.0
176
     1
 90
        0
176
     1
290
     0
176
     1
290
     1
176
     1
290
     1
176
     1
290
     0
176
     1
290
     0
176
     1
290
     0
176
     1
290
     0
176
     1
290
     0
176
     1
290
     0
176
     1
 90
       50
176
     1
 40
0.0
176
     1
 40
1.0
176
     1
 90
        0
176
     1
 62
    18
420
        0
176
     1
 90
       50
176
     1
 90
        3
176
     1
 62
     5
420
      255
176
     1
290
     0
176
     1
 90
       50
176
     1
 90
       50
176
     1
 90
       50
176
     1
290
     0
176
     1
 90
       50
176
     1
 62
   256
176
     0
 40
1.0
176
     0
 90
        2
176
     1
  1
strokes_ogs.tif
176
     1
290
     0
176
     1
 40
1.0
176
     1
 40
1.0
176
     1
  0
VISUALSTYLE
  5
34
102
{ACAD_REACTORS
330
2A
102
}
330
2A
100
AcDbVisualStyle
  2
Conceptual
 70
     9
177
     3
291
     0
 70
    58
 90
        3
176
     1
 90
        2
176
     1
 90
        0
176
     1
 90
        0
176
     1
 40
0.6
176
     1
 40
30.0
176
     1
 62
     7
420
 16777215
176
     1
 90
        2
176
     1
 90
        2
176
     1
 62
     7
176
     1
 62
   257
176
     1
 90
        1
176
     1
 90
        1
176
     1
 40
179.0
176
     1
 90
        8
176
     1
 62
     7
176
     1
 40
1.0
176
     1
 90
        1
176
     1
 90
        6
176
     1
 90
        2
176
     1
 62
     7
176
     1
 90
        3
176
     1
 90
        0
176
     1
 90
        0
176
     1
290
     0
176
     1
 90
        1
176
     1
 40
0.0
176
     1
 90
        0
176
     1
290
     0
176
     1
290
     1
176
     1
290
     1
176
     1
290
     0
176
     1
290
     0
176
     1
290
     0
176
     1
290
     0
176
     1
290
     0
176
     1
290
     0
176
     1
 90
       50
176
     1
 40
0.0
176
     1
 40
1.0
176
     1
 90
        0
176
     1
 62
    18
420
        0
176
     1
 90
       50
176
     1
 90
        3
176
     1
 62
     5
420
      255
176
     1
290
     0
176
     1
 90
       50
176
     1
 90
       50
176
     1
 90
       50
176
     1
290
     0
176
     1
 90
       50
176
     1
 62
   256
176
     0
 40
1.0
176
     0
 90
        2
176
     1
  1
strokes_ogs.tif
176
     1
290
     0
176
     1
 40
1.0
176
     1
 40
1.0
176
     1
  0
VISUALSTYLE
  5
35
102
{ACAD_REACTORS
330
2A
102
}
330
2A
100
AcDbVisualStyle
  2
Dim
 70
    11
177
     3
291
     1
 70
    58
 90
        2
176
     1
 90
        2
176
     1
 90
        0
176
     1
 90
        0
176
     1
 40
0.6
176
     1
 40
30.0
176
     1
 62
     7
420
 16777215
176
     1
 90
        1
176
     1
 90
        4
176
     1
 62
     7
176
     1
 62
   257
176
     1
 90
        1
176
     1
 90
        1
176
     1
 40
1.0
176
     1
 90
        8
176
     1
 62
     7
176
     1
 40
1.0
176
     1
 90
        1
176
     1
 90
        6
176
     1
 90
        2
176
     1
 62
     7
176
     1
 90
        5
176
     1
 90
        0
176
     1
 90
        0
176
     1
290
     0
176
     1
 90
        1
176
     1
 40
-50.0
176
     1
 90
        0
176
     1
290
     0
176
     1
290
     1
176
     1
290
     1
176
     1
290
     0
176
     1
290
     0
176
     1
290
     0
176
     1
290
     0
176
     1
290
     0
176
     1
290
     0
176
     1
 90
       50
176
     1
 40
0.0
176
     1
 40
1.0
176
     1
 90
        0
176
     1
 62
    18
420
        0
176
     1
 90
       50
176
     1
 90
        3
176
     1
 62
     5
420
      255
176
     1
290
     0
176
     1
 90
       50
176
     1
 90
       50
176
     1
 90
       50
176
     1
290
     0
176
     1
 90
       50
176
     1
 62
   256
176
     0
 40
1.0
176
     0
 90
        2
176
     1
  1
strokes_ogs.tif
176
     1
290
     0
176
     1
 40
1.0
176
     1
 40
1.0
176
     1
  0
VISUALSTYLE
  5
3D
102
{ACAD_REACTORS
330
2A
102
}
330
2A
100
AcDbVisualStyle
  2
EdgeColorOff
 70
    22
177
     3
291
     1
 70
    58
 90
        2
176
     0
 90
        2
176
     0
 90
        0
176
     0
 90
        0
176
     0
 40
0.6
176
     0
 40
30.0
176
     0
 62
     7
420
 16777215
176
     0
 90
        1
176
     0
 90
        4
176
     0
 62
     7
176
     0
 62
   257
176
     0
 90
        1
176
     0
 90
        1
176
     0
 40
1.0
176
     0
 90
        8
176
     2
 62
     7
176
     0
 40
1.0
176
     0
 90
        1
176
     0
 90
        6
176
     0
 90
        2
176
     0
 62
     7
176
     0
 90
        5
176
     0
 90
        0
176
     0
 90
        0
176
     0
290
     0
176
     0
 90
        1
176
     0
 40
0.0
176
     0
 90
        0
176
     0
290
     0
176
     0
290
     1
176
     0
290
     1
176
     0
290
     0
176
     0
290
     0
176
     0
290
     0
176
     0
290
     0
176
     0
290
     0
176
     0
290
     0
176
     0
 90
       50
176
     0
 40
0.0
176
     0
 40
1.0
176
     0
 90
        0
176
     0
 62
    18
420
        0
176
     0
 90
       50
176
     0
 90
        3
176
     0
 62
     5
420
      255
176
     0
290
     0
176
     0
 90
       50
176
     0
 90
       50
176
     0
 90
       50
176
     0
290
     0
176
     0
 90
       50
176
     0
 62
   256
176
     0
 40
1.0
176
     0
 90
        2
176
     0
  1
strokes_ogs.tif
176
     0
290
     0
176
     0
 40
1.0
176
     0
 40
1.0
176
     0
  0
VISUALSTYLE
  5
39
102
{ACAD_REACTORS
330
2A
102
}
330
2A
100
AcDbVisualStyle
  2
Facepattern
 70
    15
177
     3
291
     1
 70
    58
 90
        2
176
     1
 90
        2
176
     1
 90
        0
176
     1
 90
        0
176
     1
 40
0.6
176
     1
 40
30.0
176
     1
 62
     7
420
 16777215
176
     1
 90
        1
176
     1
 90
        4
176
     1
 62
     7
176
     1
 62
   257
176
     1
 90
        1
176
     1
 90
        1
176
     1
 40
1.0
176
     1
 90
        8
176
     1
 62
     7
176
     1
 40
1.0
176
     1
 90
        1
176
     1
 90
        6
176
     1
 90
        2
176
     1
 62
     7
176
     1
 90
        5
176
     1
 90
        0
176
     1
 90
        0
176
     1
290
     0
176
     1
 90
        1
176
     1
 40
0.0
176
     1
 90
        0
176
     1
290
     0
176
     1
290
     1
176
     1
290
     1
176
     1
290
     0
176
     1
290
     0
176
     1
290
     0
176
     1
290
     0
176
     1
290
     0
176
     1
290
     0
176
     1
 90
       50
176
     1
 40
0.0
176
     1
 40
1.0
176
     1
 90
        0
176
     1
 62
    18
420
        0
176
     1
 90
       50
176
     1
 90
        3
176
     1
 62
     5
420
      255
176
     1
290
     0
176
     1
 90
       50
176
     1
 90
       50
176
     1
 90
       50
176
     1
290
     0
176
     1
 90
       50
176
     1
 62
   256
176
     0
 40
1.0
176
     0
 90
        2
176
     1
  1
strokes_ogs.tif
176
     1
290
     0
176
     1
 40
1.0
176
     1
 40
1.0
176
     1
  0
VISUALSTYLE
  5
2B
102
{ACAD_REACTORS
330
2A
102
}
330
2A
100
AcDbVisualStyle
  2
Flat
 70
     0
177
     3
291
     1
 70
    58
 90
        2
176
     1
 90
        1
176
     1
 90
        1
176
     1
 90
        2
176
     1
 40
0.6
176
     1
 40
30.0
176
     1
 62
     7
420
 16777215
176
     1
 90
        0
176
     1
 90
        0
176
     1
 62
     7
176
     1
 62
   257
176
     1
 90
        1
176
     1
 90
        1
176
     1
 40
1.0
176
     1
 90
        8
176
     1
 62
     7
176
     1
 40
1.0
176
     1
 90
        1
176
     1
 90
        6
176
     1
 90
        2
176
     1
 62
     7
176
     1
 90
        5
176
     1
 90
        0
176
     1
 90
        0
176
     1
290
     0
176
     1
 90
       13
176
     1
 40
0.0
176
     1
 90
        0
176
     1
290
     0
176
     1
290
     1
176
     1
290
     1
176
     1
290
     0
176
     1
290
     0
176
     1
290
     0
176
     1
290
     0
176
     1
290
     0
176
     1
290
     0
176
     1
 90
       50
176
     1
 40
0.0
176
     1
 40
1.0
176
     1
 90
        0
176
     1
 62
    18
420
        0
176
     1
 90
       50
176
     1
 90
        3
176
     1
 62
     5
420
      255
176
     1
290
     0
176
     1
 90
       50
176
     1
 90
       50
176
     1
 90
       50
176
     1
290
     0
176
     1
 90
       50
176
     1
 62
   256
176
     0
 40
1.0
176
     0
 90
        2
176
     1
  1
strokes_ogs.tif
176
     1
290
     0
176
     1
 40
1.0
176
     1
 40
1.0
176
     1
  0
VISUALSTYLE
  5
2C
102
{ACAD_REACTORS
330
2A
102
}
330
2A
100
AcDbVisualStyle
  2
FlatWithEdges
 70
     1
177
     3
291
     1
 70
    58
 90
        2
176
     1
 90
        1
176
     1
 90
        1
176
     1
 90
        2
176
     1
 40
0.6
176
     1
 40
30.0
176
     1
 62
     7
420
 16777215
176
     1
 90
        1
176
     1
 90
        0
176
     1
 62
     7
176
     1
 62
   257
176
     1
 90
        1
176
     1
 90
        1
176
     1
 40
1.0
176
     1
 90
        0
176
     1
 62
   257
176
     1
 40
1.0
176
     1
 90
        1
176
     1
 90
        6
176
     1
 90
        2
176
     1
 62
     7
176
     1
 90
        5
176
     1
 90
        0
176
     1
 90
        0
176
     1
290
     0
176
     1
 90
       13
176
     1
 40
0.0
176
     1
 90
        0
176
     1
290
     0
176
     1
290
     1
176
     1
290
     1
176
     1
290
     0
176
     1
290
     0
176
     1
290
     0
176
     1
290
     0
176
     1
290
     0
176
     1
290
     0
176
     1
 90
       50
176
     1
 40
0.0
176
     1
 40
1.0
176
     1
 90
        0
176
     1
 62
    18
420
        0
176
     1
 90
       50
176
     1
 90
        3
176
     1
 62
     5
420
      255
176
     1
290
     0
176
     1
 90
       50
176
     1
 90
       50
176
     1
 90
       50
176
     1
290
     0
176
     1
 90
       50
176
     1
 62
   256
176
     0
 40
1.0
176
     0
 90
        2
176
     1
  1
strokes_ogs.tif
176
     1
290
     0
176
     1
 40
1.0
176
     1
 40
1.0
176
     1
  0
VISUALSTYLE
  5
2D
102
{ACAD_REACTORS
330
2A
102
}
330
2A
100
AcDbVisualStyle
  2
Gouraud
 70
     2
177
     3
291
     1
 70
    58
 90
        2
176
     1
 90
        2
176
     1
 90
        1
176
     1
 90
        2
176
     1
 40
0.6
176
     1
 40
30.0
176
     1
 62
     7
420
 16777215
176
     1
 90
        0
176
     1
 90
        0
176
     1
 62
     7
176
     1
 62
   257
176
     1
 90
        1
176
     1
 90
        1
176
     1
 40
1.0
176
     1
 90
        0
176
     1
 62
     7
176
     1
 40
1.0
176
     1
 90
        1
176
     1
 90
        6
176
     1
 90
        2
176
     1
 62
     7
176
     1
 90
        5
176
     1
 90
        0
176
     1
 90
        0
176
     1
290
     0
176
     1
 90
       13
176
     1
 40
0.0
176
     1
 90
        0
176
     1
290
     0
176
     1
290
     1
176
     1
290
     1
176
     1
290
     0
176
     1
290
     0
176
     1
290
     0
176
     1
290
     0
176
     1
290
     0
176
     1
290
     0
176
     1
 90
       50
176
     1
 40
0.0
176
     1
 40
1.0
176
     1
 90
        0
176
     1
 62
    18
420
        0
176
     1
 90
       50
176
     1
 90
        3
176
     1
 62
     5
420
      255
176
     1
290
     0
176
     1
 90
       50
176
     1
 90
       50
176
     1
 90
       50
176
     1
290
     0
176
     1
 90
       50
176
     1
 62
   256
176
     0
 40
1.0
176
     0
 90
        2
176
     1
  1
strokes_ogs.tif
176
     1
290
     0
176
     1
 40
1.0
176
     1
 40
1.0
176
     1
  0
VISUALSTYLE
  5
2E
102
{ACAD_REACTORS
330
2A
102
}
330
2A
100
AcDbVisualStyle
  2
GouraudWithEdges
 70
     3
177
     3
291
     1
 70
    58
 90
        2
176
     1
 90
        2
176
     1
 90
        1
176
     1
 90
        2
176
     1
 40
0.6
176
     1
 40
30.0
176
     1
 62
     7
420
 16777215
176
     1
 90
        1
176
     1
 90
        0
176
     1
 62
     7
176
     1
 62
   257
176
     1
 90
        1
176
     1
 90
        1
176
     1
 40
1.0
176
     1
 90
        0
176
     1
 62
   257
176
     1
 40
1.0
176
     1
 90
        1
176
     1
 90
        6
176
     1
 90
        2
176
     1
 62
     7
176
     1
 90
        5
176
     1
 90
        0
176
     1
 90
        0
176
     1
290
     0
176
     1
 90
       13
176
     1
 40
0.0
176
     1
 90
        0
176
     1
290
     0
176
     1
290
     1
176
     1
290
     1
176
     1
290
     0
176
     1
290
     0
176
     1
290
     0
176
     1
290
     0
176
     1
290
     0
176
     1
290
     0
176
     1
 90
       50
176
     1
 40
0.0
176
     1
 40
1.0
176
     1
 90
        0
176
     1
 62
    18
420
        0
176
     1
 90
       50
176
     1
 90
        3
176
     1
 62
     5
420
      255
176
     1
290
     0
176
     1
 90
       50
176
     1
 90
       50
176
     1
 90
       50
176
     1
290
     0
176
     1
 90
       50
176
     1
 62
   256
176
     0
 40
1.0
176
     0
 90
        2
176
     1
  1
strokes_ogs.tif
176
     1
290
     0
176
     1
 40
1.0
176
     1
 40
1.0
176
     1
  0
VISUALSTYLE
  5
31
102
{ACAD_REACTORS
330
2A
102
}
330
2A
100
AcDbVisualStyle
  2
Hidden
 70
     6
177
     3
291
     0
 70
    58
 90
        1
176
     1
 90
        2
176
     1
 90
        2
176
     1
 90
        0
176
     1
 40
0.6
176
     1
 40
30.0
176
     1
 62
     7
420
 16777215
176
     1
 90
        2
176
     1
 90
        2
176
     1
 62
     7
176
     1
 62
   257
176
     1
 90
        2
176
     1
 90
        1
176
     1
 40
40.0
176
     1
 90
        0
176
     1
 62
   257
176
     1
 40
1.0
176
     1
 90
        1
176
     1
 90
        6
176
     1
 90
        2
176
     1
 62
     7
176
     1
 90
        3
176
     1
 90
        0
176
     1
 90
        0
176
     1
290
     0
176
     1
 90
        1
176
     1
 40
0.0
176
     1
 90
        0
176
     1
290
     0
176
     1
290
     1
176
     1
290
     1
176
     1
290
     0
176
     1
290
     0
176
     1
290
     0
176
     1
290
     0
176
     1
290
     0
176
     1
290
     0
176
     1
 90
       50
176
     1
 40
0.0
176
     1
 40
1.0
176
     1
 90
        0
176
     1
 62
    18
420
        0
176
     1
 90
       50
176
     1
 90
        3
176
     1
 62
     5
420
      255
176
     1
290
     0
176
     1
 90
       50
176
     1
 90
       50
176
     1
 90
       50
176
     1
290
     0
176
     1
 90
       50
176
     1
 62
   256
176
     0
 40
1.0
176
     0
 90
        2
176
     1
  1
strokes_ogs.tif
176
     1
290
     0
176
     1
 40
1.0
176
     1
 40
1.0
176
     1
  0
VISUALSTYLE
  5
3B
102
{ACAD_REACTORS
330
2A
102
}
330
2A
100
AcDbVisualStyle
  2
JitterOff
 70
    20
177
     3
291
     1
 70
    58
 90
        2
176
     0
 90
        2
176
     0
 90
        0
176
     0
 90
        0
176
     0
 40
0.6
176
     0
 40
30.0
176
     0
 62
     7
420
 16777215
176
     0
 90
        1
176
     0
 90
        4
176
     0
 62
     7
176
     0
 62
   257
176
     0
 90
        1
176
     0
 90
        1
176
     0
 40
1.0
176
     0
 90
       10
176
     2
 62
     7
176
     0
 40
1.0
176
     0
 90
        1
176
     0
 90
        6
176
     0
 90
        2
176
     0
 62
     7
176
     0
 90
        5
176
     0
 90
        0
176
     0
 90
        0
176
     0
290
     0
176
     0
 90
        1
176
     0
 40
0.0
176
     0
 90
        0
176
     0
290
     0
176
     0
290
     1
176
     0
290
     1
176
     0
290
     0
176
     0
290
     0
176
     0
290
     0
176
     0
290
     0
176
     0
290
     0
176
     0
290
     0
176
     0
 90
       50
176
     0
 40
0.0
176
     0
 40
1.0
176
     0
 90
        0
176
     0
 62
    18
420
        0
176
     0
 90
       50
176
     0
 90
        3
176
     0
 62
     5
420
      255
176
     0
290
     0
176
     0
 90
       50
176
     0
 90
       50
176
     0
 90
       50
176
     0
290
     0
176
     0
 90
       50
176
     0
 62
   256
176
     0
 40
1.0
176
     0
 90
        2
176
     0
  1
strokes_ogs.tif
176
     0
290
     0
176
     0
 40
1.0
176
     0
 40
1.0
176
     0
  0
VISUALSTYLE
  5
38
102
{ACAD_REACTORS
330
2A
102
}
330
2A
100
AcDbVisualStyle
  2
Linepattern
 70
    14
177
     3
291
     1
 70
    58
 90
        2
176
     1
 90
        2
176
     1
 90
        0
176
     1
 90
        0
176
     1
 40
0.6
176
     1
 40
30.0
176
     1
 62
     7
420
 16777215
176
     1
 90
        1
176
     1
 90
        4
176
     1
 62
     7
176
     1
 62
   257
176
     1
 90
        7
176
     1
 90
        7
176
     1
 40
1.0
176
     1
 90
        8
176
     1
 62
     7
176
     1
 40
1.0
176
     1
 90
        1
176
     1
 90
        6
176
     1
 90
        2
176
     1
 62
     7
176
     1
 90
        5
176
     1
 90
        0
176
     1
 90
        0
176
     1
290
     0
176
     1
 90
        1
176
     1
 40
0.0
176
     1
 90
        0
176
     1
290
     0
176
     1
290
     1
176
     1
290
     1
176
     1
290
     0
176
     1
290
     0
176
     1
290
     0
176
     1
290
     0
176
     1
290
     0
176
     1
290
     0
176
     1
 90
       50
176
     1
 40
0.0
176
     1
 40
1.0
176
     1
 90
        0
176
     1
 62
    18
420
        0
176
     1
 90
       50
176
     1
 90
        3
176
     1
 62
     5
420
      255
176
     1
290
     0
176
     1
 90
       50
176
     1
 90
       50
176
     1
 90
       50
176
     1
290
     0
176
     1
 90
       50
176
     1
 62
   256
176
     0
 40
1.0
176
     0
 90
        2
176
     1
  1
strokes_ogs.tif
176
     1
290
     0
176
     1
 40
1.0
176
     1
 40
1.0
176
     1
  0
VISUALSTYLE
  5
3C
102
{ACAD_REACTORS
330
2A
102
}
330
2A
100
AcDbVisualStyle
  2
OverhangOff
 70
    21
177
     3
291
     1
 70
    58
 90
        2
176
     0
 90
        2
176
     0
 90
        0
176
     0
 90
        0
176
     0
 40
0.6
176
     0
 40
30.0
176
     0
 62
     7
420
 16777215
176
     0
 90
        1
176
     0
 90
        4
176
     0
 62
     7
176
     0
 62
   257
176
     0
 90
        1
176
     0
 90
        1
176
     0
 40
1.0
176
     0
 90
        9
176
     2
 62
     7
176
     0
 40
1.0
176
     0
 90
        1
176
     0
 90
        6
176
     0
 90
        2
176
     0
 62
     7
176
     0
 90
        5
176
     0
 90
        0
176
     0
 90
        0
176
     0
290
     0
176
     0
 90
        1
176
     0
 40
0.0
176
     0
 90
        0
176
     0
290
     0
176
     0
290
     1
176
     0
290
     1
176
     0
290
     0
176
     0
290
     0
176
     0
290
     0
176
     0
290
     0
176
     0
290
     0
176
     0
290
     0
176
     0
 90
       50
176
     0
 40
0.0
176
     0
 40
1.0
176
     0
 90
        0
176
     0
 62
    18
420
        0
176
     0
 90
       50
176
     0
 90
        3
176
     0
 62
     5
420
      255
176
     0
290
     0
176
     0
 90
       50
176
     0
 90
       50
176
     0
 90
       50
176
     0
290
     0
176
     0
 90
       50
176
     0
 62
   256
176
     0
 40
1.0
176
     0
 90
        2
176
     0
  1
strokes_ogs.tif
176
     0
290
     0
176
     0
 40
1.0
176
     0
 40
1.0
176
     0
  0
VISUALSTYLE
  5
33
102
{ACAD_REACTORS
330
2A
102
}
330
2A
100
AcDbVisualStyle
  2
Realistic
 70
     8
177
     3
291
     0
 70
    58
 90
        2
176
     1
 90
        3
176
     1
 90
        0
176
     1
 90
        2
176
     1
 40
0.6
176
     1
 40
30.0
176
     1
 62
     7
420
 16777215
176
     1
 90
        0
176
     1
 90
        0
176
     1
 62
     7
176
     1
 62
   257
176
     1
 90
        1
176
     1
 90
        1
176
     1
 40
1.0
176
     1
 90
        8
176
     1
 62
   257
176
     1
 40
1.0
176
     1
 90
        1
176
     1
 90
        6
176
     1
 90
        2
176
     1
 62
     7
176
     1
 90
        3
176
     1
 90
        0
176
     1
 90
        0
176
     1
290
     0
176
     1
 90
       13
176
     1
 40
0.0
176
     1
 90
        0
176
     1
290
     0
176
     1
290
     1
176
     1
290
     1
176
     1
290
     0
176
     1
290
     0
176
     1
290
     0
176
     1
290
     0
176
     1
290
     0
176
     1
290
     0
176
     1
 90
       50
176
     1
 40
0.0
176
     1
 40
1.0
176
     1
 90
        0
176
     1
 62
    18
420
        0
176
     1
 90
       50
176
     1
 90
        3
176
     1
 62
     5
420
      255
176
     1
290
     0
176
     1
 90
       50
176
     1
 90
       50
176
     1
 90
       50
176
     1
290
     0
176
     1
 90
       50
176
     1
 62
   256
176
     0
 40
1.0
176
     0
 90
        2
176
     1
  1
strokes_ogs.tif
176
     1
290
     0
176
     1
 40
1.0
176
     1
 40
1.0
176
     1
  0
VISUALSTYLE
  5
42
102
{ACAD_REACTORS
330
2A
102
}
330
2A
100
AcDbVisualStyle
  2
Shaded
 70
    27
177
     3
291
     0
 70
    58
 90
        2
176
     1
 90
        2
176
     1
 90
        1
176
     1
 90
        2
176
     1
 40
0.6
176
     1
 40
30.0
176
     1
 62
     7
420
 16777215
176
     1
 90
        0
176
     1
 90
        4
176
     1
 62
     7
176
     1
 62
   257
176
     1
 90
        1
176
     1
 90
        1
176
     1
 40
1.0
176
     1
 90
        8
176
     1
 62
   257
176
     1
 40
1.0
176
     1
 90
        1
176
     1
 90
        6
176
     1
 90
        2
176
     1
 62
     8
420
  7895160
176
     1
 90
        3
176
     1
 90
        0
176
     1
 90
        0
176
     1
290
     0
176
     1
 90
        5
176
     1
 40
0.0
176
     1
 90
        0
176
     1
290
     0
176
     1
290
     1
176
     1
290
     1
176
     1
290
     0
176
     1
290
     0
176
     1
290
     0
176
     1
290
     0
176
     1
290
     0
176
     1
290
     0
176
     1
 90
       50
176
     1
 40
0.0
176
     1
 40
1.0
176
     1
 90
        0
176
     1
 62
    18
420
        0
176
     1
 90
       50
176
     1
 90
        3
176
     1
 62
     5
420
      255
176
     1
290
     0
176
     1
 90
       50
176
     1
 90
       50
176
     1
 90
       50
176
     1
290
     0
176
     1
 90
       50
176
     1
 62
   256
176
     0
 40
1.0
176
     0
 90
        2
176
     1
  1
strokes_ogs.tif
176
     1
290
     0
176
     1
 40
1.0
176
     1
 40
1.0
176
     1
  0
VISUALSTYLE
  5
41
102
{ACAD_REACTORS
330
2A
102
}
330
2A
100
AcDbVisualStyle
  2
Shaded with edges
 70
    26
177
     3
291
     0
 70
    58
 90
        2
176
     1
 90
        2
176
     1
 90
        1
176
     1
 90
        2
176
     1
 40
0.6
176
     1
 40
30.0
176
     1
 62
     7
420
 16777215
176
     1
 90
        1
176
     1
 90
       10
176
     1
 62
     7
176
     1
 62
   257
176
     1
 90
        2
176
     1
 90
        1
176
     1
 40
1.0
176
     1
 90
        8
176
     1
 62
   257
176
     1
 40
1.0
176
     1
 90
        1
176
     1
 90
        6
176
     1
 90
        2
176
     1
 62
     7
176
     1
 90
        3
176
     1
 90
        0
176
     1
 90
        0
176
     1
290
     0
176
     1
 90
        5
176
     1
 40
0.0
176
     1
 90
        0
176
     1
290
     0
176
     1
290
     1
176
     1
290
     1
176
     1
290
     0
176
     1
290
     0
176
     1
290
     0
176
     1
290
     0
176
     1
290
     0
176
     1
290
     0
176
     1
 90
       50
176
     1
 40
0.0
176
     1
 40
1.0
176
     1
 90
        0
176
     1
 62
    18
420
        0
176
     1
 90
       50
176
     1
 90
        3
176
     1
 62
     5
420
      255
176
     1
290
     0
176
     1
 90
       50
176
     1
 90
       50
176
     1
 90
       50
176
     1
290
     0
176
     1
 90
       50
176
     1
 62
   256
176
     0
 40
1.0
176
     0
 90
        2
176
     1
  1
strokes_ogs.tif
176
     1
290
     0
176
     1
 40
1.0
176
     1
 40
1.0
176
     1
  0
VISUALSTYLE
  5
3E
102
{ACAD_REACTORS
330
2A
102
}
330
2A
100
AcDbVisualStyle
  2
Shades of Gray
 70
    23
177
     3
291
     0
 70
    58
 90
        2
176
     1
 90
        2
176
     1
 90
        3
176
     1
 90
        0
176
     1
 40
0.6
176
     1
 40
30.0
176
     1
 62
     7
420
 16777215
176
     1
 90
        2
176
     1
 90
        2
176
     1
 62
     7
176
     1
 62
     7
176
     1
 90
        1
176
     1
 90
        1
176
     1
 40
40.0
176
     1
 90
        8
176
     1
 62
     7
176
     1
 40
1.0
176
     1
 90
        1
176
     1
 90
        6
176
     1
 90
        2
176
     1
 62
     7
176
     1
 90
        3
176
     1
 90
        0
176
     1
 90
        0
176
     1
290
     0
176
     1
 90
        1
176
     1
 40
0.0
176
     1
 90
        0
176
     1
290
     0
176
     1
290
     1
176
     1
290
     1
176
     1
290
     0
176
     1
290
     0
176
     1
290
     0
176
     1
290
     0
176
     1
290
     0
176
     1
290
     0
176
     1
 90
       50
176
     1
 40
0.0
176
     1
 40
1.0
176
     1
 90
        0
176
     1
 62
    18
420
        0
176
     1
 90
       50
176
     1
 90
        3
176
     1
 62
     5
420
      255
176
     1
290
     0
176
     1
 90
       50
176
     1
 90
       50
176
     1
 90
       50
176
     1
290
     0
176
     1
 90
       50
176
     1
 62
   256
176
     0
 40
1.0
176
     0
 90
        2
176
     1
  1
strokes_ogs.tif
176
     1
290
     0
176
     1
 40
1.0
176
     1
 40
1.0
176
     1
  0
VISUALSTYLE
  5
3F
102
{ACAD_REACTORS
330
2A
102
}
330
2A
100
AcDbVisualStyle
  2
Sketchy
 70
    24
177
     3
291
     0
 70
    58
 90
        1
176
     1
 90
        2
176
     1
 90
        2
176
     1
 90
        0
176
     1
 40
0.6
176
     1
 40
30.0
176
     1
 62
     7
420
 16777215
176
     1
 90
        2
176
     1
 90
        2
176
     1
 62
     7
176
     1
 62
     7
176
     1
 90
        1
176
     1
 90
        1
176
     1
 40
40.0
176
     1
 90
       11
176
     1
 62
     7
176
     1
 40
1.0
176
     1
 90
        1
176
     1
 90
        6
176
     1
 90
        2
176
     1
 62
     7
176
     1
 90
        6
176
     1
 90
        0
176
     1
 90
        0
176
     1
290
     0
176
     1
 90
        1
176
     1
 40
0.0
176
     1
 90
        0
176
     1
290
     0
176
     1
290
     1
176
     1
290
     1
176
     1
290
     0
176
     1
290
     0
176
     1
290
     0
176
     1
290
     0
176
     1
290
     0
176
     1
290
     0
176
     1
 90
       50
176
     1
 40
0.0
176
     1
 40
1.0
176
     1
 90
        0
176
     1
 62
    18
420
        0
176
     1
 90
       50
176
     1
 90
        3
176
     1
 62
     5
420
      255
176
     1
290
     0
176
     1
 90
       50
176
     1
 90
       50
176
     1
 90
       50
176
     1
290
     0
176
     1
 90
       50
176
     1
 62
   256
176
     0
 40
1.0
176
     0
 90
        2
176
     1
  1
strokes_ogs.tif
176
     1
290
     0
176
     1
 40
1.0
176
     1
 40
1.0
176
     1
  0
VISUALSTYLE
  5
37
102
{ACAD_REACTORS
330
2A
102
}
330
2A
100
AcDbVisualStyle
  2
Thicken
 70
    13
177
     3
291
     1
 70
    58
 90
        2
176
     1
 90
        2
176
     1
 90
        0
176
     1
 90
        0
176
     1
 40
0.6
176
     1
 40
30.0
176
     1
 62
     7
420
 16777215
176
     1
 90
        1
176
     1
 90
        4
176
     1
 62
     7
176
     1
 62
   257
176
     1
 90
        1
176
     1
 90
        1
176
     1
 40
1.0
176
     1
 90
       12
176
     1
 62
     7
176
     1
 40
1.0
176
     1
 90
        1
176
     1
 90
        6
176
     1
 90
        2
176
     1
 62
     7
176
     1
 90
        5
176
     1
 90
        0
176
     1
 90
        0
176
     1
290
     0
176
     1
 90
        1
176
     1
 40
0.0
176
     1
 90
        0
176
     1
290
     0
176
     1
290
     1
176
     1
290
     1
176
     1
290
     0
176
     1
290
     0
176
     1
290
     0
176
     1
290
     0
176
     1
290
     0
176
     1
290
     0
176
     1
 90
       50
176
     1
 40
0.0
176
     1
 40
1.0
176
     1
 90
        0
176
     1
 62
    18
420
        0
176
     1
 90
       50
176
     1
 90
        3
176
     1
 62
     5
420
      255
176
     1
290
     0
176
     1
 90
       50
176
     1
 90
       50
176
     1
 90
       50
176
     1
290
     0
176
     1
 90
       50
176
     1
 62
   256
176
     0
 40
1.0
176
     0
 90
        2
176
     1
  1
strokes_ogs.tif
176
     1
290
     0
176
     1
 40
1.0
176
     1
 40
1.0
176
     1
  0
VISUALSTYLE
  5
30
102
{ACAD_REACTORS
330
2A
102
}
330
2A
100
AcDbVisualStyle
  2
Wireframe
 70
     5
177
     3
291
     0
 70
    58
 90
        0
176
     1
 90
        2
176
     1
 90
        0
176
     1
 90
        0
176
     1
 40
0.6
176
     1
 40
30.0
176
     1
 62
     7
420
 16777215
176
     1
 90
        1
176
     1
 90
        4
176
     1
 62
     7
176
     1
 62
   257
176
     1
 90
        1
176
     1
 90
        1
176
     1
 40
1.0
176
     1
 90
        0
176
     1
 62
   257
176
     1
 40
1.0
176
     1
 90
        1
176
     1
 90
        6
176
     1
 90
        2
176
     1
 62
     7
176
     1
 90
        3
176
     1
 90
        0
176
     1
 90
        0
176
     1
290
     0
176
     1
 90
        1
176
     1
 40
0.0
176
     1
 90
        0
176
     1
290
     0
176
     1
290
     1
176
     1
290
     1
176
     1
290
     0
176
     1
290
     0
176
     1
290
     0
176
     1
290
     0
176
     1
290
     0
176
     1
290
     0
176
     1
 90
       50
176
     1
 40
0.0
176
     1
 40
1.0
176
     1
 90
        0
176
     1
 62
    18
420
        0
176
     1
 90
       50
176
     1
 90
        3
176
     1
 62
     5
420
      255
176
     1
290
     0
176
     1
 90
       50
176
     1
 90
       50
176
     1
 90
       50
176
     1
290
     0
176
     1
 90
       50
176
     1
 62
   256
176
     0
 40
1.0
176
     0
 90
        2
176
     1
  1
strokes_ogs.tif
176
     1
290
     0
176
     1
 40
1.0
176
     1
 40
1.0
176
     1
  0
VISUALSTYLE
  5
40
102
{ACAD_REACTORS
330
2A
102
}
330
2A
100
AcDbVisualStyle
  2
X-Ray
 70
    25
177
     3
291
     0
 70
    58
 90
        2
176
     1
 90
        2
176
     1
 90
        1
176
     1
 90
        1
176
     1
 40
0.5
176
     1
 40
30.0
176
     1
 62
     7
420
 16777215
176
     1
 90
        1
176
     1
 90
        0
176
     1
 62
     7
176
     1
 62
   257
176
     1
 90
        1
176
     1
 90
        1
176
     1
 40
1.0
176
     1
 90
        8
176
     1
 62
     7
176
     1
 40
1.0
176
     1
 90
        1
176
     1
 90
        6
176
     1
 90
        2
176
     1
 62
     7
176
     1
 90
        3
176
     1
 90
        0
176
     1
 90
        0
176
     1
290
     0
176
     1
 90
       13
176
     1
 40
0.0
176
     1
 90
        0
176
     1
290
     0
176
     1
290
     1
176
     1
290
     1
176
     1
290
     0
176
     1
290
     0
176
     1
290
     0
176
     1
290
     0
176
     1
290
     0
176
     1
290
     0
176
     1
 90
       50
176
     1
 40
0.0
176
     1
 40
1.0
176
     1
 90
        0
176
     1
 62
    18
420
        0
176
     1
 90
       50
176
     1
 90
        3
176
     1
 62
     5
420
      255
176
     1
290
     0
176
     1
 90
       50
176
     1
 90
       50
176
     1
 90
       50
176
     1
290
     0
176
     1
 90
       50
176
     1
 62
   256
176
     0
 40
1.0
176
     0
 90
        2
176
     1
  1
strokes_ogs.tif
176
     1
290
     0
176
     1
 40
1.0
176
     1
 40
1.0
176
     1
  0
DICTIONARYVAR
  5
272
102
{ACAD_REACTORS
330
271
102
}
330
271
100
DictionaryVariables
280
     0
  1
1:1
  0
DICTIONARYVAR
  5
277
102
{ACAD_REACTORS
330
271
102
}
330
271
100
DictionaryVariables
280
     0
  1
Standard
  0
DICTIONARYVAR
  5
276
102
{ACAD_REACTORS
330
271
102
}
330
271
100
DictionaryVariables
280
     0
  1
Standard
  0
DICTIONARY
  5
273
330
6A
100
AcDbDictionary
280
     1
281
     1
  3
ACAD_ROUNDTRIP_2008_TABLESTYLE_CELLSTYLEMAP
360
274
  0
CELLSTYLEMAP
  5
274
102
{ACAD_REACTORS
330
273
102
}
330
273
100
AcDbCellStyleMap
 90
        3
300
CELLSTYLE
  1
TABLEFORMAT_BEGIN
 90
        5
170
     1
 91
        0
 92
    32768
 62
   257
 93
        1
300
CONTENTFORMAT
  1
CONTENTFORMAT_BEGIN
 90
        0
 91
        0
 92
        4
 93
        0
300

 40
0.0
140
1.0
 94
        5
 62
     0
340
11
144
0.25
309
CONTENTFORMAT_END
171
     1
301
MARGIN
  1
CELLMARGIN_BEGIN
 40
0.06
 40
0.06
 40
0.06
 40
0.06
 40
0.06
 40
0.06
309
CELLMARGIN_END
 94
        6
 95
        1
302
GRIDFORMAT
  1
GRIDFORMAT_BEGIN
 90
        0
 91
        1
 62
     0
 92
       -2
340
14
 93
        0
 40
0.045
309
GRIDFORMAT_END
 95
        2
302
GRIDFORMAT
  1
GRIDFORMAT_BEGIN
 90
        0
 91
        1
 62
     0
 92
       -2
340
14
 93
        0
 40
0.045
309
GRIDFORMAT_END
 95
        4
302
GRIDFORMAT
  1
GRIDFORMAT_BEGIN
 90
        0
 91
        1
 62
     0
 92
       -2
340
14
 93
        0
 40
0.045
309
GRIDFORMAT_END
 95
        8
302
GRIDFORMAT
  1
GRIDFORMAT_BEGIN
 90
        0
 91
        1
 62
     0
 92
       -2
340
14
 93
        0
 40
0.045
309
GRIDFORMAT_END
 95
       16
302
GRIDFORMAT
  1
GRIDFORMAT_BEGIN
 90
        0
 91
        1
 62
     0
 92
       -2
340
14
 93
        0
 40
0.045
309
GRIDFORMAT_END
 95
       32
302
GRIDFORMAT
  1
GRIDFORMAT_BEGIN
 90
        0
 91
        1
 62
     0
 92
       -2
340
14
 93
        0
 40
0.045
309
GRIDFORMAT_END
309
TABLEFORMAT_END
  1
CELLSTYLE_BEGIN
 90
        1
 91
        1
300
_TITLE
309
CELLSTYLE_END
300
CELLSTYLE
  1
TABLEFORMAT_BEGIN
 90
        5
170
     1
 91
        0
 92
        0
 62
   257
 93
        1
300
CONTENTFORMAT
  1
CONTENTFORMAT_BEGIN
 90
        0
 91
        0
 92
        4
 93
        0
300

 40
0.0
140
1.0
 94
        5
 62
     0
340
11
144
0.18
309
CONTENTFORMAT_END
171
     1
301
MARGIN
  1
CELLMARGIN_BEGIN
 40
0.06
 40
0.06
 40
0.06
 40
0.06
 40
0.06
 40
0.06
309
CELLMARGIN_END
 94
        6
 95
        1
302
GRIDFORMAT
  1
GRIDFORMAT_BEGIN
 90
        0
 91
        1
 62
     0
 92
       -2
340
14
 93
        0
 40
0.045
309
GRIDFORMAT_END
 95
        2
302
GRIDFORMAT
  1
GRIDFORMAT_BEGIN
 90
        0
 91
        1
 62
     0
 92
       -2
340
14
 93
        0
 40
0.045
309
GRIDFORMAT_END
 95
        4
302
GRIDFORMAT
  1
GRIDFORMAT_BEGIN
 90
        0
 91
        1
 62
     0
 92
       -2
340
14
 93
        0
 40
0.045
309
GRIDFORMAT_END
 95
        8
302
GRIDFORMAT
  1
GRIDFORMAT_BEGIN
 90
        0
 91
        1
 62
     0
 92
       -2
340
14
 93
        0
 40
0.045
309
GRIDFORMAT_END
 95
       16
302
GRIDFORMAT
  1
GRIDFORMAT_BEGIN
 90
        0
 91
        1
 62
     0
 92
       -2
340
14
 93
        0
 40
0.045
309
GRIDFORMAT_END
 95
       32
302
GRIDFORMAT
  1
GRIDFORMAT_BEGIN
 90
        0
 91
        1
 62
     0
 92
       -2
340
14
 93
        0
 40
0.045
309
GRIDFORMAT_END
309
TABLEFORMAT_END
  1
CELLSTYLE_BEGIN
 90
        2
 91
        1
300
_HEADER
309
CELLSTYLE_END
300
CELLSTYLE
  1
TABLEFORMAT_BEGIN
 90
        5
170
     1
 91
        0
 92
        0
 62
   257
 93
        1
300
CONTENTFORMAT
  1
CONTENTFORMAT_BEGIN
 90
        0
 91
        0
 92
        4
 93
        0
300

 40
0.0
140
1.0
 94
        2
 62
     0
340
11
144
0.18
309
CONTENTFORMAT_END
171
     1
301
MARGIN
  1
CELLMARGIN_BEGIN
 40
0.06
 40
0.06
 40
0.06
 40
0.06
 40
0.06
 40
0.06
309
CELLMARGIN_END
 94
        6
 95
        1
302
GRIDFORMAT
  1
GRIDFORMAT_BEGIN
 90
        0
 91
        1
 62
     0
 92
       -2
340
14
 93
        0
 40
0.045
309
GRIDFORMAT_END
 95
        2
302
GRIDFORMAT
  1
GRIDFORMAT_BEGIN
 90
        0
 91
        1
 62
     0
 92
       -2
340
14
 93
        0
 40
0.045
309
GRIDFORMAT_END
 95
        4
302
GRIDFORMAT
  1
GRIDFORMAT_BEGIN
 90
        0
 91
        1
 62
     0
 92
       -2
340
14
 93
        0
 40
0.045
309
GRIDFORMAT_END
 95
        8
302
GRIDFORMAT
  1
GRIDFORMAT_BEGIN
 90
        0
 91
        1
 62
     0
 92
       -2
340
14
 93
        0
 40
0.045
309
GRIDFORMAT_END
 95
       16
302
GRIDFORMAT
  1
GRIDFORMAT_BEGIN
 90
        0
 91
        1
 62
     0
 92
       -2
340
14
 93
        0
 40
0.045
309
GRIDFORMAT_END
 95
       32
302
GRIDFORMAT
  1
GRIDFORMAT_BEGIN
 90
        0
 91
        1
 62
     0
 92
       -2
340
14
 93
        0
 40
0.045
309
GRIDFORMAT_END
309
TABLEFORMAT_END
  1
CELLSTYLE_BEGIN
 90
        3
 91
        2
300
_DATA
309
CELLSTYLE_END
  0
ENDSEC
  0
EOF