0
SECTION
  2
HEADER
  9
$ACADVER
  1
AC1027
  9
$ACADMAINTVER
 70
     8
  9
$DWGCODEPAGE
  3
ANSI_1252
  9
$REQUIREDVERSIONS
160
                 0
  9
$COMMENTS
  1
File was created by Cadenas
  9
$CUSTOMPROPERTYTAG
  1
NN
  9
$CUSTOMPROPERTY
  1
Imperial - IP Piloted Flange with Type E Dimensions 1-3/8 thru 2-1/2 inch Trident Seal Expansion
  9
$CUSTOMPROPERTYTAG
  1
NT
  9
$CUSTOMPROPERTY
  1
Imperial Piloted Flange Bearings
  9
$CUSTOMPROPERTYTAG
  1
NB
  9
$CUSTOMPROPERTY
  1
071576
  9
$CUSTOMPROPERTYTAG
  1
NBSYN
  9
$CUSTOMPROPERTY
  1
$PN.
  9
$CUSTOMPROPERTYTAG
  1
LINA
  9
$CUSTOMPROPERTY
  1
071576
  9
$CUSTOMPROPERTYTAG
  1
SS
  9
$CUSTOMPROPERTY
  1
1-1/2
  9
$CUSTOMPROPERTYTAG
  1
TYPE
  9
$CUSTOMPROPERTY
  1
Non-Expansion
  9
$CUSTOMPROPERTYTAG
  1
PN
  9
$CUSTOMPROPERTY
  1
071576
  9
$CUSTOMPROPERTYTAG
  1
DESCRIPTION
  9
$CUSTOMPROPERTY
  1
EFC-IP-108R
  9
$CUSTOMPROPERTYTAG
  1
ST
  9
$CUSTOMPROPERTY
  1
Contact Seal
  9
$CUSTOMPROPERTYTAG
  1
A
  9
$CUSTOMPROPERTY
  1
2.81
  9
$CUSTOMPROPERTYTAG
  1
B
  9
$CUSTOMPROPERTY
  1
6.13
  9
$CUSTOMPROPERTYTAG
  1
C
  9
$CUSTOMPROPERTY
  1
1.91
  9
$CUSTOMPROPERTYTAG
  1
D
  9
$CUSTOMPROPERTY
  1
3.63
  9
$CUSTOMPROPERTYTAG
  1
DD
  9
$CUSTOMPROPERTY
  1
5.125
  9
$CUSTOMPROPERTYTAG
  1
E
  9
$CUSTOMPROPERTY
  1
0.88
  9
$CUSTOMPROPERTYTAG
  1
F
  9
$CUSTOMPROPERTY
  1
7/16
  9
$CUSTOMPROPERTYTAG
  1
G
  9
$CUSTOMPROPERTY
  1
1.61
  9
$CUSTOMPROPERTYTAG
  1
H
  9
$CUSTOMPROPERTY
  1
0.5
  9
$CUSTOMPROPERTYTAG
  1
K
  9
$CUSTOMPROPERTY
  1
4.250
  9
$CUSTOMPROPERTYTAG
  1
L
  9
$CUSTOMPROPERTY
  1
3
  9
$CUSTOMPROPERTYTAG
  1
M
  9
$CUSTOMPROPERTY
  1
7/16-14
  9
$CUSTOMPROPERTYTAG
  1
N
  9
$CUSTOMPROPERTY
  1
2.86
  9
$CUSTOMPROPERTYTAG
  1
P
  9
$CUSTOMPROPERTY
  1
1.2
  9
$CUSTOMPROPERTYTAG
  1
Q
  9
$CUSTOMPROPERTY
  1
1.26
  9
$CUSTOMPROPERTYTAG
  1
X
  9
$CUSTOMPROPERTY
  1
0.25
  9
$CUSTOMPROPERTYTAG
  1
Y
  9
$CUSTOMPROPERTY
  1
0.020
  9
$CUSTOMPROPERTYTAG
  1
Z
  9
$CUSTOMPROPERTY
  1
2.08
  9
$CUSTOMPROPERTYTAG
  1
COMPANY
  9
$CUSTOMPROPERTY
  1
baldor
  9
$INSBASE
 10
0.0
 20
0.0
 30
0.0
  9
$EXTMIN
 10
1.000000000000000E+20
 20
1.000000000000000E+20
 30
1.000000000000000E+20
  9
$EXTMAX
 10
-1.000000000000000E+20
 20
-1.000000000000000E+20
 30
-1.000000000000000E+20
  9
$LIMMIN
 10
0.0
 20
0.0
  9
$LIMMAX
 10
12.0
 20
9.0
  9
$ORTHOMODE
 70
     0
  9
$REGENMODE
 70
     1
  9
$FILLMODE
 70
     1
  9
$QTEXTMODE
 70
     0
  9
$MIRRTEXT
 70
     1
  9
$LTSCALE
 40
1.0
  9
$ATTMODE
 70
     1
  9
$TEXTSIZE
 40
0.2
  9
$TRACEWID
 40
0.05
  9
$TEXTSTYLE
  7
Standard
  9
$CLAYER
  8
0
  9
$CELTYPE
  6
ByLayer
  9
$CECOLOR
 62
   256
  9
$CELTSCALE
 40
1.0
  9
$DISPSILH
 70
     0
  9
$DIMSCALE
 40
1.0
  9
$DIMASZ
 40
0.18
  9
$DIMEXO
 40
0.0625
  9
$DIMDLI
 40
0.38
  9
$DIMRND
 40
0.0
  9
$DIMDLE
 40
0.0
  9
$DIMEXE
 40
0.18
  9
$DIMTP
 40
0.0
  9
$DIMTM
 40
0.0
  9
$DIMTXT
 40
0.18
  9
$DIMCEN
 40
0.09
  9
$DIMTSZ
 40
0.0
  9
$DIMTOL
 70
     0
  9
$DIMLIM
 70
     0
  9
$DIMTIH
 70
     1
  9
$DIMTOH
 70
     1
  9
$DIMSE1
 70
     0
  9
$DIMSE2
 70
     0
  9
$DIMTAD
 70
     0
  9
$DIMZIN
 70
     0
  9
$DIMBLK
  1

  9
$DIMASO
 70
     1
  9
$DIMSHO
 70
     1
  9
$DIMPOST
  1

  9
$DIMAPOST
  1

  9
$DIMALT
 70
     0
  9
$DIMALTD
 70
     2
  9
$DIMALTF
 40
25.4
  9
$DIMLFAC
 40
1.0
  9
$DIMTOFL
 70
     0
  9
$DIMTVP
 40
0.0
  9
$DIMTIX
 70
     0
  9
$DIMSOXD
 70
     0
  9
$DIMSAH
 70
     0
  9
$DIMBLK1
  1

  9
$DIMBLK2
  1

  9
$DIMSTYLE
  2
Standard
  9
$DIMCLRD
 70
     0
  9
$DIMCLRE
 70
     0
  9
$DIMCLRT
 70
     0
  9
$DIMTFAC
 40
1.0
  9
$DIMGAP
 40
0.09
  9
$DIMJUST
 70
     0
  9
$DIMSD1
 70
     0
  9
$DIMSD2
 70
     0
  9
$DIMTOLJ
 70
     1
  9
$DIMTZIN
 70
     0
  9
$DIMALTZ
 70
     0
  9
$DIMALTTZ
 70
     0
  9
$DIMUPT
 70
     0
  9
$DIMDEC
 70
     4
  9
$DIMTDEC
 70
     4
  9
$DIMALTU
 70
     2
  9
$DIMALTTD
 70
     2
  9
$DIMTXSTY
  7
Standard
  9
$DIMAUNIT
 70
     0
  9
$DIMADEC
 70
     0
  9
$DIMALTRND
 40
0.0
  9
$DIMAZIN
 70
     0
  9
$DIMDSEP
 70
    46
  9
$DIMATFIT
 70
     3
  9
$DIMFRAC
 70
     0
  9
$DIMLDRBLK
  1

  9
$DIMLUNIT
 70
     2
  9
$DIMLWD
 70
    -2
  9
$DIMLWE
 70
    -2
  9
$DIMTMOVE
 70
     0
  9
$DIMFXL
 40
1.0
  9
$DIMFXLON
 70
     0
  9
$DIMJOGANG
 40
0.7853981633974483
  9
$DIMTFILL
 70
     0
  9
$DIMTFILLCLR
 70
     0
  9
$DIMARCSYM
 70
     0
  9
$DIMLTYPE
  6

  9
$DIMLTEX1
  6

  9
$DIMLTEX2
  6

  9
$DIMTXTDIRECTION
 70
     0
  9
$LUNITS
 70
     2
  9
$LUPREC
 70
     4
  9
$SKETCHINC
 40
0.1
  9
$FILLETRAD
 40
0.5
  9
$AUNITS
 70
     0
  9
$AUPREC
 70
     0
  9
$MENU
  1
.
  9
$ELEVATION
 40
0.0
  9
$PELEVATION
 40
0.0
  9
$THICKNESS
 40
0.0
  9
$LIMCHECK
 70
     0
  9
$CHAMFERA
 40
0.0
  9
$CHAMFERB
 40
0.0
  9
$CHAMFERC
 40
0.0
  9
$CHAMFERD
 40
0.0
  9
$SKPOLY
 70
     0
  9
$TDCREATE
 40
2458168.983654653
  9
$TDUCREATE
 40
2458168.941987986
  9
$TDUPDATE
 40
2458168.983654826
  9
$TDUUPDATE
 40
2458168.94198816
  9
$TDINDWG
 40
0.0000000116
  9
$TDUSRTIMER
 40
0.0000000116
  9
$USRTIMER
 70
     1
  9
$ANGBASE
 50
0.0
  9
$ANGDIR
 70
     0
  9
$PDMODE
 70
     0
  9
$PDSIZE
 40
0.0
  9
$PLINEWID
 40
0.0
  9
$SPLFRAME
 70
     0
  9
$SPLINETYPE
 70
     6
  9
$SPLINESEGS
 70
     8
  9
$HANDSEED
  5
28E
  9
$SURFTAB1
 70
     6
  9
$SURFTAB2
 70
     6
  9
$SURFTYPE
 70
     6
  9
$SURFU
 70
     6
  9
$SURFV
 70
     6
  9
$UCSBASE
  2

  9
$UCSNAME
  2

  9
$UCSORG
 10
0.0
 20
0.0
 30
0.0
  9
$UCSXDIR
 10
1.0
 20
0.0
 30
0.0
  9
$UCSYDIR
 10
0.0
 20
1.0
 30
0.0
  9
$UCSORTHOREF
  2

  9
$UCSORTHOVIEW
 70
     0
  9
$UCSORGTOP
 10
0.0
 20
0.0
 30
0.0
  9
$UCSORGBOTTOM
 10
0.0
 20
0.0
 30
0.0
  9
$UCSORGLEFT
 10
0.0
 20
0.0
 30
0.0
  9
$UCSORGRIGHT
 10
0.0
 20
0.0
 30
0.0
  9
$UCSORGFRONT
 10
0.0
 20
0.0
 30
0.0
  9
$UCSORGBACK
 10
0.0
 20
0.0
 30
0.0
  9
$PUCSBASE
  2

  9
$PUCSNAME
  2

  9
$PUCSORG
 10
0.0
 20
0.0
 30
0.0
  9
$PUCSXDIR
 10
1.0
 20
0.0
 30
0.0
  9
$PUCSYDIR
 10
0.0
 20
1.0
 30
0.0
  9
$PUCSORTHOREF
  2

  9
$PUCSORTHOVIEW
 70
     0
  9
$PUCSORGTOP
 10
0.0
 20
0.0
 30
0.0
  9
$PUCSORGBOTTOM
 10
0.0
 20
0.0
 30
0.0
  9
$PUCSORGLEFT
 10
0.0
 20
0.0
 30
0.0
  9
$PUCSORGRIGHT
 10
0.0
 20
0.0
 30
0.0
  9
$PUCSORGFRONT
 10
0.0
 20
0.0
 30
0.0
  9
$PUCSORGBACK
 10
0.0
 20
0.0
 30
0.0
  9
$USERI1
 70
     0
  9
$USERI2
 70
     0
  9
$USERI3
 70
     0
  9
$USERI4
 70
     0
  9
$USERI5
 70
     0
  9
$USERR1
 40
0.0
  9
$USERR2
 40
0.0
  9
$USERR3
 40
0.0
  9
$USERR4
 40
0.0
  9
$USERR5
 40
0.0
  9
$WORLDVIEW
 70
     1
  9
$SHADEDGE
 70
     3
  9
$SHADEDIF
 70
    70
  9
$TILEMODE
 70
     1
  9
$MAXACTVP
 70
    64
  9
$PINSBASE
 10
0.0
 20
0.0
 30
0.0
  9
$PLIMCHECK
 70
     0
  9
$PEXTMIN
 10
1.000000000000000E+20
 20
1.000000000000000E+20
 30
1.000000000000000E+20
  9
$PEXTMAX
 10
-1.000000000000000E+20
 20
-1.000000000000000E+20
 30
-1.000000000000000E+20
  9
$PLIMMIN
 10
0.0
 20
0.0
  9
$PLIMMAX
 10
12.0
 20
9.0
  9
$UNITMODE
 70
     0
  9
$VISRETAIN
 70
     1
  9
$PLINEGEN
 70
     0
  9
$PSLTSCALE
 70
     1
  9
$TREEDEPTH
 70
  3020
  9
$CMLSTYLE
  2
Standard
  9
$CMLJUST
 70
     0
  9
$CMLSCALE
 40
1.0
  9
$PROXYGRAPHICS
 70
     1
  9
$MEASUREMENT
 70
     0
  9
$CELWEIGHT
370
    -1
  9
$ENDCAPS
280
     0
  9
$JOINSTYLE
280
     0
  9
$LWDISPLAY
290
     0
  9
$INSUNITS
 70
     1
  9
$HYPERLINKBASE
  1

  9
$STYLESHEET
  1

  9
$XEDIT
290
     1
  9
$CEPSNTYPE
380
     0
  9
$PSTYLEMODE
290
     1
  9
$FINGERPRINTGUID
  2
{E23A2D79-2F47-41D7-BCF4-7E85CE4C0388}
  9
$VERSIONGUID
  2
{FAEB1C32-E019-11D5-929B-00C0DF256EC4}
  9
$EXTNAMES
290
     1
  9
$PSVPSCALE
 40
0.0
  9
$OLESTARTUP
290
     0
  9
$SORTENTS
280
   127
  9
$INDEXCTL
280
     0
  9
$HIDETEXT
280
     1
  9
$XCLIPFRAME
280
     2
  9
$HALOGAP
280
     0
  9
$OBSCOLOR
 70
   257
  9
$OBSLTYPE
280
     0
  9
$INTERSECTIONDISPLAY
280
     0
  9
$INTERSECTIONCOLOR
 70
   257
  9
$DIMASSOC
280
     2
  9
$PROJECTNAME
  1

  9
$CAMERADISPLAY
290
     0
  9
$LENSLENGTH
 40
50.0
  9
$CAMERAHEIGHT
 40
0.0
  9
$STEPSPERSEC
 40
2.0
  9
$STEPSIZE
 40
6.0
  9
$3DDWFPREC
 40
2.0
  9
$PSOLWIDTH
 40
0.25
  9
$PSOLHEIGHT
 40
4.0
  9
$LOFTANG1
 40
1.570796326794897
  9
$LOFTANG2
 40
1.570796326794897
  9
$LOFTMAG1
 40
0.0
  9
$LOFTMAG2
 40
0.0
  9
$LOFTPARAM
 70
     7
  9
$LOFTNORMALS
280
     1
  9
$LATITUDE
 40
37.795
  9
$LONGITUDE
 40
-122.394
  9
$NORTHDIRECTION
 40
0.0
  9
$TIMEZONE
 70
 -8000
  9
$LIGHTGLYPHDISPLAY
280
     1
  9
$TILEMODELIGHTSYNCH
280
     1
  9
$CMATERIAL
347
44
  9
$SOLIDHIST
280
     0
  9
$SHOWHIST
280
     1
  9
$DWFFRAME
280
     2
  9
$DGNFRAME
280
     2
  9
$REALWORLDSCALE
290
     1
  9
$INTERFERECOLOR
 62
   256
  9
$CSHADOW
280
     0
  9
$SHADOWPLANELOCATION
 40
0.0
  0
ENDSEC
  0
SECTION
  2
CLASSES
  0
CLASS
  1
ACDBDICTIONARYWDFLT
  2
AcDbDictionaryWithDefault
  3
ObjectDBX Classes
 90
        0
 91
        4
280
     0
281
     0
  0
CLASS
  1
VISUALSTYLE
  2
AcDbVisualStyle
  3
ObjectDBX Classes
 90
     4095
 91
        4
280
     0
281
     0
  0
CLASS
  1
MATERIAL
  2
AcDbMaterial
  3
ObjectDBX Classes
 90
     1153
 91
        4
280
     0
281
     0
  0
CLASS
  1
SCALE
  2
AcDbScale
  3
ObjectDBX Classes
 90
     1153
 91
        4
280
     0
281
     0
  0
CLASS
  1
TABLESTYLE
  2
AcDbTableStyle
  3
ObjectDBX Classes
 90
     4095
 91
        4
280
     0
281
     0
  0
CLASS
  1
MLEADERSTYLE
  2
AcDbMLeaderStyle
  3
ACDB_MLEADERSTYLE_CLASS
 90
     4095
 91
        4
280
     0
281
     0
  0
CLASS
  1
SUN
  2
AcDbSun
  3
SCENEOE
 90
     1153
 91
        4
280
     0
281
     0
  0
CLASS
  1
DICTIONARYVAR
  2
AcDbDictionaryVar
  3
ObjectDBX Classes
 90
        0
 91
        4
280
     0
281
     0
  0
CLASS
  1
CELLSTYLEMAP
  2
AcDbCellStyleMap
  3
ObjectDBX Classes
 90
     1152
 91
        4
280
     0
281
     0
  0
ENDSEC
  0
SECTION
  2
TABLES
  0
TABLE
  2
VPORT
  5
8
330
0
100
AcDbSymbolTable
 70
     1
  0
VPORT
  5
29
330
8
100
AcDbSymbolTableRecord
100
AcDbViewportTableRecord
  2
*Active
 70
     0
 10
0.0
 20
0.0
 11
1.0
 21
1.0
 12
0.0
 22
-0.0391500000000002
 13
0.0
 23
0.0
 14
0.5
 24
0.5
 15
0.5
 25
0.5
 16
0.0
 26
0.0
 36
1.0
 17
0.0
 27
0.0
 37
0.0
 40
3.472794
 41
1.800452315916233
 42
50.0
 43
0.0
 44
0.0
 50
0.0
 51
0.0
 71
     0
 72
   100
 73
     1
 74
     3
 75
     0
 76
     0
 77
     0
 78
     0
281
     0
 65
     1
110
0.0
120
0.0
130
0.0
111
1.0
121
0.0
131
0.0
112
0.0
122
1.0
132
0.0
 79
     0
146
0.0
348
2F
 60
     3
 61
     5
292
     1
282
     1
141
0.0
142
0.0
 63
   250
361
6D
  0
ENDTAB
  0
TABLE
  2
LTYPE
  5
5
330
0
100
AcDbSymbolTable
 70
     3
  0
LTYPE
  5
14
330
5
100
AcDbSymbolTableRecord
100
AcDbLinetypeTableRecord
  2
ByBlock
 70
     0
  3

 72
    65
 73
     0
 40
0.0
  0
LTYPE
  5
15
330
5
100
AcDbSymbolTableRecord
100
AcDbLinetypeTableRecord
  2
ByLayer
 70
     0
  3

 72
    65
 73
     0
 40
0.0
  0
LTYPE
  5
16
330
5
100
AcDbSymbolTableRecord
100
AcDbLinetypeTableRecord
  2
Continuous
 70
     0
  3
Solid line
 72
    65
 73
     0
 40
0.0
  0
LTYPE
  5
9C
330
5
100
AcDbSymbolTableRecord
100
AcDbLinetypeTableRecord
  2
Dashed
 70
     0
  3

 72
    65
 73
     2
 40
2.0
 49
1.0
 74
     0
 49
-1.0
 74
     0
  0
LTYPE
  5
233
330
5
100
AcDbSymbolTableRecord
100
AcDbLinetypeTableRecord
  2
Center
 70
     0
  3

 72
    65
 73
     4
 40
1.5
 49
0.45
 74
     0
 49
-0.5
 74
     0
 49
0.05
 74
     0
 49
-0.5
 74
     0
  0
ENDTAB
  0
TABLE
  2
LAYER
  5
2
330
0
100
AcDbSymbolTable
 70
     7
  0
LAYER
  5
10
330
2
100
AcDbSymbolTableRecord
100
AcDbLayerTableRecord
  2
0
 70
     0
 62
     7
  6
Continuous
370
    -3
390
F
347
46
348
0
  0
LAYER
  5
72
330
2
100
AcDbSymbolTableRecord
100
AcDbLayerTableRecord
  2
AM_6
 70
     0
 62
    -2
  6
Continuous
370
    35
390
F
347
46
348
0
  0
LAYER
  5
9D
330
2
100
AcDbSymbolTableRecord
100
AcDbLayerTableRecord
  2
AM_9
 70
     0
 62
     6
  6
Dashed
370
    25
390
F
347
46
348
0
  0
LAYER
  5
BF
330
2
100
AcDbSymbolTableRecord
100
AcDbLayerTableRecord
  2
AM_4
 70
     0
 62
     7
  6
Continuous
370
    50
390
F
347
46
348
0
  0
LAYER
  5
F8
330
2
100
AcDbSymbolTableRecord
100
AcDbLayerTableRecord
  2
AM_5
 70
     0
 62
     3
  6
Continuous
370
    25
390
F
347
46
348
0
  0
LAYER
  5
234
330
2
100
AcDbSymbolTableRecord
100
AcDbLayerTableRecord
  2
AM_7
 70
     0
 62
     7
  6
Center
370
    25
390
F
347
46
348
0
  0
LAYER
  5
278
330
2
100
AcDbSymbolTableRecord
100
AcDbLayerTableRecord
  2
ConnectionPoints
 70
     0
 62
     7
  6
Continuous
370
    50
390
F
347
46
348
0
  0
ENDTAB
  0
TABLE
  2
STYLE
  5
3
330
0
100
AcDbSymbolTable
 70
     1
  0
STYLE
  5
11
330
3
100
AcDbSymbolTableRecord
100
AcDbTextStyleTableRecord
  2
Standard
 70
     0
 40
0.0
 41
1.0
 50
0.0
 71
     0
 42
0.2
  3
txt
  4

  0
ENDTAB
  0
TABLE
  2
VIEW
  5
6
330
0
100
AcDbSymbolTable
 70
     0
  0
ENDTAB
  0
TABLE
  2
UCS
  5
7
330
0
100
AcDbSymbolTable
 70
     0
  0
ENDTAB
  0
TABLE
  2
APPID
  5
9
330
0
100
AcDbSymbolTable
 70
     1
  0
APPID
  5
12
330
9
100
AcDbSymbolTableRecord
100
AcDbRegAppTableRecord
  2
ACAD
 70
     0
  0
ENDTAB
  0
TABLE
  2
DIMSTYLE
  5
A
330
0
100
AcDbSymbolTable
 70
     1
100
AcDbDimStyleTable
  0
DIMSTYLE
105
27
330
A
100
AcDbSymbolTableRecord
100
AcDbDimStyleTableRecord
  2
Standard
 70
     0
178
     0
340
11
  0
ENDTAB
  0
TABLE
  2
BLOCK_RECORD
  5
1
330
0
100
AcDbSymbolTable
 70
     8
  0
BLOCK_RECORD
  5
1F
330
1
100
AcDbSymbolTableRecord
100
AcDbBlockTableRecord
  2
*Model_Space
340
22
 70
     0
280
     1
281
     0
  0
BLOCK_RECORD
  5
1B
330
1
100
AcDbSymbolTableRecord
100
AcDbBlockTableRecord
  2
*Paper_Space
340
1E
 70
     0
280
     1
281
     0
  0
BLOCK_RECORD
  5
23
330
1
100
AcDbSymbolTableRecord
100
AcDbBlockTableRecord
  2
*Paper_Space0
340
26
 70
     0
280
     1
281
     0
  0
BLOCK_RECORD
  5
6E
330
1
100
AcDbSymbolTableRecord
100
AcDbBlockTableRecord
  2
1_071576_4
340
0
102
{BLKREFS
331
6F
102
}
 70
     0
280
     1
281
     0
  0
BLOCK_RECORD
  5
90
330
1
100
AcDbSymbolTableRecord
100
AcDbBlockTableRecord
  2
2_405015E_Inch_0_in_071576_4
340
0
102
{BLKREFS
331
91
102
}
 70
     0
280
     1
281
     0
  0
BLOCK_RECORD
  5
E8
330
1
100
AcDbSymbolTableRecord
100
AcDbBlockTableRecord
  2
3_ASME_B18_3_10_1_0_in_071576_4
340
0
102
{BLKREFS
331
E9
102
}
 70
     0
280
     1
281
     0
  0
BLOCK_RECORD
  5
FB
330
1
100
AcDbSymbolTableRecord
100
AcDbBlockTableRecord
  2
4_ASME_B18_3_10_2_0_in_071576_4
340
0
102
{BLKREFS
331
FC
102
}
 70
     0
280
     1
281
     0
  0
BLOCK_RECORD
  5
11C
330
1
100
AcDbSymbolTableRecord
100
AcDbBlockTableRecord
  2
5_070885LWE_0_in_071576_4
340
0
102
{BLKREFS
331
11D
102
}
 70
     0
280
     1
281
     0
  0
BLOCK_RECORD
  5
155
330
1
100
AcDbSymbolTableRecord
100
AcDbBlockTableRecord
  2
6_070885E_0_in_071576_4
340
0
102
{BLKREFS
331
156
102
}
 70
     0
280
     1
281
     0
  0
BLOCK_RECORD
  5
1D2
330
1
100
AcDbSymbolTableRecord
100
AcDbBlockTableRecord
  2
7_071576H_0_in_071576_4
340
0
102
{BLKREFS
331
1D3
102
}
 70
     0
280
     1
281
     0
  0
ENDTAB
  0
ENDSEC
  0
SECTION
  2
BLOCKS
  0
BLOCK
  5
20
330
1F
100
AcDbEntity
  8
0
100
AcDbBlockBegin
  2
*Model_Space
 70
     0
 10
0.0
 20
0.0
 30
0.0
  3
*Model_Space
  1

  0
ENDBLK
  5
21
330
1F
100
AcDbEntity
  8
0
100
AcDbBlockEnd
  0
BLOCK
  5
1C
330
1B
100
AcDbEntity
 67
     1
  8
0
100
AcDbBlockBegin
  2
*Paper_Space
 70
     0
 10
0.0
 20
0.0
 30
0.0
  3
*Paper_Space
  1

  0
ENDBLK
  5
1D
330
1B
100
AcDbEntity
 67
     1
  8
0
100
AcDbBlockEnd
  0
BLOCK
  5
24
330
23
100
AcDbEntity
  8
0
100
AcDbBlockBegin
  2
*Paper_Space0
 70
     0
 10
0.0
 20
0.0
 30
0.0
  3
*Paper_Space0
  1

  0
ENDBLK
  5
25
330
23
100
AcDbEntity
  8
0
100
AcDbBlockEnd
  0
BLOCK
  5
70
330
6E
100
AcDbEntity
  8
0
100
AcDbBlockBegin
  2
1_071576_4
 70
     2
 10
0.0
 20
0.0
 30
0.0
  3
1_071576_4
  1

  0
ATTDEF
  5
73
330
6E
100
AcDbEntity
  8
AM_6
100
AcDbText
 10
8.065
 20
1.6632
 30
0.0
 40
0.5
  1
Imperial - IP Piloted Flange with Type E Dimensions 1-3/8 thru 2-1/2 inch Trident Seal Expansion
100
AcDbAttributeDefinition
  3

  2
NN
 70
     8
280
     0
  0
ATTDEF
  5
74
330
6E
100
AcDbEntity
  8
AM_6
100
AcDbText
 10
8.065
 20
1.1632
 30
0.0
 40
0.5
  1
Imperial Piloted Flange Bearings
100
AcDbAttributeDefinition
  3

  2
NT
 70
     8
280
     0
  0
ATTDEF
  5
75
330
6E
100
AcDbEntity
  8
AM_6
100
AcDbText
 10
8.065
 20
0.6631999999999998
 30
0.0
 40
0.5
  1
071576
100
AcDbAttributeDefinition
  3

  2
NB
 70
     8
280
     0
  0
ATTDEF
  5
76
330
6E
100
AcDbEntity
  8
AM_6
100
AcDbText
 10
8.065
 20
0.1631999999999998
 30
0.0
 40
0.5
  1
$PN.
100
AcDbAttributeDefinition
  3

  2
NBSYN
 70
     8
280
     0
  0
ATTDEF
  5
77
330
6E
100
AcDbEntity
  8
AM_6
100
AcDbText
 10
8.065
 20
-0.3368000000000002
 30
0.0
 40
0.5
  1
071576
100
AcDbAttributeDefinition
  3

  2
LINA
 70
     8
280
     0
  0
ATTDEF
  5
78
330
6E
100
AcDbEntity
  8
AM_6
100
AcDbText
 10
8.065
 20
-0.8368000000000002
 30
0.0
 40
0.5
  1
1-1/2
100
AcDbAttributeDefinition
  3

  2
SS
 70
     8
280
     0
  0
ATTDEF
  5
79
330
6E
100
AcDbEntity
  8
AM_6
100
AcDbText
 10
8.065
 20
-1.3368
 30
0.0
 40
0.5
  1
Non-Expansion
100
AcDbAttributeDefinition
  3

  2
TYPE
 70
     8
280
     0
  0
ATTDEF
  5
7A
330
6E
100
AcDbEntity
  8
AM_6
100
AcDbText
 10
8.065
 20
-1.8368
 30
0.0
 40
0.5
  1
071576
100
AcDbAttributeDefinition
  3

  2
PN
 70
     8
280
     0
  0
ATTDEF
  5
7B
330
6E
100
AcDbEntity
  8
AM_6
100
AcDbText
 10
8.065
 20
-2.3368
 30
0.0
 40
0.5
  1
EFC-IP-108R
100
AcDbAttributeDefinition
  3

  2
DESCRIPTION
 70
     8
280
     0
  0
ATTDEF
  5
7C
330
6E
100
AcDbEntity
  8
AM_6
100
AcDbText
 10
8.065
 20
-2.8368
 30
0.0
 40
0.5
  1
Contact Seal
100
AcDbAttributeDefinition
  3

  2
ST
 70
     8
280
     0
  0
ATTDEF
  5
7D
330
6E
100
AcDbEntity
  8
AM_6
100
AcDbText
 10
8.065
 20
-3.3368
 30
0.0
 40
0.5
  1
2.81
100
AcDbAttributeDefinition
  3

  2
A
 70
     8
280
     0
  0
ATTDEF
  5
7E
330
6E
100
AcDbEntity
  8
AM_6
100
AcDbText
 10
8.065
 20
-3.8368
 30
0.0
 40
0.5
  1
6.13
100
AcDbAttributeDefinition
  3

  2
B
 70
     8
280
     0
  0
ATTDEF
  5
7F
330
6E
100
AcDbEntity
  8
AM_6
100
AcDbText
 10
8.065
 20
-4.3368
 30
0.0
 40
0.5
  1
1.91
100
AcDbAttributeDefinition
  3

  2
C
 70
     8
280
     0
  0
ATTDEF
  5
80
330
6E
100
AcDbEntity
  8
AM_6
100
AcDbText
 10
8.065
 20
-4.8368
 30
0.0
 40
0.5
  1
3.63
100
AcDbAttributeDefinition
  3

  2
D
 70
     8
280
     0
  0
ATTDEF
  5
81
330
6E
100
AcDbEntity
  8
AM_6
100
AcDbText
 10
8.065
 20
-5.3368
 30
0.0
 40
0.5
  1
5.125
100
AcDbAttributeDefinition
  3

  2
DD
 70
     8
280
     0
  0
ATTDEF
  5
82
330
6E
100
AcDbEntity
  8
AM_6
100
AcDbText
 10
8.065
 20
-5.8368
 30
0.0
 40
0.5
  1
0.88
100
AcDbAttributeDefinition
  3

  2
E
 70
     8
280
     0
  0
ATTDEF
  5
83
330
6E
100
AcDbEntity
  8
AM_6
100
AcDbText
 10
8.065
 20
-6.3368
 30
0.0
 40
0.5
  1
7/16
100
AcDbAttributeDefinition
  3

  2
F
 70
     8
280
     0
  0
ATTDEF
  5
84
330
6E
100
AcDbEntity
  8
AM_6
100
AcDbText
 10
8.065
 20
-6.8368
 30
0.0
 40
0.5
  1
1.61
100
AcDbAttributeDefinition
  3

  2
G
 70
     8
280
     0
  0
ATTDEF
  5
85
330
6E
100
AcDbEntity
  8
AM_6
100
AcDbText
 10
8.065
 20
-7.3368
 30
0.0
 40
0.5
  1
0.5
100
AcDbAttributeDefinition
  3

  2
H
 70
     8
280
     0
  0
ATTDEF
  5
86
330
6E
100
AcDbEntity
  8
AM_6
100
AcDbText
 10
8.065
 20
-7.8368
 30
0.0
 40
0.5
  1
4.250
100
AcDbAttributeDefinition
  3

  2
K
 70
     8
280
     0
  0
ATTDEF
  5
87
330
6E
100
AcDbEntity
  8
AM_6
100
AcDbText
 10
8.065
 20
-8.3368
 30
0.0
 40
0.5
  1
3
100
AcDbAttributeDefinition
  3

  2
L
 70
     8
280
     0
  0
ATTDEF
  5
88
330
6E
100
AcDbEntity
  8
AM_6
100
AcDbText
 10
8.065
 20
-8.8368
 30
0.0
 40
0.5
  1
7/16-14
100
AcDbAttributeDefinition
  3

  2
M
 70
     8
280
     0
  0
ATTDEF
  5
89
330
6E
100
AcDbEntity
  8
AM_6
100
AcDbText
 10
8.065
 20
-9.3368
 30
0.0
 40
0.5
  1
2.86
100
AcDbAttributeDefinition
  3

  2
N
 70
     8
280
     0
  0
ATTDEF
  5
8A
330
6E
100
AcDbEntity
  8
AM_6
100
AcDbText
 10
8.065
 20
-9.8368
 30
0.0
 40
0.5
  1
1.2
100
AcDbAttributeDefinition
  3

  2
P
 70
     8
280
     0
  0
ATTDEF
  5
8B
330
6E
100
AcDbEntity
  8
AM_6
100
AcDbText
 10
8.065
 20
-10.3368
 30
0.0
 40
0.5
  1
1.26
100
AcDbAttributeDefinition
  3

  2
Q
 70
     8
280
     0
  0
ATTDEF
  5
8C
330
6E
100
AcDbEntity
  8
AM_6
100
AcDbText
 10
8.065
 20
-10.8368
 30
0.0
 40
0.5
  1
0.25
100
AcDbAttributeDefinition
  3

  2
X
 70
     8
280
     0
  0
ATTDEF
  5
8D
330
6E
100
AcDbEntity
  8
AM_6
100
AcDbText
 10
8.065
 20
-11.3368
 30
0.0
 40
0.5
  1
0.020
100
AcDbAttributeDefinition
  3

  2
Y
 70
     8
280
     0
  0
ATTDEF
  5
8E
330
6E
100
AcDbEntity
  8
AM_6
100
AcDbText
 10
8.065
 20
-11.8368
 30
0.0
 40
0.5
  1
2.08
100
AcDbAttributeDefinition
  3

  2
Z
 70
     8
280
     0
  0
ATTDEF
  5
8F
330
6E
100
AcDbEntity
  8
AM_6
100
AcDbText
 10
8.065
 20
-12.3368
 30
0.0
 40
0.5
  1
baldor
100
AcDbAttributeDefinition
  3

  2
COMPANY
 70
     8
280
     0
  0
INSERT
  5
91
330
6E
100
AcDbEntity
  8
0
100
AcDbBlockReference
  2
2_405015E_Inch_0_in_071576_4
 10
0.0
 20
0.0
 30
0.0
  0
INSERT
  5
E9
330
6E
100
AcDbEntity
  8
0
100
AcDbBlockReference
  2
3_ASME_B18_3_10_1_0_in_071576_4
 10
0.0
 20
0.0
 30
0.0
  0
INSERT
  5
FC
330
6E
100
AcDbEntity
  8
0
100
AcDbBlockReference
  2
4_ASME_B18_3_10_2_0_in_071576_4
 10
0.0
 20
0.0
 30
0.0
  0
INSERT
  5
11D
330
6E
100
AcDbEntity
  8
0
100
AcDbBlockReference
  2
5_070885LWE_0_in_071576_4
 10
0.0
 20
0.0
 30
0.0
  0
INSERT
  5
156
330
6E
100
AcDbEntity
  8
0
100
AcDbBlockReference
  2
6_070885E_0_in_071576_4
 10
0.0
 20
0.0
 30
0.0
  0
INSERT
  5
1D3
330
6E
100
AcDbEntity
  8
0
100
AcDbBlockReference
  2
7_071576H_0_in_071576_4
 10
0.0
 20
0.0
 30
0.0
  0
ENDBLK
  5
71
330
6E
100
AcDbEntity
  8
0
100
AcDbBlockEnd
  0
BLOCK
  5
92
330
90
100
AcDbEntity
  8
0
100
AcDbBlockBegin
  2
2_405015E_Inch_0_in_071576_4
 70
     2
 10
0.0
 20
0.0
 30
0.0
  3
2_405015E_Inch_0_in_071576_4
  1

  0
ATTDEF
  5
94
330
90
100
AcDbEntity
  8
AM_6
100
AcDbText
 10
5.252590742770462
 20
-0.2140518317609897
 30
0.0
 40
0.5
  1
405015E -Inch
100
AcDbAttributeDefinition
  3

  2
NN
 70
     8
280
     0
  0
ATTDEF
  5
95
330
90
100
AcDbEntity
  8
AM_6
100
AcDbText
 10
5.252590742770462
 20
-0.7140518317609897
 30
0.0
 40
0.5
  1
Grease Fitting
100
AcDbAttributeDefinition
  3

  2
NT
 70
     8
280
     0
  0
ATTDEF
  5
96
330
90
100
AcDbEntity
  8
AM_6
100
AcDbText
 10
5.252590742770462
 20
-1.21405183176099
 30
0.0
 40
0.5
  1
405015E-Inch
100
AcDbAttributeDefinition
  3

  2
NB
 70
     8
280
     0
  0
ATTDEF
  5
97
330
90
100
AcDbEntity
  8
AM_6
100
AcDbText
 10
5.252590742770462
 20
-1.71405183176099
 30
0.0
 40
0.5
  1
$MN.-Inch
100
AcDbAttributeDefinition
  3

  2
NBSYN
 70
     8
280
     0
  0
ATTDEF
  5
98
330
90
100
AcDbEntity
  8
AM_6
100
AcDbText
 10
5.252590742770462
 20
-2.21405183176099
 30
0.0
 40
0.5
  1
405015E
100
AcDbAttributeDefinition
  3

  2
LINA
 70
     8
280
     0
  0
ATTDEF
  5
99
330
90
100
AcDbEntity
  8
AM_6
100
AcDbText
 10
5.252590742770462
 20
-2.71405183176099
 30
0.0
 40
0.5
  1
405015E
100
AcDbAttributeDefinition
  3

  2
MN
 70
     8
280
     0
  0
ATTDEF
  5
9A
330
90
100
AcDbEntity
  8
AM_6
100
AcDbText
 10
5.252590742770462
 20
-3.21405183176099
 30
0.0
 40
0.5
  1
1/8 x 27PTF
100
AcDbAttributeDefinition
  3

  2
T
 70
     8
280
     0
  0
ATTDEF
  5
9B
330
90
100
AcDbEntity
  8
AM_6
100
AcDbText
 10
5.252590742770462
 20
-3.71405183176099
 30
0.0
 40
0.5
  1
baldor
100
AcDbAttributeDefinition
  3

  2
COMPANY
 70
     8
280
     0
  0
LINE
  5
9E
330
90
100
AcDbEntity
  8
AM_9
100
AcDbLine
 10
-0.1262953713852306
 20
-0.7126247686898275
 30
0.0
 11
-0.1262953713852306
 21
-0.641727771688616
 31
0.0
  0
LINE
  5
9F
330
90
100
AcDbEntity
  8
AM_9
100
AcDbLine
 10
0.1262953713852306
 20
-0.7126247686898275
 30
0.0
 11
0.1262953713852306
 21
-0.641727771688616
 31
0.0
  0
LWPOLYLINE
  5
A0
330
90
100
AcDbEntity
  8
AM_9
100
AcDbPolyline
 90
        5
 70
     0
 43
0.0
 10
0.1262953713852306
 20
-0.641727771688616
 10
0.0949251544150459
 20
-0.6384483204117319
 10
0.0634316146914367
 20
-0.635966039944442
 10
0.0317600370486143
 20
-0.6344072261433167
 10
0.0
 20
-0.6338749999999999
  0
LWPOLYLINE
  5
A1
330
90
100
AcDbEntity
  8
AM_9
100
AcDbPolyline
 90
        4
 70
     0
 43
0.0
 10
0.0
 20
-0.6338749999999999
 10
-0.0483998160558989
 20
-0.6351026435924477
 10
-0.0967996321117978
 20
-0.6386229085144783
 10
-0.1262953713852306
 20
-0.641727771688616
  0
LWPOLYLINE
  5
A2
330
90
100
AcDbEntity
  8
AM_9
100
AcDbPolyline
 90
        4
 70
     0
 43
0.0
 10
-0.1262953713852306
 20
-0.641727771688616
 10
-0.157743197384355
 20
-0.6087293629381879
 10
-0.1735630385535388
 20
-0.593472225597934
 10
-0.1894430570778459
 20
-0.5791874999999999
  0
LWPOLYLINE
  5
A3
330
90
100
AcDbEntity
  8
AM_9
100
AcDbPolyline
 90
        4
 70
     0
 43
0.0
 10
0.1894430570778459
 20
-0.5791874999999999
 10
0.1736561356546921
 20
-0.5933854109580775
 10
0.1578692142315383
 20
-0.6086039785607693
 10
0.1262953713852306
 20
-0.641727771688616
  0
LWPOLYLINE
  5
A4
330
90
100
AcDbEntity
  8
AM_9
100
AcDbPolyline
 90
        4
 70
     0
 43
0.0
 10
-0.1018602795997352
 20
-0.7152441267634887
 10
-0.0967996321117978
 20
-0.7157296318639652
 10
-0.0485424412477544
 20
-0.71924273689851
 10
0.0
 20
-0.7204775403784437
  0
LINE
  5
A5
330
90
100
AcDbEntity
  8
AM_9
100
AcDbLine
 10
-0.1050087569988763
 20
-0.7149318229931726
 30
0.0
 11
-0.1018602795997352
 21
-0.7152441267634887
 31
0.0
  0
LINE
  5
A6
330
90
100
AcDbEntity
  8
AM_9
100
AcDbLine
 10
0.1018614608560907
 20
-0.715244011053281
 30
0.0
 11
0.1050109799761659
 21
-0.7149315997545377
 31
0.0
  0
LWPOLYLINE
  5
A7
330
90
100
AcDbEntity
  8
AM_9
100
AcDbPolyline
 90
        5
 70
     0
 43
0.0
 10
0.0
 20
-0.7204775403784437
 10
0.0315738428463077
 20
-0.7199515044203659
 10
0.0631476856926153
 20
-0.7184048118176741
 10
0.0947562840569831
 20
-0.7159198075981759
 10
0.1018614608560907
 20
-0.715244011053281
  0
LWPOLYLINE
  5
A8
330
90
100
AcDbEntity
  8
AM_9
100
AcDbPolyline
 90
        4
 70
     0
 43
0.0
 10
0.2525907427704612
 20
-0.5323527716886159
 10
0.229031912716827
 20
-0.5481253833403044
 10
0.205323075602153
 20
-0.565967226688699
 10
0.1894430570778459
 20
-0.5791874999999999
  0
LWPOLYLINE
  5
A9
330
90
100
AcDbEntity
  8
AM_9
100
AcDbPolyline
 90
        4
 70
     0
 43
0.0
 10
-0.1894430570778459
 20
-0.5791874999999999
 10
-0.2052299785009998
 20
-0.5660416609580775
 10
-0.2210359031098993
 20
-0.5539024680626125
 10
-0.2525907427704612
 20
-0.5323527716886159
  0
LINE
  5
AA
330
90
100
AcDbEntity
  8
AM_9
100
AcDbLine
 10
-0.1321931418159853
 20
-0.2482659344949045
 30
0.0
 11
-0.1621706131788416
 21
-0.2694632077784058
 31
0.0
  0
LINE
  5
AB
330
90
100
AcDbEntity
  8
AM_9
100
AcDbLine
 10
0.1621706131788416
 20
-0.2694632077784058
 30
0.0
 11
0.1321931418159853
 21
-0.2482659344949045
 31
0.0
  0
LINE
  5
AC
330
90
100
AcDbEntity
  8
AM_9
100
AcDbLine
 10
-0.1985852938306408
 20
-0.3250073393135555
 30
0.0
 11
-0.2057184028850727
 21
-0.5226437992223703
 31
0.0
  0
LINE
  5
AD
330
90
100
AcDbEntity
  8
AM_9
100
AcDbLine
 10
0.2057184028850727
 20
-0.5226437992223703
 30
0.0
 11
0.1985852938306408
 21
-0.3250073393135555
 31
0.0
  0
LINE
  5
AE
330
90
100
AcDbEntity
  8
AM_9
100
AcDbLine
 10
0.1017810272422101
 20
-0.7149353741642867
 30
0.0
 11
0.105
 21
-0.7086329795247595
 31
0.0
  0
LINE
  5
AF
330
90
100
AcDbEntity
  8
AM_9
100
AcDbLine
 10
-0.105
 20
-0.7086329795247595
 30
0.0
 11
-0.1017810272422101
 21
-0.7149353741642869
 31
0.0
  0
ELLIPSE
  5
B0
330
90
100
AcDbEntity
  8
AM_9
100
AcDbEllipse
 10
0.0
 20
-0.7020352077758095
 30
0.0
 11
-0.1049999999999998
 21
1.564621938212793E-9
 31
0.0
210
0.0
220
0.0
230
1.0
 40
0.5000000000000007
 41
0.0000000258095683
 42
3.141592679399361
  0
LINE
  5
B1
330
90
100
AcDbEntity
  8
AM_9
100
AcDbLine
 10
-0.105
 20
-0.7202734365882691
 30
0.0
 11
-0.105
 21
-0.7280159698893429
 31
0.0
  0
LINE
  5
B2
330
90
100
AcDbEntity
  8
AM_9
100
AcDbLine
 10
0.105
 20
-0.7280159698893429
 30
0.0
 11
0.105
 21
-0.7202734365882691
 31
0.0
  0
ELLIPSE
  5
B3
330
90
100
AcDbEntity
  8
AM_9
100
AcDbEllipse
 10
0.0
 20
-0.728015969889343
 30
0.0
 11
-0.1050000000000001
 21
1.285879139104722E-17
 31
0.0
210
0.0
220
0.0
230
1.0
 40
0.4999999999999993
 41
5.990342535451008
 42
9.71762073249796
  0
LINE
  5
B4
330
90
100
AcDbEntity
  8
AM_9
100
AcDbLine
 10
0.0976523208201058
 20
-0.7079547076371919
 30
0.0
 11
0.1098343496897825
 21
-0.699167854510342
 31
0.0
  0
LINE
  5
B5
330
90
100
AcDbEntity
  8
AM_9
100
AcDbLine
 10
-0.1098343496897825
 20
-0.699167854510342
 30
0.0
 11
-0.0976523208201058
 21
-0.7079547076371919
 31
0.0
  0
ELLIPSE
  5
B6
330
90
100
AcDbEntity
  8
AM_9
100
AcDbEllipse
 10
-0.000000000000003
 20
-0.674108591904746
 30
0.0
 11
-0.1188200907349007
 21
1.455126437928943E-17
 31
0.0
210
0.0
220
0.0
230
1.0
 40
0.4999999999999996
 41
0.2500328930988145
 42
2.891559760490992
  0
ELLIPSE
  5
B7
330
90
100
AcDbEntity
  8
AM_9
100
AcDbEllipse
 10
0.0
 20
-0.6269665656664148
 30
0.0
 11
-0.1725340532830151
 21
2.112932760969634E-17
 31
0.0
210
0.0
220
0.0
230
1.0
 40
0.4999999999999992
 41
0.6061451401950855
 42
2.535447513394709
  0
ELLIPSE
  5
B8
330
90
100
AcDbEntity
  8
AM_9
100
AcDbEllipse
 10
0.0000000000000011
 20
-0.6111025403784416
 30
0.0
 11
-0.2187500000000021
 21
2.678914873134860E-17
 31
0.0
210
0.0
220
0.0
230
1.0
 40
0.5000000000000044
 41
1.065244638251234
 42
2.07634801533855
  0
ELLIPSE
  5
B9
330
90
100
AcDbEntity
  8
AM_9
100
AcDbEllipse
 10
-0.0000000000042714
 20
-0.6111025403856362
 30
0.0
 11
-0.2137499999913622
 21
2.617682533071684E-17
 31
0.0
210
0.0
220
0.0
230
1.0
 40
0.4999999999860243
 41
1.042972124162997
 42
2.098620529461323
  0
ELLIPSE
  5
BA
330
90
100
AcDbEntity
  8
AM_9
100
AcDbEllipse
 10
0.0
 20
-0.7799774941164093
 30
0.0
 11
-0.1350000000000002
 21
1.653273178848929E-17
 31
0.0
210
0.0
220
0.0
230
1.0
 40
0.4999999999999986
 41
0.2354336045415621
 42
2.906159049048232
  0
ELLIPSE
  5
BB
330
90
100
AcDbEntity
  8
AM_9
100
AcDbEllipse
 10
-0.0000000000000016
 20
-0.2950032679971255
 30
0.0
 11
-0.1619028724722705
 21
1.982738345459282E-17
 31
0.0
210
0.0
220
0.0
230
1.0
 40
0.5000000000000031
 41
0.0
 42
6.283185307179586
  0
ELLIPSE
  5
BC
330
90
100
AcDbEntity
  8
AM_9
100
AcDbEllipse
 10
0.0000000000000009
 20
-0.5245000000000009
 30
0.0
 11
-0.2187500000000012
 21
2.678914873134850E-17
 31
0.0
210
0.0
220
0.0
230
1.0
 40
0.5000000000000014
 41
0.0
 42
6.283185307179586
  0
ELLIPSE
  5
BD
330
90
100
AcDbEntity
  8
AM_9
100
AcDbEllipse
 10
-0.0000000000003293
 20
-0.524500000001856
 30
0.0
 11
-0.2057518972233989
 21
2.519734023531307E-17
 31
0.0
210
0.0
220
0.0
230
1.0
 40
0.5000000000000734
 41
0.0
 42
6.283185307179586
  0
ELLIPSE
  5
BE
330
90
100
AcDbEntity
  8
AM_9
100
AcDbEllipse
 10
-0.0000000000010343
 20
-0.3267991779240076
 30
0.0
 11
-0.1986176267822497
 21
2.432364408931257E-17
 31
0.0
210
0.0
220
0.0
230
1.0
 40
0.5000000000001062
 41
0.0
 42
6.283185307179586
  0
LWPOLYLINE
  5
C0
330
90
100
AcDbEntity
  8
AM_4
100
AcDbPolyline
 90
        4
 70
     0
 43
0.0
 10
-0.1894430570778459
 20
-0.6657900403784437
 10
-0.1736561356546922
 20
-0.6789358794203659
 10
-0.1578502110457927
 20
-0.6910750723158311
 10
-0.1262953713852306
 20
-0.7126247686898275
  0
LINE
  5
C1
330
90
100
AcDbEntity
  8
AM_4
100
AcDbLine
 10
-0.1262953713852306
 20
-0.7126247686898275
 30
0.0
 11
-0.1050087569988763
 21
-0.7149318229931726
 31
0.0
  0
LWPOLYLINE
  5
C2
330
90
100
AcDbEntity
  8
AM_4
100
AcDbPolyline
 90
        4
 70
     0
 43
0.0
 10
0.1262953713852306
 20
-0.7126247686898275
 10
0.157743197384355
 20
-0.6911539450221866
 10
0.1735630385535388
 20
-0.6790103136897444
 10
0.1894430570778459
 20
-0.6657900403784437
  0
LINE
  5
C3
330
90
100
AcDbEntity
  8
AM_4
100
AcDbLine
 10
0.1050109799761659
 20
-0.7149315997545377
 30
0.0
 11
0.1262953713852306
 21
-0.7126247686898275
 31
0.0
  0
LWPOLYLINE
  5
C4
330
90
100
AcDbEntity
  8
AM_4
100
AcDbPolyline
 90
        4
 70
     0
 43
0.0
 10
0.1894430570778459
 20
-0.6657900403784437
 10
0.2052299785009997
 20
-0.651592129420366
 10
0.2210359031098992
 20
-0.636354657832614
 10
0.2525907427704612
 20
-0.6032497686898275
  0
LWPOLYLINE
  5
C5
330
90
100
AcDbEntity
  8
AM_4
100
AcDbPolyline
 90
        4
 70
     0
 43
0.0
 10
-0.2525907427704612
 20
-0.6032497686898275
 10
-0.2211429167713369
 20
-0.6362481774402556
 10
-0.2053230756021531
 20
-0.6515053147805094
 10
-0.1894430570778459
 20
-0.6657900403784437
  0
LINE
  5
C6
330
90
100
AcDbEntity
  8
AM_4
100
AcDbLine
 10
0.105
 20
-0.7086329795247595
 30
0.0
 11
0.1151252948555658
 21
-0.6888087657699453
 31
0.0
  0
LINE
  5
C7
330
90
100
AcDbEntity
  8
AM_4
100
AcDbLine
 10
-0.1151252948555658
 20
-0.6888087657699453
 30
0.0
 11
-0.105
 21
-0.7086329795247595
 31
0.0
  0
ELLIPSE
  5
C8
330
90
100
AcDbEntity
  8
AM_4
100
AcDbEllipse
 10
-0.0000000000000014
 20
-0.6741085919047448
 30
0.0
 11
-0.118820090734899
 21
1.455126437928921E-17
 31
0.0
210
0.0
220
0.0
230
1.0
 40
0.4999999999999958
 41
2.891559760490967
 42
6.533218200278418
  0
ELLIPSE
  5
C9
330
90
100
AcDbEntity
  8
AM_4
100
AcDbEllipse
 10
0.0
 20
-0.7020352077758096
 30
0.0
 11
-0.1050000000000002
 21
1.285879139104723E-17
 31
0.0
210
0.0
220
0.0
230
1.0
 40
0.5000000000000001
 41
3.141592653589793
 42
6.283185307179586
  0
LINE
  5
CA
330
90
100
AcDbEntity
  8
AM_4
100
AcDbLine
 10
-0.105
 20
-0.7020352077758097
 30
0.0
 11
-0.105
 21
-0.7202734365882691
 31
0.0
  0
LINE
  5
CB
330
90
100
AcDbEntity
  8
AM_4
100
AcDbLine
 10
0.105
 20
-0.7202734365882691
 30
0.0
 11
0.105
 21
-0.7020352077758097
 31
0.0
  0
LINE
  5
CC
330
90
100
AcDbEntity
  8
AM_4
100
AcDbLine
 10
0.1098343496897825
 20
-0.699167854510342
 30
0.0
 11
0.1417971541629018
 21
-0.6761131998684855
 31
0.0
  0
LINE
  5
CD
330
90
100
AcDbEntity
  8
AM_4
100
AcDbLine
 10
-0.1417971541629018
 20
-0.6761131998684855
 30
0.0
 11
-0.1098343496897825
 21
-0.699167854510342
 31
0.0
  0
ELLIPSE
  5
CE
330
90
100
AcDbEntity
  8
AM_4
100
AcDbEllipse
 10
0.0000000000000002
 20
-0.6269665656664132
 30
0.0
 11
-0.1725340532830152
 21
2.112932760969635E-17
 31
0.0
210
0.0
220
0.0
230
1.0
 40
0.5000000000000034
 41
2.535447513394697
 42
6.889330447374682
  0
LWPOLYLINE
  5
CF
330
90
100
AcDbEntity
  8
AM_4
100
AcDbPolyline
 90
        4
 70
     0
 43
0.0
 10
0.0
 20
-0.5017275403784437
 10
-0.0483998160558989
 20
-0.5004998967859958
 10
-0.0967996321117978
 20
-0.4969796318639652
 10
-0.1262953713852306
 20
-0.4938747686898275
  0
LWPOLYLINE
  5
D0
330
90
100
AcDbEntity
  8
AM_4
100
AcDbPolyline
 90
        5
 70
     0
 43
0.0
 10
0.0
 20
-0.4151249999999999
 10
0.0315738428463077
 20
-0.4156510359580775
 10
0.0631476856926153
 20
-0.4171977285607693
 10
0.0947562840569831
 20
-0.4196827327802677
 10
0.1262953713852306
 20
-0.422977771688616
  0
LWPOLYLINE
  5
D1
330
90
100
AcDbEntity
  8
AM_4
100
AcDbPolyline
 90
        4
 70
     0
 43
0.0
 10
-0.1262953713852306
 20
-0.422977771688616
 10
-0.0967996321117978
 20
-0.4198729085144783
 10
-0.0485424412477544
 20
-0.4163598034799334
 10
0.0
 20
-0.4151249999999999
  0
LINE
  5
D2
330
90
100
AcDbEntity
  8
AM_4
100
AcDbLine
 10
0.1262953713852306
 20
-0.4938747686898275
 30
0.0
 11
0.1262953713852306
 21
-0.422977771688616
 31
0.0
  0
LWPOLYLINE
  5
D3
330
90
100
AcDbEntity
  8
AM_4
100
AcDbPolyline
 90
        4
 70
     0
 43
0.0
 10
0.2525907427704612
 20
-0.6032497686898275
 10
0.2211429167713369
 20
-0.5817789450221866
 10
0.2053230756021531
 20
-0.5696353136897444
 10
0.1894430570778459
 20
-0.5564150403784437
  0
LINE
  5
D4
330
90
100
AcDbEntity
  8
AM_4
100
AcDbLine
 10
0.2525907427704612
 20
-0.6032497686898275
 30
0.0
 11
0.2525907427704612
 21
-0.5323527716886159
 31
0.0
  0
LWPOLYLINE
  5
D5
330
90
100
AcDbEntity
  8
AM_4
100
AcDbPolyline
 90
        4
 70
     0
 43
0.0
 10
0.1894430570778459
 20
-0.4698124999999999
 10
0.2052299785009998
 20
-0.4840104109580775
 10
0.2210359031098993
 20
-0.4992478825458295
 10
0.2525907427704612
 20
-0.5323527716886159
  0
LWPOLYLINE
  5
D6
330
90
100
AcDbEntity
  8
AM_4
100
AcDbPolyline
 90
        4
 70
     0
 43
0.0
 10
0.1262953713852306
 20
-0.422977771688616
 10
0.157743197384355
 20
-0.4444485953562568
 10
0.1735630385535388
 20
-0.4565922266886991
 10
0.1894430570778459
 20
-0.4698124999999999
  0
ELLIPSE
  5
D7
330
90
100
AcDbEntity
  8
AM_4
100
AcDbEllipse
 10
0.0000000000000007
 20
-0.6111025403784447
 30
0.0
 11
-0.2187500000000009
 21
2.678914873134847E-17
 31
0.0
210
0.0
220
0.0
230
1.0
 40
0.4999999999999953
 41
2.076348015338557
 42
7.348429945430816
  0
LINE
  5
D8
330
90
100
AcDbEntity
  8
AM_4
100
AcDbLine
 10
-0.2525907427704612
 20
-0.6032497686898275
 30
0.0
 11
-0.2525907427704612
 21
-0.5323527716886159
 31
0.0
  0
LWPOLYLINE
  5
D9
330
90
100
AcDbEntity
  8
AM_4
100
AcDbPolyline
 90
        4
 70
     0
 43
0.0
 10
-0.1894430570778459
 20
-0.5564150403784437
 10
-0.2052299785009998
 20
-0.569560879420366
 10
-0.2210359031098993
 20
-0.5817000723158311
 10
-0.2525907427704612
 20
-0.6032497686898275
  0
LWPOLYLINE
  5
DA
330
90
100
AcDbEntity
  8
AM_4
100
AcDbPolyline
 90
        4
 70
     0
 43
0.0
 10
-0.1262953713852306
 20
-0.4938747686898275
 10
-0.157743197384355
 20
-0.5268731774402556
 10
-0.1735630385535388
 20
-0.5421303147805095
 10
-0.1894430570778459
 20
-0.5564150403784437
  0
LINE
  5
DB
330
90
100
AcDbEntity
  8
AM_4
100
AcDbLine
 10
-0.1262953713852306
 20
-0.4938747686898275
 30
0.0
 11
-0.1262953713852306
 21
-0.422977771688616
 31
0.0
  0
LWPOLYLINE
  5
DC
330
90
100
AcDbEntity
  8
AM_4
100
AcDbPolyline
 90
        4
 70
     0
 43
0.0
 10
-0.1894430570778459
 20
-0.4698124999999999
 10
-0.1736561356546921
 20
-0.4566666609580775
 10
-0.1578692142315383
 20
-0.4445414785607693
 10
-0.1262953713852306
 20
-0.422977771688616
  0
LWPOLYLINE
  5
DD
330
90
100
AcDbEntity
  8
AM_4
100
AcDbPolyline
 90
        4
 70
     0
 43
0.0
 10
-0.2525907427704612
 20
-0.5323527716886159
 10
-0.229031912716827
 20
-0.5073202927205294
 10
-0.205323075602153
 20
-0.484097225597934
 10
-0.1894430570778459
 20
-0.4698124999999999
  0
LWPOLYLINE
  5
DE
330
90
100
AcDbEntity
  8
AM_4
100
AcDbPolyline
 90
        4
 70
     0
 43
0.0
 10
0.1894430570778459
 20
-0.5564150403784437
 10
0.1736561356546922
 20
-0.5422171294203659
 10
0.1578502110457927
 20
-0.5269796578326139
 10
0.1262953713852306
 20
-0.4938747686898275
  0
LWPOLYLINE
  5
DF
330
90
100
AcDbEntity
  8
AM_4
100
AcDbPolyline
 90
        5
 70
     0
 43
0.0
 10
0.1262953713852306
 20
-0.4938747686898275
 10
0.0949251544150459
 20
-0.4971542199667114
 10
0.0634316146914367
 20
-0.4996365004340014
 10
0.0317600370486143
 20
-0.5011953142351269
 10
0.0
 20
-0.5017275403784437
  0
ELLIPSE
  5
E0
330
90
100
AcDbEntity
  8
AM_4
100
AcDbEllipse
 10
0.0000000000000009
 20
-0.6111025403784447
 30
0.0
 11
-0.2137499999999993
 21
2.617682533177459E-17
 31
0.0
210
0.0
220
0.0
230
1.0
 40
0.4999999999999978
 41
2.098620529422326
 42
7.326157431347047
  0
LINE
  5
E1
330
90
100
AcDbEntity
  8
AM_4
100
AcDbLine
 10
-0.1005298463144155
 20
-0.7128605253231152
 30
0.0
 11
-0.1292526595471057
 21
-0.7604919225312594
 31
0.0
  0
LINE
  5
E2
330
90
100
AcDbEntity
  8
AM_4
100
AcDbLine
 10
0.1292526595471057
 20
-0.7604919225312594
 30
0.0
 11
0.1005298463144155
 21
-0.7128605253231152
 31
0.0
  0
ELLIPSE
  5
E3
330
90
100
AcDbEntity
  8
AM_4
100
AcDbEllipse
 10
0.0
 20
-0.7280159698893427
 30
0.0
 11
-0.105
 21
1.285879139104720E-17
 31
0.0
210
0.0
220
0.0
230
1.0
 40
0.5000000000000043
 41
3.434435425318362
 42
5.990342535451012
  0
LINE
  5
E4
330
90
100
AcDbEntity
  8
AM_4
100
AcDbLine
 10
0.0998453562378797
 20
-0.8612350888603626
 30
0.0
 11
0.1312757938985219
 21
-0.795722858007987
 31
0.0
  0
LINE
  5
E5
330
90
100
AcDbEntity
  8
AM_4
100
AcDbLine
 10
-0.1312757938985219
 20
-0.795722858007987
 30
0.0
 11
-0.0998453562378797
 21
-0.8612350888603626
 31
0.0
  0
ELLIPSE
  5
E6
330
90
100
AcDbEntity
  8
AM_4
100
AcDbEllipse
 10
0.0000000000000005
 20
-0.7799774941164039
 30
0.0
 11
-0.1349999999999995
 21
1.653273178848921E-17
 31
0.0
210
0.0
220
0.0
230
1.0
 40
0.5000000000000067
 41
2.906159049048157
 42
6.518618911721219
  0
ELLIPSE
  5
E7
330
90
100
AcDbEntity
  8
AM_4
100
AcDbEllipse
 10
-0.0000000000000001
 20
-0.8492595264191645
 30
0.0
 11
-0.1026779019331873
 21
1.257441639456436E-17
 31
0.0
210
0.0
220
0.0
230
1.0
 40
0.4999999999999908
 41
0.0
 42
6.283185307179586
  0
ENDBLK
  5
93
330
90
100
AcDbEntity
  8
0
100
AcDbBlockEnd
  0
BLOCK
  5
EA
330
E8
100
AcDbEntity
  8
0
100
AcDbBlockBegin
  2
3_ASME_B18_3_10_1_0_in_071576_4
 70
     2
 10
0.0
 20
0.0
 30
0.0
  3
3_ASME_B18_3_10_1_0_in_071576_4
  1

  0
ATTDEF
  5
EC
330
E8
100
AcDbEntity
  8
AM_6
100
AcDbText
 10
5.095
 20
-1.358333333333333
 30
0.0
 40
0.5
  1
ANSI/ASME B18.3-1998
100
AcDbAttributeDefinition
  3

  2
NN
 70
     8
280
     0
  0
ATTDEF
  5
ED
330
E8
100
AcDbEntity
  8
AM_6
100
AcDbText
 10
5.095
 20
-1.858333333333333
 30
0.0
 40
0.5
  1
Socket Button Head Cap Screws
100
AcDbAttributeDefinition
  3

  2
NT
 70
     8
280
     0
  0
ATTDEF
  5
EE
330
E8
100
AcDbEntity
  8
AM_6
100
AcDbText
 10
5.095
 20
-2.358333333333333
 30
0.0
 40
0.5
  1
ASME B18.3-10
100
AcDbAttributeDefinition
  3

  2
NB
 70
     8
280
     0
  0
ATTDEF
  5
EF
330
E8
100
AcDbEntity
  8
AM_6
100
AcDbText
 10
5.095
 20
-2.858333333333333
 30
0.0
 40
0.5
  1
ASME B18.3-$NS.
100
AcDbAttributeDefinition
  3

  2
NBSYN
 70
     8
280
     0
  0
ATTDEF
  5
F0
330
E8
100
AcDbEntity
  8
AM_6
100
AcDbText
 10
5.095
 20
-3.358333333333333
 30
0.0
 40
0.5
  1
ASME B18.3-10
100
AcDbAttributeDefinition
  3

  2
LINA
 70
     8
280
     0
  0
ATTDEF
  5
F1
330
E8
100
AcDbEntity
  8
AM_6
100
AcDbText
 10
5.095
 20
-3.858333333333333
 30
0.0
 40
0.5
  1
10
100
AcDbAttributeDefinition
  3

  2
NS
 70
     8
280
     0
  0
ATTDEF
  5
F2
330
E8
100
AcDbEntity
  8
AM_6
100
AcDbText
 10
5.095
 20
-4.358333333333333
 30
0.0
 40
0.5
  1
0.361
100
AcDbAttributeDefinition
  3

  2
A
 70
     8
280
     0
  0
ATTDEF
  5
F3
330
E8
100
AcDbEntity
  8
AM_6
100
AcDbText
 10
5.095
 20
-4.858333333333333
 30
0.0
 40
0.5
  1
0.101
100
AcDbAttributeDefinition
  3

  2
H
 70
     8
280
     0
  0
ATTDEF
  5
F4
330
E8
100
AcDbEntity
  8
AM_6
100
AcDbText
 10
5.095
 20
-5.358333333333333
 30
0.0
 40
0.5
  1
0.800
100
AcDbAttributeDefinition
  3

  2
L
 70
     8
280
     0
  0
ATTDEF
  5
F5
330
E8
100
AcDbEntity
  8
AM_6
100
AcDbText
 10
5.095
 20
-5.858333333333333
 30
0.0
 40
0.5
  1
0.020
100
AcDbAttributeDefinition
  3

  2
S
 70
     8
280
     0
  0
ATTDEF
  5
F6
330
E8
100
AcDbEntity
  8
AM_6
100
AcDbText
 10
5.095
 20
-6.358333333333333
 30
0.0
 40
0.5
  1
0.125000
100
AcDbAttributeDefinition
  3

  2
J
 70
     8
280
     0
  0
ATTDEF
  5
F7
330
E8
100
AcDbEntity
  8
AM_6
100
AcDbText
 10
5.095
 20
-6.858333333333333
 30
0.0
 40
0.5
  1
baldor
100
AcDbAttributeDefinition
  3

  2
COMPANY
 70
     8
280
     0
  0
LINE
  5
F9
330
E8
100
AcDbEntity
  8
AM_5
100
AcDbLine
 10
0.095
 20
-1.358333333333333
 30
0.0
 11
-0.095
 21
-1.358333333333333
 31
0.0
  0
LINE
  5
FA
330
E8
100
AcDbEntity
  8
AM_5
100
AcDbLine
 10
0.0764
 20
-1.358333333333333
 30
0.0
 11
0.095
 21
-1.390549478354115
 31
0.0
  0
ENDBLK
  5
EB
330
E8
100
AcDbEntity
  8
0
100
AcDbBlockEnd
  0
BLOCK
  5
FD
330
FB
100
AcDbEntity
  8
0
100
AcDbBlockBegin
  2
4_ASME_B18_3_10_2_0_in_071576_4
 70
     2
 10
0.0
 20
0.0
 30
0.0
  3
4_ASME_B18_3_10_2_0_in_071576_4
  1

  0
ATTDEF
  5
FF
330
FB
100
AcDbEntity
  8
AM_6
100
AcDbText
 10
5.1805
 20
-0.6383333333333333
 30
0.0
 40
0.5
  1
ANSI/ASME B18.3-1998
100
AcDbAttributeDefinition
  3

  2
NN
 70
     8
280
     0
  0
ATTDEF
  5
100
330
FB
100
AcDbEntity
  8
AM_6
100
AcDbText
 10
5.1805
 20
-1.138333333333333
 30
0.0
 40
0.5
  1
Socket Button Head Cap Screws
100
AcDbAttributeDefinition
  3

  2
NT
 70
     8
280
     0
  0
ATTDEF
  5
101
330
FB
100
AcDbEntity
  8
AM_6
100
AcDbText
 10
5.1805
 20
-1.638333333333333
 30
0.0
 40
0.5
  1
ASME B18.3-10
100
AcDbAttributeDefinition
  3

  2
NB
 70
     8
280
     0
  0
ATTDEF
  5
102
330
FB
100
AcDbEntity
  8
AM_6
100
AcDbText
 10
5.1805
 20
-2.138333333333333
 30
0.0
 40
0.5
  1
ASME B18.3-$NS.
100
AcDbAttributeDefinition
  3

  2
NBSYN
 70
     8
280
     0
  0
ATTDEF
  5
103
330
FB
100
AcDbEntity
  8
AM_6
100
AcDbText
 10
5.1805
 20
-2.638333333333333
 30
0.0
 40
0.5
  1
ASME B18.3-10
100
AcDbAttributeDefinition
  3

  2
LINA
 70
     8
280
     0
  0
ATTDEF
  5
104
330
FB
100
AcDbEntity
  8
AM_6
100
AcDbText
 10
5.1805
 20
-3.138333333333333
 30
0.0
 40
0.5
  1
10
100
AcDbAttributeDefinition
  3

  2
NS
 70
     8
280
     0
  0
ATTDEF
  5
105
330
FB
100
AcDbEntity
  8
AM_6
100
AcDbText
 10
5.1805
 20
-3.638333333333333
 30
0.0
 40
0.5
  1
0.361
100
AcDbAttributeDefinition
  3

  2
A
 70
     8
280
     0
  0
ATTDEF
  5
106
330
FB
100
AcDbEntity
  8
AM_6
100
AcDbText
 10
5.1805
 20
-4.138333333333334
 30
0.0
 40
0.5
  1
0.101
100
AcDbAttributeDefinition
  3

  2
H
 70
     8
280
     0
  0
ATTDEF
  5
107
330
FB
100
AcDbEntity
  8
AM_6
100
AcDbText
 10
5.1805
 20
-4.638333333333334
 30
0.0
 40
0.5
  1
0.800
100
AcDbAttributeDefinition
  3

  2
L
 70
     8
280
     0
  0
ATTDEF
  5
108
330
FB
100
AcDbEntity
  8
AM_6
100
AcDbText
 10
5.1805
 20
-5.138333333333334
 30
0.0
 40
0.5
  1
0.020
100
AcDbAttributeDefinition
  3

  2
S
 70
     8
280
     0
  0
ATTDEF
  5
109
330
FB
100
AcDbEntity
  8
AM_6
100
AcDbText
 10
5.1805
 20
-5.638333333333334
 30
0.0
 40
0.5
  1
0.125000
100
AcDbAttributeDefinition
  3

  2
J
 70
     8
280
     0
  0
ATTDEF
  5
10A
330
FB
100
AcDbEntity
  8
AM_6
100
AcDbText
 10
5.1805
 20
-6.138333333333334
 30
0.0
 40
0.5
  1
baldor
100
AcDbAttributeDefinition
  3

  2
COMPANY
 70
     8
280
     0
  0
LINE
  5
10B
330
FB
100
AcDbEntity
  8
AM_9
100
AcDbLine
 10
-0.0625
 20
-1.478333333333333
 30
0.0
 11
-0.0625
 21
-1.539333333333333
 31
0.0
  0
LINE
  5
10C
330
FB
100
AcDbEntity
  8
AM_9
100
AcDbLine
 10
0.0625
 20
-1.478333333333333
 30
0.0
 11
0.0625
 21
-1.539333333333333
 31
0.0
  0
LINE
  5
10D
330
FB
100
AcDbEntity
  8
AM_9
100
AcDbLine
 10
0.0
 20
-1.478333333333333
 30
0.0
 11
0.0
 21
-1.539333333333333
 31
0.0
  0
LINE
  5
10E
330
FB
100
AcDbEntity
  8
AM_9
100
AcDbLine
 10
-0.0625
 20
-1.478333333333333
 30
0.0
 11
0.0625
 21
-1.478333333333333
 31
0.0
  0
LINE
  5
10F
330
FB
100
AcDbEntity
  8
AM_9
100
AcDbLine
 10
-0.0764
 20
-0.6383333333333333
 30
0.0
 11
-0.095
 21
-0.6569333333333333
 31
0.0
  0
LINE
  5
110
330
FB
100
AcDbEntity
  8
AM_9
100
AcDbLine
 10
0.095
 20
-0.6569333333333333
 30
0.0
 11
0.0764
 21
-0.6383333333333333
 31
0.0
  0
LINE
  5
111
330
FB
100
AcDbEntity
  8
AM_9
100
AcDbLine
 10
-0.0764
 20
-0.6383333333333333
 30
0.0
 11
0.0764
 21
-0.6383333333333333
 31
0.0
  0
LINE
  5
112
330
FB
100
AcDbEntity
  8
AM_9
100
AcDbLine
 10
0.095
 20
-1.438333333333333
 30
0.0
 11
0.095
 21
-0.6569333333333333
 31
0.0
  0
LINE
  5
113
330
FB
100
AcDbEntity
  8
AM_9
100
AcDbLine
 10
-0.095
 20
-0.6569333333333333
 30
0.0
 11
-0.095
 21
-1.438333333333333
 31
0.0
  0
LINE
  5
114
330
FB
100
AcDbEntity
  8
AM_9
100
AcDbLine
 10
-0.095
 20
-0.6569333333333333
 30
0.0
 11
0.095
 21
-0.6569333333333333
 31
0.0
  0
LINE
  5
115
330
FB
100
AcDbEntity
  8
AM_5
100
AcDbLine
 10
-0.0949999999999999
 20
-1.358333333333333
 30
0.0
 11
0.095
 21
-1.358333333333333
 31
0.0
  0
LINE
  5
116
330
FB
100
AcDbEntity
  8
AM_4
100
AcDbLine
 10
-0.0994999987164887
 20
-1.539333333333333
 30
0.0
 11
0.0995
 21
-1.539333333333333
 31
0.0
  0
ARC
  5
117
330
FB
100
AcDbEntity
  8
AM_4
100
AcDbCircle
 10
0.0994999999999995
 20
-1.458333333333333
 30
0.0
 40
0.0810000000000006
100
AcDbArc
 50
270.0
 51
0.0
  0
ARC
  5
118
330
FB
100
AcDbEntity
  8
AM_4
100
AcDbCircle
 10
-0.0994999999999997
 20
-1.458333333333333
 30
0.0
 40
0.0810000000000003
100
AcDbArc
 50
180.0
 51
270.0
  0
LINE
  5
119
330
FB
100
AcDbEntity
  8
AM_4
100
AcDbLine
 10
0.1805
 20
-1.458333333333333
 30
0.0
 11
0.1805
 21
-1.438333333333333
 31
0.0
  0
LINE
  5
11A
330
FB
100
AcDbEntity
  8
AM_4
100
AcDbLine
 10
-0.1805
 20
-1.438333333333333
 30
0.0
 11
-0.1805
 21
-1.458333333333333
 31
0.0
  0
LINE
  5
11B
330
FB
100
AcDbEntity
  8
AM_4
100
AcDbLine
 10
-0.1805
 20
-1.458333333333333
 30
0.0
 11
0.1805
 21
-1.458333333333333
 31
0.0
  0
ENDBLK
  5
FE
330
FB
100
AcDbEntity
  8
0
100
AcDbBlockEnd
  0
BLOCK
  5
11E
330
11C
100
AcDbEntity
  8
0
100
AcDbBlockBegin
  2
5_070885LWE_0_in_071576_4
 70
     2
 10
0.0
 20
0.0
 30
0.0
  3
5_070885LWE_0_in_071576_4
  1

  0
ATTDEF
  5
120
330
11C
100
AcDbEntity
  8
AM_6
100
AcDbText
 10
6.359375
 20
-0.9983333333333334
 30
0.0
 40
0.5
  1
Imperial/E Insert Lockwasher -Inch
100
AcDbAttributeDefinition
  3

  2
NN
 70
     8
280
     0
  0
ATTDEF
  5
121
330
11C
100
AcDbEntity
  8
AM_6
100
AcDbText
 10
6.359375
 20
-1.498333333333334
 30
0.0
 40
0.5
  1
Imperial/E Bearings
100
AcDbAttributeDefinition
  3

  2
NT
 70
     8
280
     0
  0
ATTDEF
  5
122
330
11C
100
AcDbEntity
  8
AM_6
100
AcDbText
 10
6.359375
 20
-1.998333333333334
 30
0.0
 40
0.5
  1
070885LWE
100
AcDbAttributeDefinition
  3

  2
NB
 70
     8
280
     0
  0
ATTDEF
  5
123
330
11C
100
AcDbEntity
  8
AM_6
100
AcDbText
 10
6.359375
 20
-2.498333333333334
 30
0.0
 40
0.5
  1
$PN.LWE
100
AcDbAttributeDefinition
  3

  2
NBSYN
 70
     8
280
     0
  0
ATTDEF
  5
124
330
11C
100
AcDbEntity
  8
AM_6
100
AcDbText
 10
6.359375
 20
-2.998333333333334
 30
0.0
 40
0.5
  1
070885
100
AcDbAttributeDefinition
  3

  2
LINA
 70
     8
280
     0
  0
ATTDEF
  5
125
330
11C
100
AcDbEntity
  8
AM_6
100
AcDbText
 10
6.359375
 20
-3.498333333333334
 30
0.0
 40
0.5
  1
1-1/2
100
AcDbAttributeDefinition
  3

  2
SS
 70
     8
280
     0
  0
ATTDEF
  5
126
330
11C
100
AcDbEntity
  8
AM_6
100
AcDbText
 10
6.359375
 20
-3.998333333333334
 30
0.0
 40
0.5
  1
2.718750
100
AcDbAttributeDefinition
  3

  2
E1
 70
     8
280
     0
  0
ATTDEF
  5
127
330
11C
100
AcDbEntity
  8
AM_6
100
AcDbText
 10
6.359375
 20
-4.498333333333333
 30
0.0
 40
0.5
  1
1.500000
100
AcDbAttributeDefinition
  3

  2
SS1
 70
     8
280
     0
  0
ATTDEF
  5
128
330
11C
100
AcDbEntity
  8
AM_6
100
AcDbText
 10
6.359375
 20
-4.998333333333333
 30
0.0
 40
0.5
  1
070885
100
AcDbAttributeDefinition
  3

  2
PN
 70
     8
280
     0
  0
ATTDEF
  5
129
330
11C
100
AcDbEntity
  8
AM_6
100
AcDbText
 10
6.359375
 20
-5.498333333333333
 30
0.0
 40
0.5
  1
INS-IP-108R
100
AcDbAttributeDefinition
  3

  2
DESCRIPTION
 70
     8
280
     0
  0
ATTDEF
  5
12A
330
11C
100
AcDbEntity
  8
AM_6
100
AcDbText
 10
6.359375
 20
-5.998333333333333
 30
0.0
 40
0.5
  1
3.1496
100
AcDbAttributeDefinition
  3

  2
A
 70
     8
280
     0
  0
ATTDEF
  5
12B
330
11C
100
AcDbEntity
  8
AM_6
100
AcDbText
 10
6.359375
 20
-6.498333333333333
 30
0.0
 40
0.5
  1
61/64
100
AcDbAttributeDefinition
  3

  2
B
 70
     8
280
     0
  0
ATTDEF
  5
12C
330
11C
100
AcDbEntity
  8
AM_6
100
AcDbText
 10
6.359375
 20
-6.998333333333333
 30
0.0
 40
0.5
  1
0.953125
100
AcDbAttributeDefinition
  3

  2
B1
 70
     8
280
     0
  0
ATTDEF
  5
12D
330
11C
100
AcDbEntity
  8
AM_6
100
AcDbText
 10
6.359375
 20
-7.498333333333333
 30
0.0
 40
0.5
  1
2-5/8
100
AcDbAttributeDefinition
  3

  2
C
 70
     8
280
     0
  0
ATTDEF
  5
12E
330
11C
100
AcDbEntity
  8
AM_6
100
AcDbText
 10
6.359375
 20
-7.998333333333333
 30
0.0
 40
0.5
  1
2.625000
100
AcDbAttributeDefinition
  3

  2
C1
 70
     8
280
     0
  0
ATTDEF
  5
12F
330
11C
100
AcDbEntity
  8
AM_6
100
AcDbText
 10
6.359375
 20
-8.498333333333333
 30
0.0
 40
0.5
  1
0.970
100
AcDbAttributeDefinition
  3

  2
D
 70
     8
280
     0
  0
ATTDEF
  5
130
330
11C
100
AcDbEntity
  8
AM_6
100
AcDbText
 10
6.359375
 20
-8.998333333333333
 30
0.0
 40
0.5
  1
2-23/32
100
AcDbAttributeDefinition
  3

  2
E
 70
     8
280
     0
  0
ATTDEF
  5
131
330
11C
100
AcDbEntity
  8
AM_6
100
AcDbText
 10
6.359375
 20
-9.498333333333333
 30
0.0
 40
0.5
  1
0.1900
100
AcDbAttributeDefinition
  3

  2
NDM
 70
     8
280
     0
  0
ATTDEF
  5
132
330
11C
100
AcDbEntity
  8
AM_6
100
AcDbText
 10
6.359375
 20
-9.998333333333333
 30
0.0
 40
0.5
  1
0.1450
100
AcDbAttributeDefinition
  3

  2
KDM
 70
     8
280
     0
  0
ATTDEF
  5
133
330
11C
100
AcDbEntity
  8
AM_6
100
AcDbText
 10
6.359375
 20
-10.49833333333333
 30
0.0
 40
0.5
  1
2.22
100
AcDbAttributeDefinition
  3

  2
AL
 70
     8
280
     0
  0
ATTDEF
  5
134
330
11C
100
AcDbEntity
  8
AM_6
100
AcDbText
 10
6.359375
 20
-10.99833333333333
 30
0.0
 40
0.5
  1
0.38
100
AcDbAttributeDefinition
  3

  2
BL
 70
     8
280
     0
  0
ATTDEF
  5
135
330
11C
100
AcDbEntity
  8
AM_6
100
AcDbText
 10
6.359375
 20
-11.49833333333333
 30
0.0
 40
0.5
  1
0.07
100
AcDbAttributeDefinition
  3

  2
CL
 70
     8
280
     0
  0
ATTDEF
  5
136
330
11C
100
AcDbEntity
  8
AM_6
100
AcDbText
 10
6.359375
 20
-11.99833333333333
 30
0.0
 40
0.5
  1
0.44
100
AcDbAttributeDefinition
  3

  2
DL
 70
     8
280
     0
  0
ATTDEF
  5
137
330
11C
100
AcDbEntity
  8
AM_6
100
AcDbText
 10
6.359375
 20
-12.49833333333333
 30
0.0
 40
0.5
  1
baldor
100
AcDbAttributeDefinition
  3

  2
COMPANY
 70
     8
280
     0
  0
LINE
  5
138
330
11C
100
AcDbEntity
  8
AM_9
100
AcDbLine
 10
-1.096354166666667
 20
-1.368333333333333
 30
0.0
 11
-1.096354166666667
 21
-1.438333333333333
 31
0.0
  0
LINE
  5
139
330
11C
100
AcDbEntity
  8
AM_9
100
AcDbLine
 10
-1.191443622710965
 20
-1.368333333333333
 30
0.0
 11
-1.191443622710965
 21
-1.438333333333333
 31
0.0
  0
LINE
  5
13A
330
11C
100
AcDbEntity
  8
AM_9
100
AcDbLine
 10
1.096354166666667
 20
-1.368333333333333
 30
0.0
 11
1.096354166666667
 21
-1.438333333333333
 31
0.0
  0
LINE
  5
13B
330
11C
100
AcDbEntity
  8
AM_9
100
AcDbLine
 10
1.191443622710965
 20
-1.438333333333333
 30
0.0
 11
1.191443622710965
 21
-1.368333333333333
 31
0.0
  0
LINE
  5
13C
330
11C
100
AcDbEntity
  8
AM_9
100
AcDbLine
 10
-0.8052261613532461
 20
-1.368333333333333
 30
0.0
 11
-0.8052261613532461
 21
-1.438333333333333
 31
0.0
  0
LINE
  5
13D
330
11C
100
AcDbEntity
  8
AM_9
100
AcDbLine
 10
0.8052261613532463
 20
-1.368333333333333
 30
0.0
 11
0.8052261613532463
 21
-1.438333333333333
 31
0.0
  0
LINE
  5
13E
330
11C
100
AcDbEntity
  8
AM_9
100
AcDbLine
 10
-0.3724693408726801
 20
-0.9983333333333334
 30
0.0
 11
-0.3724693408726801
 21
-1.438333333333333
 31
0.0
  0
LINE
  5
13F
330
11C
100
AcDbEntity
  8
AM_9
100
AcDbLine
 10
-0.3959152668453982
 20
-1.368333333333333
 30
0.0
 11
-0.3959152668453982
 21
-1.438333333333333
 31
0.0
  0
LINE
  5
140
330
11C
100
AcDbEntity
  8
AM_9
100
AcDbLine
 10
-0.6365560232944155
 20
-1.368333333333333
 30
0.0
 11
-0.6365560232944159
 21
-1.438333333333333
 31
0.0
  0
LINE
  5
141
330
11C
100
AcDbEntity
  8
AM_9
100
AcDbLine
 10
0.6365560232944156
 20
-1.368333333333333
 30
0.0
 11
0.6365560232944156
 21
-1.438333333333333
 31
0.0
  0
LINE
  5
142
330
11C
100
AcDbEntity
  8
AM_9
100
AcDbLine
 10
-0.5022057348689715
 20
-1.368333333333333
 30
0.0
 11
-0.5022057348689715
 21
-1.438333333333333
 31
0.0
  0
LINE
  5
143
330
11C
100
AcDbEntity
  8
AM_9
100
AcDbLine
 10
-0.2203781556682535
 20
-1.368333333333333
 30
0.0
 11
-0.2203781556682535
 21
-1.438333333333333
 31
0.0
  0
LINE
  5
144
330
11C
100
AcDbEntity
  8
AM_9
100
AcDbLine
 10
-0.1969322296955356
 20
-0.9983333333333334
 30
0.0
 11
-0.3876917239675319
 21
-0.9983333333333334
 31
0.0
  0
LINE
  5
145
330
11C
100
AcDbEntity
  8
AM_9
100
AcDbLine
 10
-0.1969322296955356
 20
-0.9983333333333334
 30
0.0
 11
-0.1969322296955356
 21
-1.438333333333333
 31
0.0
  0
LINE
  5
146
330
11C
100
AcDbEntity
  8
AM_9
100
AcDbLine
 10
-0.2121546127903873
 20
-1.368333333333333
 30
0.0
 11
-0.2121546127903873
 21
-0.9983333333333334
 31
0.0
  0
LINE
  5
147
330
11C
100
AcDbEntity
  8
AM_9
100
AcDbLine
 10
-0.3876917239675319
 20
-0.9983333333333334
 30
0.0
 11
-0.3876917239675319
 21
-1.368333333333333
 31
0.0
  0
LINE
  5
148
330
11C
100
AcDbEntity
  8
AM_9
100
AcDbLine
 10
0.5022057348689716
 20
-1.368333333333333
 30
0.0
 11
0.5022057348689715
 21
-1.438333333333333
 31
0.0
  0
LINE
  5
149
330
11C
100
AcDbEntity
  8
AM_9
100
AcDbLine
 10
0.7080643216194042
 20
-1.368333333333333
 30
0.0
 11
0.7080643216194042
 21
-1.438333333333333
 31
0.0
  0
LINE
  5
14A
330
11C
100
AcDbEntity
  8
AM_9
100
AcDbLine
 10
0.8424146100448484
 20
-1.368333333333333
 30
0.0
 11
0.8424146100448484
 21
-1.438333333333333
 31
0.0
  0
LINE
  5
14B
330
11C
100
AcDbEntity
  8
AM_9
100
AcDbLine
 10
0.8703027331320834
 20
-1.438333333333333
 30
0.0
 11
0.8703027331320834
 21
-1.368333333333333
 31
0.0
  0
LINE
  5
14C
330
11C
100
AcDbEntity
  8
AM_9
100
AcDbLine
 10
-0.8424146100448481
 20
-1.368333333333333
 30
0.0
 11
-0.8424146100448481
 21
-1.438333333333333
 31
0.0
  0
LINE
  5
14D
330
11C
100
AcDbEntity
  8
AM_9
100
AcDbLine
 10
-0.7080643216193956
 20
-1.368333333333333
 30
0.0
 11
-0.7080643216193956
 21
-1.438333333333333
 31
0.0
  0
LINE
  5
14E
330
11C
100
AcDbEntity
  8
AM_9
100
AcDbLine
 10
-0.8703027331320834
 20
-1.368333333333333
 30
0.0
 11
-0.8703027331320834
 21
-1.438333333333333
 31
0.0
  0
LINE
  5
14F
330
11C
100
AcDbEntity
  8
AM_9
100
AcDbLine
 10
-0.0949999999999999
 20
-1.368333333333333
 30
0.0
 11
-0.0949999999999999
 21
-1.438333333333333
 31
0.0
  0
LINE
  5
150
330
11C
100
AcDbEntity
  8
AM_9
100
AcDbLine
 10
0.0950000000000001
 20
-1.368333333333333
 30
0.0
 11
0.0949999999999999
 21
-1.438333333333333
 31
0.0
  0
LINE
  5
151
330
11C
100
AcDbEntity
  8
AM_4
100
AcDbLine
 10
-1.359375
 20
-1.368333333333333
 30
0.0
 11
-1.359375
 21
-1.438333333333333
 31
0.0
  0
LINE
  5
152
330
11C
100
AcDbEntity
  8
AM_4
100
AcDbLine
 10
1.359375
 20
-1.438333333333333
 30
0.0
 11
1.359375
 21
-1.368333333333333
 31
0.0
  0
LINE
  5
153
330
11C
100
AcDbEntity
  8
AM_4
100
AcDbLine
 10
-1.359375
 20
-1.438333333333333
 30
0.0
 11
1.359375
 21
-1.438333333333333
 31
0.0
  0
LINE
  5
154
330
11C
100
AcDbEntity
  8
AM_4
100
AcDbLine
 10
-1.359375
 20
-1.368333333333333
 30
0.0
 11
1.359375
 21
-1.368333333333333
 31
0.0
  0
ENDBLK
  5
11F
330
11C
100
AcDbEntity
  8
0
100
AcDbBlockEnd
  0
BLOCK
  5
157
330
155
100
AcDbEntity
  8
0
100
AcDbBlockBegin
  2
6_070885E_0_in_071576_4
 70
     2
 10
0.0
 20
0.0
 30
0.0
  3
6_070885E_0_in_071576_4
  1

  0
ATTDEF
  5
159
330
155
100
AcDbEntity
  8
AM_6
100
AcDbText
 10
6.5748
 20
1.23
 30
0.0
 40
0.5
  1
Imperial/E Insert -Inch
100
AcDbAttributeDefinition
  3

  2
NN
 70
     8
280
     0
  0
ATTDEF
  5
15A
330
155
100
AcDbEntity
  8
AM_6
100
AcDbText
 10
6.5748
 20
0.7300000000000002
 30
0.0
 40
0.5
  1
Imperial Bearings
100
AcDbAttributeDefinition
  3

  2
NT
 70
     8
280
     0
  0
ATTDEF
  5
15B
330
155
100
AcDbEntity
  8
AM_6
100
AcDbText
 10
6.5748
 20
0.2300000000000002
 30
0.0
 40
0.5
  1
070885E
100
AcDbAttributeDefinition
  3

  2
NB
 70
     8
280
     0
  0
ATTDEF
  5
15C
330
155
100
AcDbEntity
  8
AM_6
100
AcDbText
 10
6.5748
 20
-0.2699999999999998
 30
0.0
 40
0.5
  1
$PN.
100
AcDbAttributeDefinition
  3

  2
NBSYN
 70
     8
280
     0
  0
ATTDEF
  5
15D
330
155
100
AcDbEntity
  8
AM_6
100
AcDbText
 10
6.5748
 20
-0.7699999999999998
 30
0.0
 40
0.5
  1
070885E
100
AcDbAttributeDefinition
  3

  2
LINA
 70
     8
280
     0
  0
ATTDEF
  5
15E
330
155
100
AcDbEntity
  8
AM_6
100
AcDbText
 10
6.5748
 20
-1.27
 30
0.0
 40
0.5
  1
1-1/2
100
AcDbAttributeDefinition
  3

  2
SS
 70
     8
280
     0
  0
ATTDEF
  5
15F
330
155
100
AcDbEntity
  8
AM_6
100
AcDbText
 10
6.5748
 20
-1.77
 30
0.0
 40
0.5
  1
1.500000
100
AcDbAttributeDefinition
  3

  2
SS1
 70
     8
280
     0
  0
ATTDEF
  5
160
330
155
100
AcDbEntity
  8
AM_6
100
AcDbText
 10
6.5748
 20
-2.27
 30
0.0
 40
0.5
  1
070885E
100
AcDbAttributeDefinition
  3

  2
PN
 70
     8
280
     0
  0
ATTDEF
  5
161
330
155
100
AcDbEntity
  8
AM_6
100
AcDbText
 10
6.5748
 20
-2.77
 30
0.0
 40
0.5
  1
INS-IP-108R
100
AcDbAttributeDefinition
  3

  2
DESCRIPTION
 70
     8
280
     0
  0
ATTDEF
  5
162
330
155
100
AcDbEntity
  8
AM_6
100
AcDbText
 10
6.5748
 20
-3.27
 30
0.0
 40
0.5
  1
Contact Seal
100
AcDbAttributeDefinition
  3

  2
ST
 70
     8
280
     0
  0
ATTDEF
  5
163
330
155
100
AcDbEntity
  8
AM_6
100
AcDbText
 10
6.5748
 20
-3.77
 30
0.0
 40
0.5
  1
1
100
AcDbAttributeDefinition
  3

  2
ST1
 70
     8
280
     0
  0
ATTDEF
  5
164
330
155
100
AcDbEntity
  8
AM_6
100
AcDbText
 10
6.5748
 20
-4.27
 30
0.0
 40
0.5
  1
3.1496
100
AcDbAttributeDefinition
  3

  2
A
 70
     8
280
     0
  0
ATTDEF
  5
165
330
155
100
AcDbEntity
  8
AM_6
100
AcDbText
 10
6.5748
 20
-4.77
 30
0.0
 40
0.5
  1
61/64
100
AcDbAttributeDefinition
  3

  2
B
 70
     8
280
     0
  0
ATTDEF
  5
166
330
155
100
AcDbEntity
  8
AM_6
100
AcDbText
 10
6.5748
 20
-5.27
 30
0.0
 40
0.5
  1
0.953125
100
AcDbAttributeDefinition
  3

  2
B1
 70
     8
280
     0
  0
ATTDEF
  5
167
330
155
100
AcDbEntity
  8
AM_6
100
AcDbText
 10
6.5748
 20
-5.77
 30
0.0
 40
0.5
  1
2-5/8
100
AcDbAttributeDefinition
  3

  2
C
 70
     8
280
     0
  0
ATTDEF
  5
168
330
155
100
AcDbEntity
  8
AM_6
100
AcDbText
 10
6.5748
 20
-6.27
 30
0.0
 40
0.5
  1
2.810000
100
AcDbAttributeDefinition
  3

  2
C1
 70
     8
280
     0
  0
ATTDEF
  5
169
330
155
100
AcDbEntity
  8
AM_6
100
AcDbText
 10
6.5748
 20
-6.77
 30
0.0
 40
0.5
  1
3.64000
100
AcDbAttributeDefinition
  3

  2
CR
 70
     8
280
     0
  0
ATTDEF
  5
16A
330
155
100
AcDbEntity
  8
AM_6
100
AcDbText
 10
6.5748
 20
-7.27
 30
0.0
 40
0.5
  1
0.970
100
AcDbAttributeDefinition
  3

  2
D
 70
     8
280
     0
  0
ATTDEF
  5
16B
330
155
100
AcDbEntity
  8
AM_6
100
AcDbText
 10
6.5748
 20
-7.77
 30
0.0
 40
0.5
  1
2-23/32
100
AcDbAttributeDefinition
  3

  2
E
 70
     8
280
     0
  0
ATTDEF
  5
16C
330
155
100
AcDbEntity
  8
AM_6
100
AcDbText
 10
6.5748
 20
-8.27
 30
0.0
 40
0.5
  1
2.718750
100
AcDbAttributeDefinition
  3

  2
E1
 70
     8
280
     0
  0
ATTDEF
  5
16D
330
155
100
AcDbEntity
  8
AM_6
100
AcDbText
 10
6.5748
 20
-8.77
 30
0.0
 40
0.5
  1
0.1900
100
AcDbAttributeDefinition
  3

  2
NDM
 70
     8
280
     0
  0
ATTDEF
  5
16E
330
155
100
AcDbEntity
  8
AM_6
100
AcDbText
 10
6.5748
 20
-9.27
 30
0.0
 40
0.5
  1
0.1450
100
AcDbAttributeDefinition
  3

  2
KDM
 70
     8
280
     0
  0
ATTDEF
  5
16F
330
155
100
AcDbEntity
  8
AM_6
100
AcDbText
 10
6.5748
 20
-9.77
 30
0.0
 40
0.5
  1
2.22
100
AcDbAttributeDefinition
  3

  2
AL
 70
     8
280
     0
  0
ATTDEF
  5
170
330
155
100
AcDbEntity
  8
AM_6
100
AcDbText
 10
6.5748
 20
-10.27
 30
0.0
 40
0.5
  1
0.38
100
AcDbAttributeDefinition
  3

  2
BL
 70
     8
280
     0
  0
ATTDEF
  5
171
330
155
100
AcDbEntity
  8
AM_6
100
AcDbText
 10
6.5748
 20
-10.77
 30
0.0
 40
0.5
  1
0.07
100
AcDbAttributeDefinition
  3

  2
CL
 70
     8
280
     0
  0
ATTDEF
  5
172
330
155
100
AcDbEntity
  8
AM_6
100
AcDbText
 10
6.5748
 20
-11.27
 30
0.0
 40
0.5
  1
0.44
100
AcDbAttributeDefinition
  3

  2
DL
 70
     8
280
     0
  0
ATTDEF
  5
173
330
155
100
AcDbEntity
  8
AM_6
100
AcDbText
 10
6.5748
 20
-11.77
 30
0.0
 40
0.5
  1
0.8000
100
AcDbAttributeDefinition
  3

  2
LL
 70
     8
280
     0
  0
ATTDEF
  5
174
330
155
100
AcDbEntity
  8
AM_6
100
AcDbText
 10
6.5748
 20
-12.27
 30
0.0
 40
0.5
  1
0.020
100
AcDbAttributeDefinition
  3

  2
Y
 70
     8
280
     0
  0
ATTDEF
  5
175
330
155
100
AcDbEntity
  8
AM_6
100
AcDbText
 10
6.5748
 20
-12.77
 30
0.0
 40
0.5
  1
0.020000
100
AcDbAttributeDefinition
  3

  2
Y1
 70
     8
280
     0
  0
ATTDEF
  5
176
330
155
100
AcDbEntity
  8
AM_6
100
AcDbText
 10
6.5748
 20
-13.27
 30
0.0
 40
0.5
  1
1-51/64
100
AcDbAttributeDefinition
  3

  2
Z
 70
     8
280
     0
  0
ATTDEF
  5
177
330
155
100
AcDbEntity
  8
AM_6
100
AcDbText
 10
6.5748
 20
-13.77
 30
0.0
 40
0.5
  1
1.796875
100
AcDbAttributeDefinition
  3

  2
Z1
 70
     8
280
     0
  0
ATTDEF
  5
178
330
155
100
AcDbEntity
  8
AM_6
100
AcDbText
 10
6.5748
 20
-14.27
 30
0.0
 40
0.5
  1
0.83000
100
AcDbAttributeDefinition
  3

  2
P1
 70
     8
280
     0
  0
ATTDEF
  5
179
330
155
100
AcDbEntity
  8
AM_6
100
AcDbText
 10
6.5748
 20
-14.77
 30
0.0
 40
0.5
  1
1.19000
100
AcDbAttributeDefinition
  3

  2
H1
 70
     8
280
     0
  0
ATTDEF
  5
17A
330
155
100
AcDbEntity
  8
AM_6
100
AcDbText
 10
6.5748
 20
-15.27
 30
0.0
 40
0.5
  1
0.67000
100
AcDbAttributeDefinition
  3

  2
G1
 70
     8
280
     0
  0
ATTDEF
  5
17B
330
155
100
AcDbEntity
  8
AM_6
100
AcDbText
 10
6.5748
 20
-15.77
 30
0.0
 40
0.5
  1
0.10100
100
AcDbAttributeDefinition
  3

  2
CW
 70
     8
280
     0
  0
ATTDEF
  5
17C
330
155
100
AcDbEntity
  8
AM_6
100
AcDbText
 10
6.5748
 20
-16.27
 30
0.0
 40
0.5
  1
3.00000
100
AcDbAttributeDefinition
  3

  2
L1
 70
     8
280
     0
  0
ATTDEF
  5
17D
330
155
100
AcDbEntity
  8
AM_6
100
AcDbText
 10
6.5748
 20
-16.77
 30
0.0
 40
0.5
  1
baldor
100
AcDbAttributeDefinition
  3

  2
COMPANY
 70
     8
280
     0
  0
LINE
  5
17E
330
155
100
AcDbEntity
  8
AM_9
100
AcDbLine
 10
-0.1969322296955357
 20
0.7165625000000001
 30
0.0
 11
-0.1969322296955358
 21
-1.6
 31
0.0
  0
LINE
  5
17F
330
155
100
AcDbEntity
  8
AM_9
100
AcDbLine
 10
-0.3724693408726802
 20
-1.438333333333333
 30
0.0
 11
-0.3724693408726802
 21
0.7165625000000001
 31
0.0
  0
LINE
  5
180
330
155
100
AcDbEntity
  8
AM_9
100
AcDbLine
 10
-0.7499999999999997
 20
0.7165625000000003
 30
0.0
 11
-0.7499999999999997
 21
-1.599999999999999
 31
0.0
  0
LINE
  5
181
330
155
100
AcDbEntity
  8
AM_9
100
AcDbLine
 10
0.7499999999999997
 20
-1.599999999999999
 30
0.0
 11
0.7499999999999997
 21
0.7165625000000003
 31
0.0
  0
LINE
  5
182
330
155
100
AcDbEntity
  8
AM_9
100
AcDbLine
 10
-0.7894736842105261
 20
1.21
 30
0.0
 11
-0.7894736842105261
 21
0.7165625000000003
 31
0.0
  0
LINE
  5
183
330
155
100
AcDbEntity
  8
AM_9
100
AcDbLine
 10
0.7894736842105261
 20
0.7165625000000003
 30
0.0
 11
0.7894736842105261
 21
1.21
 31
0.0
  0
LINE
  5
184
330
155
100
AcDbEntity
  8
AM_9
100
AcDbLine
 10
-0.2121546127903875
 20
-1.438333333333333
 30
0.0
 11
-0.21295757853138
 21
0.7165625000000001
 31
0.0
  0
LINE
  5
185
330
155
100
AcDbEntity
  8
AM_9
100
AcDbLine
 10
-0.3884946897085244
 20
0.7165625000000001
 30
0.0
 11
-0.387691723967532
 21
-1.438333333333333
 31
0.0
  0
LINE
  5
186
330
155
100
AcDbEntity
  8
AM_9
100
AcDbLine
 10
-0.7894736842105263
 20
-1.368333333333333
 30
0.0
 11
-0.7894736842105263
 21
-1.438333333333333
 31
0.0
  0
LINE
  5
187
330
155
100
AcDbEntity
  8
AM_9
100
AcDbLine
 10
0.7894736842105263
 20
-1.438333333333333
 30
0.0
 11
0.7894736842105263
 21
-1.368333333333333
 31
0.0
  0
LINE
  5
188
330
155
100
AcDbEntity
  8
AM_9
100
AcDbLine
 10
0.8984375000000001
 20
1.21
 30
0.0
 11
-0.8984375000000001
 21
1.21
 31
0.0
  0
LINE
  5
189
330
155
100
AcDbEntity
  8
AM_9
100
AcDbLine
 10
-0.8984375000000001
 20
1.23
 30
0.0
 11
-0.8984375000000001
 21
1.21
 31
0.0
  0
LINE
  5
18A
330
155
100
AcDbEntity
  8
AM_9
100
AcDbLine
 10
0.8984375000000001
 20
1.21
 30
0.0
 11
0.8984375000000001
 21
1.23
 31
0.0
  0
LINE
  5
18B
330
155
100
AcDbEntity
  8
AM_9
100
AcDbLine
 10
0.650538238691624
 20
-0.9283333333333333
 30
0.0
 11
0.650538238691624
 21
-1.368333333333333
 31
0.0
  0
LINE
  5
18C
330
155
100
AcDbEntity
  8
AM_9
100
AcDbLine
 10
-0.6505382386916237
 20
-0.9283333333333333
 30
0.0
 11
-0.6505382386916237
 21
-1.368333333333333
 31
0.0
  0
LINE
  5
18D
330
155
100
AcDbEntity
  8
AM_9
100
AcDbLine
 10
0.650538238691624
 20
-0.9283333333333333
 30
0.0
 11
0.8229218771461462
 21
-0.9283333333333333
 31
0.0
  0
LINE
  5
18E
330
155
100
AcDbEntity
  8
AM_9
100
AcDbLine
 10
-0.8229218771461462
 20
-0.9283333333333333
 30
0.0
 11
-0.6505382386916237
 21
-0.9283333333333333
 31
0.0
  0
LINE
  5
18F
330
155
100
AcDbEntity
  8
AM_9
100
AcDbLine
 10
0.0
 20
-0.5283333333333331
 30
0.0
 11
-0.0724499999999998
 21
-0.5701623603361216
 31
0.0
  0
LINE
  5
190
330
155
100
AcDbEntity
  8
AM_9
100
AcDbLine
 10
0.0724499999999998
 20
-0.5701623603361216
 30
0.0
 11
0.0
 21
-0.5283333333333331
 31
0.0
  0
LINE
  5
191
330
155
100
AcDbEntity
  8
AM_9
100
AcDbLine
 10
0.0724499999999998
 20
-0.5701623603361216
 30
0.0
 11
-0.0724499999999998
 21
-0.5701623603361216
 31
0.0
  0
LINE
  5
192
330
155
100
AcDbEntity
  8
AM_9
100
AcDbLine
 10
-0.0724499999999998
 20
-0.5701623603361216
 30
0.0
 11
-0.0724499999999998
 21
-1.345783333333333
 31
0.0
  0
LINE
  5
193
330
155
100
AcDbEntity
  8
AM_9
100
AcDbLine
 10
0.0724499999999998
 20
-1.345783333333333
 30
0.0
 11
0.0724499999999998
 21
-0.5701623603361216
 31
0.0
  0
LINE
  5
194
330
155
100
AcDbEntity
  8
AM_9
100
AcDbLine
 10
0.0724499999999998
 20
-1.345783333333333
 30
0.0
 11
-0.0724499999999998
 21
-1.345783333333333
 31
0.0
  0
LINE
  5
195
330
155
100
AcDbEntity
  8
AM_9
100
AcDbLine
 10
-0.0724499999999998
 20
-1.345783333333333
 30
0.0
 11
-0.0949999999999999
 21
-1.368333333333333
 31
0.0
  0
LINE
  5
196
330
155
100
AcDbEntity
  8
AM_9
100
AcDbLine
 10
0.0949999999999999
 20
-1.368333333333333
 30
0.0
 11
0.0724499999999998
 21
-1.345783333333333
 31
0.0
  0
LINE
  5
197
330
155
100
AcDbEntity
  8
AM_9
100
AcDbLine
 10
1.197916666666667
 20
1.23
 30
0.0
 11
-1.197916666666667
 21
1.23
 31
0.0
  0
LINE
  5
198
330
155
100
AcDbEntity
  8
AM_9
100
AcDbLine
 10
-1.197916666666667
 20
1.23
 30
0.0
 11
-1.197916666666667
 21
0.9071875000000001
 31
0.0
  0
LINE
  5
199
330
155
100
AcDbEntity
  8
AM_9
100
AcDbLine
 10
1.197916666666667
 20
0.9071875000000001
 30
0.0
 11
1.197916666666667
 21
1.23
 31
0.0
  0
LINE
  5
19A
330
155
100
AcDbEntity
  8
AM_9
100
AcDbLine
 10
1.207007578016766
 20
0.9071875000000001
 30
0.0
 11
-1.207007578010343
 21
0.9071875000000001
 31
0.0
  0
ARC
  5
19B
330
155
100
AcDbEntity
  8
AM_9
100
AcDbCircle
 10
-1.207007578016764
 20
0.8071874999999986
 30
0.0
 40
0.1000000000000015
100
AcDbArc
 50
90.0
 51
149.9999999999996
  0
ARC
  5
19C
330
155
100
AcDbEntity
  8
AM_9
100
AcDbCircle
 10
1.207007578016765
 20
0.8071874999999993
 30
0.0
 40
0.1000000000000006
100
AcDbArc
 50
30.00000000000036
 51
90.0
  0
LINE
  5
19D
330
155
100
AcDbEntity
  8
AM_9
100
AcDbLine
 10
1.293610118395209
 20
0.8571875000000001
 30
0.0
 11
-1.293610118395209
 21
0.8571875000000001
 31
0.0
  0
LINE
  5
19E
330
155
100
AcDbEntity
  8
AM_9
100
AcDbLine
 10
-1.293610118395209
 20
0.8571875000000001
 30
0.0
 11
-1.3748
 21
0.7165625000000003
 31
0.0
  0
LINE
  5
19F
330
155
100
AcDbEntity
  8
AM_9
100
AcDbLine
 10
1.3748
 20
0.7165625000000003
 30
0.0
 11
1.293610118395209
 21
0.8571875000000001
 31
0.0
  0
LINE
  5
1A0
330
155
100
AcDbEntity
  8
AM_9
100
AcDbLine
 10
1.371913554973436
 20
-0.6499999999999996
 30
0.0
 11
1.378272611777662
 21
-0.2856898796781356
 31
0.0
  0
LINE
  5
1A1
330
155
100
AcDbEntity
  8
AM_9
100
AcDbLine
 10
-1.378272611777662
 20
-0.2856898796781356
 30
0.0
 11
-1.371913554973436
 21
-0.6499999999999996
 31
0.0
  0
LINE
  5
1A2
330
155
100
AcDbEntity
  8
AM_9
100
AcDbLine
 10
1.378272611777662
 20
-0.2856898796781356
 30
0.0
 11
-1.378272611777662
 21
-0.2856898796781356
 31
0.0
  0
ARC
  5
1A3
330
155
100
AcDbEntity
  8
AM_9
100
AcDbCircle
 10
-1.428264996535481
 20
-0.2865624999999999
 30
0.0
 40
0.0500000000000001
100
AcDbArc
 50
0.9999999999999003
 51
90.0
  0
ARC
  5
1A4
330
155
100
AcDbEntity
  8
AM_9
100
AcDbCircle
 10
1.428264996535481
 20
-0.2865624999999999
 30
0.0
 40
0.05
100
AcDbArc
 50
90.0
 51
179.0000000000001
  0
LINE
  5
1A5
330
155
100
AcDbEntity
  8
AM_9
100
AcDbLine
 10
-1.52714375
 20
0.2475143487660684
 30
0.0
 11
-1.52714375
 21
0.1924856512339319
 31
0.0
  0
LINE
  5
1A6
330
155
100
AcDbEntity
  8
AM_9
100
AcDbLine
 10
1.52714375
 20
0.1924856512339319
 30
0.0
 11
1.52714375
 21
0.2475143487660684
 31
0.0
  0
LINE
  5
1A7
330
155
100
AcDbEntity
  8
AM_9
100
AcDbLine
 10
1.5248
 20
0.7165625
 30
0.0
 11
-1.524799999999348
 21
0.7165625
 31
0.0
  0
ARC
  5
1A8
330
155
100
AcDbEntity
  8
AM_9
100
AcDbCircle
 10
-1.524800000000001
 20
0.6665625000000008
 30
0.0
 40
0.0499999999999992
100
AcDbArc
 50
90.0
 51
180.0
  0
ARC
  5
1A9
330
155
100
AcDbEntity
  8
AM_9
100
AcDbCircle
 10
1.524800000000001
 20
0.6665625000000008
 30
0.0
 40
0.0499999999999992
100
AcDbArc
 50
0.0
 51
90.0
  0
LINE
  5
1AA
330
155
100
AcDbEntity
  8
AM_9
100
AcDbLine
 10
1.52714375
 20
0.2475143487660684
 30
0.0
 11
-1.52714375
 21
0.2475143487660684
 31
0.0
  0
LINE
  5
1AB
330
155
100
AcDbEntity
  8
AM_9
100
AcDbLine
 10
1.52714375
 20
0.2475143487660684
 30
0.0
 11
1.5748
 21
0.2750286975321363
 31
0.0
  0
LINE
  5
1AC
330
155
100
AcDbEntity
  8
AM_9
100
AcDbLine
 10
-1.5748
 20
0.2750286975321363
 30
0.0
 11
-1.52714375
 21
0.2475143487660684
 31
0.0
  0
LINE
  5
1AD
330
155
100
AcDbEntity
  8
AM_9
100
AcDbLine
 10
1.5748
 20
0.6665625
 30
0.0
 11
-1.5748
 21
0.6665625
 31
0.0
  0
LINE
  5
1AE
330
155
100
AcDbEntity
  8
AM_9
100
AcDbLine
 10
1.5748
 20
0.2750286975321363
 30
0.0
 11
-1.5748
 21
0.2750286975321363
 31
0.0
  0
LINE
  5
1AF
330
155
100
AcDbEntity
  8
AM_9
100
AcDbLine
 10
-1.5748
 20
0.6665625
 30
0.0
 11
-1.5748
 21
0.2750286975321363
 31
0.0
  0
LINE
  5
1B0
330
155
100
AcDbEntity
  8
AM_9
100
AcDbLine
 10
1.5748
 20
0.2750286975321363
 30
0.0
 11
1.5748
 21
0.6665625
 31
0.0
  0
LINE
  5
1B1
330
155
100
AcDbEntity
  8
AM_9
100
AcDbLine
 10
1.5648
 20
-0.2365624999999999
 30
0.0
 11
-1.564799999996096
 21
-0.2365624999999999
 31
0.0
  0
ARC
  5
1B2
330
155
100
AcDbEntity
  8
AM_9
100
AcDbCircle
 10
-1.564800000000001
 20
-0.2265625000000009
 30
0.0
 40
0.0099999999999989
100
AcDbArc
 50
180.0
 51
270.0
  0
ARC
  5
1B3
330
155
100
AcDbEntity
  8
AM_9
100
AcDbCircle
 10
1.564800000000001
 20
-0.2265625000000009
 30
0.0
 40
0.009999999999999
100
AcDbArc
 50
270.0
 51
0.0
  0
LINE
  5
1B4
330
155
100
AcDbEntity
  8
AM_9
100
AcDbLine
 10
1.5748
 20
-0.2265625000000006
 30
0.0
 11
-1.5748
 21
-0.2265625000000006
 31
0.0
  0
LINE
  5
1B5
330
155
100
AcDbEntity
  8
AM_9
100
AcDbLine
 10
-1.5748
 20
0.164971302467864
 30
0.0
 11
-1.5748
 21
-0.2265625000000006
 31
0.0
  0
LINE
  5
1B6
330
155
100
AcDbEntity
  8
AM_9
100
AcDbLine
 10
1.5748
 20
-0.2265625000000006
 30
0.0
 11
1.5748
 21
0.164971302467864
 31
0.0
  0
LINE
  5
1B7
330
155
100
AcDbEntity
  8
AM_9
100
AcDbLine
 10
1.52714375
 20
0.1924856512339319
 30
0.0
 11
-1.52714375
 21
0.1924856512339319
 31
0.0
  0
LINE
  5
1B8
330
155
100
AcDbEntity
  8
AM_9
100
AcDbLine
 10
1.5748
 20
0.164971302467864
 30
0.0
 11
-1.5748
 21
0.164971302467864
 31
0.0
  0
LINE
  5
1B9
330
155
100
AcDbEntity
  8
AM_9
100
AcDbLine
 10
-1.52714375
 20
0.1924856512339319
 30
0.0
 11
-1.5748
 21
0.164971302467864
 31
0.0
  0
LINE
  5
1BA
330
155
100
AcDbEntity
  8
AM_9
100
AcDbLine
 10
1.5748
 20
0.164971302467864
 30
0.0
 11
1.52714375
 21
0.1924856512339319
 31
0.0
  0
LINE
  5
1BB
330
155
100
AcDbEntity
  8
AM_5
100
AcDbLine
 10
0.095
 20
-0.6683333333333333
 30
0.0
 11
0.0794273103968573
 21
-0.6413606437301906
 31
0.0
  0
LINE
  5
1BC
330
155
100
AcDbEntity
  8
AM_5
100
AcDbLine
 10
0.0949999999999999
 20
-1.368333333333333
 30
0.0
 11
0.0949999999999999
 21
-0.6683333333333292
 31
0.0
  0
LINE
  5
1BD
330
155
100
AcDbEntity
  8
AM_5
100
AcDbLine
 10
-0.0950000000000001
 20
-1.368333333333333
 30
0.0
 11
-0.0950000000000001
 21
-0.6683333333333292
 31
0.0
  0
LINE
  5
1BE
330
155
100
AcDbEntity
  8
AM_5
100
AcDbLine
 10
-0.095
 20
-0.6683333333333296
 30
0.0
 11
-0.0794273103968638
 21
-0.641360643730197
 31
0.0
  0
LINE
  5
1BF
330
155
100
AcDbEntity
  8
AM_4
100
AcDbLine
 10
-0.3724693408726803
 20
-1.6
 30
0.0
 11
-0.3724693408726802
 21
-1.438333333333333
 31
0.0
  0
LINE
  5
1C0
330
155
100
AcDbEntity
  8
AM_4
100
AcDbLine
 10
-0.2121546127903875
 20
-1.6
 30
0.0
 11
-0.2121546127903875
 21
-1.438333333333333
 31
0.0
  0
LINE
  5
1C1
330
155
100
AcDbEntity
  8
AM_4
100
AcDbLine
 10
-0.387691723967532
 20
-1.438333333333333
 30
0.0
 11
-0.387691723967532
 21
-1.6
 31
0.0
  0
LINE
  5
1C2
330
155
100
AcDbEntity
  8
AM_4
100
AcDbLine
 10
-0.7894736842105263
 20
-1.438333333333333
 30
0.0
 11
-0.7894736842105263
 21
-1.6
 31
0.0
  0
LINE
  5
1C3
330
155
100
AcDbEntity
  8
AM_4
100
AcDbLine
 10
0.7894736842105263
 20
-1.6
 30
0.0
 11
0.7894736842105263
 21
-1.438333333333333
 31
0.0
  0
LINE
  5
1C4
330
155
100
AcDbEntity
  8
AM_4
100
AcDbLine
 10
0.7894736842105263
 20
-1.6
 30
0.0
 11
-0.7894736842105263
 21
-1.6
 31
0.0
  0
LINE
  5
1C5
330
155
100
AcDbEntity
  8
AM_4
100
AcDbLine
 10
0.9192388155425123
 20
-0.9283333333333333
 30
0.0
 11
0.9192388155425123
 21
-1.368333333333333
 31
0.0
  0
LINE
  5
1C6
330
155
100
AcDbEntity
  8
AM_4
100
AcDbLine
 10
-0.9192388155425117
 20
-0.9283333333333333
 30
0.0
 11
-0.9192388155425117
 21
-1.368333333333333
 31
0.0
  0
LINE
  5
1C7
330
155
100
AcDbEntity
  8
AM_4
100
AcDbLine
 10
-1.086138182502953
 20
-1.368333333333333
 30
0.0
 11
-1.359375
 21
-1.368333333333333
 31
0.0
  0
LINE
  5
1C8
330
155
100
AcDbEntity
  8
AM_4
100
AcDbLine
 10
-1.086138182502953
 20
-1.368333333333333
 30
0.0
 11
-1.091622453997034
 21
-0.9283333333333333
 31
0.0
  0
LINE
  5
1C9
330
155
100
AcDbEntity
  8
AM_4
100
AcDbLine
 10
-1.091622453997034
 20
-0.9283333333333333
 30
0.0
 11
-0.8229218771461462
 21
-0.9283333333333333
 31
0.0
  0
LINE
  5
1CA
330
155
100
AcDbEntity
  8
AM_4
100
AcDbLine
 10
-0.8229218771461462
 20
-0.9283333333333333
 30
0.0
 11
-0.8174376056520651
 21
-1.368333333333333
 31
0.0
  0
LINE
  5
1CB
330
155
100
AcDbEntity
  8
AM_4
100
AcDbLine
 10
0.8174376056520651
 20
-1.368333333333333
 30
0.0
 11
-0.8174376056520651
 21
-1.368333333333333
 31
0.0
  0
LINE
  5
1CC
330
155
100
AcDbEntity
  8
AM_4
100
AcDbLine
 10
0.8174376056520651
 20
-1.368333333333333
 30
0.0
 11
0.8229218771461462
 21
-0.9283333333333333
 31
0.0
  0
LINE
  5
1CD
330
155
100
AcDbEntity
  8
AM_4
100
AcDbLine
 10
0.8229218771461462
 20
-0.9283333333333333
 30
0.0
 11
1.091622453997035
 21
-0.9283333333333333
 31
0.0
  0
LINE
  5
1CE
330
155
100
AcDbEntity
  8
AM_4
100
AcDbLine
 10
1.091622453997035
 20
-0.9283333333333333
 30
0.0
 11
1.086138182502953
 21
-1.368333333333333
 31
0.0
  0
LINE
  5
1CF
330
155
100
AcDbEntity
  8
AM_4
100
AcDbLine
 10
1.359375
 20
-1.368333333333333
 30
0.0
 11
1.371913554973436
 21
-0.6499999999999996
 31
0.0
  0
LINE
  5
1D0
330
155
100
AcDbEntity
  8
AM_4
100
AcDbLine
 10
-1.371913554973436
 20
-0.6499999999999996
 30
0.0
 11
-1.359375
 21
-1.368333333333333
 31
0.0
  0
LINE
  5
1D1
330
155
100
AcDbEntity
  8
AM_4
100
AcDbLine
 10
1.359375
 20
-1.368333333333333
 30
0.0
 11
1.086138182502953
 21
-1.368333333333333
 31
0.0
  0
ENDBLK
  5
158
330
155
100
AcDbEntity
  8
0
100
AcDbBlockEnd
  0
BLOCK
  5
1D4
330
1D2
100
AcDbEntity
  8
0
100
AcDbBlockBegin
  2
7_071576H_0_in_071576_4
 70
     2
 10
0.0
 20
0.0
 30
0.0
  3
7_071576H_0_in_071576_4
  1

  0
ATTDEF
  5
1D6
330
1D2
100
AcDbEntity
  8
AM_6
100
AcDbText
 10
8.065
 20
1.6632
 30
0.0
 40
0.5
  1
EFC-IP -(Contact Seal)-Housing -Inch
100
AcDbAttributeDefinition
  3

  2
NN
 70
     8
280
     0
  0
ATTDEF
  5
1D7
330
1D2
100
AcDbEntity
  8
AM_6
100
AcDbText
 10
8.065
 20
1.1632
 30
0.0
 40
0.5
  1
Imperial/E Piloted Flange Bearings
100
AcDbAttributeDefinition
  3

  2
NT
 70
     8
280
     0
  0
ATTDEF
  5
1D8
330
1D2
100
AcDbEntity
  8
AM_6
100
AcDbText
 10
8.065
 20
0.6631999999999998
 30
0.0
 40
0.5
  1
071576H
100
AcDbAttributeDefinition
  3

  2
NB
 70
     8
280
     0
  0
ATTDEF
  5
1D9
330
1D2
100
AcDbEntity
  8
AM_6
100
AcDbText
 10
8.065
 20
0.1631999999999998
 30
0.0
 40
0.5
  1
$PN.H
100
AcDbAttributeDefinition
  3

  2
NBSYN
 70
     8
280
     0
  0
ATTDEF
  5
1DA
330
1D2
100
AcDbEntity
  8
AM_6
100
AcDbText
 10
8.065
 20
-0.3368000000000002
 30
0.0
 40
0.5
  1
071576
100
AcDbAttributeDefinition
  3

  2
LINA
 70
     8
280
     0
  0
ATTDEF
  5
1DB
330
1D2
100
AcDbEntity
  8
AM_6
100
AcDbText
 10
8.065
 20
-0.8368000000000002
 30
0.0
 40
0.5
  1
1-1/2
100
AcDbAttributeDefinition
  3

  2
SS
 70
     8
280
     0
  0
ATTDEF
  5
1DC
330
1D2
100
AcDbEntity
  8
AM_6
100
AcDbText
 10
8.065
 20
-1.3368
 30
0.0
 40
0.5
  1
1.500000
100
AcDbAttributeDefinition
  3

  2
SS1
 70
     8
280
     0
  0
ATTDEF
  5
1DD
330
1D2
100
AcDbEntity
  8
AM_6
100
AcDbText
 10
8.065
 20
-1.8368
 30
0.0
 40
0.5
  1
Non-Expansion
100
AcDbAttributeDefinition
  3

  2
TYPE
 70
     8
280
     0
  0
ATTDEF
  5
1DE
330
1D2
100
AcDbEntity
  8
AM_6
100
AcDbText
 10
8.065
 20
-2.3368
 30
0.0
 40
0.5
  1
071576
100
AcDbAttributeDefinition
  3

  2
PN1
 70
     8
280
     0
  0
ATTDEF
  5
1DF
330
1D2
100
AcDbEntity
  8
AM_6
100
AcDbText
 10
8.065
 20
-2.8368
 30
0.0
 40
0.5
  1
071579
100
AcDbAttributeDefinition
  3

  2
PN2
 70
     8
280
     0
  0
ATTDEF
  5
1E0
330
1D2
100
AcDbEntity
  8
AM_6
100
AcDbText
 10
8.065
 20
-3.3368
 30
0.0
 40
0.5
  1
FC-IP-108R
100
AcDbAttributeDefinition
  3

  2
DESCRIPTION
 70
     8
280
     0
  0
ATTDEF
  5
1E1
330
1D2
100
AcDbEntity
  8
AM_6
100
AcDbText
 10
8.065
 20
-3.8368
 30
0.0
 40
0.5
  1
Non-Expansion Type
100
AcDbAttributeDefinition
  3

  2
EF
 70
     8
280
     0
  0
ATTDEF
  5
1E2
330
1D2
100
AcDbEntity
  8
AM_6
100
AcDbText
 10
8.065
 20
-4.3368
 30
0.0
 40
0.5
  1
1
100
AcDbAttributeDefinition
  3

  2
EF1
 70
     8
280
     0
  0
ATTDEF
  5
1E3
330
1D2
100
AcDbEntity
  8
AM_6
100
AcDbText
 10
8.065
 20
-4.8368
 30
0.0
 40
0.5
  1
Contact Seal
100
AcDbAttributeDefinition
  3

  2
ST
 70
     8
280
     0
  0
ATTDEF
  5
1E4
330
1D2
100
AcDbEntity
  8
AM_6
100
AcDbText
 10
8.065
 20
-5.3368
 30
0.0
 40
0.5
  1
1
100
AcDbAttributeDefinition
  3

  2
ST1
 70
     8
280
     0
  0
ATTDEF
  5
1E5
330
1D2
100
AcDbEntity
  8
AM_6
100
AcDbText
 10
8.065
 20
-5.8368
 30
0.0
 40
0.5
  1
2.81
100
AcDbAttributeDefinition
  3

  2
A
 70
     8
280
     0
  0
ATTDEF
  5
1E6
330
1D2
100
AcDbEntity
  8
AM_6
100
AcDbText
 10
8.065
 20
-6.3368
 30
0.0
 40
0.5
  1
2.8100000
100
AcDbAttributeDefinition
  3

  2
A1
 70
     8
280
     0
  0
ATTDEF
  5
1E7
330
1D2
100
AcDbEntity
  8
AM_6
100
AcDbText
 10
8.065
 20
-6.8368
 30
0.0
 40
0.5
  1
6.13
100
AcDbAttributeDefinition
  3

  2
B
 70
     8
280
     0
  0
ATTDEF
  5
1E8
330
1D2
100
AcDbEntity
  8
AM_6
100
AcDbText
 10
8.065
 20
-7.3368
 30
0.0
 40
0.5
  1
6.1300000
100
AcDbAttributeDefinition
  3

  2
B1
 70
     8
280
     0
  0
ATTDEF
  5
1E9
330
1D2
100
AcDbEntity
  8
AM_6
100
AcDbText
 10
8.065
 20
-7.8368
 30
0.0
 40
0.5
  1
1.91
100
AcDbAttributeDefinition
  3

  2
C
 70
     8
280
     0
  0
ATTDEF
  5
1EA
330
1D2
100
AcDbEntity
  8
AM_6
100
AcDbText
 10
8.065
 20
-8.3368
 30
0.0
 40
0.5
  1
1.9100000
100
AcDbAttributeDefinition
  3

  2
C1
 70
     8
280
     0
  0
ATTDEF
  5
1EB
330
1D2
100
AcDbEntity
  8
AM_6
100
AcDbText
 10
8.065
 20
-8.8368
 30
0.0
 40
0.5
  1
3.63
100
AcDbAttributeDefinition
  3

  2
D
 70
     8
280
     0
  0
ATTDEF
  5
1EC
330
1D2
100
AcDbEntity
  8
AM_6
100
AcDbText
 10
8.065
 20
-9.3368
 30
0.0
 40
0.5
  1
3.6300000
100
AcDbAttributeDefinition
  3

  2
D1
 70
     8
280
     0
  0
ATTDEF
  5
1ED
330
1D2
100
AcDbEntity
  8
AM_6
100
AcDbText
 10
8.065
 20
-9.8368
 30
0.0
 40
0.5
  1
5.125
100
AcDbAttributeDefinition
  3

  2
DD
 70
     8
280
     0
  0
ATTDEF
  5
1EE
330
1D2
100
AcDbEntity
  8
AM_6
100
AcDbText
 10
8.065
 20
-10.3368
 30
0.0
 40
0.5
  1
5.1250000
100
AcDbAttributeDefinition
  3

  2
DD1
 70
     8
280
     0
  0
ATTDEF
  5
1EF
330
1D2
100
AcDbEntity
  8
AM_6
100
AcDbText
 10
8.065
 20
-10.8368
 30
0.0
 40
0.5
  1
0.88
100
AcDbAttributeDefinition
  3

  2
E
 70
     8
280
     0
  0
ATTDEF
  5
1F0
330
1D2
100
AcDbEntity
  8
AM_6
100
AcDbText
 10
8.065
 20
-11.3368
 30
0.0
 40
0.5
  1
0.880000
100
AcDbAttributeDefinition
  3

  2
E1
 70
     8
280
     0
  0
ATTDEF
  5
1F1
330
1D2
100
AcDbEntity
  8
AM_6
100
AcDbText
 10
8.065
 20
-11.8368
 30
0.0
 40
0.5
  1
7/16
100
AcDbAttributeDefinition
  3

  2
F
 70
     8
280
     0
  0
ATTDEF
  5
1F2
330
1D2
100
AcDbEntity
  8
AM_6
100
AcDbText
 10
8.065
 20
-12.3368
 30
0.0
 40
0.5
  1
0.4375000
100
AcDbAttributeDefinition
  3

  2
F1
 70
     8
280
     0
  0
ATTDEF
  5
1F3
330
1D2
100
AcDbEntity
  8
AM_6
100
AcDbText
 10
8.065
 20
-12.8368
 30
0.0
 40
0.5
  1
1.61
100
AcDbAttributeDefinition
  3

  2
G
 70
     8
280
     0
  0
ATTDEF
  5
1F4
330
1D2
100
AcDbEntity
  8
AM_6
100
AcDbText
 10
8.065
 20
-13.3368
 30
0.0
 40
0.5
  1
1.610000
100
AcDbAttributeDefinition
  3

  2
G1
 70
     8
280
     0
  0
ATTDEF
  5
1F5
330
1D2
100
AcDbEntity
  8
AM_6
100
AcDbText
 10
8.065
 20
-13.8368
 30
0.0
 40
0.5
  1
0.5
100
AcDbAttributeDefinition
  3

  2
H
 70
     8
280
     0
  0
ATTDEF
  5
1F6
330
1D2
100
AcDbEntity
  8
AM_6
100
AcDbText
 10
8.065
 20
-14.3368
 30
0.0
 40
0.5
  1
0.5000000
100
AcDbAttributeDefinition
  3

  2
H1
 70
     8
280
     0
  0
ATTDEF
  5
1F7
330
1D2
100
AcDbEntity
  8
AM_6
100
AcDbText
 10
8.065
 20
-14.8368
 30
0.0
 40
0.5
  1
4.250
100
AcDbAttributeDefinition
  3

  2
K
 70
     8
280
     0
  0
ATTDEF
  5
1F8
330
1D2
100
AcDbEntity
  8
AM_6
100
AcDbText
 10
8.065
 20
-15.3368
 30
0.0
 40
0.5
  1
3.00
100
AcDbAttributeDefinition
  3

  2
L
 70
     8
280
     0
  0
ATTDEF
  5
1F9
330
1D2
100
AcDbEntity
  8
AM_6
100
AcDbText
 10
8.065
 20
-15.8368
 30
0.0
 40
0.5
  1
3.0000000
100
AcDbAttributeDefinition
  3

  2
L1
 70
     8
280
     0
  0
ATTDEF
  5
1FA
330
1D2
100
AcDbEntity
  8
AM_6
100
AcDbText
 10
8.065
 20
-16.3368
 30
0.0
 40
0.5
  1
7/16-14
100
AcDbAttributeDefinition
  3

  2
M
 70
     8
280
     0
  0
ATTDEF
  5
1FB
330
1D2
100
AcDbEntity
  8
AM_6
100
AcDbText
 10
8.065
 20
-16.8368
 30
0.0
 40
0.5
  1
0.437500
100
AcDbAttributeDefinition
  3

  2
NDM
 70
     8
280
     0
  0
ATTDEF
  5
1FC
330
1D2
100
AcDbEntity
  8
AM_6
100
AcDbText
 10
8.065
 20
-17.3368
 30
0.0
 40
0.5
  1
0.360000
100
AcDbAttributeDefinition
  3

  2
KDM
 70
     8
280
     0
  0
ATTDEF
  5
1FD
330
1D2
100
AcDbEntity
  8
AM_6
100
AcDbText
 10
8.065
 20
-17.8368
 30
0.0
 40
0.5
  1
2.86
100
AcDbAttributeDefinition
  3

  2
N
 70
     8
280
     0
  0
ATTDEF
  5
1FE
330
1D2
100
AcDbEntity
  8
AM_6
100
AcDbText
 10
8.065
 20
-18.3368
 30
0.0
 40
0.5
  1
2.860000
100
AcDbAttributeDefinition
  3

  2
N1
 70
     8
280
     0
  0
ATTDEF
  5
1FF
330
1D2
100
AcDbEntity
  8
AM_6
100
AcDbText
 10
8.065
 20
-18.8368
 30
0.0
 40
0.5
  1
1.2
100
AcDbAttributeDefinition
  3

  2
P
 70
     8
280
     0
  0
ATTDEF
  5
200
330
1D2
100
AcDbEntity
  8
AM_6
100
AcDbText
 10
8.065
 20
-19.3368
 30
0.0
 40
0.5
  1
1.200000
100
AcDbAttributeDefinition
  3

  2
P1
 70
     8
280
     0
  0
ATTDEF
  5
201
330
1D2
100
AcDbEntity
  8
AM_6
100
AcDbText
 10
8.065
 20
-19.8368
 30
0.0
 40
0.5
  1
1.26
100
AcDbAttributeDefinition
  3

  2
Q
 70
     8
280
     0
  0
ATTDEF
  5
202
330
1D2
100
AcDbEntity
  8
AM_6
100
AcDbText
 10
8.065
 20
-20.3368
 30
0.0
 40
0.5
  1
1.260000
100
AcDbAttributeDefinition
  3

  2
Q1
 70
     8
280
     0
  0
ATTDEF
  5
203
330
1D2
100
AcDbEntity
  8
AM_6
100
AcDbText
 10
8.065
 20
-20.8368
 30
0.0
 40
0.5
  1
0.25
100
AcDbAttributeDefinition
  3

  2
X
 70
     8
280
     0
  0
ATTDEF
  5
204
330
1D2
100
AcDbEntity
  8
AM_6
100
AcDbText
 10
8.065
 20
-21.3368
 30
0.0
 40
0.5
  1
0.250000
100
AcDbAttributeDefinition
  3

  2
X1
 70
     8
280
     0
  0
ATTDEF
  5
205
330
1D2
100
AcDbEntity
  8
AM_6
100
AcDbText
 10
8.065
 20
-21.8368
 30
0.0
 40
0.5
  1
0.020
100
AcDbAttributeDefinition
  3

  2
Y
 70
     8
280
     0
  0
ATTDEF
  5
206
330
1D2
100
AcDbEntity
  8
AM_6
100
AcDbText
 10
8.065
 20
-22.3368
 30
0.0
 40
0.5
  1
2.08
100
AcDbAttributeDefinition
  3

  2
Z
 70
     8
280
     0
  0
ATTDEF
  5
207
330
1D2
100
AcDbEntity
  8
AM_6
100
AcDbText
 10
8.065
 20
-22.8368
 30
0.0
 40
0.5
  1
2.080000
100
AcDbAttributeDefinition
  3

  2
Z1
 70
     8
280
     0
  0
ATTDEF
  5
208
330
1D2
100
AcDbEntity
  8
AM_6
100
AcDbText
 10
8.065
 20
-23.3368
 30
0.0
 40
0.5
  1
3.1496
100
AcDbAttributeDefinition
  3

  2
BORE
 70
     8
280
     0
  0
ATTDEF
  5
209
330
1D2
100
AcDbEntity
  8
AM_6
100
AcDbText
 10
8.065
 20
-23.8368
 30
0.0
 40
0.5
  1
baldor
100
AcDbAttributeDefinition
  3

  2
COMPANY
 70
     8
280
     0
  0
LINE
  5
20A
330
1D2
100
AcDbEntity
  8
AM_9
100
AcDbLine
 10
0.5
 20
-0.6166666666666667
 30
0.0
 11
-0.5
 21
-0.6166666666666667
 31
0.0
  0
LINE
  5
20B
330
1D2
100
AcDbEntity
  8
AM_9
100
AcDbLine
 10
-2.7425
 20
-0.0387499999999998
 30
0.0
 11
-2.7425
 21
-0.3612500000000002
 31
0.0
  0
LINE
  5
20C
330
1D2
100
AcDbEntity
  8
AM_9
100
AcDbLine
 10
-2.3825
 20
-0.3612500000000002
 30
0.0
 11
-2.3825
 21
-0.0387499999999998
 31
0.0
  0
LINE
  5
20D
330
1D2
100
AcDbEntity
  8
AM_9
100
AcDbLine
 10
2.382499999999999
 20
-0.0387499999999998
 30
0.0
 11
2.382499999999999
 21
-0.3612500000000002
 31
0.0
  0
LINE
  5
20E
330
1D2
100
AcDbEntity
  8
AM_9
100
AcDbLine
 10
2.7425
 20
-0.3612500000000002
 30
0.0
 11
2.7425
 21
-0.0387499999999998
 31
0.0
  0
LINE
  5
20F
330
1D2
100
AcDbEntity
  8
AM_9
100
AcDbLine
 10
-2.3825
 20
-0.0387499999999998
 30
0.0
 11
-2.7425
 21
-0.0387499999999998
 31
0.0
  0
LINE
  5
210
330
1D2
100
AcDbEntity
  8
AM_9
100
AcDbLine
 10
-2.3825
 20
-0.0387499999999998
 30
0.0
 11
-2.34375
 21
0.0
 31
0.0
  0
LINE
  5
211
330
1D2
100
AcDbEntity
  8
AM_9
100
AcDbLine
 10
-2.781249999999999
 20
0.0
 30
0.0
 11
-2.7425
 21
-0.0387499999999998
 31
0.0
  0
LINE
  5
212
330
1D2
100
AcDbEntity
  8
AM_9
100
AcDbLine
 10
-2.3825
 20
-0.3612500000000002
 30
0.0
 11
-2.7425
 21
-0.3612500000000002
 31
0.0
  0
LINE
  5
213
330
1D2
100
AcDbEntity
  8
AM_9
100
AcDbLine
 10
-2.7425
 20
-0.3612500000000002
 30
0.0
 11
-2.781249999999999
 21
-0.4
 31
0.0
  0
LINE
  5
214
330
1D2
100
AcDbEntity
  8
AM_9
100
AcDbLine
 10
-2.34375
 20
-0.4
 30
0.0
 11
-2.3825
 21
-0.3612500000000002
 31
0.0
  0
LINE
  5
215
330
1D2
100
AcDbEntity
  8
AM_9
100
AcDbLine
 10
2.7425
 20
-0.0387499999999998
 30
0.0
 11
2.382499999999999
 21
-0.0387499999999998
 31
0.0
  0
LINE
  5
216
330
1D2
100
AcDbEntity
  8
AM_9
100
AcDbLine
 10
2.7425
 20
-0.0387499999999998
 30
0.0
 11
2.78125
 21
0.0
 31
0.0
  0
LINE
  5
217
330
1D2
100
AcDbEntity
  8
AM_9
100
AcDbLine
 10
2.34375
 20
0.0
 30
0.0
 11
2.382499999999999
 21
-0.0387499999999998
 31
0.0
  0
LINE
  5
218
330
1D2
100
AcDbEntity
  8
AM_9
100
AcDbLine
 10
2.7425
 20
-0.3612500000000002
 30
0.0
 11
2.382499999999999
 21
-0.3612500000000002
 31
0.0
  0
LINE
  5
219
330
1D2
100
AcDbEntity
  8
AM_9
100
AcDbLine
 10
2.382499999999999
 20
-0.3612500000000002
 30
0.0
 11
2.34375
 21
-0.4
 31
0.0
  0
LINE
  5
21A
330
1D2
100
AcDbEntity
  8
AM_9
100
AcDbLine
 10
2.78125
 20
-0.4
 30
0.0
 11
2.7425
 21
-0.3612500000000002
 31
0.0
  0
LINE
  5
21B
330
1D2
100
AcDbEntity
  8
AM_9
100
AcDbLine
 10
-1.951063518847497
 20
-0.3999999999999999
 30
0.0
 11
-1.951063518847497
 21
-0.4999999999999999
 31
0.0
  0
LINE
  5
21C
330
1D2
100
AcDbEntity
  8
AM_9
100
AcDbLine
 10
-1.932978723276396
 20
-0.4999999999999999
 30
0.0
 11
-1.932978723276396
 21
-0.3999999999999999
 31
0.0
  0
LINE
  5
21D
330
1D2
100
AcDbEntity
  8
AM_9
100
AcDbLine
 10
1.951063518847497
 20
-0.3999999999999999
 30
0.0
 11
1.951063518847497
 21
-0.4999999999999999
 31
0.0
  0
LINE
  5
21E
330
1D2
100
AcDbEntity
  8
AM_9
100
AcDbLine
 10
1.932978723276396
 20
-0.3999999999999999
 30
0.0
 11
1.932978723276396
 21
-0.4999999999999999
 31
0.0
  0
LINE
  5
21F
330
1D2
100
AcDbEntity
  8
AM_9
100
AcDbLine
 10
-1.941608893016783
 20
-0.3999999999999999
 30
0.0
 11
-1.941608893016783
 21
-0.4999999999999999
 31
0.0
  0
LINE
  5
220
330
1D2
100
AcDbEntity
  8
AM_9
100
AcDbLine
 10
-2.125
 20
-0.4
 30
0.0
 11
-2.125
 21
-0.5000000000000001
 31
0.0
  0
LINE
  5
221
330
1D2
100
AcDbEntity
  8
AM_9
100
AcDbLine
 10
1.941608893016783
 20
-0.3999999999999999
 30
0.0
 11
1.941608893016783
 21
-0.4999999999999999
 31
0.0
  0
LINE
  5
222
330
1D2
100
AcDbEntity
  8
AM_9
100
AcDbLine
 10
2.125
 20
-0.4999999999999997
 30
0.0
 11
2.125
 21
-0.4
 31
0.0
  0
LINE
  5
223
330
1D2
100
AcDbEntity
  8
AM_9
100
AcDbLine
 10
1.5748
 20
-0.6499999999999999
 30
0.0
 11
1.5748
 21
1.26
 31
0.0
  0
LINE
  5
224
330
1D2
100
AcDbEntity
  8
AM_9
100
AcDbLine
 10
-1.5748
 20
1.26
 30
0.0
 11
-1.5748
 21
-0.6499999999999999
 31
0.0
  0
LINE
  5
225
330
1D2
100
AcDbEntity
  8
AM_9
100
AcDbLine
 10
-2.437312061723914
 20
-0.3999999999999999
 30
0.0
 11
-2.437312061723914
 21
-0.4999999999999999
 31
0.0
  0
LINE
  5
226
330
1D2
100
AcDbEntity
  8
AM_9
100
AcDbLine
 10
-2.475322052253137
 20
-0.3999999999999999
 30
0.0
 11
-1.932978723276396
 21
-0.3999999999999999
 31
0.0
  0
LINE
  5
227
330
1D2
100
AcDbEntity
  8
AM_9
100
AcDbLine
 10
1.932978723276396
 20
-0.3999999999999999
 30
0.0
 11
2.475322052253134
 21
-0.3999999999999999
 31
0.0
  0
LINE
  5
228
330
1D2
100
AcDbEntity
  8
AM_9
100
AcDbLine
 10
2.437312061723914
 20
-0.3999999999999999
 30
0.0
 11
2.437312061723914
 21
-0.4999999999999999
 31
0.0
  0
LINE
  5
229
330
1D2
100
AcDbEntity
  8
AM_9
100
AcDbLine
 10
2.030711126790528
 20
-0.4999999999999997
 30
0.0
 11
2.030711126790528
 21
0.0000000000000001
 31
0.0
  0
LINE
  5
22A
330
1D2
100
AcDbEntity
  8
AM_9
100
AcDbLine
 10
1.593211126790528
 20
0.0000000000000001
 30
0.0
 11
1.593211126790528
 21
-0.4999999999999997
 31
0.0
  0
LINE
  5
22B
330
1D2
100
AcDbEntity
  8
AM_9
100
AcDbLine
 10
-1.593211126790528
 20
-0.4999999999999997
 30
0.0
 11
-1.593211126790528
 21
0.0000000000000001
 31
0.0
  0
LINE
  5
22C
330
1D2
100
AcDbEntity
  8
AM_9
100
AcDbLine
 10
-2.030711126790528
 20
0.0000000000000001
 30
0.0
 11
-2.030711126790528
 21
-0.4999999999999997
 31
0.0
  0
LINE
  5
22D
330
1D2
100
AcDbEntity
  8
AM_9
100
AcDbLine
 10
-0.2069683934878669
 20
-0.6499999999999998
 30
0.0
 11
0.2069828084866388
 21
-0.6499999999999998
 31
0.0
  0
LINE
  5
22E
330
1D2
100
AcDbEntity
  8
AM_9
100
AcDbLine
 10
0.2079188105660092
 20
-0.6489999999999998
 30
0.0
 11
-0.2079207897750406
 21
-0.6489999999999998
 31
0.0
  0
LINE
  5
22F
330
1D2
100
AcDbEntity
  8
AM_5
100
AcDbLine
 10
2.78125
 20
0.0
 30
0.0
 11
2.78125
 21
-0.4
 31
0.0
  0
LINE
  5
230
330
1D2
100
AcDbEntity
  8
AM_5
100
AcDbLine
 10
2.34375
 20
-0.0000000000000003
 30
0.0
 11
2.34375
 21
-0.3999999999999997
 31
0.0
  0
LINE
  5
231
330
1D2
100
AcDbEntity
  8
AM_5
100
AcDbLine
 10
-2.34375
 20
0.0
 30
0.0
 11
-2.34375
 21
-0.4
 31
0.0
  0
LINE
  5
232
330
1D2
100
AcDbEntity
  8
AM_5
100
AcDbLine
 10
-2.78125
 20
0.0000000000000003
 30
0.0
 11
-2.78125
 21
-0.4
 31
0.0
  0
LINE
  5
235
330
1D2
100
AcDbEntity
  8
AM_7
100
AcDbLine
 10
-1.811961126790528
 20
0.0262499999999999
 30
0.0
 11
-1.811961126790528
 21
-0.5512500000000001
 31
0.0
  0
LINE
  5
236
330
1D2
100
AcDbEntity
  8
AM_7
100
AcDbLine
 10
1.811961126790528
 20
0.0262499999999999
 30
0.0
 11
1.811961126790528
 21
-0.5512500000000001
 31
0.0
  0
LINE
  5
237
330
1D2
100
AcDbEntity
  8
AM_7
100
AcDbLine
 10
2.5625
 20
0.02
 30
0.0
 11
2.5625
 21
-0.42
 31
0.0
  0
LINE
  5
238
330
1D2
100
AcDbEntity
  8
AM_7
100
AcDbLine
 10
-2.5625
 20
0.02
 30
0.0
 11
-2.5625
 21
-0.42
 31
0.0
  0
LINE
  5
239
330
1D2
100
AcDbEntity
  8
AM_7
100
AcDbLine
 10
0.0
 20
1.6632
 30
0.0
 11
0.0
 21
-1.7415
 31
0.0
  0
LINE
  5
23A
330
1D2
100
AcDbEntity
  8
AM_4
100
AcDbLine
 10
-2.125
 20
-0.5000000000000001
 30
0.0
 11
-2.125
 21
-0.6166666666666667
 31
0.0
  0
LINE
  5
23B
330
1D2
100
AcDbEntity
  8
AM_4
100
AcDbLine
 10
2.125
 20
-0.6166666666666667
 30
0.0
 11
2.125
 21
-0.4999999999999997
 31
0.0
  0
LINE
  5
23C
330
1D2
100
AcDbEntity
  8
AM_4
100
AcDbLine
 10
-1.743290484551277
 20
-0.6166666666666666
 30
0.0
 11
-1.743290484551277
 21
-0.4999999999999999
 31
0.0
  0
LINE
  5
23D
330
1D2
100
AcDbEntity
  8
AM_4
100
AcDbLine
 10
1.743290484551276
 20
-0.6166666666666666
 30
0.0
 11
1.743290484551276
 21
-0.4999999999999999
 31
0.0
  0
LWPOLYLINE
  5
23E
330
1D2
100
AcDbEntity
  8
AM_4
100
AcDbPolyline
 90
        7
 70
     0
 43
0.0
 10
1.67911048992142
 20
-0.6492591781056348
 10
1.691467833777818
 20
-0.6466080678982994
 10
1.703277281999674
 20
-0.6424877561978847
 10
1.718485622808205
 20
-0.6349927400365727
 10
1.731945321836034
 20
-0.6261483586342675
 10
1.743075333892935
 20
-0.6168684625429224
 10
1.743290484551276
 20
-0.6166666666666666
  0
LINE
  5
23F
330
1D2
100
AcDbEntity
  8
AM_4
100
AcDbLine
 10
1.743290484551276
 20
-0.6166666666666666
 30
0.0
 11
2.124999999999998
 21
-0.6166666666666667
 31
0.0
  0
ARC
  5
240
330
1D2
100
AcDbEntity
  8
AM_4
100
AcDbCircle
 10
2.091666666666665
 20
-0.6166666666666664
 30
0.0
 40
0.0333333333333335
100
AcDbArc
 50
270.0
 51
0.0
  0
LWPOLYLINE
  5
241
330
1D2
100
AcDbEntity
  8
AM_4
100
AcDbPolyline
 90
        7
 70
     0
 43
0.0
 10
-1.743290484551277
 20
-0.6166666666666666
 10
-1.743075333892921
 20
-0.6168684625428674
 10
-1.730118466437387
 20
-0.62748535601031
 10
-1.713754567055801
 20
-0.6375923819237709
 10
-1.701379803694991
 20
-0.643249921940669
 10
-1.687425432248004
 20
-0.6476699766620422
 10
-1.679110496063222
 20
-0.6492591772417547
  0
ARC
  5
242
330
1D2
100
AcDbEntity
  8
AM_4
100
AcDbCircle
 10
-2.091666666666665
 20
-0.6166666666666664
 30
0.0
 40
0.0333333333333332
100
AcDbArc
 50
180.0
 51
270.0
  0
LINE
  5
243
330
1D2
100
AcDbEntity
  8
AM_4
100
AcDbLine
 10
-2.124999999999998
 20
-0.6166666666666667
 30
0.0
 11
-1.743290484551277
 21
-0.6166666666666666
 31
0.0
  0
LINE
  5
244
330
1D2
100
AcDbEntity
  8
AM_4
100
AcDbLine
 10
-1.679110496063222
 20
-0.6492591772417547
 30
0.0
 11
-1.679110496063222
 21
-0.4999999999999999
 31
0.0
  0
LWPOLYLINE
  5
245
330
1D2
100
AcDbEntity
  8
AM_4
100
AcDbPolyline
 90
        3
 70
     0
 43
0.0
 10
-1.668327628905637
 20
-0.6499999999999998
 10
-1.672533137121179
 20
-0.6498900344482451
 10
-1.679110496063222
 20
-0.6492591772417547
  0
LINE
  5
246
330
1D2
100
AcDbEntity
  8
AM_4
100
AcDbLine
 10
1.67911048992142
 20
-0.6492591781056348
 30
0.0
 11
1.668327628905637
 21
-0.6499999999999998
 31
0.0
  0
LINE
  5
247
330
1D2
100
AcDbEntity
  8
AM_4
100
AcDbLine
 10
1.67911048992142
 20
-0.6492591781056348
 30
0.0
 11
1.67911048992142
 21
-0.4999999999999999
 31
0.0
  0
LINE
  5
248
330
1D2
100
AcDbEntity
  8
AM_4
100
AcDbLine
 10
-1.25894460734154
 20
-0.6492591781056348
 30
0.0
 11
-1.25894460734154
 21
-0.4999999999999998
 31
0.0
  0
LINE
  5
249
330
1D2
100
AcDbEntity
  8
AM_4
100
AcDbLine
 10
1.258944605866101
 20
-0.6492591772417547
 30
0.0
 11
1.258944605866101
 21
-0.4999999999999998
 31
0.0
  0
LINE
  5
24A
330
1D2
100
AcDbEntity
  8
AM_4
100
AcDbLine
 10
-0.8635854946432008
 20
-0.4999999999999998
 30
0.0
 11
-2.4768725520357
 21
-0.4999999999999998
 31
0.0
  0
LINE
  5
24B
330
1D2
100
AcDbEntity
  8
AM_4
100
AcDbLine
 10
-2.4768725520357
 20
-0.3999999999999999
 30
0.0
 11
-2.4768725520357
 21
-0.4999999999999998
 31
0.0
  0
LINE
  5
24C
330
1D2
100
AcDbEntity
  8
AM_4
100
AcDbLine
 10
2.476872552035697
 20
-0.4999999999999998
 30
0.0
 11
2.476872552035697
 21
-0.3999999999999999
 31
0.0
  0
LINE
  5
24D
330
1D2
100
AcDbEntity
  8
AM_4
100
AcDbLine
 10
2.476872552035697
 20
-0.4999999999999998
 30
0.0
 11
0.8635854946432007
 21
-0.4999999999999998
 31
0.0
  0
LINE
  5
24E
330
1D2
100
AcDbEntity
  8
AM_4
100
AcDbLine
 10
-1.962255192662305
 20
1.26
 30
0.0
 11
1.962255192662305
 21
1.26
 31
0.0
  0
ARC
  5
24F
330
1D2
100
AcDbEntity
  8
AM_4
100
AcDbCircle
 10
1.962255192662305
 20
1.209999999999999
 30
0.0
 40
0.050000000000001
100
AcDbArc
 50
2.000000000000676
 51
90.0
  0
ARC
  5
250
330
1D2
100
AcDbEntity
  8
AM_4
100
AcDbCircle
 10
-1.962255192662305
 20
1.209999999999999
 30
0.0
 40
0.0500000000000009
100
AcDbArc
 50
90.0
 51
177.9999999999993
  0
LINE
  5
251
330
1D2
100
AcDbEntity
  8
AM_4
100
AcDbLine
 10
-2.012224734013261
 20
1.211744974835125
 30
0.0
 11
2.012224734013261
 21
1.211744974835125
 31
0.0
  0
LINE
  5
252
330
1D2
100
AcDbEntity
  8
AM_4
100
AcDbLine
 10
-2.012224734013261
 20
1.211744974835125
 30
0.0
 11
-2.022124421198923
 21
0.928255025164875
 31
0.0
  0
LINE
  5
253
330
1D2
100
AcDbEntity
  8
AM_4
100
AcDbLine
 10
2.022124421198923
 20
0.928255025164875
 30
0.0
 11
2.012224734013261
 21
1.211744974835125
 31
0.0
  0
LINE
  5
254
330
1D2
100
AcDbEntity
  8
AM_4
100
AcDbLine
 10
-0.8635854946432011
 20
-0.3999999999999999
 30
0.0
 11
-0.8635854946432008
 21
-0.4999999999999998
 31
0.0
  0
LINE
  5
255
330
1D2
100
AcDbEntity
  8
AM_4
100
AcDbLine
 10
-1.215139204565869
 20
-0.6166666666666666
 30
0.0
 11
-1.215139204565869
 21
-0.4999999999999998
 31
0.0
  0
LINE
  5
256
330
1D2
100
AcDbEntity
  8
AM_4
100
AcDbLine
 10
1.215139204565869
 20
-0.6166666666666666
 30
0.0
 11
1.215139204565869
 21
-0.4999999999999998
 31
0.0
  0
LINE
  5
257
330
1D2
100
AcDbEntity
  8
AM_4
100
AcDbLine
 10
0.8635854946432008
 20
-0.3999999999999999
 30
0.0
 11
0.8635854946432007
 21
-0.4999999999999998
 31
0.0
  0
LINE
  5
258
330
1D2
100
AcDbEntity
  8
AM_4
100
AcDbLine
 10
-2.022124421198923
 20
0.928255025164875
 30
0.0
 11
2.022124421198923
 21
0.928255025164875
 31
0.0
  0
ARC
  5
259
330
1D2
100
AcDbEntity
  8
AM_4
100
AcDbCircle
 10
2.072093962549876
 20
0.9299999999999992
 30
0.0
 40
0.049999999999999
100
AcDbArc
 50
181.9999999999989
 51
270.0
  0
ARC
  5
25A
330
1D2
100
AcDbEntity
  8
AM_4
100
AcDbCircle
 10
-2.072093962549876
 20
0.9299999999999992
 30
0.0
 40
0.0499999999999992
100
AcDbArc
 50
270.0
 51
358.0000000000012
  0
LINE
  5
25B
330
1D2
100
AcDbEntity
  8
AM_4
100
AcDbLine
 10
-1.25894460734154
 20
-0.6492591781056348
 30
0.0
 11
-1.261646688686865
 21
-0.6499999999999998
 31
0.0
  0
LINE
  5
25C
330
1D2
100
AcDbEntity
  8
AM_4
100
AcDbLine
 10
0.2069828084866388
 20
-0.6499999999999998
 30
0.0
 11
2.091666666666665
 21
-0.6499999999999999
 31
0.0
  0
LINE
  5
25D
330
1D2
100
AcDbEntity
  8
AM_4
100
AcDbLine
 10
-2.091666666666665
 20
-0.6499999999999999
 30
0.0
 11
-0.2069683934878669
 21
-0.6499999999999998
 31
0.0
  0
LWPOLYLINE
  5
25E
330
1D2
100
AcDbEntity
  8
AM_4
100
AcDbPolyline
 90
        3
 70
     0
 43
0.0
 10
1.261646688686864
 20
-0.6499999999999998
 10
1.260566170160742
 20
-0.6498900344482451
 10
1.258944605866101
 20
-0.6492591772417547
  0
LWPOLYLINE
  5
25F
330
1D2
100
AcDbEntity
  8
AM_4
100
AcDbPolyline
 90
        7
 70
     0
 43
0.0
 10
1.215139204565869
 20
-0.6166666666666666
 10
1.215446742704184
 20
-0.6168684625428674
 10
1.230710853875366
 20
-0.62748535601031
 10
1.243917678262562
 20
-0.6375923819237709
 10
1.250963850996129
 20
-0.643249921940669
 10
1.256596134307377
 20
-0.6476699766620422
 10
1.258944605866101
 20
-0.6492591772417547
  0
LINE
  5
260
330
1D2
100
AcDbEntity
  8
AM_4
100
AcDbLine
 10
0.5
 20
-0.6166666666666666
 30
0.0
 11
1.215139204565869
 21
-0.6166666666666666
 31
0.0
  0
LINE
  5
261
330
1D2
100
AcDbEntity
  8
AM_4
100
AcDbLine
 10
-1.215139204565869
 20
-0.6166666666666666
 30
0.0
 11
-0.5
 21
-0.6166666666666666
 31
0.0
  0
LWPOLYLINE
  5
262
330
1D2
100
AcDbEntity
  8
AM_4
100
AcDbPolyline
 90
        7
 70
     0
 43
0.0
 10
-1.25894460734154
 20
-0.6492591781056348
 10
-1.25519186828727
 20
-0.6466080678982994
 10
-1.250018634415897
 20
-0.6424877561978847
 10
-1.240617161407128
 20
-0.6349927400365727
 10
-1.228877593809165
 20
-0.6261483586342675
 10
-1.215446742704176
 20
-0.6168684625428922
 10
-1.215139204565869
 20
-0.6166666666666666
  0
LINE
  5
263
330
1D2
100
AcDbEntity
  8
AM_4
100
AcDbLine
 10
-2.124999999999997
 20
0.88
 30
0.0
 11
2.124999999999997
 21
0.88
 31
0.0
  0
LINE
  5
264
330
1D2
100
AcDbEntity
  8
AM_4
100
AcDbLine
 10
2.124999999999997
 20
0.0
 30
0.0
 11
2.124999999999997
 21
0.88
 31
0.0
  0
LINE
  5
265
330
1D2
100
AcDbEntity
  8
AM_4
100
AcDbLine
 10
-2.124999999999997
 20
0.88
 30
0.0
 11
-2.124999999999997
 21
0.0
 31
0.0
  0
LINE
  5
266
330
1D2
100
AcDbEntity
  8
AM_4
100
AcDbLine
 10
0.9615824556732795
 20
-0.3999999999999999
 30
0.0
 11
0.9615824556732795
 21
-0.4999999999999998
 31
0.0
  0
LINE
  5
267
330
1D2
100
AcDbEntity
  8
AM_4
100
AcDbLine
 10
-0.9615824556732803
 20
-0.3999999999999999
 30
0.0
 11
-0.9615824556732803
 21
-0.4999999999999998
 31
0.0
  0
LINE
  5
268
330
1D2
100
AcDbEntity
  8
AM_4
100
AcDbLine
 10
-1.656017342963492
 20
-0.3999999999999999
 30
0.0
 11
-1.656017342963492
 21
-0.4999999999999998
 31
0.0
  0
LINE
  5
269
330
1D2
100
AcDbEntity
  8
AM_4
100
AcDbLine
 10
1.656017342963492
 20
-0.3999999999999999
 30
0.0
 11
1.656017342963492
 21
-0.4999999999999998
 31
0.0
  0
LINE
  5
26A
330
1D2
100
AcDbEntity
  8
AM_4
100
AcDbLine
 10
-0.5
 20
-0.3999999999999997
 30
0.0
 11
-0.5
 21
-0.6489999999999998
 31
0.0
  0
LINE
  5
26B
330
1D2
100
AcDbEntity
  8
AM_4
100
AcDbLine
 10
-0.2079207897750406
 20
-0.6489999999999998
 30
0.0
 11
-0.5
 21
-0.6489999999999998
 31
0.0
  0
LINE
  5
26C
330
1D2
100
AcDbEntity
  8
AM_4
100
AcDbLine
 10
0.5
 20
-0.6489999999999998
 30
0.0
 11
0.2079188105660092
 21
-0.6489999999999998
 31
0.0
  0
LINE
  5
26D
330
1D2
100
AcDbEntity
  8
AM_4
100
AcDbLine
 10
0.5
 20
-0.3999999999999997
 30
0.0
 11
0.5
 21
-0.6489999999999998
 31
0.0
  0
LINE
  5
26E
330
1D2
100
AcDbEntity
  8
AM_4
100
AcDbLine
 10
-3.065
 20
0.0
 30
0.0
 11
3.065
 21
0.0
 31
0.0
  0
LINE
  5
26F
330
1D2
100
AcDbEntity
  8
AM_4
100
AcDbLine
 10
-1.807486026952722
 20
-0.3999999999999999
 30
0.0
 11
-1.807486026952722
 21
-0.4999999999999998
 31
0.0
  0
LINE
  5
270
330
1D2
100
AcDbEntity
  8
AM_4
100
AcDbLine
 10
1.807486026952717
 20
-0.3999999999999999
 30
0.0
 11
-1.807486026952722
 21
-0.3999999999999999
 31
0.0
  0
LINE
  5
271
330
1D2
100
AcDbEntity
  8
AM_4
100
AcDbLine
 10
1.807486026952717
 20
-0.4999999999999998
 30
0.0
 11
1.807486026952717
 21
-0.3999999999999999
 31
0.0
  0
LINE
  5
272
330
1D2
100
AcDbEntity
  8
AM_4
100
AcDbLine
 10
2.475322052253134
 20
-0.3999999999999999
 30
0.0
 11
2.475322052253134
 21
-0.4999999999999998
 31
0.0
  0
LINE
  5
273
330
1D2
100
AcDbEntity
  8
AM_4
100
AcDbLine
 10
-2.475322052253137
 20
-0.3999999999999999
 30
0.0
 11
-3.065
 21
-0.3999999999999999
 31
0.0
  0
LINE
  5
274
330
1D2
100
AcDbEntity
  8
AM_4
100
AcDbLine
 10
-2.475322052253137
 20
-0.4999999999999998
 30
0.0
 11
-2.475322052253137
 21
-0.3999999999999999
 31
0.0
  0
LINE
  5
275
330
1D2
100
AcDbEntity
  8
AM_4
100
AcDbLine
 10
3.065
 20
-0.3999999999999999
 30
0.0
 11
3.065
 21
0.0
 31
0.0
  0
LINE
  5
276
330
1D2
100
AcDbEntity
  8
AM_4
100
AcDbLine
 10
-3.065
 20
0.0
 30
0.0
 11
-3.065
 21
-0.3999999999999999
 31
0.0
  0
LINE
  5
277
330
1D2
100
AcDbEntity
  8
AM_4
100
AcDbLine
 10
3.065
 20
-0.3999999999999999
 30
0.0
 11
2.475322052253134
 21
-0.3999999999999999
 31
0.0
  0
ENDBLK
  5
1D5
330
1D2
100
AcDbEntity
  8
0
100
AcDbBlockEnd
  0
ENDSEC
  0
SECTION
  2
ENTITIES
  0
INSERT
  5
6F
330
1F
100
AcDbEntity
  8
0
100
AcDbBlockReference
  2
1_071576_4
 10
0.0
 20
0.0
 30
0.0
  0
POINT
  5
279
330
1F
100
AcDbEntity
  8
ConnectionPoints
100
AcDbPoint
 10
0.0
 20
-1.438333333333333
 30
-1.096354166666667
  0
POINT
  5
27A
330
1F
100
AcDbEntity
  8
ConnectionPoints
100
AcDbPoint
 10
0.0
 20
-1.438333333333333
 30
1.096354166666667
  0
POINT
  5
27B
330
1F
100
AcDbEntity
  8
ConnectionPoints
100
AcDbPoint
 10
0.0
 20
-1.368333333333333
 30
0.0000000000000001
  0
POINT
  5
27C
330
1F
100
AcDbEntity
  8
ConnectionPoints
100
AcDbPoint
 10
0.0
 20
-1.6
 30
0.0000000000000001
  0
POINT
  5
27D
330
1F
100
AcDbEntity
  8
ConnectionPoints
100
AcDbPoint
 10
0.0
 20
-1.567333333333333
 30
0.0000000000000001
  0
POINT
  5
27E
330
1F
100
AcDbEntity
  8
ConnectionPoints
100
AcDbPoint
 10
0.0
 20
-1.368333333333333
 30
1.096354166666667
  0
POINT
  5
27F
330
1F
100
AcDbEntity
  8
ConnectionPoints
100
AcDbPoint
 10
0.0
 20
-1.368333333333333
 30
-1.096354166666667
  0
POINT
  5
280
330
1F
100
AcDbEntity
  8
ConnectionPoints
100
AcDbPoint
 10
0.0
 20
-1.368333333333333
 30
0.0000000000000001
  0
POINT
  5
281
330
1F
100
AcDbEntity
  8
ConnectionPoints
100
AcDbPoint
 10
0.0
 20
-0.5244999999999999
 30
2.340640325542325
  0
POINT
  5
282
330
1F
100
AcDbEntity
  8
ConnectionPoints
100
AcDbPoint
 10
0.0
 20
-0.4197781966967373
 30
2.522023809523809
  0
POINT
  5
283
330
1F
100
AcDbEntity
  8
ConnectionPoints
100
AcDbPoint
 10
0.0
 20
-1.35
 30
0.0000000000000001
  0
POINT
  5
284
330
1F
100
AcDbEntity
  8
ConnectionPoints
100
AcDbPoint
 10
0.0
 20
-1.6
 30
0.0000000000000001
  0
ENDSEC
  0
SECTION
  2
OBJECTS
  0
DICTIONARY
  5
C
330
0
100
AcDbDictionary
281
     1
  3
ACAD_DETAILVIEWSTYLE
350
28C
  3
ACAD_GROUP
350
D
  3
ACAD_LAYOUT
350
1A
  3
ACAD_MATERIAL
350
43
  3
ACAD_MLEADERSTYLE
350
6B
  3
ACAD_MLINESTYLE
350
17
  3
ACAD_PLOTSETTINGS
350
19
  3
ACAD_PLOTSTYLENAME
350
E
  3
ACAD_SCALELIST
350
47
  3
ACAD_SECTIONVIEWSTYLE
350
28D
  3
ACAD_TABLESTYLE
350
69
  3
ACAD_VISUALSTYLE
350
2A
  3
ACDB_RECOMPOSE_DATA
350
289
  3
AcDbVariableDictionary
350
285
  0
SUN
  5
6D
330
29
100
AcDbSun
 90
        1
290
     0
 63
     7
421
 16777215
 40
1.0
291
     1
 91
  2455826
 92
 54000000
292
     0
 70
     2
 71
   256
280
     1
  0
DICTIONARY
  5
28C
102
{ACAD_REACTORS
330
C
102
}
330
C
100
AcDbDictionary
281
     1
  0
DICTIONARY
  5
D
102
{ACAD_REACTORS
330
C
102
}
330
C
100
AcDbDictionary
281
     1
  0
DICTIONARY
  5
1A
102
{ACAD_REACTORS
330
C
102
}
330
C
100
AcDbDictionary
281
     1
  3
Layout1
350
1E
  3
Layout2
350
26
  3
Model
350
22
  0
DICTIONARY
  5
43
102
{ACAD_REACTORS
330
C
102
}
330
C
100
AcDbDictionary
281
     1
  3
ByBlock
350
45
  3
ByLayer
350
44
  3
Global
350
46
  0
DICTIONARY
  5
6B
102
{ACAD_REACTORS
330
C
102
}
330
C
100
AcDbDictionary
281
     1
  3
Standard
350
6C
  0
DICTIONARY
  5
17
102
{ACAD_REACTORS
330
C
102
}
330
C
100
AcDbDictionary
281
     1
  3
Standard
350
18
  0
DICTIONARY
  5
19
102
{ACAD_REACTORS
330
C
102
}
330
C
100
AcDbDictionary
281
     1
  0
ACDBDICTIONARYWDFLT
  5
E
102
{ACAD_REACTORS
330
C
102
}
330
C
100
AcDbDictionary
281
     1
  3
Normal
350
F
100
AcDbDictionaryWithDefault
340
F
  0
DICTIONARY
  5
47
102
{ACAD_REACTORS
330
C
102
}
330
C
100
AcDbDictionary
281
     1
  3
A0
350
48
  3
A1
350
49
  3
A2
350
4A
  3
A3
350
4B
  3
A4
350
4C
  3
A5
350
4D
  3
A6
350
4E
  3
A7
350
4F
  3
A8
350
50
  3
A9
350
51
  3
B0
350
52
  3
B1
350
53
  3
B2
350
54
  3
B3
350
55
  3
B4
350
56
  3
B5
350
57
  3
B6
350
58
  3
B7
350
59
  3
B8
350
5A
  3
B9
350
5B
  3
C0
350
5C
  3
C1
350
5D
  3
C2
350
5E
  3
C3
350
5F
  3
C4
350
60
  3
C5
350
61
  3
C6
350
62
  3
C7
350
63
  3
C8
350
64
  3
C9
350
65
  3
D0
350
66
  3
D1
350
67
  3
D2
350
68
  0
DICTIONARY
  5
28D
102
{ACAD_REACTORS
330
C
102
}
330
C
100
AcDbDictionary
281
     1
  0
DICTIONARY
  5
69
102
{ACAD_REACTORS
330
C
102
}
330
C
100
AcDbDictionary
281
     1
  3
Standard
350
6A
  0
DICTIONARY
  5
2A
102
{ACAD_REACTORS
330
C
102
}
330
C
100
AcDbDictionary
281
     1
  3
2dWireframe
350
2F
  3
Basic
350
32
  3
Brighten
350
36
  3
ColorChange
350
3A
  3
Conceptual
350
34
  3
Dim
350
35
  3
EdgeColorOff
350
3D
  3
Facepattern
350
39
  3
Flat
350
2B
  3
FlatWithEdges
350
2C
  3
Gouraud
350
2D
  3
GouraudWithEdges
350
2E
  3
Hidden
350
31
  3
JitterOff
350
3B
  3
Linepattern
350
38
  3
OverhangOff
350
3C
  3
Realistic
350
33
  3
Shaded
350
42
  3
Shaded with edges
350
41
  3
Shades of Gray
350
3E
  3
Sketchy
350
3F
  3
Thicken
350
37
  3
Wireframe
350
30
  3
X-Ray
350
40
  0
XRECORD
  5
289
102
{ACAD_REACTORS
330
C
102
}
330
C
100
AcDbXrecord
280
     1
 90
        1
330
6A
  0
DICTIONARY
  5
285
102
{ACAD_REACTORS
330
C
102
}
330
C
100
AcDbDictionary
281
     1
  3
CANNOSCALE
350
286
  3
CMLEADERSTYLE
350
28B
  3
CTABLESTYLE
350
28A
  0
LAYOUT
  5
1E
102
{ACAD_REACTORS
330
1A
102
}
330
1A
100
AcDbPlotSettings
  1

  2
none_device
  4

  6

 40
0.0
 41
0.0
 42
0.0
 43
0.0
 44
0.0
 45
0.0
 46
0.0
 47
0.0
 48
0.0
 49
0.0
140
0.0
141
0.0
142
1.0
143
1.0
 70
   688
 72
     0
 73
     0
 74
     5
  7

 75
    16
 76
     0
 77
     2
 78
   300
147
1.0
148
0.0
149
0.0
100
AcDbLayout
  1
Layout1
 70
     1
 71
     1
 10
0.0
 20
0.0
 11
12.0
 21
9.0
 12
0.0
 22
0.0
 32
0.0
 14
1.000000000000000E+20
 24
1.000000000000000E+20
 34
1.000000000000000E+20
 15
-1.000000000000000E+20
 25
-1.000000000000000E+20
 35
-1.000000000000000E+20
146
0.0
 13
0.0
 23
0.0
 33
0.0
 16
1.0
 26
0.0
 36
0.0
 17
0.0
 27
1.0
 37
0.0
 76
     0
330
1B
  0
LAYOUT
  5
26
102
{ACAD_REACTORS
330
1A
102
}
330
1A
100
AcDbPlotSettings
  1

  2
none_device
  4

  6

 40
0.0
 41
0.0
 42
0.0
 43
0.0
 44
0.0
 45
0.0
 46
0.0
 47
0.0
 48
0.0
 49
0.0
140
0.0
141
0.0
142
1.0
143
1.0
 70
   688
 72
     0
 73
     0
 74
     5
  7

 75
    16
 76
     0
 77
     2
 78
   300
147
1.0
148
0.0
149
0.0
100
AcDbLayout
  1
Layout2
 70
     1
 71
     2
 10
0.0
 20
0.0
 11
0.0
 21
0.0
 12
0.0
 22
0.0
 32
0.0
 14
0.0
 24
0.0
 34
0.0
 15
0.0
 25
0.0
 35
0.0
146
0.0
 13
0.0
 23
0.0
 33
0.0
 16
1.0
 26
0.0
 36
0.0
 17
0.0
 27
1.0
 37
0.0
 76
     0
330
23
  0
LAYOUT
  5
22
102
{ACAD_REACTORS
330
1A
102
}
330
1A
100
AcDbPlotSettings
  1

  2
none_device
  4
Letter_(8.50_x_11.00_Inches)
  6

 40
6.35
 41
6.35
 42
6.35000508
 43
6.35000508
 44
215.9
 45
279.4
 46
0.0
 47
0.0
 48
0.0
 49
0.0
140
0.0
141
0.0
142
1.0
143
1.0
 70
  1712
 72
     0
 73
     0
 74
     0
  7

 75
     0
 76
     0
 77
     2
 78
   300
147
1.0
148
0.0
149
0.0
100
AcDbLayout
  1
Model
 70
     1
 71
     0
 10
0.0
 20
0.0
 11
12.0
 21
9.0
 12
0.0
 22
0.0
 32
0.0
 14
1.000000000000000E+20
 24
1.000000000000000E+20
 34
1.000000000000000E+20
 15
-1.000000000000000E+20
 25
-1.000000000000000E+20
 35
-1.000000000000000E+20
146
0.0
 13
0.0
 23
0.0
 33
0.0
 16
1.0
 26
0.0
 36
0.0
 17
0.0
 27
1.0
 37
0.0
 76
     0
330
1F
331
29
  0
MATERIAL
  5
45
102
{ACAD_REACTORS
330
43
102
}
330
43
100
AcDbMaterial
  1
ByBlock
 72
     1
 94
      127
  0
MATERIAL
  5
44
102
{ACAD_REACTORS
330
43
102
}
330
43
100
AcDbMaterial
  1
ByLayer
 72
     1
 94
      127
  0
MATERIAL
  5
46
102
{ACAD_REACTORS
330
43
102
}
330
43
100
AcDbMaterial
  1
Global
 72
     1
 94
      127
  0
MLEADERSTYLE
  5
6C
102
{ACAD_REACTORS
330
6B
102
}
330
6B
100
AcDbMLeaderStyle
179
     2
170
     2
171
     1
172
     0
 90
        2
 40
0.0
 41
0.0
173
     1
 91
-1056964608
340
14
 92
       -2
290
     1
 42
0.09
291
     1
 43
0.36
  3
Standard
341
0
 44
0.18
300

342
11
174
     1
178
     6
175
     1
176
     0
 93
-1056964608
 45
0.18
292
     0
297
     0
 46
0.18
343
0
 94
-1056964608
 47
1.0
 49
1.0
140
1.0
293
     1
141
0.0
294
     1
177
     0
142
1.0
295
     0
296
     0
143
0.125
271
     0
272
     9
273
     9
298
     0
  0
MLINESTYLE
  5
18
102
{ACAD_REACTORS
330
17
102
}
330
17
100
AcDbMlineStyle
  2
Standard
 70
     0
  3

 62
   256
 51
90.0
 52
90.0
 71
     2
 49
0.5
 62
   256
  6
BYLAYER
 49
-0.5
 62
   256
  6
BYLAYER
  0
ACDBPLACEHOLDER
  5
F
102
{ACAD_REACTORS
330
E
102
}
330
E
  0
SCALE
  5
48
102
{ACAD_REACTORS
330
47
102
}
330
47
100
AcDbScale
 70
     0
300
1:1
140
1.0
141
1.0
290
     1
  0
SCALE
  5
49
102
{ACAD_REACTORS
330
47
102
}
330
47
100
AcDbScale
 70
     0
300
1:2
140
1.0
141
2.0
290
     0
  0
SCALE
  5
4A
102
{ACAD_REACTORS
330
47
102
}
330
47
100
AcDbScale
 70
     0
300
1:4
140
1.0
141
4.0
290
     0
  0
SCALE
  5
4B
102
{ACAD_REACTORS
330
47
102
}
330
47
100
AcDbScale
 70
     0
300
1:5
140
1.0
141
5.0
290
     0
  0
SCALE
  5
4C
102
{ACAD_REACTORS
330
47
102
}
330
47
100
AcDbScale
 70
     0
300
1:8
140
1.0
141
8.0
290
     0
  0
SCALE
  5
4D
102
{ACAD_REACTORS
330
47
102
}
330
47
100
AcDbScale
 70
     0
300
1:10
140
1.0
141
10.0
290
     0
  0
SCALE
  5
4E
102
{ACAD_REACTORS
330
47
102
}
330
47
100
AcDbScale
 70
     0
300
1:16
140
1.0
141
16.0
290
     0
  0
SCALE
  5
4F
102
{ACAD_REACTORS
330
47
102
}
330
47
100
AcDbScale
 70
     0
300
1:20
140
1.0
141
20.0
290
     0
  0
SCALE
  5
50
102
{ACAD_REACTORS
330
47
102
}
330
47
100
AcDbScale
 70
     0
300
1:30
140
1.0
141
30.0
290
     0
  0
SCALE
  5
51
102
{ACAD_REACTORS
330
47
102
}
330
47
100
AcDbScale
 70
     0
300
1:40
140
1.0
141
40.0
290
     0
  0
SCALE
  5
52
102
{ACAD_REACTORS
330
47
102
}
330
47
100
AcDbScale
 70
     0
300
1:50
140
1.0
141
50.0
290
     0
  0
SCALE
  5
53
102
{ACAD_REACTORS
330
47
102
}
330
47
100
AcDbScale
 70
     0
300
1:100
140
1.0
141
100.0
290
     0
  0
SCALE
  5
54
102
{ACAD_REACTORS
330
47
102
}
330
47
100
AcDbScale
 70
     0
300
2:1
140
2.0
141
1.0
290
     0
  0
SCALE
  5
55
102
{ACAD_REACTORS
330
47
102
}
330
47
100
AcDbScale
 70
     0
300
4:1
140
4.0
141
1.0
290
     0
  0
SCALE
  5
56
102
{ACAD_REACTORS
330
47
102
}
330
47
100
AcDbScale
 70
     0
300
8:1
140
8.0
141
1.0
290
     0
  0
SCALE
  5
57
102
{ACAD_REACTORS
330
47
102
}
330
47
100
AcDbScale
 70
     0
300
10:1
140
10.0
141
1.0
290
     0
  0
SCALE
  5
58
102
{ACAD_REACTORS
330
47
102
}
330
47
100
AcDbScale
 70
     0
300
100:1
140
100.0
141
1.0
290
     0
  0
SCALE
  5
59
102
{ACAD_REACTORS
330
47
102
}
330
47
100
AcDbScale
 70
     0
300
1/128" = 1'-0"
140
0.0078125
141
12.0
290
     0
  0
SCALE
  5
5A
102
{ACAD_REACTORS
330
47
102
}
330
47
100
AcDbScale
 70
     0
300
1/64" = 1'-0"
140
0.015625
141
12.0
290
     0
  0
SCALE
  5
5B
102
{ACAD_REACTORS
330
47
102
}
330
47
100
AcDbScale
 70
     0
300
1/32" = 1'-0"
140
0.03125
141
12.0
290
     0
  0
SCALE
  5
5C
102
{ACAD_REACTORS
330
47
102
}
330
47
100
AcDbScale
 70
     0
300
1/16" = 1'-0"
140
0.0625
141
12.0
290
     0
  0
SCALE
  5
5D
102
{ACAD_REACTORS
330
47
102
}
330
47
100
AcDbScale
 70
     0
300
3/32" = 1'-0"
140
0.09375
141
12.0
290
     0
  0
SCALE
  5
5E
102
{ACAD_REACTORS
330
47
102
}
330
47
100
AcDbScale
 70
     0
300
1/8" = 1'-0"
140
0.125
141
12.0
290
     0
  0
SCALE
  5
5F
102
{ACAD_REACTORS
330
47
102
}
330
47
100
AcDbScale
 70
     0
300
3/16" = 1'-0"
140
0.1875
141
12.0
290
     0
  0
SCALE
  5
60
102
{ACAD_REACTORS
330
47
102
}
330
47
100
AcDbScale
 70
     0
300
1/4" = 1'-0"
140
0.25
141
12.0
290
     0
  0
SCALE
  5
61
102
{ACAD_REACTORS
330
47
102
}
330
47
100
AcDbScale
 70
     0
300
3/8" = 1'-0"
140
0.375
141
12.0
290
     0
  0
SCALE
  5
62
102
{ACAD_REACTORS
330
47
102
}
330
47
100
AcDbScale
 70
     0
300
1/2" = 1'-0"
140
0.5
141
12.0
290
     0
  0
SCALE
  5
63
102
{ACAD_REACTORS
330
47
102
}
330
47
100
AcDbScale
 70
     0
300
3/4" = 1'-0"
140
0.75
141
12.0
290
     0
  0
SCALE
  5
64
102
{ACAD_REACTORS
330
47
102
}
330
47
100
AcDbScale
 70
     0
300
1" = 1'-0"
140
1.0
141
12.0
290
     0
  0
SCALE
  5
65
102
{ACAD_REACTORS
330
47
102
}
330
47
100
AcDbScale
 70
     0
300
1-1/2" = 1'-0"
140
1.5
141
12.0
290
     0
  0
SCALE
  5
66
102
{ACAD_REACTORS
330
47
102
}
330
47
100
AcDbScale
 70
     0
300
3" = 1'-0"
140
3.0
141
12.0
290
     0
  0
SCALE
  5
67
102
{ACAD_REACTORS
330
47
102
}
330
47
100
AcDbScale
 70
     0
300
6" = 1'-0"
140
6.0
141
12.0
290
     0
  0
SCALE
  5
68
102
{ACAD_REACTORS
330
47
102
}
330
47
100
AcDbScale
 70
     0
300
1'-0" = 1'-0"
140
12.0
141
12.0
290
     0
  0
TABLESTYLE
  5
6A
102
{ACAD_REACTORS
330
69
102
}
102
{ACAD_XDICTIONARY
360
287
102
}
330
69
100
AcDbTableStyle
  3
Standard
 70
     0
 71
     0
 40
0.06
 41
0.06
280
     0
281
     0
  7
Standard
140
0.18
170
     2
 62
     0
 63
   257
283
     0
 90
        4
 91
        0
  1

274
    -2
284
     1
 64
     0
275
    -2
285
     1
 65
     0
276
    -2
286
     1
 66
     0
277
    -2
287
     1
 67
     0
278
    -2
288
     1
 68
     0
279
    -2
289
     1
 69
     0
  7
Standard
140
0.25
170
     5
 62
     0
 63
   257
283
     0
 90
        4
 91
        0
  1

274
    -2
284
     1
 64
     0
275
    -2
285
     1
 65
     0
276
    -2
286
     1
 66
     0
277
    -2
287
     1
 67
     0
278
    -2
288
     1
 68
     0
279
    -2
289
     1
 69
     0
  7
Standard
140
0.18
170
     5
 62
     0
 63
   257
283
     0
 90
        4
 91
        0
  1

274
    -2
284
     1
 64
     0
275
    -2
285
     1
 65
     0
276
    -2
286
     1
 66
     0
277
    -2
287
     1
 67
     0
278
    -2
288
     1
 68
     0
279
    -2
289
     1
 69
     0
  0
VISUALSTYLE
  5
2F
102
{ACAD_REACTORS
330
2A
102
}
330
2A
100
AcDbVisualStyle
  2
2dWireframe
 70
     4
177
     3
291
     0
 70
    58
 90
        0
176
     1
 90
        2
176
     1
 90
        0
176
     1
 90
        0
176
     1
 40
0.6
176
     1
 40
30.0
176
     1
 62
     7
420
 16777215
176
     1
 90
        1
176
     1
 90
        4
176
     1
 62
     7
176
     1
 62
   257
176
     1
 90
        1
176
     1
 90
        1
176
     1
 40
1.0
176
     1
 90
        0
176
     1
 62
   257
176
     1
 40
1.0
176
     1
 90
        1
176
     1
 90
        6
176
     1
 90
        2
176
     1
 62
     7
176
     1
 90
        5
176
     1
 90
        0
176
     1
 90
        0
176
     1
290
     0
176
     1
 90
        1
176
     1
 40
0.0
176
     1
 90
        0
176
     1
290
     1
176
     1
290
     1
176
     1
290
     0
176
     1
290
     0
176
     1
290
     0
176
     1
290
     0
176
     1
290
     0
176
     1
290
     0
176
     1
290
     0
176
     1
 90
       50
176
     1
 40
0.0
176
     1
 40
1.0
176
     1
 90
        0
176
     1
 62
    18
420
        0
176
     1
 90
       50
176
     1
 90
        3
176
     1
 62
     5
420
      255
176
     1
290
     0
176
     1
 90
       50
176
     1
 90
       50
176
     1
 90
       50
176
     1
290
     0
176
     1
 90
       50
176
     1
 62
   256
176
     0
 40
1.0
176
     0
 90
        2
176
     1
  1
strokes_ogs.tif
176
     1
290
     0
176
     1
 40
1.0
176
     1
 40
1.0
176
     1
  0
VISUALSTYLE
  5
32
102
{ACAD_REACTORS
330
2A
102
}
330
2A
100
AcDbVisualStyle
  2
Basic
 70
     7
177
     3
291
     1
 70
    58
 90
        1
176
     1
 90
        0
176
     1
 90
        1
176
     1
 90
        0
176
     1
 40
0.6
176
     1
 40
30.0
176
     1
 62
     7
420
 16777215
176
     1
 90
        0
176
     1
 90
        4
176
     1
 62
     7
176
     1
 62
   257
176
     1
 90
        1
176
     1
 90
        1
176
     1
 40
1.0
176
     1
 90
        8
176
     1
 62
     7
176
     1
 40
1.0
176
     1
 90
        1
176
     1
 90
        6
176
     1
 90
        2
176
     1
 62
     7
176
     1
 90
        5
176
     1
 90
        0
176
     1
 90
        0
176
     1
290
     0
176
     1
 90
        1
176
     1
 40
0.0
176
     1
 90
        0
176
     1
290
     0
176
     1
290
     1
176
     1
290
     1
176
     1
290
     0
176
     1
290
     0
176
     1
290
     0
176
     1
290
     0
176
     1
290
     0
176
     1
290
     0
176
     1
 90
       50
176
     1
 40
0.0
176
     1
 40
1.0
176
     1
 90
        0
176
     1
 62
    18
420
        0
176
     1
 90
       50
176
     1
 90
        3
176
     1
 62
     5
420
      255
176
     1
290
     0
176
     1
 90
       50
176
     1
 90
       50
176
     1
 90
       50
176
     1
290
     0
176
     1
 90
       50
176
     1
 62
   256
176
     0
 40
1.0
176
     0
 90
        2
176
     1
  1
strokes_ogs.tif
176
     1
290
     0
176
     1
 40
1.0
176
     1
 40
1.0
176
     1
  0
VISUALSTYLE
  5
36
102
{ACAD_REACTORS
330
2A
102
}
330
2A
100
AcDbVisualStyle
  2
Brighten
 70
    12
177
     3
291
     1
 70
    58
 90
        2
176
     1
 90
        2
176
     1
 90
        0
176
     1
 90
        0
176
     1
 40
0.6
176
     1
 40
30.0
176
     1
 62
     7
420
 16777215
176
     1
 90
        1
176
     1
 90
        4
176
     1
 62
     7
176
     1
 62
   257
176
     1
 90
        1
176
     1
 90
        1
176
     1
 40
1.0
176
     1
 90
        8
176
     1
 62
     7
176
     1
 40
1.0
176
     1
 90
        1
176
     1
 90
        6
176
     1
 90
        2
176
     1
 62
     7
176
     1
 90
        5
176
     1
 90
        0
176
     1
 90
        0
176
     1
290
     0
176
     1
 90
        1
176
     1
 40
50.0
176
     1
 90
        0
176
     1
290
     0
176
     1
290
     1
176
     1
290
     1
176
     1
290
     0
176
     1
290
     0
176
     1
290
     0
176
     1
290
     0
176
     1
290
     0
176
     1
290
     0
176
     1
 90
       50
176
     1
 40
0.0
176
     1
 40
1.0
176
     1
 90
        0
176
     1
 62
    18
420
        0
176
     1
 90
       50
176
     1
 90
        3
176
     1
 62
     5
420
      255
176
     1
290
     0
176
     1
 90
       50
176
     1
 90
       50
176
     1
 90
       50
176
     1
290
     0
176
     1
 90
       50
176
     1
 62
   256
176
     0
 40
1.0
176
     0
 90
        2
176
     1
  1
strokes_ogs.tif
176
     1
290
     0
176
     1
 40
1.0
176
     1
 40
1.0
176
     1
  0
VISUALSTYLE
  5
3A
102
{ACAD_REACTORS
330
2A
102
}
330
2A
100
AcDbVisualStyle
  2
ColorChange
 70
    16
177
     3
291
     1
 70
    58
 90
        2
176
     1
 90
        2
176
     1
 90
        3
176
     1
 90
        0
176
     1
 40
0.6
176
     1
 40
30.0
176
     1
 62
     8
420
  8421504
176
     1
 90
        1
176
     1
 90
        4
176
     1
 62
     7
176
     1
 62
   257
176
     1
 90
        1
176
     1
 90
        1
176
     1
 40
1.0
176
     1
 90
        8
176
     1
 62
     8
420
  8421504
176
     1
 40
1.0
176
     1
 90
        1
176
     1
 90
        6
176
     1
 90
        2
176
     1
 62
     7
176
     1
 90
        5
176
     1
 90
        0
176
     1
 90
        0
176
     1
290
     0
176
     1
 90
        1
176
     1
 40
0.0
176
     1
 90
        0
176
     1
290
     0
176
     1
290
     1
176
     1
290
     1
176
     1
290
     0
176
     1
290
     0
176
     1
290
     0
176
     1
290
     0
176
     1
290
     0
176
     1
290
     0
176
     1
 90
       50
176
     1
 40
0.0
176
     1
 40
1.0
176
     1
 90
        0
176
     1
 62
    18
420
        0
176
     1
 90
       50
176
     1
 90
        3
176
     1
 62
     5
420
      255
176
     1
290
     0
176
     1
 90
       50
176
     1
 90
       50
176
     1
 90
       50
176
     1
290
     0
176
     1
 90
       50
176
     1
 62
   256
176
     0
 40
1.0
176
     0
 90
        2
176
     1
  1
strokes_ogs.tif
176
     1
290
     0
176
     1
 40
1.0
176
     1
 40
1.0
176
     1
  0
VISUALSTYLE
  5
34
102
{ACAD_REACTORS
330
2A
102
}
330
2A
100
AcDbVisualStyle
  2
Conceptual
 70
     9
177
     3
291
     0
 70
    58
 90
        3
176
     1
 90
        2
176
     1
 90
        0
176
     1
 90
        0
176
     1
 40
0.6
176
     1
 40
30.0
176
     1
 62
     7
420
 16777215
176
     1
 90
        2
176
     1
 90
        2
176
     1
 62
     7
176
     1
 62
   257
176
     1
 90
        1
176
     1
 90
        1
176
     1
 40
179.0
176
     1
 90
        8
176
     1
 62
     7
176
     1
 40
1.0
176
     1
 90
        1
176
     1
 90
        6
176
     1
 90
        2
176
     1
 62
     7
176
     1
 90
        3
176
     1
 90
        0
176
     1
 90
        0
176
     1
290
     0
176
     1
 90
        1
176
     1
 40
0.0
176
     1
 90
        0
176
     1
290
     0
176
     1
290
     1
176
     1
290
     1
176
     1
290
     0
176
     1
290
     0
176
     1
290
     0
176
     1
290
     0
176
     1
290
     0
176
     1
290
     0
176
     1
 90
       50
176
     1
 40
0.0
176
     1
 40
1.0
176
     1
 90
        0
176
     1
 62
    18
420
        0
176
     1
 90
       50
176
     1
 90
        3
176
     1
 62
     5
420
      255
176
     1
290
     0
176
     1
 90
       50
176
     1
 90
       50
176
     1
 90
       50
176
     1
290
     0
176
     1
 90
       50
176
     1
 62
   256
176
     0
 40
1.0
176
     0
 90
        2
176
     1
  1
strokes_ogs.tif
176
     1
290
     0
176
     1
 40
1.0
176
     1
 40
1.0
176
     1
  0
VISUALSTYLE
  5
35
102
{ACAD_REACTORS
330
2A
102
}
330
2A
100
AcDbVisualStyle
  2
Dim
 70
    11
177
     3
291
     1
 70
    58
 90
        2
176
     1
 90
        2
176
     1
 90
        0
176
     1
 90
        0
176
     1
 40
0.6
176
     1
 40
30.0
176
     1
 62
     7
420
 16777215
176
     1
 90
        1
176
     1
 90
        4
176
     1
 62
     7
176
     1
 62
   257
176
     1
 90
        1
176
     1
 90
        1
176
     1
 40
1.0
176
     1
 90
        8
176
     1
 62
     7
176
     1
 40
1.0
176
     1
 90
        1
176
     1
 90
        6
176
     1
 90
        2
176
     1
 62
     7
176
     1
 90
        5
176
     1
 90
        0
176
     1
 90
        0
176
     1
290
     0
176
     1
 90
        1
176
     1
 40
-50.0
176
     1
 90
        0
176
     1
290
     0
176
     1
290
     1
176
     1
290
     1
176
     1
290
     0
176
     1
290
     0
176
     1
290
     0
176
     1
290
     0
176
     1
290
     0
176
     1
290
     0
176
     1
 90
       50
176
     1
 40
0.0
176
     1
 40
1.0
176
     1
 90
        0
176
     1
 62
    18
420
        0
176
     1
 90
       50
176
     1
 90
        3
176
     1
 62
     5
420
      255
176
     1
290
     0
176
     1
 90
       50
176
     1
 90
       50
176
     1
 90
       50
176
     1
290
     0
176
     1
 90
       50
176
     1
 62
   256
176
     0
 40
1.0
176
     0
 90
        2
176
     1
  1
strokes_ogs.tif
176
     1
290
     0
176
     1
 40
1.0
176
     1
 40
1.0
176
     1
  0
VISUALSTYLE
  5
3D
102
{ACAD_REACTORS
330
2A
102
}
330
2A
100
AcDbVisualStyle
  2
EdgeColorOff
 70
    22
177
     3
291
     1
 70
    58
 90
        2
176
     0
 90
        2
176
     0
 90
        0
176
     0
 90
        0
176
     0
 40
0.6
176
     0
 40
30.0
176
     0
 62
     7
420
 16777215
176
     0
 90
        1
176
     0
 90
        4
176
     0
 62
     7
176
     0
 62
   257
176
     0
 90
        1
176
     0
 90
        1
176
     0
 40
1.0
176
     0
 90
        8
176
     2
 62
     7
176
     0
 40
1.0
176
     0
 90
        1
176
     0
 90
        6
176
     0
 90
        2
176
     0
 62
     7
176
     0
 90
        5
176
     0
 90
        0
176
     0
 90
        0
176
     0
290
     0
176
     0
 90
        1
176
     0
 40
0.0
176
     0
 90
        0
176
     0
290
     0
176
     0
290
     1
176
     0
290
     1
176
     0
290
     0
176
     0
290
     0
176
     0
290
     0
176
     0
290
     0
176
     0
290
     0
176
     0
290
     0
176
     0
 90
       50
176
     0
 40
0.0
176
     0
 40
1.0
176
     0
 90
        0
176
     0
 62
    18
420
        0
176
     0
 90
       50
176
     0
 90
        3
176
     0
 62
     5
420
      255
176
     0
290
     0
176
     0
 90
       50
176
     0
 90
       50
176
     0
 90
       50
176
     0
290
     0
176
     0
 90
       50
176
     0
 62
   256
176
     0
 40
1.0
176
     0
 90
        2
176
     0
  1
strokes_ogs.tif
176
     0
290
     0
176
     0
 40
1.0
176
     0
 40
1.0
176
     0
  0
VISUALSTYLE
  5
39
102
{ACAD_REACTORS
330
2A
102
}
330
2A
100
AcDbVisualStyle
  2
Facepattern
 70
    15
177
     3
291
     1
 70
    58
 90
        2
176
     1
 90
        2
176
     1
 90
        0
176
     1
 90
        0
176
     1
 40
0.6
176
     1
 40
30.0
176
     1
 62
     7
420
 16777215
176
     1
 90
        1
176
     1
 90
        4
176
     1
 62
     7
176
     1
 62
   257
176
     1
 90
        1
176
     1
 90
        1
176
     1
 40
1.0
176
     1
 90
        8
176
     1
 62
     7
176
     1
 40
1.0
176
     1
 90
        1
176
     1
 90
        6
176
     1
 90
        2
176
     1
 62
     7
176
     1
 90
        5
176
     1
 90
        0
176
     1
 90
        0
176
     1
290
     0
176
     1
 90
        1
176
     1
 40
0.0
176
     1
 90
        0
176
     1
290
     0
176
     1
290
     1
176
     1
290
     1
176
     1
290
     0
176
     1
290
     0
176
     1
290
     0
176
     1
290
     0
176
     1
290
     0
176
     1
290
     0
176
     1
 90
       50
176
     1
 40
0.0
176
     1
 40
1.0
176
     1
 90
        0
176
     1
 62
    18
420
        0
176
     1
 90
       50
176
     1
 90
        3
176
     1
 62
     5
420
      255
176
     1
290
     0
176
     1
 90
       50
176
     1
 90
       50
176
     1
 90
       50
176
     1
290
     0
176
     1
 90
       50
176
     1
 62
   256
176
     0
 40
1.0
176
     0
 90
        2
176
     1
  1
strokes_ogs.tif
176
     1
290
     0
176
     1
 40
1.0
176
     1
 40
1.0
176
     1
  0
VISUALSTYLE
  5
2B
102
{ACAD_REACTORS
330
2A
102
}
330
2A
100
AcDbVisualStyle
  2
Flat
 70
     0
177
     3
291
     1
 70
    58
 90
        2
176
     1
 90
        1
176
     1
 90
        1
176
     1
 90
        2
176
     1
 40
0.6
176
     1
 40
30.0
176
     1
 62
     7
420
 16777215
176
     1
 90
        0
176
     1
 90
        0
176
     1
 62
     7
176
     1
 62
   257
176
     1
 90
        1
176
     1
 90
        1
176
     1
 40
1.0
176
     1
 90
        8
176
     1
 62
     7
176
     1
 40
1.0
176
     1
 90
        1
176
     1
 90
        6
176
     1
 90
        2
176
     1
 62
     7
176
     1
 90
        5
176
     1
 90
        0
176
     1
 90
        0
176
     1
290
     0
176
     1
 90
       13
176
     1
 40
0.0
176
     1
 90
        0
176
     1
290
     0
176
     1
290
     1
176
     1
290
     1
176
     1
290
     0
176
     1
290
     0
176
     1
290
     0
176
     1
290
     0
176
     1
290
     0
176
     1
290
     0
176
     1
 90
       50
176
     1
 40
0.0
176
     1
 40
1.0
176
     1
 90
        0
176
     1
 62
    18
420
        0
176
     1
 90
       50
176
     1
 90
        3
176
     1
 62
     5
420
      255
176
     1
290
     0
176
     1
 90
       50
176
     1
 90
       50
176
     1
 90
       50
176
     1
290
     0
176
     1
 90
       50
176
     1
 62
   256
176
     0
 40
1.0
176
     0
 90
        2
176
     1
  1
strokes_ogs.tif
176
     1
290
     0
176
     1
 40
1.0
176
     1
 40
1.0
176
     1
  0
VISUALSTYLE
  5
2C
102
{ACAD_REACTORS
330
2A
102
}
330
2A
100
AcDbVisualStyle
  2
FlatWithEdges
 70
     1
177
     3
291
     1
 70
    58
 90
        2
176
     1
 90
        1
176
     1
 90
        1
176
     1
 90
        2
176
     1
 40
0.6
176
     1
 40
30.0
176
     1
 62
     7
420
 16777215
176
     1
 90
        1
176
     1
 90
        0
176
     1
 62
     7
176
     1
 62
   257
176
     1
 90
        1
176
     1
 90
        1
176
     1
 40
1.0
176
     1
 90
        0
176
     1
 62
   257
176
     1
 40
1.0
176
     1
 90
        1
176
     1
 90
        6
176
     1
 90
        2
176
     1
 62
     7
176
     1
 90
        5
176
     1
 90
        0
176
     1
 90
        0
176
     1
290
     0
176
     1
 90
       13
176
     1
 40
0.0
176
     1
 90
        0
176
     1
290
     0
176
     1
290
     1
176
     1
290
     1
176
     1
290
     0
176
     1
290
     0
176
     1
290
     0
176
     1
290
     0
176
     1
290
     0
176
     1
290
     0
176
     1
 90
       50
176
     1
 40
0.0
176
     1
 40
1.0
176
     1
 90
        0
176
     1
 62
    18
420
        0
176
     1
 90
       50
176
     1
 90
        3
176
     1
 62
     5
420
      255
176
     1
290
     0
176
     1
 90
       50
176
     1
 90
       50
176
     1
 90
       50
176
     1
290
     0
176
     1
 90
       50
176
     1
 62
   256
176
     0
 40
1.0
176
     0
 90
        2
176
     1
  1
strokes_ogs.tif
176
     1
290
     0
176
     1
 40
1.0
176
     1
 40
1.0
176
     1
  0
VISUALSTYLE
  5
2D
102
{ACAD_REACTORS
330
2A
102
}
330
2A
100
AcDbVisualStyle
  2
Gouraud
 70
     2
177
     3
291
     1
 70
    58
 90
        2
176
     1
 90
        2
176
     1
 90
        1
176
     1
 90
        2
176
     1
 40
0.6
176
     1
 40
30.0
176
     1
 62
     7
420
 16777215
176
     1
 90
        0
176
     1
 90
        0
176
     1
 62
     7
176
     1
 62
   257
176
     1
 90
        1
176
     1
 90
        1
176
     1
 40
1.0
176
     1
 90
        0
176
     1
 62
     7
176
     1
 40
1.0
176
     1
 90
        1
176
     1
 90
        6
176
     1
 90
        2
176
     1
 62
     7
176
     1
 90
        5
176
     1
 90
        0
176
     1
 90
        0
176
     1
290
     0
176
     1
 90
       13
176
     1
 40
0.0
176
     1
 90
        0
176
     1
290
     0
176
     1
290
     1
176
     1
290
     1
176
     1
290
     0
176
     1
290
     0
176
     1
290
     0
176
     1
290
     0
176
     1
290
     0
176
     1
290
     0
176
     1
 90
       50
176
     1
 40
0.0
176
     1
 40
1.0
176
     1
 90
        0
176
     1
 62
    18
420
        0
176
     1
 90
       50
176
     1
 90
        3
176
     1
 62
     5
420
      255
176
     1
290
     0
176
     1
 90
       50
176
     1
 90
       50
176
     1
 90
       50
176
     1
290
     0
176
     1
 90
       50
176
     1
 62
   256
176
     0
 40
1.0
176
     0
 90
        2
176
     1
  1
strokes_ogs.tif
176
     1
290
     0
176
     1
 40
1.0
176
     1
 40
1.0
176
     1
  0
VISUALSTYLE
  5
2E
102
{ACAD_REACTORS
330
2A
102
}
330
2A
100
AcDbVisualStyle
  2
GouraudWithEdges
 70
     3
177
     3
291
     1
 70
    58
 90
        2
176
     1
 90
        2
176
     1
 90
        1
176
     1
 90
        2
176
     1
 40
0.6
176
     1
 40
30.0
176
     1
 62
     7
420
 16777215
176
     1
 90
        1
176
     1
 90
        0
176
     1
 62
     7
176
     1
 62
   257
176
     1
 90
        1
176
     1
 90
        1
176
     1
 40
1.0
176
     1
 90
        0
176
     1
 62
   257
176
     1
 40
1.0
176
     1
 90
        1
176
     1
 90
        6
176
     1
 90
        2
176
     1
 62
     7
176
     1
 90
        5
176
     1
 90
        0
176
     1
 90
        0
176
     1
290
     0
176
     1
 90
       13
176
     1
 40
0.0
176
     1
 90
        0
176
     1
290
     0
176
     1
290
     1
176
     1
290
     1
176
     1
290
     0
176
     1
290
     0
176
     1
290
     0
176
     1
290
     0
176
     1
290
     0
176
     1
290
     0
176
     1
 90
       50
176
     1
 40
0.0
176
     1
 40
1.0
176
     1
 90
        0
176
     1
 62
    18
420
        0
176
     1
 90
       50
176
     1
 90
        3
176
     1
 62
     5
420
      255
176
     1
290
     0
176
     1
 90
       50
176
     1
 90
       50
176
     1
 90
       50
176
     1
290
     0
176
     1
 90
       50
176
     1
 62
   256
176
     0
 40
1.0
176
     0
 90
        2
176
     1
  1
strokes_ogs.tif
176
     1
290
     0
176
     1
 40
1.0
176
     1
 40
1.0
176
     1
  0
VISUALSTYLE
  5
31
102
{ACAD_REACTORS
330
2A
102
}
330
2A
100
AcDbVisualStyle
  2
Hidden
 70
     6
177
     3
291
     0
 70
    58
 90
        1
176
     1
 90
        2
176
     1
 90
        2
176
     1
 90
        0
176
     1
 40
0.6
176
     1
 40
30.0
176
     1
 62
     7
420
 16777215
176
     1
 90
        2
176
     1
 90
        2
176
     1
 62
     7
176
     1
 62
   257
176
     1
 90
        2
176
     1
 90
        1
176
     1
 40
40.0
176
     1
 90
        0
176
     1
 62
   257
176
     1
 40
1.0
176
     1
 90
        1
176
     1
 90
        6
176
     1
 90
        2
176
     1
 62
     7
176
     1
 90
        3
176
     1
 90
        0
176
     1
 90
        0
176
     1
290
     0
176
     1
 90
        1
176
     1
 40
0.0
176
     1
 90
        0
176
     1
290
     0
176
     1
290
     1
176
     1
290
     1
176
     1
290
     0
176
     1
290
     0
176
     1
290
     0
176
     1
290
     0
176
     1
290
     0
176
     1
290
     0
176
     1
 90
       50
176
     1
 40
0.0
176
     1
 40
1.0
176
     1
 90
        0
176
     1
 62
    18
420
        0
176
     1
 90
       50
176
     1
 90
        3
176
     1
 62
     5
420
      255
176
     1
290
     0
176
     1
 90
       50
176
     1
 90
       50
176
     1
 90
       50
176
     1
290
     0
176
     1
 90
       50
176
     1
 62
   256
176
     0
 40
1.0
176
     0
 90
        2
176
     1
  1
strokes_ogs.tif
176
     1
290
     0
176
     1
 40
1.0
176
     1
 40
1.0
176
     1
  0
VISUALSTYLE
  5
3B
102
{ACAD_REACTORS
330
2A
102
}
330
2A
100
AcDbVisualStyle
  2
JitterOff
 70
    20
177
     3
291
     1
 70
    58
 90
        2
176
     0
 90
        2
176
     0
 90
        0
176
     0
 90
        0
176
     0
 40
0.6
176
     0
 40
30.0
176
     0
 62
     7
420
 16777215
176
     0
 90
        1
176
     0
 90
        4
176
     0
 62
     7
176
     0
 62
   257
176
     0
 90
        1
176
     0
 90
        1
176
     0
 40
1.0
176
     0
 90
       10
176
     2
 62
     7
176
     0
 40
1.0
176
     0
 90
        1
176
     0
 90
        6
176
     0
 90
        2
176
     0
 62
     7
176
     0
 90
        5
176
     0
 90
        0
176
     0
 90
        0
176
     0
290
     0
176
     0
 90
        1
176
     0
 40
0.0
176
     0
 90
        0
176
     0
290
     0
176
     0
290
     1
176
     0
290
     1
176
     0
290
     0
176
     0
290
     0
176
     0
290
     0
176
     0
290
     0
176
     0
290
     0
176
     0
290
     0
176
     0
 90
       50
176
     0
 40
0.0
176
     0
 40
1.0
176
     0
 90
        0
176
     0
 62
    18
420
        0
176
     0
 90
       50
176
     0
 90
        3
176
     0
 62
     5
420
      255
176
     0
290
     0
176
     0
 90
       50
176
     0
 90
       50
176
     0
 90
       50
176
     0
290
     0
176
     0
 90
       50
176
     0
 62
   256
176
     0
 40
1.0
176
     0
 90
        2
176
     0
  1
strokes_ogs.tif
176
     0
290
     0
176
     0
 40
1.0
176
     0
 40
1.0
176
     0
  0
VISUALSTYLE
  5
38
102
{ACAD_REACTORS
330
2A
102
}
330
2A
100
AcDbVisualStyle
  2
Linepattern
 70
    14
177
     3
291
     1
 70
    58
 90
        2
176
     1
 90
        2
176
     1
 90
        0
176
     1
 90
        0
176
     1
 40
0.6
176
     1
 40
30.0
176
     1
 62
     7
420
 16777215
176
     1
 90
        1
176
     1
 90
        4
176
     1
 62
     7
176
     1
 62
   257
176
     1
 90
        7
176
     1
 90
        7
176
     1
 40
1.0
176
     1
 90
        8
176
     1
 62
     7
176
     1
 40
1.0
176
     1
 90
        1
176
     1
 90
        6
176
     1
 90
        2
176
     1
 62
     7
176
     1
 90
        5
176
     1
 90
        0
176
     1
 90
        0
176
     1
290
     0
176
     1
 90
        1
176
     1
 40
0.0
176
     1
 90
        0
176
     1
290
     0
176
     1
290
     1
176
     1
290
     1
176
     1
290
     0
176
     1
290
     0
176
     1
290
     0
176
     1
290
     0
176
     1
290
     0
176
     1
290
     0
176
     1
 90
       50
176
     1
 40
0.0
176
     1
 40
1.0
176
     1
 90
        0
176
     1
 62
    18
420
        0
176
     1
 90
       50
176
     1
 90
        3
176
     1
 62
     5
420
      255
176
     1
290
     0
176
     1
 90
       50
176
     1
 90
       50
176
     1
 90
       50
176
     1
290
     0
176
     1
 90
       50
176
     1
 62
   256
176
     0
 40
1.0
176
     0
 90
        2
176
     1
  1
strokes_ogs.tif
176
     1
290
     0
176
     1
 40
1.0
176
     1
 40
1.0
176
     1
  0
VISUALSTYLE
  5
3C
102
{ACAD_REACTORS
330
2A
102
}
330
2A
100
AcDbVisualStyle
  2
OverhangOff
 70
    21
177
     3
291
     1
 70
    58
 90
        2
176
     0
 90
        2
176
     0
 90
        0
176
     0
 90
        0
176
     0
 40
0.6
176
     0
 40
30.0
176
     0
 62
     7
420
 16777215
176
     0
 90
        1
176
     0
 90
        4
176
     0
 62
     7
176
     0
 62
   257
176
     0
 90
        1
176
     0
 90
        1
176
     0
 40
1.0
176
     0
 90
        9
176
     2
 62
     7
176
     0
 40
1.0
176
     0
 90
        1
176
     0
 90
        6
176
     0
 90
        2
176
     0
 62
     7
176
     0
 90
        5
176
     0
 90
        0
176
     0
 90
        0
176
     0
290
     0
176
     0
 90
        1
176
     0
 40
0.0
176
     0
 90
        0
176
     0
290
     0
176
     0
290
     1
176
     0
290
     1
176
     0
290
     0
176
     0
290
     0
176
     0
290
     0
176
     0
290
     0
176
     0
290
     0
176
     0
290
     0
176
     0
 90
       50
176
     0
 40
0.0
176
     0
 40
1.0
176
     0
 90
        0
176
     0
 62
    18
420
        0
176
     0
 90
       50
176
     0
 90
        3
176
     0
 62
     5
420
      255
176
     0
290
     0
176
     0
 90
       50
176
     0
 90
       50
176
     0
 90
       50
176
     0
290
     0
176
     0
 90
       50
176
     0
 62
   256
176
     0
 40
1.0
176
     0
 90
        2
176
     0
  1
strokes_ogs.tif
176
     0
290
     0
176
     0
 40
1.0
176
     0
 40
1.0
176
     0
  0
VISUALSTYLE
  5
33
102
{ACAD_REACTORS
330
2A
102
}
330
2A
100
AcDbVisualStyle
  2
Realistic
 70
     8
177
     3
291
     0
 70
    58
 90
        2
176
     1
 90
        3
176
     1
 90
        0
176
     1
 90
        2
176
     1
 40
0.6
176
     1
 40
30.0
176
     1
 62
     7
420
 16777215
176
     1
 90
        0
176
     1
 90
        0
176
     1
 62
     7
176
     1
 62
   257
176
     1
 90
        1
176
     1
 90
        1
176
     1
 40
1.0
176
     1
 90
        8
176
     1
 62
   257
176
     1
 40
1.0
176
     1
 90
        1
176
     1
 90
        6
176
     1
 90
        2
176
     1
 62
     7
176
     1
 90
        3
176
     1
 90
        0
176
     1
 90
        0
176
     1
290
     0
176
     1
 90
       13
176
     1
 40
0.0
176
     1
 90
        0
176
     1
290
     0
176
     1
290
     1
176
     1
290
     1
176
     1
290
     0
176
     1
290
     0
176
     1
290
     0
176
     1
290
     0
176
     1
290
     0
176
     1
290
     0
176
     1
 90
       50
176
     1
 40
0.0
176
     1
 40
1.0
176
     1
 90
        0
176
     1
 62
    18
420
        0
176
     1
 90
       50
176
     1
 90
        3
176
     1
 62
     5
420
      255
176
     1
290
     0
176
     1
 90
       50
176
     1
 90
       50
176
     1
 90
       50
176
     1
290
     0
176
     1
 90
       50
176
     1
 62
   256
176
     0
 40
1.0
176
     0
 90
        2
176
     1
  1
strokes_ogs.tif
176
     1
290
     0
176
     1
 40
1.0
176
     1
 40
1.0
176
     1
  0
VISUALSTYLE
  5
42
102
{ACAD_REACTORS
330
2A
102
}
330
2A
100
AcDbVisualStyle
  2
Shaded
 70
    27
177
     3
291
     0
 70
    58
 90
        2
176
     1
 90
        2
176
     1
 90
        1
176
     1
 90
        2
176
     1
 40
0.6
176
     1
 40
30.0
176
     1
 62
     7
420
 16777215
176
     1
 90
        0
176
     1
 90
        4
176
     1
 62
     7
176
     1
 62
   257
176
     1
 90
        1
176
     1
 90
        1
176
     1
 40
1.0
176
     1
 90
        8
176
     1
 62
   257
176
     1
 40
1.0
176
     1
 90
        1
176
     1
 90
        6
176
     1
 90
        2
176
     1
 62
     8
420
  7895160
176
     1
 90
        3
176
     1
 90
        0
176
     1
 90
        0
176
     1
290
     0
176
     1
 90
        5
176
     1
 40
0.0
176
     1
 90
        0
176
     1
290
     0
176
     1
290
     1
176
     1
290
     1
176
     1
290
     0
176
     1
290
     0
176
     1
290
     0
176
     1
290
     0
176
     1
290
     0
176
     1
290
     0
176
     1
 90
       50
176
     1
 40
0.0
176
     1
 40
1.0
176
     1
 90
        0
176
     1
 62
    18
420
        0
176
     1
 90
       50
176
     1
 90
        3
176
     1
 62
     5
420
      255
176
     1
290
     0
176
     1
 90
       50
176
     1
 90
       50
176
     1
 90
       50
176
     1
290
     0
176
     1
 90
       50
176
     1
 62
   256
176
     0
 40
1.0
176
     0
 90
        2
176
     1
  1
strokes_ogs.tif
176
     1
290
     0
176
     1
 40
1.0
176
     1
 40
1.0
176
     1
  0
VISUALSTYLE
  5
41
102
{ACAD_REACTORS
330
2A
102
}
330
2A
100
AcDbVisualStyle
  2
Shaded with edges
 70
    26
177
     3
291
     0
 70
    58
 90
        2
176
     1
 90
        2
176
     1
 90
        1
176
     1
 90
        2
176
     1
 40
0.6
176
     1
 40
30.0
176
     1
 62
     7
420
 16777215
176
     1
 90
        1
176
     1
 90
       10
176
     1
 62
     7
176
     1
 62
   257
176
     1
 90
        2
176
     1
 90
        1
176
     1
 40
1.0
176
     1
 90
        8
176
     1
 62
   257
176
     1
 40
1.0
176
     1
 90
        1
176
     1
 90
        6
176
     1
 90
        2
176
     1
 62
     7
176
     1
 90
        3
176
     1
 90
        0
176
     1
 90
        0
176
     1
290
     0
176
     1
 90
        5
176
     1
 40
0.0
176
     1
 90
        0
176
     1
290
     0
176
     1
290
     1
176
     1
290
     1
176
     1
290
     0
176
     1
290
     0
176
     1
290
     0
176
     1
290
     0
176
     1
290
     0
176
     1
290
     0
176
     1
 90
       50
176
     1
 40
0.0
176
     1
 40
1.0
176
     1
 90
        0
176
     1
 62
    18
420
        0
176
     1
 90
       50
176
     1
 90
        3
176
     1
 62
     5
420
      255
176
     1
290
     0
176
     1
 90
       50
176
     1
 90
       50
176
     1
 90
       50
176
     1
290
     0
176
     1
 90
       50
176
     1
 62
   256
176
     0
 40
1.0
176
     0
 90
        2
176
     1
  1
strokes_ogs.tif
176
     1
290
     0
176
     1
 40
1.0
176
     1
 40
1.0
176
     1
  0
VISUALSTYLE
  5
3E
102
{ACAD_REACTORS
330
2A
102
}
330
2A
100
AcDbVisualStyle
  2
Shades of Gray
 70
    23
177
     3
291
     0
 70
    58
 90
        2
176
     1
 90
        2
176
     1
 90
        3
176
     1
 90
        0
176
     1
 40
0.6
176
     1
 40
30.0
176
     1
 62
     7
420
 16777215
176
     1
 90
        2
176
     1
 90
        2
176
     1
 62
     7
176
     1
 62
     7
176
     1
 90
        1
176
     1
 90
        1
176
     1
 40
40.0
176
     1
 90
        8
176
     1
 62
     7
176
     1
 40
1.0
176
     1
 90
        1
176
     1
 90
        6
176
     1
 90
        2
176
     1
 62
     7
176
     1
 90
        3
176
     1
 90
        0
176
     1
 90
        0
176
     1
290
     0
176
     1
 90
        1
176
     1
 40
0.0
176
     1
 90
        0
176
     1
290
     0
176
     1
290
     1
176
     1
290
     1
176
     1
290
     0
176
     1
290
     0
176
     1
290
     0
176
     1
290
     0
176
     1
290
     0
176
     1
290
     0
176
     1
 90
       50
176
     1
 40
0.0
176
     1
 40
1.0
176
     1
 90
        0
176
     1
 62
    18
420
        0
176
     1
 90
       50
176
     1
 90
        3
176
     1
 62
     5
420
      255
176
     1
290
     0
176
     1
 90
       50
176
     1
 90
       50
176
     1
 90
       50
176
     1
290
     0
176
     1
 90
       50
176
     1
 62
   256
176
     0
 40
1.0
176
     0
 90
        2
176
     1
  1
strokes_ogs.tif
176
     1
290
     0
176
     1
 40
1.0
176
     1
 40
1.0
176
     1
  0
VISUALSTYLE
  5
3F
102
{ACAD_REACTORS
330
2A
102
}
330
2A
100
AcDbVisualStyle
  2
Sketchy
 70
    24
177
     3
291
     0
 70
    58
 90
        1
176
     1
 90
        2
176
     1
 90
        2
176
     1
 90
        0
176
     1
 40
0.6
176
     1
 40
30.0
176
     1
 62
     7
420
 16777215
176
     1
 90
        2
176
     1
 90
        2
176
     1
 62
     7
176
     1
 62
     7
176
     1
 90
        1
176
     1
 90
        1
176
     1
 40
40.0
176
     1
 90
       11
176
     1
 62
     7
176
     1
 40
1.0
176
     1
 90
        1
176
     1
 90
        6
176
     1
 90
        2
176
     1
 62
     7
176
     1
 90
        6
176
     1
 90
        0
176
     1
 90
        0
176
     1
290
     0
176
     1
 90
        1
176
     1
 40
0.0
176
     1
 90
        0
176
     1
290
     0
176
     1
290
     1
176
     1
290
     1
176
     1
290
     0
176
     1
290
     0
176
     1
290
     0
176
     1
290
     0
176
     1
290
     0
176
     1
290
     0
176
     1
 90
       50
176
     1
 40
0.0
176
     1
 40
1.0
176
     1
 90
        0
176
     1
 62
    18
420
        0
176
     1
 90
       50
176
     1
 90
        3
176
     1
 62
     5
420
      255
176
     1
290
     0
176
     1
 90
       50
176
     1
 90
       50
176
     1
 90
       50
176
     1
290
     0
176
     1
 90
       50
176
     1
 62
   256
176
     0
 40
1.0
176
     0
 90
        2
176
     1
  1
strokes_ogs.tif
176
     1
290
     0
176
     1
 40
1.0
176
     1
 40
1.0
176
     1
  0
VISUALSTYLE
  5
37
102
{ACAD_REACTORS
330
2A
102
}
330
2A
100
AcDbVisualStyle
  2
Thicken
 70
    13
177
     3
291
     1
 70
    58
 90
        2
176
     1
 90
        2
176
     1
 90
        0
176
     1
 90
        0
176
     1
 40
0.6
176
     1
 40
30.0
176
     1
 62
     7
420
 16777215
176
     1
 90
        1
176
     1
 90
        4
176
     1
 62
     7
176
     1
 62
   257
176
     1
 90
        1
176
     1
 90
        1
176
     1
 40
1.0
176
     1
 90
       12
176
     1
 62
     7
176
     1
 40
1.0
176
     1
 90
        1
176
     1
 90
        6
176
     1
 90
        2
176
     1
 62
     7
176
     1
 90
        5
176
     1
 90
        0
176
     1
 90
        0
176
     1
290
     0
176
     1
 90
        1
176
     1
 40
0.0
176
     1
 90
        0
176
     1
290
     0
176
     1
290
     1
176
     1
290
     1
176
     1
290
     0
176
     1
290
     0
176
     1
290
     0
176
     1
290
     0
176
     1
290
     0
176
     1
290
     0
176
     1
 90
       50
176
     1
 40
0.0
176
     1
 40
1.0
176
     1
 90
        0
176
     1
 62
    18
420
        0
176
     1
 90
       50
176
     1
 90
        3
176
     1
 62
     5
420
      255
176
     1
290
     0
176
     1
 90
       50
176
     1
 90
       50
176
     1
 90
       50
176
     1
290
     0
176
     1
 90
       50
176
     1
 62
   256
176
     0
 40
1.0
176
     0
 90
        2
176
     1
  1
strokes_ogs.tif
176
     1
290
     0
176
     1
 40
1.0
176
     1
 40
1.0
176
     1
  0
VISUALSTYLE
  5
30
102
{ACAD_REACTORS
330
2A
102
}
330
2A
100
AcDbVisualStyle
  2
Wireframe
 70
     5
177
     3
291
     0
 70
    58
 90
        0
176
     1
 90
        2
176
     1
 90
        0
176
     1
 90
        0
176
     1
 40
0.6
176
     1
 40
30.0
176
     1
 62
     7
420
 16777215
176
     1
 90
        1
176
     1
 90
        4
176
     1
 62
     7
176
     1
 62
   257
176
     1
 90
        1
176
     1
 90
        1
176
     1
 40
1.0
176
     1
 90
        0
176
     1
 62
   257
176
     1
 40
1.0
176
     1
 90
        1
176
     1
 90
        6
176
     1
 90
        2
176
     1
 62
     7
176
     1
 90
        3
176
     1
 90
        0
176
     1
 90
        0
176
     1
290
     0
176
     1
 90
        1
176
     1
 40
0.0
176
     1
 90
        0
176
     1
290
     0
176
     1
290
     1
176
     1
290
     1
176
     1
290
     0
176
     1
290
     0
176
     1
290
     0
176
     1
290
     0
176
     1
290
     0
176
     1
290
     0
176
     1
 90
       50
176
     1
 40
0.0
176
     1
 40
1.0
176
     1
 90
        0
176
     1
 62
    18
420
        0
176
     1
 90
       50
176
     1
 90
        3
176
     1
 62
     5
420
      255
176
     1
290
     0
176
     1
 90
       50
176
     1
 90
       50
176
     1
 90
       50
176
     1
290
     0
176
     1
 90
       50
176
     1
 62
   256
176
     0
 40
1.0
176
     0
 90
        2
176
     1
  1
strokes_ogs.tif
176
     1
290
     0
176
     1
 40
1.0
176
     1
 40
1.0
176
     1
  0
VISUALSTYLE
  5
40
102
{ACAD_REACTORS
330
2A
102
}
330
2A
100
AcDbVisualStyle
  2
X-Ray
 70
    25
177
     3
291
     0
 70
    58
 90
        2
176
     1
 90
        2
176
     1
 90
        1
176
     1
 90
        1
176
     1
 40
0.5
176
     1
 40
30.0
176
     1
 62
     7
420
 16777215
176
     1
 90
        1
176
     1
 90
        0
176
     1
 62
     7
176
     1
 62
   257
176
     1
 90
        1
176
     1
 90
        1
176
     1
 40
1.0
176
     1
 90
        8
176
     1
 62
     7
176
     1
 40
1.0
176
     1
 90
        1
176
     1
 90
        6
176
     1
 90
        2
176
     1
 62
     7
176
     1
 90
        3
176
     1
 90
        0
176
     1
 90
        0
176
     1
290
     0
176
     1
 90
       13
176
     1
 40
0.0
176
     1
 90
        0
176
     1
290
     0
176
     1
290
     1
176
     1
290
     1
176
     1
290
     0
176
     1
290
     0
176
     1
290
     0
176
     1
290
     0
176
     1
290
     0
176
     1
290
     0
176
     1
 90
       50
176
     1
 40
0.0
176
     1
 40
1.0
176
     1
 90
        0
176
     1
 62
    18
420
        0
176
     1
 90
       50
176
     1
 90
        3
176
     1
 62
     5
420
      255
176
     1
290
     0
176
     1
 90
       50
176
     1
 90
       50
176
     1
 90
       50
176
     1
290
     0
176
     1
 90
       50
176
     1
 62
   256
176
     0
 40
1.0
176
     0
 90
        2
176
     1
  1
strokes_ogs.tif
176
     1
290
     0
176
     1
 40
1.0
176
     1
 40
1.0
176
     1
  0
DICTIONARYVAR
  5
286
102
{ACAD_REACTORS
330
285
102
}
330
285
100
DictionaryVariables
280
     0
  1
1:1
  0
DICTIONARYVAR
  5
28B
102
{ACAD_REACTORS
330
285
102
}
330
285
100
DictionaryVariables
280
     0
  1
Standard
  0
DICTIONARYVAR
  5
28A
102
{ACAD_REACTORS
330
285
102
}
330
285
100
DictionaryVariables
280
     0
  1
Standard
  0
DICTIONARY
  5
287
330
6A
100
AcDbDictionary
280
     1
281
     1
  3
ACAD_ROUNDTRIP_2008_TABLESTYLE_CELLSTYLEMAP
360
288
  0
CELLSTYLEMAP
  5
288
102
{ACAD_REACTORS
330
287
102
}
330
287
100
AcDbCellStyleMap
 90
        3
300
CELLSTYLE
  1
TABLEFORMAT_BEGIN
 90
        5
170
     1
 91
        0
 92
    32768
 62
   257
 93
        1
300
CONTENTFORMAT
  1
CONTENTFORMAT_BEGIN
 90
        0
 91
        0
 92
        4
 93
        0
300

 40
0.0
140
1.0
 94
        5
 62
     0
340
11
144
0.25
309
CONTENTFORMAT_END
171
     1
301
MARGIN
  1
CELLMARGIN_BEGIN
 40
0.06
 40
0.06
 40
0.06
 40
0.06
 40
0.06
 40
0.06
309
CELLMARGIN_END
 94
        6
 95
        1
302
GRIDFORMAT
  1
GRIDFORMAT_BEGIN
 90
        0
 91
        1
 62
     0
 92
       -2
340
14
 93
        0
 40
0.045
309
GRIDFORMAT_END
 95
        2
302
GRIDFORMAT
  1
GRIDFORMAT_BEGIN
 90
        0
 91
        1
 62
     0
 92
       -2
340
14
 93
        0
 40
0.045
309
GRIDFORMAT_END
 95
        4
302
GRIDFORMAT
  1
GRIDFORMAT_BEGIN
 90
        0
 91
        1
 62
     0
 92
       -2
340
14
 93
        0
 40
0.045
309
GRIDFORMAT_END
 95
        8
302
GRIDFORMAT
  1
GRIDFORMAT_BEGIN
 90
        0
 91
        1
 62
     0
 92
       -2
340
14
 93
        0
 40
0.045
309
GRIDFORMAT_END
 95
       16
302
GRIDFORMAT
  1
GRIDFORMAT_BEGIN
 90
        0
 91
        1
 62
     0
 92
       -2
340
14
 93
        0
 40
0.045
309
GRIDFORMAT_END
 95
       32
302
GRIDFORMAT
  1
GRIDFORMAT_BEGIN
 90
        0
 91
        1
 62
     0
 92
       -2
340
14
 93
        0
 40
0.045
309
GRIDFORMAT_END
309
TABLEFORMAT_END
  1
CELLSTYLE_BEGIN
 90
        1
 91
        1
300
_TITLE
309
CELLSTYLE_END
300
CELLSTYLE
  1
TABLEFORMAT_BEGIN
 90
        5
170
     1
 91
        0
 92
        0
 62
   257
 93
        1
300
CONTENTFORMAT
  1
CONTENTFORMAT_BEGIN
 90
        0
 91
        0
 92
        4
 93
        0
300

 40
0.0
140
1.0
 94
        5
 62
     0
340
11
144
0.18
309
CONTENTFORMAT_END
171
     1
301
MARGIN
  1
CELLMARGIN_BEGIN
 40
0.06
 40
0.06
 40
0.06
 40
0.06
 40
0.06
 40
0.06
309
CELLMARGIN_END
 94
        6
 95
        1
302
GRIDFORMAT
  1
GRIDFORMAT_BEGIN
 90
        0
 91
        1
 62
     0
 92
       -2
340
14
 93
        0
 40
0.045
309
GRIDFORMAT_END
 95
        2
302
GRIDFORMAT
  1
GRIDFORMAT_BEGIN
 90
        0
 91
        1
 62
     0
 92
       -2
340
14
 93
        0
 40
0.045
309
GRIDFORMAT_END
 95
        4
302
GRIDFORMAT
  1
GRIDFORMAT_BEGIN
 90
        0
 91
        1
 62
     0
 92
       -2
340
14
 93
        0
 40
0.045
309
GRIDFORMAT_END
 95
        8
302
GRIDFORMAT
  1
GRIDFORMAT_BEGIN
 90
        0
 91
        1
 62
     0
 92
       -2
340
14
 93
        0
 40
0.045
309
GRIDFORMAT_END
 95
       16
302
GRIDFORMAT
  1
GRIDFORMAT_BEGIN
 90
        0
 91
        1
 62
     0
 92
       -2
340
14
 93
        0
 40
0.045
309
GRIDFORMAT_END
 95
       32
302
GRIDFORMAT
  1
GRIDFORMAT_BEGIN
 90
        0
 91
        1
 62
     0
 92
       -2
340
14
 93
        0
 40
0.045
309
GRIDFORMAT_END
309
TABLEFORMAT_END
  1
CELLSTYLE_BEGIN
 90
        2
 91
        1
300
_HEADER
309
CELLSTYLE_END
300
CELLSTYLE
  1
TABLEFORMAT_BEGIN
 90
        5
170
     1
 91
        0
 92
        0
 62
   257
 93
        1
300
CONTENTFORMAT
  1
CONTENTFORMAT_BEGIN
 90
        0
 91
        0
 92
        4
 93
        0
300

 40
0.0
140
1.0
 94
        2
 62
     0
340
11
144
0.18
309
CONTENTFORMAT_END
171
     1
301
MARGIN
  1
CELLMARGIN_BEGIN
 40
0.06
 40
0.06
 40
0.06
 40
0.06
 40
0.06
 40
0.06
309
CELLMARGIN_END
 94
        6
 95
        1
302
GRIDFORMAT
  1
GRIDFORMAT_BEGIN
 90
        0
 91
        1
 62
     0
 92
       -2
340
14
 93
        0
 40
0.045
309
GRIDFORMAT_END
 95
        2
302
GRIDFORMAT
  1
GRIDFORMAT_BEGIN
 90
        0
 91
        1
 62
     0
 92
       -2
340
14
 93
        0
 40
0.045
309
GRIDFORMAT_END
 95
        4
302
GRIDFORMAT
  1
GRIDFORMAT_BEGIN
 90
        0
 91
        1
 62
     0
 92
       -2
340
14
 93
        0
 40
0.045
309
GRIDFORMAT_END
 95
        8
302
GRIDFORMAT
  1
GRIDFORMAT_BEGIN
 90
        0
 91
        1
 62
     0
 92
       -2
340
14
 93
        0
 40
0.045
309
GRIDFORMAT_END
 95
       16
302
GRIDFORMAT
  1
GRIDFORMAT_BEGIN
 90
        0
 91
        1
 62
     0
 92
       -2
340
14
 93
        0
 40
0.045
309
GRIDFORMAT_END
 95
       32
302
GRIDFORMAT
  1
GRIDFORMAT_BEGIN
 90
        0
 91
        1
 62
     0
 92
       -2
340
14
 93
        0
 40
0.045
309
GRIDFORMAT_END
309
TABLEFORMAT_END
  1
CELLSTYLE_BEGIN
 90
        3
 91
        2
300
_DATA
309
CELLSTYLE_END
  0
ENDSEC
  0
EOF