0
SECTION
  2
HEADER
  9
$ACADVER
  1
AC1027
  9
$ACADMAINTVER
 70
     8
  9
$DWGCODEPAGE
  3
ANSI_1252
  9
$REQUIREDVERSIONS
160
                 0
  9
$COMMENTS
  1
File was created by Cadenas
  9
$CUSTOMPROPERTYTAG
  1
NN
  9
$CUSTOMPROPERTY
  1
S-2000 Piloted Flange with Type E dimensions Trident Seal Non-Expansion
  9
$CUSTOMPROPERTYTAG
  1
NT
  9
$CUSTOMPROPERTY
  1
S-2000 - E Type - Inch
  9
$CUSTOMPROPERTYTAG
  1
NB
  9
$CUSTOMPROPERTY
  1
071522
  9
$CUSTOMPROPERTYTAG
  1
NBSYN
  9
$CUSTOMPROPERTY
  1
$PN.
  9
$CUSTOMPROPERTYTAG
  1
LINA
  9
$CUSTOMPROPERTY
  1
071522
  9
$CUSTOMPROPERTYTAG
  1
SS
  9
$CUSTOMPROPERTY
  1
4-15/16
  9
$CUSTOMPROPERTYTAG
  1
TYPE
  9
$CUSTOMPROPERTY
  1
Non-Expansion
  9
$CUSTOMPROPERTYTAG
  1
PN
  9
$CUSTOMPROPERTY
  1
071522
  9
$CUSTOMPROPERTYTAG
  1
DESCRIPTION
  9
$CUSTOMPROPERTY
  1
EFC-S2-415R
  9
$CUSTOMPROPERTYTAG
  1
A
  9
$CUSTOMPROPERTY
  1
6.91
  9
$CUSTOMPROPERTYTAG
  1
B
  9
$CUSTOMPROPERTY
  1
14.75
  9
$CUSTOMPROPERTYTAG
  1
C
  9
$CUSTOMPROPERTY
  1
4.88
  9
$CUSTOMPROPERTYTAG
  1
D
  9
$CUSTOMPROPERTY
  1
6.38
  9
$CUSTOMPROPERTYTAG
  1
DD
  9
$CUSTOMPROPERTY
  1
12.75
  9
$CUSTOMPROPERTYTAG
  1
E
  9
$CUSTOMPROPERTY
  1
1.7
  9
$CUSTOMPROPERTYTAG
  1
F
  9
$CUSTOMPROPERTY
  1
7/8
  9
$CUSTOMPROPERTYTAG
  1
G
  9
$CUSTOMPROPERTY
  1
2.97
  9
$CUSTOMPROPERTYTAG
  1
H
  9
$CUSTOMPROPERTY
  1
1.25
  9
$CUSTOMPROPERTYTAG
  1
K
  9
$CUSTOMPROPERTY
  1
11.000
  9
$CUSTOMPROPERTYTAG
  1
L
  9
$CUSTOMPROPERTY
  1
7.45
  9
$CUSTOMPROPERTYTAG
  1
M
  9
$CUSTOMPROPERTY
  1
7/8-9
  9
$CUSTOMPROPERTYTAG
  1
N
  9
$CUSTOMPROPERTY
  1
5.95
  9
$CUSTOMPROPERTYTAG
  1
P
  9
$CUSTOMPROPERTY
  1
3.94
  9
$CUSTOMPROPERTYTAG
  1
Q
  9
$CUSTOMPROPERTY
  1
3.01
  9
$CUSTOMPROPERTYTAG
  1
X
  9
$CUSTOMPROPERTY
  1
0.38
  9
$CUSTOMPROPERTYTAG
  1
Y
  9
$CUSTOMPROPERTY
  1
N/A
  9
$CUSTOMPROPERTYTAG
  1
Z
  9
$CUSTOMPROPERTY
  1
N/A
  9
$CUSTOMPROPERTYTAG
  1
CS
  9
$CUSTOMPROPERTY
  1
5/8
  9
$CUSTOMPROPERTYTAG
  1
TORQUE
  9
$CUSTOMPROPERTY
  1
1325
  9
$CUSTOMPROPERTYTAG
  1
COMPANY
  9
$CUSTOMPROPERTY
  1
baldor
  9
$INSBASE
 10
0.0
 20
0.0
 30
0.0
  9
$EXTMIN
 10
1.000000000000000E+20
 20
1.000000000000000E+20
 30
1.000000000000000E+20
  9
$EXTMAX
 10
-1.000000000000000E+20
 20
-1.000000000000000E+20
 30
-1.000000000000000E+20
  9
$LIMMIN
 10
0.0
 20
0.0
  9
$LIMMAX
 10
12.0
 20
9.0
  9
$ORTHOMODE
 70
     0
  9
$REGENMODE
 70
     1
  9
$FILLMODE
 70
     1
  9
$QTEXTMODE
 70
     0
  9
$MIRRTEXT
 70
     1
  9
$LTSCALE
 40
1.0
  9
$ATTMODE
 70
     1
  9
$TEXTSIZE
 40
0.2
  9
$TRACEWID
 40
0.05
  9
$TEXTSTYLE
  7
Standard
  9
$CLAYER
  8
0
  9
$CELTYPE
  6
ByLayer
  9
$CECOLOR
 62
   256
  9
$CELTSCALE
 40
1.0
  9
$DISPSILH
 70
     0
  9
$DIMSCALE
 40
1.0
  9
$DIMASZ
 40
0.18
  9
$DIMEXO
 40
0.0625
  9
$DIMDLI
 40
0.38
  9
$DIMRND
 40
0.0
  9
$DIMDLE
 40
0.0
  9
$DIMEXE
 40
0.18
  9
$DIMTP
 40
0.0
  9
$DIMTM
 40
0.0
  9
$DIMTXT
 40
0.18
  9
$DIMCEN
 40
0.09
  9
$DIMTSZ
 40
0.0
  9
$DIMTOL
 70
     0
  9
$DIMLIM
 70
     0
  9
$DIMTIH
 70
     1
  9
$DIMTOH
 70
     1
  9
$DIMSE1
 70
     0
  9
$DIMSE2
 70
     0
  9
$DIMTAD
 70
     0
  9
$DIMZIN
 70
     0
  9
$DIMBLK
  1

  9
$DIMASO
 70
     1
  9
$DIMSHO
 70
     1
  9
$DIMPOST
  1

  9
$DIMAPOST
  1

  9
$DIMALT
 70
     0
  9
$DIMALTD
 70
     2
  9
$DIMALTF
 40
25.4
  9
$DIMLFAC
 40
1.0
  9
$DIMTOFL
 70
     0
  9
$DIMTVP
 40
0.0
  9
$DIMTIX
 70
     0
  9
$DIMSOXD
 70
     0
  9
$DIMSAH
 70
     0
  9
$DIMBLK1
  1

  9
$DIMBLK2
  1

  9
$DIMSTYLE
  2
Standard
  9
$DIMCLRD
 70
     0
  9
$DIMCLRE
 70
     0
  9
$DIMCLRT
 70
     0
  9
$DIMTFAC
 40
1.0
  9
$DIMGAP
 40
0.09
  9
$DIMJUST
 70
     0
  9
$DIMSD1
 70
     0
  9
$DIMSD2
 70
     0
  9
$DIMTOLJ
 70
     1
  9
$DIMTZIN
 70
     0
  9
$DIMALTZ
 70
     0
  9
$DIMALTTZ
 70
     0
  9
$DIMUPT
 70
     0
  9
$DIMDEC
 70
     4
  9
$DIMTDEC
 70
     4
  9
$DIMALTU
 70
     2
  9
$DIMALTTD
 70
     2
  9
$DIMTXSTY
  7
Standard
  9
$DIMAUNIT
 70
     0
  9
$DIMADEC
 70
     0
  9
$DIMALTRND
 40
0.0
  9
$DIMAZIN
 70
     0
  9
$DIMDSEP
 70
    46
  9
$DIMATFIT
 70
     3
  9
$DIMFRAC
 70
     0
  9
$DIMLDRBLK
  1

  9
$DIMLUNIT
 70
     2
  9
$DIMLWD
 70
    -2
  9
$DIMLWE
 70
    -2
  9
$DIMTMOVE
 70
     0
  9
$DIMFXL
 40
1.0
  9
$DIMFXLON
 70
     0
  9
$DIMJOGANG
 40
0.7853981633974483
  9
$DIMTFILL
 70
     0
  9
$DIMTFILLCLR
 70
     0
  9
$DIMARCSYM
 70
     0
  9
$DIMLTYPE
  6

  9
$DIMLTEX1
  6

  9
$DIMLTEX2
  6

  9
$DIMTXTDIRECTION
 70
     0
  9
$LUNITS
 70
     2
  9
$LUPREC
 70
     4
  9
$SKETCHINC
 40
0.1
  9
$FILLETRAD
 40
0.5
  9
$AUNITS
 70
     0
  9
$AUPREC
 70
     0
  9
$MENU
  1
.
  9
$ELEVATION
 40
0.0
  9
$PELEVATION
 40
0.0
  9
$THICKNESS
 40
0.0
  9
$LIMCHECK
 70
     0
  9
$CHAMFERA
 40
0.0
  9
$CHAMFERB
 40
0.0
  9
$CHAMFERC
 40
0.0
  9
$CHAMFERD
 40
0.0
  9
$SKPOLY
 70
     0
  9
$TDCREATE
 40
2458168.981699572
  9
$TDUCREATE
 40
2458168.940032905
  9
$TDUPDATE
 40
2458168.981699757
  9
$TDUUPDATE
 40
2458168.94003309
  9
$TDINDWG
 40
0.0000000116
  9
$TDUSRTIMER
 40
0.0000000116
  9
$USRTIMER
 70
     1
  9
$ANGBASE
 50
0.0
  9
$ANGDIR
 70
     0
  9
$PDMODE
 70
     0
  9
$PDSIZE
 40
0.0
  9
$PLINEWID
 40
0.0
  9
$SPLFRAME
 70
     0
  9
$SPLINETYPE
 70
     6
  9
$SPLINESEGS
 70
     8
  9
$HANDSEED
  5
292
  9
$SURFTAB1
 70
     6
  9
$SURFTAB2
 70
     6
  9
$SURFTYPE
 70
     6
  9
$SURFU
 70
     6
  9
$SURFV
 70
     6
  9
$UCSBASE
  2

  9
$UCSNAME
  2

  9
$UCSORG
 10
0.0
 20
0.0
 30
0.0
  9
$UCSXDIR
 10
1.0
 20
0.0
 30
0.0
  9
$UCSYDIR
 10
0.0
 20
1.0
 30
0.0
  9
$UCSORTHOREF
  2

  9
$UCSORTHOVIEW
 70
     0
  9
$UCSORGTOP
 10
0.0
 20
0.0
 30
0.0
  9
$UCSORGBOTTOM
 10
0.0
 20
0.0
 30
0.0
  9
$UCSORGLEFT
 10
0.0
 20
0.0
 30
0.0
  9
$UCSORGRIGHT
 10
0.0
 20
0.0
 30
0.0
  9
$UCSORGFRONT
 10
0.0
 20
0.0
 30
0.0
  9
$UCSORGBACK
 10
0.0
 20
0.0
 30
0.0
  9
$PUCSBASE
  2

  9
$PUCSNAME
  2

  9
$PUCSORG
 10
0.0
 20
0.0
 30
0.0
  9
$PUCSXDIR
 10
1.0
 20
0.0
 30
0.0
  9
$PUCSYDIR
 10
0.0
 20
1.0
 30
0.0
  9
$PUCSORTHOREF
  2

  9
$PUCSORTHOVIEW
 70
     0
  9
$PUCSORGTOP
 10
0.0
 20
0.0
 30
0.0
  9
$PUCSORGBOTTOM
 10
0.0
 20
0.0
 30
0.0
  9
$PUCSORGLEFT
 10
0.0
 20
0.0
 30
0.0
  9
$PUCSORGRIGHT
 10
0.0
 20
0.0
 30
0.0
  9
$PUCSORGFRONT
 10
0.0
 20
0.0
 30
0.0
  9
$PUCSORGBACK
 10
0.0
 20
0.0
 30
0.0
  9
$USERI1
 70
     0
  9
$USERI2
 70
     0
  9
$USERI3
 70
     0
  9
$USERI4
 70
     0
  9
$USERI5
 70
     0
  9
$USERR1
 40
0.0
  9
$USERR2
 40
0.0
  9
$USERR3
 40
0.0
  9
$USERR4
 40
0.0
  9
$USERR5
 40
0.0
  9
$WORLDVIEW
 70
     1
  9
$SHADEDGE
 70
     3
  9
$SHADEDIF
 70
    70
  9
$TILEMODE
 70
     1
  9
$MAXACTVP
 70
    64
  9
$PINSBASE
 10
0.0
 20
0.0
 30
0.0
  9
$PLIMCHECK
 70
     0
  9
$PEXTMIN
 10
1.000000000000000E+20
 20
1.000000000000000E+20
 30
1.000000000000000E+20
  9
$PEXTMAX
 10
-1.000000000000000E+20
 20
-1.000000000000000E+20
 30
-1.000000000000000E+20
  9
$PLIMMIN
 10
0.0
 20
0.0
  9
$PLIMMAX
 10
12.0
 20
9.0
  9
$UNITMODE
 70
     0
  9
$VISRETAIN
 70
     1
  9
$PLINEGEN
 70
     0
  9
$PSLTSCALE
 70
     1
  9
$TREEDEPTH
 70
  3020
  9
$CMLSTYLE
  2
Standard
  9
$CMLJUST
 70
     0
  9
$CMLSCALE
 40
1.0
  9
$PROXYGRAPHICS
 70
     1
  9
$MEASUREMENT
 70
     0
  9
$CELWEIGHT
370
    -1
  9
$ENDCAPS
280
     0
  9
$JOINSTYLE
280
     0
  9
$LWDISPLAY
290
     0
  9
$INSUNITS
 70
     1
  9
$HYPERLINKBASE
  1

  9
$STYLESHEET
  1

  9
$XEDIT
290
     1
  9
$CEPSNTYPE
380
     0
  9
$PSTYLEMODE
290
     1
  9
$FINGERPRINTGUID
  2
{A1A20EDD-AF6B-4AC5-BA8D-AC8734E504FD}
  9
$VERSIONGUID
  2
{FAEB1C32-E019-11D5-929B-00C0DF256EC4}
  9
$EXTNAMES
290
     1
  9
$PSVPSCALE
 40
0.0
  9
$OLESTARTUP
290
     0
  9
$SORTENTS
280
   127
  9
$INDEXCTL
280
     0
  9
$HIDETEXT
280
     1
  9
$XCLIPFRAME
280
     2
  9
$HALOGAP
280
     0
  9
$OBSCOLOR
 70
   257
  9
$OBSLTYPE
280
     0
  9
$INTERSECTIONDISPLAY
280
     0
  9
$INTERSECTIONCOLOR
 70
   257
  9
$DIMASSOC
280
     2
  9
$PROJECTNAME
  1

  9
$CAMERADISPLAY
290
     0
  9
$LENSLENGTH
 40
50.0
  9
$CAMERAHEIGHT
 40
0.0
  9
$STEPSPERSEC
 40
2.0
  9
$STEPSIZE
 40
6.0
  9
$3DDWFPREC
 40
2.0
  9
$PSOLWIDTH
 40
0.25
  9
$PSOLHEIGHT
 40
4.0
  9
$LOFTANG1
 40
1.570796326794897
  9
$LOFTANG2
 40
1.570796326794897
  9
$LOFTMAG1
 40
0.0
  9
$LOFTMAG2
 40
0.0
  9
$LOFTPARAM
 70
     7
  9
$LOFTNORMALS
280
     1
  9
$LATITUDE
 40
37.795
  9
$LONGITUDE
 40
-122.394
  9
$NORTHDIRECTION
 40
0.0
  9
$TIMEZONE
 70
 -8000
  9
$LIGHTGLYPHDISPLAY
280
     1
  9
$TILEMODELIGHTSYNCH
280
     1
  9
$CMATERIAL
347
44
  9
$SOLIDHIST
280
     0
  9
$SHOWHIST
280
     1
  9
$DWFFRAME
280
     2
  9
$DGNFRAME
280
     2
  9
$REALWORLDSCALE
290
     1
  9
$INTERFERECOLOR
 62
   256
  9
$CSHADOW
280
     0
  9
$SHADOWPLANELOCATION
 40
0.0
  0
ENDSEC
  0
SECTION
  2
CLASSES
  0
CLASS
  1
ACDBDICTIONARYWDFLT
  2
AcDbDictionaryWithDefault
  3
ObjectDBX Classes
 90
        0
 91
        4
280
     0
281
     0
  0
CLASS
  1
VISUALSTYLE
  2
AcDbVisualStyle
  3
ObjectDBX Classes
 90
     4095
 91
        4
280
     0
281
     0
  0
CLASS
  1
MATERIAL
  2
AcDbMaterial
  3
ObjectDBX Classes
 90
     1153
 91
        4
280
     0
281
     0
  0
CLASS
  1
SCALE
  2
AcDbScale
  3
ObjectDBX Classes
 90
     1153
 91
        4
280
     0
281
     0
  0
CLASS
  1
TABLESTYLE
  2
AcDbTableStyle
  3
ObjectDBX Classes
 90
     4095
 91
        4
280
     0
281
     0
  0
CLASS
  1
MLEADERSTYLE
  2
AcDbMLeaderStyle
  3
ACDB_MLEADERSTYLE_CLASS
 90
     4095
 91
        4
280
     0
281
     0
  0
CLASS
  1
SUN
  2
AcDbSun
  3
SCENEOE
 90
     1153
 91
        4
280
     0
281
     0
  0
CLASS
  1
DICTIONARYVAR
  2
AcDbDictionaryVar
  3
ObjectDBX Classes
 90
        0
 91
        4
280
     0
281
     0
  0
CLASS
  1
CELLSTYLEMAP
  2
AcDbCellStyleMap
  3
ObjectDBX Classes
 90
     1152
 91
        4
280
     0
281
     0
  0
ENDSEC
  0
SECTION
  2
TABLES
  0
TABLE
  2
VPORT
  5
8
330
0
100
AcDbSymbolTable
 70
     1
  0
VPORT
  5
29
330
8
100
AcDbSymbolTableRecord
100
AcDbViewportTableRecord
  2
*Active
 70
     0
 10
0.0
 20
0.0
 11
1.0
 21
1.0
 12
0.0
 22
-2.496875
 13
0.0
 23
0.0
 14
0.5
 24
0.5
 15
0.5
 25
0.5
 16
0.0
 26
0.0
 36
1.0
 17
0.0
 27
0.0
 37
0.0
 40
7.748812499999999
 41
1.941587823940765
 42
50.0
 43
0.0
 44
0.0
 50
0.0
 51
0.0
 71
     0
 72
   100
 73
     1
 74
     3
 75
     0
 76
     0
 77
     0
 78
     0
281
     0
 65
     1
110
0.0
120
0.0
130
0.0
111
1.0
121
0.0
131
0.0
112
0.0
122
1.0
132
0.0
 79
     0
146
0.0
348
2F
 60
     3
 61
     5
292
     1
282
     1
141
0.0
142
0.0
 63
   250
361
6D
  0
ENDTAB
  0
TABLE
  2
LTYPE
  5
5
330
0
100
AcDbSymbolTable
 70
     3
  0
LTYPE
  5
14
330
5
100
AcDbSymbolTableRecord
100
AcDbLinetypeTableRecord
  2
ByBlock
 70
     0
  3

 72
    65
 73
     0
 40
0.0
  0
LTYPE
  5
15
330
5
100
AcDbSymbolTableRecord
100
AcDbLinetypeTableRecord
  2
ByLayer
 70
     0
  3

 72
    65
 73
     0
 40
0.0
  0
LTYPE
  5
16
330
5
100
AcDbSymbolTableRecord
100
AcDbLinetypeTableRecord
  2
Continuous
 70
     0
  3
Solid line
 72
    65
 73
     0
 40
0.0
  0
LTYPE
  5
AA
330
5
100
AcDbSymbolTableRecord
100
AcDbLinetypeTableRecord
  2
Dashed
 70
     0
  3

 72
    65
 73
     2
 40
2.0
 49
1.0
 74
     0
 49
-1.0
 74
     0
  0
LTYPE
  5
C4
330
5
100
AcDbSymbolTableRecord
100
AcDbLinetypeTableRecord
  2
Center
 70
     0
  3

 72
    65
 73
     4
 40
1.5
 49
0.45
 74
     0
 49
-0.5
 74
     0
 49
0.05
 74
     0
 49
-0.5
 74
     0
  0
ENDTAB
  0
TABLE
  2
LAYER
  5
2
330
0
100
AcDbSymbolTable
 70
     7
  0
LAYER
  5
10
330
2
100
AcDbSymbolTableRecord
100
AcDbLayerTableRecord
  2
0
 70
     0
 62
     7
  6
Continuous
370
    -3
390
F
347
46
348
0
  0
LAYER
  5
72
330
2
100
AcDbSymbolTableRecord
100
AcDbLayerTableRecord
  2
AM_6
 70
     0
 62
    -2
  6
Continuous
370
    35
390
F
347
46
348
0
  0
LAYER
  5
AB
330
2
100
AcDbSymbolTableRecord
100
AcDbLayerTableRecord
  2
AM_9
 70
     0
 62
     6
  6
Dashed
370
    25
390
F
347
46
348
0
  0
LAYER
  5
C5
330
2
100
AcDbSymbolTableRecord
100
AcDbLayerTableRecord
  2
AM_7
 70
     0
 62
     7
  6
Center
370
    25
390
F
347
46
348
0
  0
LAYER
  5
C7
330
2
100
AcDbSymbolTableRecord
100
AcDbLayerTableRecord
  2
AM_4
 70
     0
 62
     7
  6
Continuous
370
    50
390
F
347
46
348
0
  0
LAYER
  5
E2
330
2
100
AcDbSymbolTableRecord
100
AcDbLayerTableRecord
  2
AM_5
 70
     0
 62
     3
  6
Continuous
370
    25
390
F
347
46
348
0
  0
LAYER
  5
27E
330
2
100
AcDbSymbolTableRecord
100
AcDbLayerTableRecord
  2
ConnectionPoints
 70
     0
 62
     7
  6
Continuous
370
    50
390
F
347
46
348
0
  0
ENDTAB
  0
TABLE
  2
STYLE
  5
3
330
0
100
AcDbSymbolTable
 70
     1
  0
STYLE
  5
11
330
3
100
AcDbSymbolTableRecord
100
AcDbTextStyleTableRecord
  2
Standard
 70
     0
 40
0.0
 41
1.0
 50
0.0
 71
     0
 42
0.2
  3
txt
  4

  0
ENDTAB
  0
TABLE
  2
VIEW
  5
6
330
0
100
AcDbSymbolTable
 70
     0
  0
ENDTAB
  0
TABLE
  2
UCS
  5
7
330
0
100
AcDbSymbolTable
 70
     0
  0
ENDTAB
  0
TABLE
  2
APPID
  5
9
330
0
100
AcDbSymbolTable
 70
     1
  0
APPID
  5
12
330
9
100
AcDbSymbolTableRecord
100
AcDbRegAppTableRecord
  2
ACAD
 70
     0
  0
ENDTAB
  0
TABLE
  2
DIMSTYLE
  5
A
330
0
100
AcDbSymbolTable
 70
     1
100
AcDbDimStyleTable
  0
DIMSTYLE
105
27
330
A
100
AcDbSymbolTableRecord
100
AcDbDimStyleTableRecord
  2
Standard
 70
     0
178
     0
340
11
  0
ENDTAB
  0
TABLE
  2
BLOCK_RECORD
  5
1
330
0
100
AcDbSymbolTable
 70
     7
  0
BLOCK_RECORD
  5
1F
330
1
100
AcDbSymbolTableRecord
100
AcDbBlockTableRecord
  2
*Model_Space
340
22
 70
     0
280
     1
281
     0
  0
BLOCK_RECORD
  5
1B
330
1
100
AcDbSymbolTableRecord
100
AcDbBlockTableRecord
  2
*Paper_Space
340
1E
 70
     0
280
     1
281
     0
  0
BLOCK_RECORD
  5
23
330
1
100
AcDbSymbolTableRecord
100
AcDbBlockTableRecord
  2
*Paper_Space0
340
26
 70
     0
280
     1
281
     0
  0
BLOCK_RECORD
  5
6E
330
1
100
AcDbSymbolTableRecord
100
AcDbBlockTableRecord
  2
1_071522_4
340
0
102
{BLKREFS
331
6F
102
}
 70
     0
280
     1
281
     0
  0
BLOCK_RECORD
  5
91
330
1
100
AcDbSymbolTableRecord
100
AcDbBlockTableRecord
  2
2_4_15_16CS2i_1_0_in_071522_4
340
0
102
{BLKREFS
331
92
102
}
 70
     0
280
     1
281
     0
  0
BLOCK_RECORD
  5
E4
330
1
100
AcDbSymbolTableRecord
100
AcDbBlockTableRecord
  2
3_4_15_16CS2i_2_0_in_071522_4
340
0
102
{BLKREFS
331
E5
102
}
 70
     0
280
     1
281
     0
  0
BLOCK_RECORD
  5
130
330
1
100
AcDbSymbolTableRecord
100
AcDbBlockTableRecord
  2
4_070015i_0_in_071522_4
340
0
102
{BLKREFS
331
131
102
}
 70
     0
280
     1
281
     0
  0
BLOCK_RECORD
  5
18A
330
1
100
AcDbSymbolTableRecord
100
AcDbBlockTableRecord
  2
5_405015E_Inch_0_in_071522_4
340
0
102
{BLKREFS
331
18B
102
}
 70
     0
280
     1
281
     0
  0
BLOCK_RECORD
  5
1DF
330
1
100
AcDbSymbolTableRecord
100
AcDbBlockTableRecord
  2
6_B071522_0_in_071522_4
340
0
102
{BLKREFS
331
1E0
102
}
 70
     0
280
     1
281
     0
  0
ENDTAB
  0
ENDSEC
  0
SECTION
  2
BLOCKS
  0
BLOCK
  5
20
330
1F
100
AcDbEntity
  8
0
100
AcDbBlockBegin
  2
*Model_Space
 70
     0
 10
0.0
 20
0.0
 30
0.0
  3
*Model_Space
  1

  0
ENDBLK
  5
21
330
1F
100
AcDbEntity
  8
0
100
AcDbBlockEnd
  0
BLOCK
  5
1C
330
1B
100
AcDbEntity
 67
     1
  8
0
100
AcDbBlockBegin
  2
*Paper_Space
 70
     0
 10
0.0
 20
0.0
 30
0.0
  3
*Paper_Space
  1

  0
ENDBLK
  5
1D
330
1B
100
AcDbEntity
 67
     1
  8
0
100
AcDbBlockEnd
  0
BLOCK
  5
24
330
23
100
AcDbEntity
  8
0
100
AcDbBlockBegin
  2
*Paper_Space0
 70
     0
 10
0.0
 20
0.0
 30
0.0
  3
*Paper_Space0
  1

  0
ENDBLK
  5
25
330
23
100
AcDbEntity
  8
0
100
AcDbBlockEnd
  0
BLOCK
  5
70
330
6E
100
AcDbEntity
  8
0
100
AcDbBlockBegin
  2
1_071522_4
 70
     2
 10
0.0
 20
0.0
 30
0.0
  3
1_071522_4
  1

  0
ATTDEF
  5
73
330
6E
100
AcDbEntity
  8
AM_6
100
AcDbText
 10
12.375
 20
1.301562499999999
 30
0.0
 40
0.5
  1
S-2000 Piloted Flange with Type E dimensions Trident Seal Non-Expansion
100
AcDbAttributeDefinition
  3

  2
NN
 70
     8
280
     0
  0
ATTDEF
  5
74
330
6E
100
AcDbEntity
  8
AM_6
100
AcDbText
 10
12.375
 20
0.8015624999999993
 30
0.0
 40
0.5
  1
S-2000 - E Type - Inch
100
AcDbAttributeDefinition
  3

  2
NT
 70
     8
280
     0
  0
ATTDEF
  5
75
330
6E
100
AcDbEntity
  8
AM_6
100
AcDbText
 10
12.375
 20
0.3015624999999993
 30
0.0
 40
0.5
  1
071522
100
AcDbAttributeDefinition
  3

  2
NB
 70
     8
280
     0
  0
ATTDEF
  5
76
330
6E
100
AcDbEntity
  8
AM_6
100
AcDbText
 10
12.375
 20
-0.1984375000000007
 30
0.0
 40
0.5
  1
$PN.
100
AcDbAttributeDefinition
  3

  2
NBSYN
 70
     8
280
     0
  0
ATTDEF
  5
77
330
6E
100
AcDbEntity
  8
AM_6
100
AcDbText
 10
12.375
 20
-0.6984375000000007
 30
0.0
 40
0.5
  1
071522
100
AcDbAttributeDefinition
  3

  2
LINA
 70
     8
280
     0
  0
ATTDEF
  5
78
330
6E
100
AcDbEntity
  8
AM_6
100
AcDbText
 10
12.375
 20
-1.198437500000001
 30
0.0
 40
0.5
  1
4-15/16
100
AcDbAttributeDefinition
  3

  2
SS
 70
     8
280
     0
  0
ATTDEF
  5
79
330
6E
100
AcDbEntity
  8
AM_6
100
AcDbText
 10
12.375
 20
-1.698437500000001
 30
0.0
 40
0.5
  1
Non-Expansion
100
AcDbAttributeDefinition
  3

  2
TYPE
 70
     8
280
     0
  0
ATTDEF
  5
7A
330
6E
100
AcDbEntity
  8
AM_6
100
AcDbText
 10
12.375
 20
-2.198437500000001
 30
0.0
 40
0.5
  1
071522
100
AcDbAttributeDefinition
  3

  2
PN
 70
     8
280
     0
  0
ATTDEF
  5
7B
330
6E
100
AcDbEntity
  8
AM_6
100
AcDbText
 10
12.375
 20
-2.698437500000001
 30
0.0
 40
0.5
  1
EFC-S2-415R
100
AcDbAttributeDefinition
  3

  2
DESCRIPTION
 70
     8
280
     0
  0
ATTDEF
  5
7C
330
6E
100
AcDbEntity
  8
AM_6
100
AcDbText
 10
12.375
 20
-3.198437500000001
 30
0.0
 40
0.5
  1
6.91
100
AcDbAttributeDefinition
  3

  2
A
 70
     8
280
     0
  0
ATTDEF
  5
7D
330
6E
100
AcDbEntity
  8
AM_6
100
AcDbText
 10
12.375
 20
-3.698437500000001
 30
0.0
 40
0.5
  1
14.75
100
AcDbAttributeDefinition
  3

  2
B
 70
     8
280
     0
  0
ATTDEF
  5
7E
330
6E
100
AcDbEntity
  8
AM_6
100
AcDbText
 10
12.375
 20
-4.198437500000001
 30
0.0
 40
0.5
  1
4.88
100
AcDbAttributeDefinition
  3

  2
C
 70
     8
280
     0
  0
ATTDEF
  5
7F
330
6E
100
AcDbEntity
  8
AM_6
100
AcDbText
 10
12.375
 20
-4.698437500000001
 30
0.0
 40
0.5
  1
6.38
100
AcDbAttributeDefinition
  3

  2
D
 70
     8
280
     0
  0
ATTDEF
  5
80
330
6E
100
AcDbEntity
  8
AM_6
100
AcDbText
 10
12.375
 20
-5.198437500000001
 30
0.0
 40
0.5
  1
12.75
100
AcDbAttributeDefinition
  3

  2
DD
 70
     8
280
     0
  0
ATTDEF
  5
81
330
6E
100
AcDbEntity
  8
AM_6
100
AcDbText
 10
12.375
 20
-5.698437500000001
 30
0.0
 40
0.5
  1
1.7
100
AcDbAttributeDefinition
  3

  2
E
 70
     8
280
     0
  0
ATTDEF
  5
82
330
6E
100
AcDbEntity
  8
AM_6
100
AcDbText
 10
12.375
 20
-6.198437500000001
 30
0.0
 40
0.5
  1
7/8
100
AcDbAttributeDefinition
  3

  2
F
 70
     8
280
     0
  0
ATTDEF
  5
83
330
6E
100
AcDbEntity
  8
AM_6
100
AcDbText
 10
12.375
 20
-6.698437500000001
 30
0.0
 40
0.5
  1
2.97
100
AcDbAttributeDefinition
  3

  2
G
 70
     8
280
     0
  0
ATTDEF
  5
84
330
6E
100
AcDbEntity
  8
AM_6
100
AcDbText
 10
12.375
 20
-7.198437500000001
 30
0.0
 40
0.5
  1
1.25
100
AcDbAttributeDefinition
  3

  2
H
 70
     8
280
     0
  0
ATTDEF
  5
85
330
6E
100
AcDbEntity
  8
AM_6
100
AcDbText
 10
12.375
 20
-7.698437500000001
 30
0.0
 40
0.5
  1
11.000
100
AcDbAttributeDefinition
  3

  2
K
 70
     8
280
     0
  0
ATTDEF
  5
86
330
6E
100
AcDbEntity
  8
AM_6
100
AcDbText
 10
12.375
 20
-8.1984375
 30
0.0
 40
0.5
  1
7.45
100
AcDbAttributeDefinition
  3

  2
L
 70
     8
280
     0
  0
ATTDEF
  5
87
330
6E
100
AcDbEntity
  8
AM_6
100
AcDbText
 10
12.375
 20
-8.6984375
 30
0.0
 40
0.5
  1
7/8-9
100
AcDbAttributeDefinition
  3

  2
M
 70
     8
280
     0
  0
ATTDEF
  5
88
330
6E
100
AcDbEntity
  8
AM_6
100
AcDbText
 10
12.375
 20
-9.1984375
 30
0.0
 40
0.5
  1
5.95
100
AcDbAttributeDefinition
  3

  2
N
 70
     8
280
     0
  0
ATTDEF
  5
89
330
6E
100
AcDbEntity
  8
AM_6
100
AcDbText
 10
12.375
 20
-9.6984375
 30
0.0
 40
0.5
  1
3.94
100
AcDbAttributeDefinition
  3

  2
P
 70
     8
280
     0
  0
ATTDEF
  5
8A
330
6E
100
AcDbEntity
  8
AM_6
100
AcDbText
 10
12.375
 20
-10.1984375
 30
0.0
 40
0.5
  1
3.01
100
AcDbAttributeDefinition
  3

  2
Q
 70
     8
280
     0
  0
ATTDEF
  5
8B
330
6E
100
AcDbEntity
  8
AM_6
100
AcDbText
 10
12.375
 20
-10.6984375
 30
0.0
 40
0.5
  1
0.38
100
AcDbAttributeDefinition
  3

  2
X
 70
     8
280
     0
  0
ATTDEF
  5
8C
330
6E
100
AcDbEntity
  8
AM_6
100
AcDbText
 10
12.375
 20
-11.1984375
 30
0.0
 40
0.5
  1
N/A
100
AcDbAttributeDefinition
  3

  2
Y
 70
     8
280
     0
  0
ATTDEF
  5
8D
330
6E
100
AcDbEntity
  8
AM_6
100
AcDbText
 10
12.375
 20
-11.6984375
 30
0.0
 40
0.5
  1
N/A
100
AcDbAttributeDefinition
  3

  2
Z
 70
     8
280
     0
  0
ATTDEF
  5
8E
330
6E
100
AcDbEntity
  8
AM_6
100
AcDbText
 10
12.375
 20
-12.1984375
 30
0.0
 40
0.5
  1
5/8
100
AcDbAttributeDefinition
  3

  2
CS
 70
     8
280
     0
  0
ATTDEF
  5
8F
330
6E
100
AcDbEntity
  8
AM_6
100
AcDbText
 10
12.375
 20
-12.6984375
 30
0.0
 40
0.5
  1
1325
100
AcDbAttributeDefinition
  3

  2
TORQUE
 70
     8
280
     0
  0
ATTDEF
  5
90
330
6E
100
AcDbEntity
  8
AM_6
100
AcDbText
 10
12.375
 20
-13.1984375
 30
0.0
 40
0.5
  1
baldor
100
AcDbAttributeDefinition
  3

  2
COMPANY
 70
     8
280
     0
  0
INSERT
  5
92
330
6E
100
AcDbEntity
  8
0
100
AcDbBlockReference
  2
2_4_15_16CS2i_1_0_in_071522_4
 10
0.0
 20
0.0
 30
0.0
  0
INSERT
  5
E5
330
6E
100
AcDbEntity
  8
0
100
AcDbBlockReference
  2
3_4_15_16CS2i_2_0_in_071522_4
 10
0.0
 20
0.0
 30
0.0
  0
INSERT
  5
131
330
6E
100
AcDbEntity
  8
0
100
AcDbBlockReference
  2
4_070015i_0_in_071522_4
 10
0.0
 20
0.0
 30
0.0
  0
INSERT
  5
18B
330
6E
100
AcDbEntity
  8
0
100
AcDbBlockReference
  2
5_405015E_Inch_0_in_071522_4
 10
0.0
 20
0.0
 30
0.0
  0
INSERT
  5
1E0
330
6E
100
AcDbEntity
  8
0
100
AcDbBlockReference
  2
6_B071522_0_in_071522_4
 10
0.0
 20
0.0
 30
0.0
  0
ENDBLK
  5
71
330
6E
100
AcDbEntity
  8
0
100
AcDbBlockEnd
  0
BLOCK
  5
93
330
91
100
AcDbEntity
  8
0
100
AcDbBlockBegin
  2
2_4_15_16CS2i_1_0_in_071522_4
 70
     2
 10
0.0
 20
0.0
 30
0.0
  3
2_4_15_16CS2i_1_0_in_071522_4
  1

  0
ATTDEF
  5
95
330
91
100
AcDbEntity
  8
AM_6
100
AcDbText
 10
8.72656
 20
-4.71
 30
0.0
 40
0.5
  1
S-2000 Collar -Inch
100
AcDbAttributeDefinition
  3

  2
NN
 70
     8
280
     0
  0
ATTDEF
  5
96
330
91
100
AcDbEntity
  8
AM_6
100
AcDbText
 10
8.72656
 20
-5.21
 30
0.0
 40
0.5
  1
S-2000 Bearings
100
AcDbAttributeDefinition
  3

  2
NT
 70
     8
280
     0
  0
ATTDEF
  5
97
330
91
100
AcDbEntity
  8
AM_6
100
AcDbText
 10
8.72656
 20
-5.71
 30
0.0
 40
0.5
  1
4-15/16CS2i
100
AcDbAttributeDefinition
  3

  2
NB
 70
     8
280
     0
  0
ATTDEF
  5
98
330
91
100
AcDbEntity
  8
AM_6
100
AcDbText
 10
8.72656
 20
-6.21
 30
0.0
 40
0.5
  1
$BORE.CS2i
100
AcDbAttributeDefinition
  3

  2
NBSYN
 70
     8
280
     0
  0
ATTDEF
  5
99
330
91
100
AcDbEntity
  8
AM_6
100
AcDbText
 10
8.72656
 20
-6.71
 30
0.0
 40
0.5
  1
4-15/16CS2i
100
AcDbAttributeDefinition
  3

  2
LINA
 70
     8
280
     0
  0
ATTDEF
  5
9A
330
91
100
AcDbEntity
  8
AM_6
100
AcDbText
 10
8.72656
 20
-7.21
 30
0.0
 40
0.5
  1
4-15/16
100
AcDbAttributeDefinition
  3

  2
BORE
 70
     8
280
     0
  0
ATTDEF
  5
9B
330
91
100
AcDbEntity
  8
AM_6
100
AcDbText
 10
8.72656
 20
-7.71
 30
0.0
 40
0.5
  1
4.937500
100
AcDbAttributeDefinition
  3

  2
BORE1
 70
     8
280
     0
  0
ATTDEF
  5
9C
330
91
100
AcDbEntity
  8
AM_6
100
AcDbText
 10
8.72656
 20
-8.21
 30
0.0
 40
0.5
  1
7-29/64
100
AcDbAttributeDefinition
  3

  2
L1
 70
     8
280
     0
  0
ATTDEF
  5
9D
330
91
100
AcDbEntity
  8
AM_6
100
AcDbText
 10
8.72656
 20
-8.71
 30
0.0
 40
0.5
  1
7.45313
100
AcDbAttributeDefinition
  3

  2
L
 70
     8
280
     0
  0
ATTDEF
  5
9E
330
91
100
AcDbEntity
  8
AM_6
100
AcDbText
 10
8.72656
 20
-9.21
 30
0.0
 40
0.5
  1
7.45312
100
AcDbAttributeDefinition
  3

  2
L2
 70
     8
280
     0
  0
ATTDEF
  5
9F
330
91
100
AcDbEntity
  8
AM_6
100
AcDbText
 10
8.72656
 20
-9.71
 30
0.0
 40
0.5
  1
7.25
100
AcDbAttributeDefinition
  3

  2
A
 70
     8
280
     0
  0
ATTDEF
  5
A0
330
91
100
AcDbEntity
  8
AM_6
100
AcDbText
 10
8.72656
 20
-10.21
 30
0.0
 40
0.5
  1
3.75
100
AcDbAttributeDefinition
  3

  2
B
 70
     8
280
     0
  0
ATTDEF
  5
A1
330
91
100
AcDbEntity
  8
AM_6
100
AcDbText
 10
8.72656
 20
-10.71
 30
0.0
 40
0.5
  1
5.79
100
AcDbAttributeDefinition
  3

  2
C
 70
     8
280
     0
  0
ATTDEF
  5
A2
330
91
100
AcDbEntity
  8
AM_6
100
AcDbText
 10
8.72656
 20
-11.21
 30
0.0
 40
0.5
  1
8.12
100
AcDbAttributeDefinition
  3

  2
D
 70
     8
280
     0
  0
ATTDEF
  5
A3
330
91
100
AcDbEntity
  8
AM_6
100
AcDbText
 10
8.72656
 20
-11.71
 30
0.0
 40
0.5
  1
0.78
100
AcDbAttributeDefinition
  3

  2
E
 70
     8
280
     0
  0
ATTDEF
  5
A4
330
91
100
AcDbEntity
  8
AM_6
100
AcDbText
 10
8.72656
 20
-12.21
 30
0.0
 40
0.5
  1
0.620
100
AcDbAttributeDefinition
  3

  2
F
 70
     8
280
     0
  0
ATTDEF
  5
A5
330
91
100
AcDbEntity
  8
AM_6
100
AcDbText
 10
8.72656
 20
-12.71
 30
0.0
 40
0.5
  1
5/8-11
100
AcDbAttributeDefinition
  3

  2
CS
 70
     8
280
     0
  0
ATTDEF
  5
A6
330
91
100
AcDbEntity
  8
AM_6
100
AcDbText
 10
8.72656
 20
-13.21
 30
0.0
 40
0.5
  1
0.6250
100
AcDbAttributeDefinition
  3

  2
NDM
 70
     8
280
     0
  0
ATTDEF
  5
A7
330
91
100
AcDbEntity
  8
AM_6
100
AcDbText
 10
8.72656
 20
-13.71
 30
0.0
 40
0.5
  1
0.5270
100
AcDbAttributeDefinition
  3

  2
KDM
 70
     8
280
     0
  0
ATTDEF
  5
A8
330
91
100
AcDbEntity
  8
AM_6
100
AcDbText
 10
8.72656
 20
-14.21
 30
0.0
 40
0.5
  1
2
100
AcDbAttributeDefinition
  3

  2
DD
 70
     8
280
     0
  0
ATTDEF
  5
A9
330
91
100
AcDbEntity
  8
AM_6
100
AcDbText
 10
8.72656
 20
-14.71
 30
0.0
 40
0.5
  1
baldor
100
AcDbAttributeDefinition
  3

  2
COMPANY
 70
     8
280
     0
  0
LINE
  5
AC
330
91
100
AcDbEntity
  8
AM_9
100
AcDbLine
 10
2.682477127869519
 20
-5.097078865920449
 30
0.0
 11
2.675305465640297
 21
-5.088133747824788
 31
0.0
  0
LINE
  5
AD
330
91
100
AcDbEntity
  8
AM_9
100
AcDbLine
 10
2.675356458841743
 20
-5.571802649039087
 30
0.0
 11
2.682477127869519
 21
-5.562921134079552
 31
0.0
  0
LWPOLYLINE
  5
AE
330
91
100
AcDbEntity
  8
AM_9
100
AcDbPolyline
 90
       26
 70
     0
 43
0.0
 10
2.6751283004201
 20
-5.087912773895922
 10
2.672043365032807
 20
-5.084227261113208
 10
2.654367715944533
 20
-5.06861161704607
 10
2.634709994373723
 20
-5.060314363338735
 10
2.614033975549151
 20
-5.060039756346838
 10
2.592276143849797
 20
-5.068121151585503
 10
2.571178248419568
 20
-5.084059984792172
 10
2.550407748262484
 20
-5.108413645596691
 10
2.532275988687917
 20
-5.138616775602562
 10
2.516122010382118
 20
-5.176123945135251
 10
2.504146885974941
 20
-5.215847260419629
 10
2.495500317069909
 20
-5.260601304475706
 10
2.491313008814604
 20
-5.303838724184523
 10
2.490997686898631
 20
-5.34921679771286
 10
2.494414517772074
 20
-5.391272208332566
 10
2.501500990402003
 20
-5.432777060132175
 10
2.511627061592005
 20
-5.470652030107381
 10
2.524832099043387
 20
-5.505691758131179
 10
2.540573418855845
 20
-5.536435382635936
 10
2.558553333587398
 20
-5.562270348290476
 10
2.578188219897914
 20
-5.582151906473677
 10
2.598973313021238
 20
-5.595257032398429
 10
2.619909141043951
 20
-5.600695213263097
 10
2.640772417673993
 20
-5.598023533481697
 10
2.660124674436475
 20
-5.58724800792401
 10
2.675137433864593
 20
-5.57207583592687
  0
LWPOLYLINE
  5
AF
330
91
100
AcDbEntity
  8
AM_9
100
AcDbPolyline
 90
       12
 70
     0
 43
0.0
 10
2.67909341309081
 20
-5.566863449543822
 10
2.693722207463413
 20
-5.541959562803598
 10
2.707173239164445
 20
-5.508168665346457
 10
2.717273828644292
 20
-5.470868375107465
 10
2.724960959032849
 20
-5.4276955834725
 10
2.729437444003034
 20
-5.38497582396973
 10
2.731369139940557
 20
-5.339171897729926
 10
2.730685837805875
 20
-5.296352850521704
 10
2.72750381548772
 20
-5.253265204321846
 10
2.722095497774936
 20
-5.213749728480419
 10
2.714243316317263
 20
-5.176364794538956
 10
2.698058719417773
 20
-5.127529807230672
  0
LWPOLYLINE
  5
B0
330
91
100
AcDbEntity
  8
AM_9
100
AcDbPolyline
 90
        3
 70
     0
 43
0.0
 10
2.675137433864593
 20
-5.57207583592687
 10
2.678300209471637
 20
-5.567954209206104
 10
2.67909341309081
 20
-5.566863449543822
  0
LINE
  5
B1
330
91
100
AcDbEntity
  8
AM_9
100
AcDbLine
 10
2.630588562133445
 20
-5.593300000000001
 30
0.0
 11
3.33282453527603
 21
-5.593299999999999
 31
0.0
  0
LINE
  5
B2
330
91
100
AcDbEntity
  8
AM_9
100
AcDbLine
 10
3.33282453527603
 20
-5.0667
 30
0.0
 11
2.630588562133445
 21
-5.0667
 31
0.0
  0
ELLIPSE
  5
B3
330
91
100
AcDbEntity
  8
AM_9
100
AcDbEllipse
 10
3.332824535276028
 20
-5.330000000000002
 30
0.0
 11
-4.836742533232407E-17
 21
-0.2632999999999965
 31
0.0
210
0.0
220
0.0
230
1.0
 40
0.4226182617406985
 41
3.493022316657989
 42
5.937886668771368
  0
LINE
  5
B4
330
91
100
AcDbEntity
  8
AM_9
100
AcDbLine
 10
3.280935969539956
 20
-5.56292113407955
 30
0.0
 11
3.313587498394964
 21
-5.60364694802291
 31
0.0
  0
LINE
  5
B5
330
91
100
AcDbEntity
  8
AM_9
100
AcDbLine
 10
3.307242268141649
 20
-5.064267372555211
 30
0.0
 11
3.280935969539956
 21
-5.097078865920449
 31
0.0
  0
LWPOLYLINE
  5
B6
330
91
100
AcDbEntity
  8
AM_9
100
AcDbPolyline
 90
       39
 70
     0
 43
0.0
 10
-0.1992725408589325
 20
-5.136589506127451
 10
-0.2272391820965327
 20
-5.166837626333885
 10
-0.2503676924922665
 20
-5.200927983491367
 10
-0.2696610956039179
 20
-5.242867830314798
 10
-0.2813511388790446
 20
-5.287537771137257
 10
-0.2848490671532946
 20
-5.331468702486941
 10
-0.2808494944880313
 20
-5.375356558953874
 10
-0.2697260579417352
 20
-5.41697521940205
 10
-0.251975455073003
 20
-5.456217420264187
 10
-0.2275877763514609
 20
-5.492714833398673
 10
-0.1976993092374419
 20
-5.524864339861981
 10
-0.1613951738534787
 20
-5.55304599490377
 10
-0.1210514749196357
 20
-5.57510223825272
 10
-0.0755797702275908
 20
-5.591076283557959
 10
-0.0281060603636271
 20
-5.599508192293042
 10
0.0215581879884371
 20
-5.600027761172809
 10
0.0706218038747614
 20
-5.592355964910271
 10
0.118013888363526
 20
-5.576408416621112
 10
0.1619954934622483
 20
-5.552678465270159
 10
0.2005493474675064
 20
-5.522169855146209
 10
0.2331909640954602
 20
-5.485423992568245
 10
0.2577515038298537
 20
-5.445137138538641
 10
0.2748492205939418
 20
-5.401152755146136
 10
0.2834022276789206
 20
-5.357243589628992
 10
0.2842883909758525
 20
-5.312513504108304
 10
0.2777127448504216
 20
-5.269815192138756
 10
0.2641912581414418
 20
-5.228792744831403
 10
0.2439604351713543
 20
-5.190337094874622
 10
0.21784033126929
 20
-5.155617058241408
 10
0.1851792184334554
 20
-5.124344565575437
 10
0.147953709860151
 20
-5.098647608219333
 10
0.1050035188754529
 20
-5.078310037203872
 10
0.0593232506293236
 20
-5.065120624592367
 10
0.0103491570973256
 20
-5.059371849162958
 10
-0.0389090524227617
 20
-5.061711937046944
 10
-0.0877739952331272
 20
-5.072407483448836
 10
-0.1341285783858359
 20
-5.091140554507454
 10
-0.1682888179641216
 20
-5.111600043695784
 10
-0.1992725408589324
 20
-5.136589506127452
  0
LWPOLYLINE
  5
B7
330
91
100
AcDbEntity
  8
AM_9
100
AcDbPolyline
 90
        3
 70
     0
 43
0.0
 10
2.698058719417773
 20
-5.127529807230672
 10
2.685957918096586
 20
-5.103615678513709
 10
2.6751283004201
 20
-5.087912773895922
  0
LINE
  5
B8
330
91
100
AcDbEntity
  8
AM_9
100
AcDbLine
 10
2.895
 20
-5.949999999999999
 30
0.0
 11
2.895
 21
-4.71
 31
0.0
  0
LINE
  5
B9
330
91
100
AcDbEntity
  8
AM_9
100
AcDbLine
 10
-2.895
 20
-4.71
 30
0.0
 11
-2.895
 21
-5.949999999999999
 31
0.0
  0
LINE
  5
BA
330
91
100
AcDbEntity
  8
AM_9
100
AcDbLine
 10
-3.549104761904762
 20
-4.71
 30
0.0
 11
3.549104761904762
 21
-4.71
 31
0.0
  0
LINE
  5
BB
330
91
100
AcDbEntity
  8
AM_9
100
AcDbLine
 10
3.549104761904762
 20
-4.826769802555169
 30
0.0
 11
3.549104761904762
 21
-4.71
 31
0.0
  0
LINE
  5
BC
330
91
100
AcDbEntity
  8
AM_9
100
AcDbLine
 10
-3.549104761904762
 20
-4.71
 30
0.0
 11
-3.549104761904762
 21
-4.826769802555169
 31
0.0
  0
LINE
  5
BD
330
91
100
AcDbEntity
  8
AM_9
100
AcDbLine
 10
-0.106391304814956
 20
-4.913333333333334
 30
0.0
 11
0.106391304814956
 21
-4.913333333333334
 31
0.0
  0
LINE
  5
BE
330
91
100
AcDbEntity
  8
AM_9
100
AcDbLine
 10
-3.549104761904762
 20
-4.826769802555169
 30
0.0
 11
3.549104761904762
 21
-4.826769802555169
 31
0.0
  0
LINE
  5
BF
330
91
100
AcDbEntity
  8
AM_9
100
AcDbLine
 10
-3.549104761904762
 20
-4.826769802555169
 30
0.0
 11
-3.602334959349593
 21
-4.88
 31
0.0
  0
LINE
  5
C0
330
91
100
AcDbEntity
  8
AM_9
100
AcDbLine
 10
3.602334959349593
 20
-4.88
 30
0.0
 11
3.549104761904762
 21
-4.826769802555169
 31
0.0
  0
LINE
  5
C1
330
91
100
AcDbEntity
  8
AM_9
100
AcDbLine
 10
0.1665182552699817
 20
-5.069976351686617
 30
0.0
 11
-0.1665182552699782
 21
-5.069976351686617
 31
0.0
  0
LINE
  5
C2
330
91
100
AcDbEntity
  8
AM_9
100
AcDbLine
 10
3.444410521591497
 20
-5.069976351686617
 30
0.0
 11
3.305769157261298
 21
-5.069976351686617
 31
0.0
  0
ELLIPSE
  5
C3
330
91
100
AcDbEntity
  8
AM_9
100
AcDbEllipse
 10
2.630588562133447
 20
-5.329999999999998
 30
0.0
 11
-4.836742533232522E-17
 21
-0.2633000000000028
 31
0.0
210
0.0
220
0.0
230
1.0
 40
0.4226182617407003
 41
0.0
 42
6.283185307179586
  0
LINE
  5
C6
330
91
100
AcDbEntity
  8
AM_7
100
AcDbLine
 10
-0.276465
 20
-5.33
 30
0.0
 11
0.276465
 21
-5.33
 31
0.0
  0
ELLIPSE
  5
C8
330
91
100
AcDbEntity
  8
AM_4
100
AcDbEllipse
 10
3.332824535275722
 20
-5.329999999999961
 30
0.0
 11
-4.836742533231739E-17
 21
-0.2632999999999601
 31
0.0
210
0.0
220
0.0
230
1.0
 40
0.4226182617403741
 41
5.937886668773764
 42
9.776207623835294
  0
LWPOLYLINE
  5
C9
330
91
100
AcDbEntity
  8
AM_4
100
AcDbPolyline
 90
        6
 70
     0
 43
0.0
 10
3.30710558980857
 20
-5.064437875581622
 10
3.316739335415378
 20
-5.056663133615148
 10
3.342686618432759
 20
-5.050857556053876
 10
3.377130729087198
 20
-5.053456799751792
 10
3.422105298391421
 20
-5.063490878035084
 10
3.444410521591497
 20
-5.069976351686617
  0
LWPOLYLINE
  5
CA
330
91
100
AcDbEntity
  8
AM_4
100
AcDbPolyline
 90
       14
 70
     0
 43
0.0
 10
3.313826072628676
 20
-5.603944515687482
 10
3.309700142723135
 20
-5.598597313005975
 10
3.291486948062161
 20
-5.569705267825575
 10
3.274945049548986
 20
-5.53391248348441
 10
3.2610035869938
 20
-5.492544652568407
 10
3.250040787395398
 20
-5.445798207540117
 10
3.242794050911221
 20
-5.395566240020553
 10
3.239592294674873
 20
-5.342150048013779
 10
3.240786395526388
 20
-5.288710572639699
 10
3.246525229721489
 20
-5.234923934860027
 10
3.256314324899837
 20
-5.18518856042119
 10
3.270360329850809
 20
-5.138244322518479
 10
3.285644222712415
 20
-5.101704259336613
 10
3.303663210410947
 20
-5.069976351686551
  0
LINE
  5
CB
330
91
100
AcDbEntity
  8
AM_4
100
AcDbLine
 10
3.635668292682927
 20
-5.0175
 30
0.0
 11
3.635668292682927
 21
-4.913333333333334
 31
0.0
  0
LINE
  5
CC
330
91
100
AcDbEntity
  8
AM_4
100
AcDbLine
 10
-3.635668292682927
 20
-4.913333333333334
 30
0.0
 11
-3.635668292682927
 21
-5.0175
 31
0.0
  0
LINE
  5
CD
330
91
100
AcDbEntity
  8
AM_4
100
AcDbLine
 10
0.106391304814956
 20
-4.913333333333334
 30
0.0
 11
3.635668292682927
 21
-4.913333333333334
 31
0.0
  0
LINE
  5
CE
330
91
100
AcDbEntity
  8
AM_4
100
AcDbLine
 10
-3.635668292682927
 20
-4.913333333333334
 30
0.0
 11
-0.106391304814956
 21
-4.913333333333334
 31
0.0
  0
LINE
  5
CF
330
91
100
AcDbEntity
  8
AM_4
100
AcDbLine
 10
-3.602334959349593
 20
-4.88
 30
0.0
 11
-3.635668292682927
 21
-4.913333333333334
 31
0.0
  0
LINE
  5
D0
330
91
100
AcDbEntity
  8
AM_4
100
AcDbLine
 10
3.635668292682927
 20
-4.913333333333334
 30
0.0
 11
3.602334959349593
 21
-4.88
 31
0.0
  0
LWPOLYLINE
  5
D1
330
91
100
AcDbEntity
  8
AM_4
100
AcDbPolyline
 90
       20
 70
     0
 43
0.0
 10
3.444410521591497
 20
-5.069976351686617
 10
3.451609785399825
 20
-5.084262641465611
 10
3.463845965275387
 20
-5.115365812293524
 10
3.474251033827747
 20
-5.151772192491933
 10
3.483195438698196
 20
-5.196519224188829
 10
3.489485319805519
 20
-5.246043531318455
 10
3.492810405513214
 20
-5.297996042167944
 10
3.49309554614384
 20
-5.352287669316745
 10
3.490256053310072
 20
-5.405319166306835
 10
3.484105409287616
 20
-5.45770742250193
 10
3.475069231994022
 20
-5.504797197545257
 10
3.462657118924779
 20
-5.548117346028299
 10
3.448133817234784
 20
-5.58294950443918
 10
3.430558924403703
 20
-5.611336160849969
 10
3.412118638071463
 20
-5.629960217857034
 10
3.391466928177485
 20
-5.640532749827387
 10
3.371152006772374
 20
-5.642117685348801
 10
3.349834612325262
 20
-5.635293971189459
 10
3.329604724503131
 20
-5.620899447845524
 10
3.313826072628676
 20
-5.603944515687482
  0
LINE
  5
D2
330
91
100
AcDbEntity
  8
AM_4
100
AcDbLine
 10
3.72656
 20
-5.743333333333333
 30
0.0
 11
3.72656
 21
-5.069976351686617
 31
0.0
  0
LINE
  5
D3
330
91
100
AcDbEntity
  8
AM_4
100
AcDbLine
 10
-3.72656
 20
-5.069976351686617
 30
0.0
 11
-3.72656
 21
-5.743333333333333
 31
0.0
  0
LINE
  5
D4
330
91
100
AcDbEntity
  8
AM_4
100
AcDbLine
 10
-3.519893333333334
 20
-5.949999999999999
 30
0.0
 11
3.519893333319963
 21
-5.949999999999999
 31
0.0
  0
LINE
  5
D5
330
91
100
AcDbEntity
  8
AM_4
100
AcDbLine
 10
-3.72656
 20
-5.743333333333333
 30
0.0
 11
3.72656
 21
-5.743333333333333
 31
0.0
  0
ARC
  5
D6
330
91
100
AcDbEntity
  8
AM_4
100
AcDbCircle
 10
3.519893333333334
 20
-5.743333333333335
 30
0.0
 40
0.2066666666666643
100
AcDbArc
 50
270.0
 51
0.0
  0
ARC
  5
D7
330
91
100
AcDbEntity
  8
AM_4
100
AcDbCircle
 10
-3.519893333333334
 20
-5.743333333333335
 30
0.0
 40
0.2066666666666652
100
AcDbArc
 50
180.0
 51
270.0
  0
LINE
  5
D8
330
91
100
AcDbEntity
  8
AM_4
100
AcDbLine
 10
0.1665182552699817
 20
-5.069976351686616
 30
0.0
 11
3.303663210410936
 21
-5.069976351686582
 31
0.0
  0
LINE
  5
D9
330
91
100
AcDbEntity
  8
AM_4
100
AcDbLine
 10
3.303663210410917
 20
-5.069976351686606
 30
0.0
 11
3.30710558980857
 21
-5.064437875581622
 31
0.0
  0
LINE
  5
DA
330
91
100
AcDbEntity
  8
AM_4
100
AcDbLine
 10
3.444410521591497
 20
-5.069976351686617
 30
0.0
 11
3.72656
 21
-5.069976351686617
 31
0.0
  0
LINE
  5
DB
330
91
100
AcDbEntity
  8
AM_4
100
AcDbLine
 10
-3.635668292682927
 20
-5.0175
 30
0.0
 11
3.635668292682927
 21
-5.0175
 31
0.0
  0
LINE
  5
DC
330
91
100
AcDbEntity
  8
AM_4
100
AcDbLine
 10
-3.635668292682927
 20
-5.0175
 30
0.0
 11
-3.72656
 21
-5.069976351686617
 31
0.0
  0
LINE
  5
DD
330
91
100
AcDbEntity
  8
AM_4
100
AcDbLine
 10
3.72656
 20
-5.069976351686617
 30
0.0
 11
3.635668292682927
 21
-5.0175
 31
0.0
  0
LINE
  5
DE
330
91
100
AcDbEntity
  8
AM_4
100
AcDbLine
 10
-3.72656
 20
-5.069976351686617
 30
0.0
 11
-0.1665182552699782
 21
-5.069976351686616
 31
0.0
  0
LWPOLYLINE
  5
DF
330
91
100
AcDbEntity
  8
AM_4
100
AcDbPolyline
 90
       32
 70
     0
 43
0.0
 10
0.1665182552699817
 20
-5.069976351686616
 10
0.202153962009772
 20
-5.098968905492384
 10
0.2330683061525766
 20
-5.132957075699061
 10
0.2612296068353158
 20
-5.175889589864926
 10
0.2821236987232747
 20
-5.222809988617498
 10
0.2955255785893645
 20
-5.274301729826682
 10
0.30035876586335
 20
-5.32730027035527
 10
0.2962327619296414
 20
-5.381462807896559
 10
0.2831660436551772
 20
-5.434175912554227
 10
0.2617258570185941
 20
-5.483251747087484
 10
0.231316491458669
 20
-5.529264140058869
 10
0.1952582572915008
 20
-5.567390526596647
 10
0.1517830496203795
 20
-5.599614364564498
 10
0.1057520025200118
 20
-5.622422625927333
 10
0.0564620893921412
 20
-5.636916917773466
 10
0.0073523714840351
 20
-5.642367349760161
 10
-0.041971852673099
 20
-5.639424975937651
 10
-0.0891664444078386
 20
-5.628359253302924
 10
-0.1338960967292461
 20
-5.609690682277292
 10
-0.1753971475001686
 20
-5.583590278670687
 10
-0.2121513974936651
 20
-5.551142843927837
 10
-0.2441896823159643
 20
-5.511842003427641
 10
-0.2695087212928269
 20
-5.467893170794462
 10
-0.2880055944069546
 20
-5.418580493786085
 10
-0.2982650342460917
 20
-5.366905637306549
 10
-0.2998875535091092
 20
-5.312855945834499
 10
-0.29256755347474
 20
-5.259283469217459
 10
-0.2800020431923043
 20
-5.216993582580374
 10
-0.2617713699096322
 20
-5.176832353128494
 10
-0.237591981894889
 20
-5.138919417090296
 10
-0.2082386111361848
 20
-5.104867627233407
 10
-0.1665182552699782
 20
-5.069976351686616
  0
LWPOLYLINE
  5
E0
330
91
100
AcDbEntity
  8
AM_4
100
AcDbPolyline
 90
        6
 70
     0
 43
0.0
 10
-0.1665182552699782
 20
-5.069976351686616
 10
-0.091675636164321
 20
-5.056663133615151
 10
-0.0111127317606268
 20
-5.050857556053876
 10
0.0618062322783142
 20
-5.053456799751793
 10
0.1351175689575522
 20
-5.063490878035083
 10
0.1665182552699817
 20
-5.069976351686616
  0
CIRCLE
  5
E1
330
91
100
AcDbEntity
  8
AM_4
100
AcDbCircle
 10
0.0
 20
-5.33
 30
0.0
 40
0.2633
  0
CIRCLE
  5
E3
330
91
100
AcDbEntity
  8
AM_5
100
AcDbCircle
 10
0.0000000000000008
 20
-5.329999999999999
 30
0.0
 40
0.3124999999999996
  0
ENDBLK
  5
94
330
91
100
AcDbEntity
  8
0
100
AcDbBlockEnd
  0
BLOCK
  5
E6
330
E4
100
AcDbEntity
  8
0
100
AcDbBlockBegin
  2
3_4_15_16CS2i_2_0_in_071522_4
 70
     2
 10
0.0
 20
0.0
 30
0.0
  3
3_4_15_16CS2i_2_0_in_071522_4
  1

  0
ATTDEF
  5
E8
330
E4
100
AcDbEntity
  8
AM_6
100
AcDbText
 10
8.726560000000001
 20
0.9562499999999998
 30
0.0
 40
0.5
  1
S-2000 Collar -Inch
100
AcDbAttributeDefinition
  3

  2
NN
 70
     8
280
     0
  0
ATTDEF
  5
E9
330
E4
100
AcDbEntity
  8
AM_6
100
AcDbText
 10
8.726560000000001
 20
0.4562499999999998
 30
0.0
 40
0.5
  1
S-2000 Bearings
100
AcDbAttributeDefinition
  3

  2
NT
 70
     8
280
     0
  0
ATTDEF
  5
EA
330
E4
100
AcDbEntity
  8
AM_6
100
AcDbText
 10
8.726560000000001
 20
-0.0437500000000002
 30
0.0
 40
0.5
  1
4-15/16CS2i
100
AcDbAttributeDefinition
  3

  2
NB
 70
     8
280
     0
  0
ATTDEF
  5
EB
330
E4
100
AcDbEntity
  8
AM_6
100
AcDbText
 10
8.726560000000001
 20
-0.5437500000000002
 30
0.0
 40
0.5
  1
$BORE.CS2i
100
AcDbAttributeDefinition
  3

  2
NBSYN
 70
     8
280
     0
  0
ATTDEF
  5
EC
330
E4
100
AcDbEntity
  8
AM_6
100
AcDbText
 10
8.726560000000001
 20
-1.04375
 30
0.0
 40
0.5
  1
4-15/16CS2i
100
AcDbAttributeDefinition
  3

  2
LINA
 70
     8
280
     0
  0
ATTDEF
  5
ED
330
E4
100
AcDbEntity
  8
AM_6
100
AcDbText
 10
8.726560000000001
 20
-1.54375
 30
0.0
 40
0.5
  1
4-15/16
100
AcDbAttributeDefinition
  3

  2
BORE
 70
     8
280
     0
  0
ATTDEF
  5
EE
330
E4
100
AcDbEntity
  8
AM_6
100
AcDbText
 10
8.726560000000001
 20
-2.04375
 30
0.0
 40
0.5
  1
4.937500
100
AcDbAttributeDefinition
  3

  2
BORE1
 70
     8
280
     0
  0
ATTDEF
  5
EF
330
E4
100
AcDbEntity
  8
AM_6
100
AcDbText
 10
8.726560000000001
 20
-2.54375
 30
0.0
 40
0.5
  1
7-29/64
100
AcDbAttributeDefinition
  3

  2
L1
 70
     8
280
     0
  0
ATTDEF
  5
F0
330
E4
100
AcDbEntity
  8
AM_6
100
AcDbText
 10
8.726560000000001
 20
-3.04375
 30
0.0
 40
0.5
  1
7.45313
100
AcDbAttributeDefinition
  3

  2
L
 70
     8
280
     0
  0
ATTDEF
  5
F1
330
E4
100
AcDbEntity
  8
AM_6
100
AcDbText
 10
8.726560000000001
 20
-3.54375
 30
0.0
 40
0.5
  1
7.45312
100
AcDbAttributeDefinition
  3

  2
L2
 70
     8
280
     0
  0
ATTDEF
  5
F2
330
E4
100
AcDbEntity
  8
AM_6
100
AcDbText
 10
8.726560000000001
 20
-4.04375
 30
0.0
 40
0.5
  1
7.25
100
AcDbAttributeDefinition
  3

  2
A
 70
     8
280
     0
  0
ATTDEF
  5
F3
330
E4
100
AcDbEntity
  8
AM_6
100
AcDbText
 10
8.726560000000001
 20
-4.54375
 30
0.0
 40
0.5
  1
3.75
100
AcDbAttributeDefinition
  3

  2
B
 70
     8
280
     0
  0
ATTDEF
  5
F4
330
E4
100
AcDbEntity
  8
AM_6
100
AcDbText
 10
8.726560000000001
 20
-5.04375
 30
0.0
 40
0.5
  1
5.79
100
AcDbAttributeDefinition
  3

  2
C
 70
     8
280
     0
  0
ATTDEF
  5
F5
330
E4
100
AcDbEntity
  8
AM_6
100
AcDbText
 10
8.726560000000001
 20
-5.54375
 30
0.0
 40
0.5
  1
8.12
100
AcDbAttributeDefinition
  3

  2
D
 70
     8
280
     0
  0
ATTDEF
  5
F6
330
E4
100
AcDbEntity
  8
AM_6
100
AcDbText
 10
8.726560000000001
 20
-6.04375
 30
0.0
 40
0.5
  1
0.78
100
AcDbAttributeDefinition
  3

  2
E
 70
     8
280
     0
  0
ATTDEF
  5
F7
330
E4
100
AcDbEntity
  8
AM_6
100
AcDbText
 10
8.726560000000001
 20
-6.54375
 30
0.0
 40
0.5
  1
0.620
100
AcDbAttributeDefinition
  3

  2
F
 70
     8
280
     0
  0
ATTDEF
  5
F8
330
E4
100
AcDbEntity
  8
AM_6
100
AcDbText
 10
8.726560000000001
 20
-7.04375
 30
0.0
 40
0.5
  1
5/8-11
100
AcDbAttributeDefinition
  3

  2
CS
 70
     8
280
     0
  0
ATTDEF
  5
F9
330
E4
100
AcDbEntity
  8
AM_6
100
AcDbText
 10
8.726560000000001
 20
-7.54375
 30
0.0
 40
0.5
  1
0.6250
100
AcDbAttributeDefinition
  3

  2
NDM
 70
     8
280
     0
  0
ATTDEF
  5
FA
330
E4
100
AcDbEntity
  8
AM_6
100
AcDbText
 10
8.726560000000001
 20
-8.04375
 30
0.0
 40
0.5
  1
0.5270
100
AcDbAttributeDefinition
  3

  2
KDM
 70
     8
280
     0
  0
ATTDEF
  5
FB
330
E4
100
AcDbEntity
  8
AM_6
100
AcDbText
 10
8.726560000000001
 20
-8.54375
 30
0.0
 40
0.5
  1
2
100
AcDbAttributeDefinition
  3

  2
DD
 70
     8
280
     0
  0
ATTDEF
  5
FC
330
E4
100
AcDbEntity
  8
AM_6
100
AcDbText
 10
8.726560000000001
 20
-9.04375
 30
0.0
 40
0.5
  1
baldor
100
AcDbAttributeDefinition
  3

  2
COMPANY
 70
     8
280
     0
  0
LINE
  5
FD
330
E4
100
AcDbEntity
  8
AM_9
100
AcDbLine
 10
2.682477127869519
 20
0.5691711340795518
 30
0.0
 11
2.675301465422838
 21
0.5781212415927882
 31
0.0
  0
LINE
  5
FE
330
E4
100
AcDbEntity
  8
AM_9
100
AcDbLine
 10
2.675315952179965
 20
0.0943968275450454
 30
0.0
 11
2.682477127869519
 21
0.1033288659204479
 31
0.0
  0
LWPOLYLINE
  5
FF
330
E4
100
AcDbEntity
  8
AM_9
100
AcDbPolyline
 90
       26
 70
     0
 43
0.0
 10
2.675127252372747
 20
0.5783385329231989
 10
2.672624900204763
 20
0.5813522382527199
 10
2.654803739022862
 20
0.597326283557959
 10
2.635515524085129
 20
0.6057581922930418
 10
2.614572104044704
 20
0.6062777611728084
 10
2.593134180229572
 20
0.5986059649102705
 10
2.571700796192085
 20
0.5826584166211121
 10
2.551187828413239
 20
0.5589284652701583
 10
2.532699996371929
 20
0.5284198551462086
 10
2.516684648199884
 20
0.4916739925682452
 10
2.504411573639535
 20
0.451387138538641
 10
2.495753385644371
 20
0.4074027551461357
 10
2.491390107746754
 20
0.3634935896289924
 10
2.490934207018452
 20
0.3187635041083037
 10
2.494296035851465
 20
0.2760651921387561
 10
2.50116083484511
 20
0.2350427448314032
 10
2.511326248408904
 20
0.1965870948746226
 10
2.524259165546245
 20
0.1618670582414077
 10
2.54012595730608
 20
0.1305945655754363
 10
2.557804378217861
 20
0.1048976082193333
 10
2.577654369783751
 20
0.0845600372038723
 10
2.598139029224233
 20
0.0713706245923667
 10
2.619365354384135
 20
0.0656218491629577
 10
2.639967736093444
 20
0.0679619370469432
 10
2.659644761315935
 20
0.0786574834488352
 10
2.675138344226467
 20
0.0941752995294386
  0
LWPOLYLINE
  5
100
330
E4
100
AcDbEntity
  8
AM_9
100
AcDbPolyline
 90
        4
 70
     0
 43
0.0
 10
2.675138344226467
 20
0.0941752995294386
 10
2.677628670982917
 20
0.0973905545074524
 10
2.690444786384775
 20
0.1178500436957836
 10
2.701754149328551
 20
0.1428395061274511
  0
LINE
  5
101
330
E4
100
AcDbEntity
  8
AM_9
100
AcDbLine
 10
2.630588562133445
 20
0.0729499999999999
 30
0.0
 11
3.33282453527603
 21
0.07295
 31
0.0
  0
LINE
  5
102
330
E4
100
AcDbEntity
  8
AM_9
100
AcDbLine
 10
3.33282453527603
 20
0.5995499999999998
 30
0.0
 11
2.630588562133445
 21
0.5995499999999998
 31
0.0
  0
LINE
  5
103
330
E4
100
AcDbEntity
  8
AM_9
100
AcDbLine
 10
3.280935969539956
 20
0.1033288659204494
 30
0.0
 11
3.30713418824722
 21
0.0706521791577146
 31
0.0
  0
LINE
  5
104
330
E4
100
AcDbEntity
  8
AM_9
100
AcDbLine
 10
3.313609464481517
 20
0.6099243460280085
 30
0.0
 11
3.280935969539956
 21
0.5691711340795503
 31
0.0
  0
ELLIPSE
  5
105
330
E4
100
AcDbEntity
  8
AM_9
100
AcDbEllipse
 10
3.332824535275962
 20
0.3362499999999902
 30
0.0
 11
-4.836742533232285E-17
 21
-0.2632999999999899
 31
0.0
210
0.0
220
0.0
230
1.0
 40
0.4226182617405995
 41
3.476404735080196
 42
5.931589899998717
  0
LINE
  5
106
330
E4
100
AcDbEntity
  8
AM_9
100
AcDbLine
 10
2.681669991601142
 20
0.5694044972273148
 30
0.0
 11
2.675127252372747
 21
0.5783385329231989
 31
0.0
  0
LWPOLYLINE
  5
107
330
E4
100
AcDbEntity
  8
AM_9
100
AcDbPolyline
 90
       13
 70
     0
 43
0.0
 10
2.701754149328551
 20
0.1428395061274511
 10
2.71170074149127
 20
0.173087626333885
 10
2.71974067330758
 20
0.2071779834913667
 10
2.726319119219232
 20
0.2491178303147976
 10
2.730245114615701
 20
0.2937877711372568
 10
2.73141412954794
 20
0.3377187024869405
 10
2.730077465418883
 20
0.3816065589538734
 10
2.726340690372453
 20
0.4232252194020495
 10
2.720293243522049
 20
0.4624674202641858
 10
2.711823063167848
 20
0.498964833398673
 10
2.701187260869988
 20
0.5311143398619819
 10
2.687886559813745
 20
0.55929599490377
 10
2.681669991601142
 20
0.5694044972273148
  0
LWPOLYLINE
  5
108
330
E4
100
AcDbEntity
  8
AM_9
100
AcDbPolyline
 90
       38
 70
     0
 43
0.0
 10
-0.1890555923615486
 20
0.1337798072306716
 10
-0.1562154415315199
 20
0.109865678513709
 10
-0.1195407029820079
 20
0.0904772611132068
 10
-0.0744762970392165
 20
0.0748616170460705
 10
-0.0261609166152214
 20
0.0665643633387356
 10
0.022823268386694
 20
0.0662897563468373
 10
0.0725498206262388
 20
0.0743711515855028
 10
0.119160167516715
 20
0.0903099847921718
 10
0.1636423748675188
 20
0.1146636455966917
 10
0.2014265094123185
 20
0.1448667756025613
 10
0.2343252271023403
 20
0.1823739451352519
 10
0.2582751799173494
 20
0.222097260419629
 10
0.2753462796926275
 20
0.2668513044757063
 10
0.2835484457715547
 20
0.310088724184523
 10
0.2841644141119831
 20
0.3554667977128599
 10
0.2774771832126233
 20
0.3975222083325654
 10
0.2635184366209088
 20
0.4390270601321747
 10
0.2433576538216971
 20
0.47690203010738
 10
0.2166730443462366
 20
0.5119417581311787
 10
0.1842519420763094
 20
0.5426853826359356
 10
0.1463559252289981
 20
0.5685203482904756
 10
0.103839513525243
 20
0.5884019064736764
 10
0.0574310108537816
 20
0.6015070323984296
 10
0.0090838152852518
 20
0.6069452132630964
 10
-0.0408710726031643
 20
0.604273533481697
 10
-0.0889766220675009
 20
0.5934980079240098
 10
-0.1358943649986371
 20
0.5742042092061044
 10
-0.1771804715807249
 20
0.5482095628035978
 10
-0.2144225073758032
 20
0.5144186653464563
 10
-0.2432189697412252
 20
0.4771183751074654
 10
-0.2656530215300316
 20
0.4339455834724992
 10
-0.2789365994640843
 20
0.3912258239697297
 10
-0.284720675074166
 20
0.345421897729926
 10
-0.2826710247877679
 20
0.302602850521704
 10
-0.273178327559688
 20
0.2595152043218464
 10
-0.2572359539332144
 20
0.2199997284804196
 10
-0.2345002045584704
 20
0.1826147945389551
 10
-0.1890555923615485
 20
0.1337798072306715
  0
LINE
  5
109
330
E4
100
AcDbEntity
  8
AM_9
100
AcDbLine
 10
-2.895
 20
0.9562499999999997
 30
0.0
 11
-2.895
 21
-0.2837500000000002
 31
0.0
  0
LINE
  5
10A
330
E4
100
AcDbEntity
  8
AM_9
100
AcDbLine
 10
2.895
 20
-0.2837500000000002
 30
0.0
 11
2.895
 21
0.9562499999999997
 31
0.0
  0
LINE
  5
10B
330
E4
100
AcDbEntity
  8
AM_9
100
AcDbLine
 10
-3.549104761904762
 20
-0.1669801974448321
 30
0.0
 11
-3.549104761904762
 21
-0.2837500000000002
 31
0.0
  0
LINE
  5
10C
330
E4
100
AcDbEntity
  8
AM_9
100
AcDbLine
 10
3.549104761904762
 20
-0.2837500000000002
 30
0.0
 11
3.549104761904762
 21
-0.1669801974448321
 31
0.0
  0
LINE
  5
10D
330
E4
100
AcDbEntity
  8
AM_9
100
AcDbLine
 10
3.549104761904762
 20
-0.2837500000000002
 30
0.0
 11
-3.549104761904762
 21
-0.2837500000000002
 31
0.0
  0
LINE
  5
10E
330
E4
100
AcDbEntity
  8
AM_9
100
AcDbLine
 10
3.549104761904762
 20
-0.1669801974448321
 30
0.0
 11
3.635668292682927
 21
-0.080416666666667
 31
0.0
  0
LINE
  5
10F
330
E4
100
AcDbEntity
  8
AM_9
100
AcDbLine
 10
-3.635668292682927
 20
-0.080416666666667
 30
0.0
 11
-3.549104761904761
 21
-0.1669801974448321
 31
0.0
  0
LINE
  5
110
330
E4
100
AcDbEntity
  8
AM_9
100
AcDbLine
 10
3.549104761904762
 20
-0.1669801974448321
 30
0.0
 11
-3.549104761904761
 21
-0.1669801974448321
 31
0.0
  0
LINE
  5
111
330
E4
100
AcDbEntity
  8
AM_9
100
AcDbLine
 10
-3.635668292682927
 20
0.0000000000000002
 30
0.0
 11
-3.635668292682927
 21
-0.080416666666667
 31
0.0
  0
LINE
  5
112
330
E4
100
AcDbEntity
  8
AM_9
100
AcDbLine
 10
3.635668292682927
 20
-0.080416666666667
 30
0.0
 11
3.635668292682927
 21
0.0000000000000002
 31
0.0
  0
LINE
  5
113
330
E4
100
AcDbEntity
  8
AM_9
100
AcDbLine
 10
3.635668292682927
 20
-0.080416666666667
 30
0.0
 11
-3.635668292682927
 21
-0.080416666666667
 31
0.0
  0
LINE
  5
114
330
E4
100
AcDbEntity
  8
AM_9
100
AcDbLine
 10
3.305979817850091
 20
0.0762263516866163
 30
0.0
 11
3.444410521591497
 21
0.0762263516866164
 31
0.0
  0
LINE
  5
115
330
E4
100
AcDbEntity
  8
AM_9
100
AcDbLine
 10
-0.1665182552699793
 20
0.0762263516866164
 30
0.0
 11
0.166518255269927
 21
0.0762263516866164
 31
0.0
  0
ELLIPSE
  5
116
330
E4
100
AcDbEntity
  8
AM_9
100
AcDbEllipse
 10
2.630588562133445
 20
0.3362499999999998
 30
0.0
 11
-4.836742533232471E-17
 21
-0.2633
 31
0.0
210
0.0
220
0.0
230
1.0
 40
0.4226182617406997
 41
0.0
 42
6.283185307179586
  0
LINE
  5
117
330
E4
100
AcDbEntity
  8
AM_7
100
AcDbLine
 10
-0.276465
 20
0.33625
 30
0.0
 11
0.2764650000000001
 21
0.33625
 31
0.0
  0
LWPOLYLINE
  5
118
330
E4
100
AcDbEntity
  8
AM_4
100
AcDbPolyline
 90
       20
 70
     0
 43
0.0
 10
3.313826183874527
 20
0.6101946544826201
 10
3.331353592174755
 20
0.6286726259273331
 10
3.35316075409214
 20
0.6431669177734666
 10
3.374292201662012
 20
0.648617349760161
 10
3.39493419451155
 20
0.6456749759376509
 10
3.414123460704592
 20
0.6346092533029247
 10
3.431816493422884
 20
0.6159406822772926
 10
3.44779170821774
 20
0.5898402786706863
 10
3.461591910294179
 20
0.557392843927837
 10
3.473350840566418
 20
0.5180920034276413
 10
3.482465582815343
 20
0.4741431707944619
 10
3.489026965462525
 20
0.4248304937860852
 10
3.492627333422571
 20
0.3731556373065488
 10
3.493197084217743
 20
0.3191059458344999
 10
3.490630107095691
 20
0.2655334692174592
 10
3.486197899025294
 20
0.2232435825803728
 10
3.479696778361913
 20
0.1830823531284934
 10
3.470949677753326
 20
0.1451694170902958
 10
3.460138635537258
 20
0.1111176272334072
 10
3.444410521591496
 20
0.0762263516866162
  0
LINE
  5
119
330
E4
100
AcDbEntity
  8
AM_4
100
AcDbLine
 10
3.307123502659226
 20
0.0706655071830802
 30
0.0
 11
3.303663210410911
 21
0.076226351686617
 31
0.0
  0
ELLIPSE
  5
11A
330
E4
100
AcDbEntity
  8
AM_4
100
AcDbEllipse
 10
3.332824535276034
 20
0.3362500000000443
 30
0.0
 11
-4.836742533233319E-17
 21
-0.2633000000000462
 31
0.0
210
0.0
220
0.0
230
1.0
 40
0.4226182617406998
 41
5.931589899998255
 42
9.75959004226039
  0
CIRCLE
  5
11B
330
E4
100
AcDbEntity
  8
AM_4
100
AcDbCircle
 10
0.0000000000000001
 20
0.33625
 30
0.0
 40
0.2633
  0
LINE
  5
11C
330
E4
100
AcDbEntity
  8
AM_4
100
AcDbLine
 10
-3.635668292682927
 20
0.0237499999999997
 30
0.0
 11
-3.635668292682927
 21
0.0000000000000002
 31
0.0
  0
LINE
  5
11D
330
E4
100
AcDbEntity
  8
AM_4
100
AcDbLine
 10
3.635668292682927
 20
0.0000000000000002
 30
0.0
 11
3.635668292682927
 21
0.0237499999999997
 31
0.0
  0
LWPOLYLINE
  5
11E
330
E4
100
AcDbEntity
  8
AM_4
100
AcDbPolyline
 90
       32
 70
     0
 43
0.0
 10
-0.1665182552699793
 20
0.0762263516866168
 10
-0.1854752642081353
 20
0.0905126414656105
 10
-0.2182402346544839
 20
0.1216158122935231
 10
-0.2466714223713473
 20
0.1580221924919328
 10
-0.2715551405358692
 20
0.2027692241888293
 10
-0.2893120281346088
 20
0.2522935313184553
 10
-0.298788423647827
 20
0.3042460421679434
 10
-0.2996040027012887
 20
0.3585376693167448
 10
-0.2915030121024416
 20
0.4115691663068344
 10
-0.274110619386164
 20
0.4639574225019311
 10
-0.2489302726779995
 20
0.511047197545256
 10
-0.2150257756864529
 20
0.5543673460282984
 10
-0.176293564616408
 20
0.5891995044391798
 10
-0.1306750776110549
 20
0.6175861608499682
 10
-0.0841653151338387
 20
0.6362102178570341
 10
-0.033585265517977
 20
0.6467827498273877
 10
0.014745928667396
 20
0.6483676853488006
 10
0.0640685788658989
 20
0.6415439711894578
 10
0.1096570958222288
 20
0.627149447845524
 10
0.1534388845001232
 20
0.6048473130059744
 10
0.1926284132556375
 20
0.5759552678255748
 10
0.2275421491156175
 20
0.5401624834844097
 10
0.2564902417549507
 20
0.4987946525684068
 10
0.2789596658595468
 20
0.4520482075401179
 10
0.2936751103406952
 20
0.4018162400205527
 10
0.3001425538739124
 20
0.3484000480137782
 10
0.297732933787323
 20
0.2949605726396987
 10
0.2861119410097813
 20
0.2411739348600273
 10
0.2661324486089802
 20
0.1914385604211893
 10
0.2371089846496509
 20
0.144494322518478
 10
0.2050322103956662
 20
0.1079542593366132
 10
0.166518255269927
 20
0.076226351686581
  0
LWPOLYLINE
  5
11F
330
E4
100
AcDbEntity
  8
AM_4
100
AcDbPolyline
 90
       14
 70
     0
 43
0.0
 10
3.303663210410911
 20
0.0762263516866181
 10
3.287002610142763
 20
0.1052189054923845
 10
3.272299477588934
 20
0.1392070756990607
 10
3.258702294722255
 20
0.1821395898649259
 10
3.248487118169471
 20
0.2290599886174972
 10
3.241881141147288
 20
0.2805517298266826
 10
3.239485079890305
 20
0.3335502703552702
 10
3.241531432734145
 20
0.387712807896558
 10
3.247974746527927
 20
0.4404259125542264
 10
3.258460194125952
 20
0.4895017470874843
 10
3.273138943532123
 20
0.535514140058868
 10
3.290251316557211
 20
0.5736405265966469
 10
3.310461437242004
 20
0.6058643645644979
 10
3.313826183874527
 20
0.6101946544826201
  0
LINE
  5
120
330
E4
100
AcDbEntity
  8
AM_4
100
AcDbLine
 10
-3.72656
 20
0.7495833333333329
 30
0.0
 11
-3.72656
 21
0.0762263516866164
 31
0.0
  0
LINE
  5
121
330
E4
100
AcDbEntity
  8
AM_4
100
AcDbLine
 10
3.72656
 20
0.0762263516866164
 30
0.0
 11
3.72656
 21
0.7495833333333329
 31
0.0
  0
LINE
  5
122
330
E4
100
AcDbEntity
  8
AM_4
100
AcDbLine
 10
3.519893333333334
 20
0.9562499999999997
 30
0.0
 11
-3.519893333333334
 21
0.9562499999999997
 31
0.0
  0
ARC
  5
123
330
E4
100
AcDbEntity
  8
AM_4
100
AcDbCircle
 10
-3.519893333333334
 20
0.7495833333333337
 30
0.0
 40
0.206666666666666
100
AcDbArc
 50
90.0
 51
180.0
  0
ARC
  5
124
330
E4
100
AcDbEntity
  8
AM_4
100
AcDbCircle
 10
3.519893333333334
 20
0.7495833333333337
 30
0.0
 40
0.2066666666666661
100
AcDbArc
 50
0.0
 51
90.0
  0
LINE
  5
125
330
E4
100
AcDbEntity
  8
AM_4
100
AcDbLine
 10
3.72656
 20
0.7495833333333329
 30
0.0
 11
-3.72656
 21
0.7495833333333329
 31
0.0
  0
LWPOLYLINE
  5
126
330
E4
100
AcDbEntity
  8
AM_4
100
AcDbPolyline
 90
        6
 70
     0
 43
0.0
 10
3.444410521591496
 20
0.0762263516866165
 10
3.394226931414847
 20
0.0629131336151505
 10
3.352079505192493
 20
0.0571075560538759
 10
3.324889844186792
 20
0.0597067997517924
 10
3.307898994144482
 20
0.0697408780350826
 10
3.307123502659226
 20
0.0706655071830802
  0
LINE
  5
127
330
E4
100
AcDbEntity
  8
AM_4
100
AcDbLine
 10
3.303663210410911
 20
0.0762263516866166
 30
0.0
 11
0.166518255269927
 21
0.076226351686581
 31
0.0
  0
LWPOLYLINE
  5
128
330
E4
100
AcDbEntity
  8
AM_4
100
AcDbPolyline
 90
        6
 70
     0
 43
0.0
 10
0.166518255269927
 20
0.076226351686581
 10
0.0916756361642931
 20
0.0629131336151472
 10
0.0111127317606265
 20
0.0571075560538756
 10
-0.0618062322783142
 20
0.0597067997517924
 10
-0.135117568957552
 20
0.0697408780350828
 10
-0.1665182552699793
 20
0.0762263516866168
  0
LINE
  5
129
330
E4
100
AcDbEntity
  8
AM_4
100
AcDbLine
 10
-0.1665182552699793
 20
0.0762263516866168
 30
0.0
 11
-3.72656
 21
0.0762263516866164
 31
0.0
  0
LINE
  5
12A
330
E4
100
AcDbEntity
  8
AM_4
100
AcDbLine
 10
3.635668292682927
 20
0.0237499999999997
 30
0.0
 11
3.726560000000001
 21
0.0762263516866164
 31
0.0
  0
LINE
  5
12B
330
E4
100
AcDbEntity
  8
AM_4
100
AcDbLine
 10
-3.72656
 20
0.0762263516866164
 30
0.0
 11
-3.635668292682927
 21
0.0237499999999997
 31
0.0
  0
LINE
  5
12C
330
E4
100
AcDbEntity
  8
AM_4
100
AcDbLine
 10
3.726560000000001
 20
0.0762263516866164
 30
0.0
 11
3.444410521591497
 21
0.0762263516866165
 31
0.0
  0
LINE
  5
12D
330
E4
100
AcDbEntity
  8
AM_4
100
AcDbLine
 10
3.635668292682927
 20
0.0237499999999997
 30
0.0
 11
-3.635668292682927
 21
0.0237499999999997
 31
0.0
  0
ARC
  5
12E
330
E4
100
AcDbEntity
  8
AM_5
100
AcDbCircle
 10
0.0000000000000001
 20
0.3362499999999999
 30
0.0
 40
0.3125
100
AcDbArc
 50
75.00000000000001
 51
14.99999999999997
  0
ARC
  5
12F
330
E4
100
AcDbEntity
  8
AM_5
100
AcDbCircle
 10
-0.0000000000000073
 20
0.3362499999999796
 30
0.0
 40
0.3125000000000215
100
AcDbArc
 50
63.85157066748238
 51
74.99999999999966
  0
ENDBLK
  5
E7
330
E4
100
AcDbEntity
  8
0
100
AcDbBlockEnd
  0
BLOCK
  5
132
330
130
100
AcDbEntity
  8
0
100
AcDbBlockBegin
  2
4_070015i_0_in_071522_4
 70
     2
 10
0.0
 20
0.0
 30
0.0
  3
4_070015i_0_in_071522_4
  1

  0
ATTDEF
  5
134
330
130
100
AcDbEntity
  8
AM_6
100
AcDbText
 10
9.52755
 20
1.301562499999999
 30
0.0
 40
0.5
  1
S-2000 Insert -Inch
100
AcDbAttributeDefinition
  3

  2
NN
 70
     8
280
     0
  0
ATTDEF
  5
135
330
130
100
AcDbEntity
  8
AM_6
100
AcDbText
 10
9.52755
 20
0.8015624999999993
 30
0.0
 40
0.5
  1
S-2000 Bearings
100
AcDbAttributeDefinition
  3

  2
NT
 70
     8
280
     0
  0
ATTDEF
  5
136
330
130
100
AcDbEntity
  8
AM_6
100
AcDbText
 10
9.52755
 20
0.3015624999999993
 30
0.0
 40
0.5
  1
070015i
100
AcDbAttributeDefinition
  3

  2
NB
 70
     8
280
     0
  0
ATTDEF
  5
137
330
130
100
AcDbEntity
  8
AM_6
100
AcDbText
 10
9.52755
 20
-0.1984375000000007
 30
0.0
 40
0.5
  1
$PN.i
100
AcDbAttributeDefinition
  3

  2
NBSYN
 70
     8
280
     0
  0
ATTDEF
  5
138
330
130
100
AcDbEntity
  8
AM_6
100
AcDbText
 10
9.52755
 20
-0.6984375000000007
 30
0.0
 40
0.5
  1
070015i
100
AcDbAttributeDefinition
  3

  2
LINA
 70
     8
280
     0
  0
ATTDEF
  5
139
330
130
100
AcDbEntity
  8
AM_6
100
AcDbText
 10
9.52755
 20
-1.198437500000001
 30
0.0
 40
0.5
  1
4-15/16
100
AcDbAttributeDefinition
  3

  2
SS
 70
     8
280
     0
  0
ATTDEF
  5
13A
330
130
100
AcDbEntity
  8
AM_6
100
AcDbText
 10
9.52755
 20
-1.698437500000001
 30
0.0
 40
0.5
  1
5.79
100
AcDbAttributeDefinition
  3

  2
CC
 70
     8
280
     0
  0
ATTDEF
  5
13B
330
130
100
AcDbEntity
  8
AM_6
100
AcDbText
 10
9.52755
 20
-2.198437500000001
 30
0.0
 40
0.5
  1
4.937500
100
AcDbAttributeDefinition
  3

  2
SS1
 70
     8
280
     0
  0
ATTDEF
  5
13C
330
130
100
AcDbEntity
  8
AM_6
100
AcDbText
 10
9.52755
 20
-2.698437500000001
 30
0.0
 40
0.5
  1
070015
100
AcDbAttributeDefinition
  3

  2
PN
 70
     8
280
     0
  0
ATTDEF
  5
13D
330
130
100
AcDbEntity
  8
AM_6
100
AcDbText
 10
9.52755
 20
-3.198437500000001
 30
0.0
 40
0.5
  1
INS-S2-415R
100
AcDbAttributeDefinition
  3

  2
DESCRIPTION
 70
     8
280
     0
  0
ATTDEF
  5
13E
330
130
100
AcDbEntity
  8
AM_6
100
AcDbText
 10
9.52755
 20
-3.698437500000001
 30
0.0
 40
0.5
  1
Contact Seal
100
AcDbAttributeDefinition
  3

  2
ST
 70
     8
280
     0
  0
ATTDEF
  5
13F
330
130
100
AcDbEntity
  8
AM_6
100
AcDbText
 10
9.52755
 20
-4.198437500000001
 30
0.0
 40
0.5
  1
1
100
AcDbAttributeDefinition
  3

  2
ST1
 70
     8
280
     0
  0
ATTDEF
  5
140
330
130
100
AcDbEntity
  8
AM_6
100
AcDbText
 10
9.52755
 20
-4.698437500000001
 30
0.0
 40
0.5
  1
9.0551
100
AcDbAttributeDefinition
  3

  2
A
 70
     8
280
     0
  0
ATTDEF
  5
141
330
130
100
AcDbEntity
  8
AM_6
100
AcDbText
 10
9.52755
 20
-5.198437500000001
 30
0.0
 40
0.5
  1
2-19/32
100
AcDbAttributeDefinition
  3

  2
B
 70
     8
280
     0
  0
ATTDEF
  5
142
330
130
100
AcDbEntity
  8
AM_6
100
AcDbText
 10
9.52755
 20
-5.698437500000001
 30
0.0
 40
0.5
  1
6-29/32
100
AcDbAttributeDefinition
  3

  2
C
 70
     8
280
     0
  0
ATTDEF
  5
143
330
130
100
AcDbEntity
  8
AM_6
100
AcDbText
 10
9.52755
 20
-6.198437500000001
 30
0.0
 40
0.5
  1
3.453
100
AcDbAttributeDefinition
  3

  2
D
 70
     8
280
     0
  0
ATTDEF
  5
144
330
130
100
AcDbEntity
  8
AM_6
100
AcDbText
 10
9.52755
 20
-6.698437500000001
 30
0.0
 40
0.5
  1
7-29/64
100
AcDbAttributeDefinition
  3

  2
E
 70
     8
280
     0
  0
ATTDEF
  5
145
330
130
100
AcDbEntity
  8
AM_6
100
AcDbText
 10
9.52755
 20
-7.198437500000001
 30
0.0
 40
0.5
  1
0.37500
100
AcDbAttributeDefinition
  3

  2
F
 70
     8
280
     0
  0
ATTDEF
  5
146
330
130
100
AcDbEntity
  8
AM_6
100
AcDbText
 10
9.52755
 20
-7.698437500000001
 30
0.0
 40
0.5
  1
2
100
AcDbAttributeDefinition
  3

  2
DD
 70
     8
280
     0
  0
ATTDEF
  5
147
330
130
100
AcDbEntity
  8
AM_6
100
AcDbText
 10
9.52755
 20
-8.1984375
 30
0.0
 40
0.5
  1
baldor
100
AcDbAttributeDefinition
  3

  2
COMPANY
 70
     8
280
     0
  0
LINE
  5
148
330
130
100
AcDbEntity
  8
AM_9
100
AcDbLine
 10
2.623761043471101
 20
0.7262499999999994
 30
0.0
 11
2.237261836623177
 21
0.7262499999999994
 31
0.0
  0
LINE
  5
149
330
130
100
AcDbEntity
  8
AM_9
100
AcDbLine
 10
2.237408204685967
 20
-0.0537500000000005
 30
0.0
 11
2.623761043471101
 21
-0.0537500000000005
 31
0.0
  0
LWPOLYLINE
  5
14A
330
130
100
AcDbEntity
  8
AM_9
100
AcDbPolyline
 90
       21
 70
     0
 43
0.0
 10
2.237461022173707
 20
0.7262499986580255
 10
2.219010109456271
 20
0.7238911207332352
 10
2.190330170947723
 20
0.7113773337600209
 10
2.161620196495911
 20
0.688563502497613
 10
2.133803777688764
 20
0.6558176601468763
 10
2.108081875316906
 20
0.6142623538269686
 10
2.085336185545525
 20
0.5643471667918772
 10
2.066840126302143
 20
0.5079606921928165
 10
2.053545623358726
 20
0.4465314413360644
 10
2.046052443495137
 20
0.3819169266710694
 10
2.044838504972962
 20
0.316667288409041
 10
2.049744975650141
 20
0.2519748674829209
 10
2.06054545850514
 20
0.1900500546240648
 10
2.07661883823625
 20
0.1321936143912088
 10
2.097466301250439
 20
0.0796399828594876
 10
2.121958893568518
 20
0.0342381868040031
 10
2.149340890025644
 20
-0.002962893918309
 10
2.178242396318432
 20
-0.0305649673687213
 10
2.207426110825466
 20
-0.0475657731247069
 10
2.235991225560353
 20
-0.0537348254107715
 10
2.237438629592408
 20
-0.0537499994542431
  0
LWPOLYLINE
  5
14B
330
130
100
AcDbEntity
  8
AM_9
100
AcDbPolyline
 90
        8
 70
     0
 43
0.0
 10
2.313288776894759
 20
-0.0008029050484723
 10
2.327817767386685
 20
0.0277722004018643
 10
2.343522510737377
 20
0.0720904770604432
 10
2.355949740608433
 20
0.1238201134073301
 10
2.365141351377428
 20
0.1819908804689017
 10
2.371118663453134
 20
0.2446049091851017
 10
2.3734094681613
 20
0.2900968830403828
 10
2.374173208762784
 20
0.3362499999999994
  0
LWPOLYLINE
  5
14C
330
130
100
AcDbEntity
  8
AM_9
100
AcDbPolyline
 90
        5
 70
     0
 43
0.0
 10
2.237438629592408
 20
-0.0537499994542431
 10
2.262715568831356
 20
-0.0488378537990048
 10
2.287260216070265
 20
-0.0333047989823608
 10
2.309041904953527
 20
-0.0074792014276282
 10
2.313288776894759
 20
-0.0008029050484723
  0
LWPOLYLINE
  5
14D
330
130
100
AcDbEntity
  8
AM_9
100
AcDbPolyline
 90
       18
 70
     0
 43
0.0
 10
2.53513388811486
 20
-0.0011917761906095
 10
2.520972397957761
 20
0.0173991215901264
 10
2.495914525709425
 20
0.059244893094769
 10
2.4739474460874
 20
0.1093133268274209
 10
2.456180485033097
 20
0.1658104104950515
 10
2.443490418200297
 20
0.227269607628577
 10
2.436405380231501
 20
0.2918554661904479
 10
2.435357163122406
 20
0.3572213525842476
 10
2.440216442804879
 20
0.4219921784923104
 10
2.450792273363028
 20
0.4840591258939644
 10
2.466504162800167
 20
0.5419987860047455
 10
2.486850185378366
 20
0.5944468116893418
 10
2.510798895859659
 20
0.6396755574476328
 10
2.537581591889305
 20
0.6765390089470139
 10
2.565960378235312
 20
0.7037822427372442
 10
2.5947911808993
 20
0.7204332605167575
 10
2.623184121099995
 20
0.7262476132544028
 10
2.623757200372463
 20
0.726249999893984
  0
LWPOLYLINE
  5
14E
330
130
100
AcDbEntity
  8
AM_9
100
AcDbPolyline
 90
        5
 70
     0
 43
0.0
 10
2.623775405193401
 20
-0.0537499985194173
 10
2.60509774503094
 20
-0.0513207680876049
 10
2.576580989164248
 20
-0.0386449380622537
 10
2.548232289346537
 20
-0.0156024249341388
 10
2.53513388811486
 20
-0.0011917761906095
  0
LWPOLYLINE
  5
14F
330
130
100
AcDbEntity
  8
AM_9
100
AcDbPolyline
 90
       10
 70
     0
 43
0.0
 10
2.623757200372463
 20
0.726249999893984
 10
2.650023421609558
 20
0.7209787419945257
 10
2.674868800737516
 20
0.7050274164038227
 10
2.697119149478867
 20
0.6787300171033622
 10
2.716463215197794
 20
0.6429694179083981
 10
2.732735478414558
 20
0.5982495921753872
 10
2.745704704151188
 20
0.5461657824572307
 10
2.755323804179766
 20
0.4878214958931398
 10
2.76157489168428
 20
0.4251361878497584
 10
2.764664966527977
 20
0.3362499999999994
  0
LINE
  5
150
330
130
100
AcDbEntity
  8
AM_9
100
AcDbLine
 10
2.623761043471102
 20
-4.94
 30
0.0
 11
2.237261836623177
 21
-4.94
 31
0.0
  0
LINE
  5
151
330
130
100
AcDbEntity
  8
AM_9
100
AcDbLine
 10
2.237408204685967
 20
-5.72
 30
0.0
 11
2.623761043471102
 21
-5.72
 31
0.0
  0
LWPOLYLINE
  5
152
330
130
100
AcDbEntity
  8
AM_9
100
AcDbPolyline
 90
       21
 70
     0
 43
0.0
 10
2.237461022173707
 20
-4.940000001341975
 10
2.219010109456271
 20
-4.942358879266765
 10
2.190330170947722
 20
-4.954872666239979
 10
2.161620196495911
 20
-4.977686497502387
 10
2.133803777688764
 20
-5.010432339853123
 10
2.108081875316906
 20
-5.051987646173032
 10
2.085336185545525
 20
-5.101902833208122
 10
2.066840126302143
 20
-5.158289307807184
 10
2.053545623358726
 20
-5.219718558663937
 10
2.046052443495137
 20
-5.284333073328931
 10
2.044838504972962
 20
-5.349582711590959
 10
2.049744975650141
 20
-5.414275132517078
 10
2.06054545850514
 20
-5.476199945375934
 10
2.07661883823625
 20
-5.534056385608791
 10
2.097466301250439
 20
-5.586610017140512
 10
2.121958893568518
 20
-5.632011813195996
 10
2.149340890025644
 20
-5.669212893918308
 10
2.178242396318432
 20
-5.69681496736872
 10
2.207426110825466
 20
-5.713815773124707
 10
2.235991225560353
 20
-5.719984825410772
 10
2.237438629592408
 20
-5.719999999454243
  0
LWPOLYLINE
  5
153
330
130
100
AcDbEntity
  8
AM_9
100
AcDbPolyline
 90
       11
 70
     0
 43
0.0
 10
2.237438629592408
 20
-5.719999999454243
 10
2.262715568831356
 20
-5.715087853799004
 10
2.287260216070265
 20
-5.69955479898236
 10
2.309041904953527
 20
-5.673729201427628
 10
2.327817767386685
 20
-5.638477799598136
 10
2.343522510737377
 20
-5.594159522939557
 10
2.355949740608433
 20
-5.54242988659267
 10
2.365141351377427
 20
-5.484259119531098
 10
2.371118663453133
 20
-5.421645090814898
 10
2.3734094681613
 20
-5.376153116959618
 10
2.374173208762784
 20
-5.33
  0
LWPOLYLINE
  5
154
330
130
100
AcDbEntity
  8
AM_9
100
AcDbPolyline
 90
       21
 70
     0
 43
0.0
 10
2.623775405193401
 20
-5.719999998519416
 10
2.60509774503094
 20
-5.717570768087604
 10
2.576580989164249
 20
-5.704894938062253
 10
2.548232289346538
 20
-5.681852424934139
 10
2.520972397957761
 20
-5.648850878409873
 10
2.495914525709426
 20
-5.60700510690523
 10
2.4739474460874
 20
-5.556936673172578
 10
2.456180485033097
 20
-5.500439589504948
 10
2.443490418200297
 20
-5.438980392371423
 10
2.436405380231502
 20
-5.374394533809552
 10
2.435357163122407
 20
-5.309028647415752
 10
2.44021644280488
 20
-5.24425782150769
 10
2.450792273363029
 20
-5.182190874106035
 10
2.466504162800168
 20
-5.124251213995255
 10
2.486850185378366
 20
-5.071803188310658
 10
2.51079889585966
 20
-5.026574442552367
 10
2.537581591889305
 20
-4.989710991052986
 10
2.565960378235313
 20
-4.962467757262755
 10
2.5947911808993
 20
-4.945816739483242
 10
2.623184121099996
 20
-4.940002386745597
 10
2.623757200372463
 20
-4.940000000106016
  0
LWPOLYLINE
  5
155
330
130
100
AcDbEntity
  8
AM_9
100
AcDbPolyline
 90
       10
 70
     0
 43
0.0
 10
2.623757200372463
 20
-4.940000000106016
 10
2.650023421609558
 20
-4.945271258005475
 10
2.674868800737516
 20
-4.961222583596177
 10
2.697119149478867
 20
-4.987519982896638
 10
2.716463215197795
 20
-5.023280582091602
 10
2.732735478414559
 20
-5.068000407824613
 10
2.745704704151188
 20
-5.120084217542769
 10
2.755323804179767
 20
-5.17842850410686
 10
2.76157489168428
 20
-5.241113812150242
 10
2.764664966527977
 20
-5.33
  0
LWPOLYLINE
  5
156
330
130
100
AcDbEntity
  8
AM_9
100
AcDbPolyline
 90
       11
 70
     0
 43
0.0
 10
2.374173208762784
 20
-5.33
 10
2.372646491193847
 20
-5.264989928267862
 10
2.368069168460447
 20
-5.201823475256622
 10
2.36036471284656
 20
-5.142347621854706
 10
2.349491170122636
 20
-5.088111064205806
 10
2.335232143611682
 20
-5.040326384519708
 10
2.317704184740606
 20
-5.000659737724868
 10
2.296839618815718
 20
-4.970205089252476
 10
2.273040636470713
 20
-4.949954223847113
 10
2.246929238864252
 20
-4.940701115461355
 10
2.237461022173707
 20
-4.940000001341975
  0
LWPOLYLINE
  5
157
330
130
100
AcDbEntity
  8
AM_9
100
AcDbPolyline
 90
       11
 70
     0
 43
0.0
 10
2.374173208762784
 20
0.3362499999999994
 10
2.372646491193847
 20
0.4012600717321376
 10
2.368069168460447
 20
0.4644265247433779
 10
2.36036471284656
 20
0.5239023781452937
 10
2.349491170122636
 20
0.5781389357941935
 10
2.335232143611682
 20
0.6259236154802914
 10
2.317704184740606
 20
0.6655902622751305
 10
2.296839618815718
 20
0.696044910747524
 10
2.273040636470713
 20
0.7162957761528861
 10
2.246929238864252
 20
0.7255488845386444
 10
2.237461022173707
 20
0.7262499986580255
  0
LINE
  5
158
330
130
100
AcDbEntity
  8
AM_9
100
AcDbLine
 10
-2.46875
 20
0.9562499999999994
 30
0.0
 11
-2.46875
 21
-5.949999999999999
 31
0.0
  0
LINE
  5
159
330
130
100
AcDbEntity
  8
AM_9
100
AcDbLine
 10
2.46875
 20
-5.949999999999999
 30
0.0
 11
2.46875
 21
0.9562499999999994
 31
0.0
  0
LWPOLYLINE
  5
15A
330
130
100
AcDbEntity
  8
AM_9
100
AcDbPolyline
 90
        5
 70
     0
 43
0.0
 10
2.700636721730156
 20
-0.0008196523098398
 10
2.683548742751697
 20
-0.0237879017288082
 10
2.65935194354479
 20
-0.0439176095172915
 10
2.633012779055317
 20
-0.0530832671197666
 10
2.623775405193401
 20
-0.0537499985194173
  0
LWPOLYLINE
  5
15B
330
130
100
AcDbEntity
  8
AM_9
100
AcDbPolyline
 90
        8
 70
     0
 43
0.0
 10
2.764664966527977
 20
0.3362499999999994
 10
2.763012332545418
 20
0.2711144763290291
 10
2.758076299331459
 20
0.2078230282343319
 10
2.749810842859682
 20
0.1482220016422145
 10
2.738236368167089
 20
0.0938844005875512
 10
2.723235760941776
 20
0.0461382482050229
 10
2.704991508351798
 20
0.0065355254939372
 10
2.700636721730156
 20
-0.0008196523098398
  0
LWPOLYLINE
  5
15C
330
130
100
AcDbEntity
  8
AM_9
100
AcDbPolyline
 90
       26
 70
     0
 43
0.0
 10
-0.1956130113328764
 20
-0.001145242701026
 10
-0.2237788428290292
 20
0.0168395594973437
 10
-0.2745326405883678
 20
0.059244893094769
 10
-0.3166091068937903
 20
0.1085250048152008
 10
-0.3507853279847731
 20
0.1658104104950515
 10
-0.3741910572396291
 20
0.2263361579149881
 10
-0.3874649988938778
 20
0.2918554661904484
 10
-0.3894853295256792
 20
0.3562794304530383
 10
-0.3804579856270503
 20
0.4219921784923104
 10
-0.361247262374393
 20
0.4832207978715712
 10
-0.3313116917006903
 20
0.5419987860047455
 10
-0.2928814994941
 20
0.593777527177363
 10
-0.2450161853584225
 20
0.6396755574476328
 10
-0.1913029286469702
 20
0.6761076017850592
 10
-0.1304609157891014
 20
0.7037822427372442
 10
-0.067821861240095
 20
0.7203075414412908
 10
-0.0013644251055687
 20
0.7262476132544028
 10
0.0627473254614617
 20
0.7211691774222645
 10
0.1268984521202728
 20
0.7050274164038227
 10
0.185699356036287
 20
0.679201525973727
 10
0.2408800503942429
 20
0.6429694179083981
 10
0.2882370431378783
 20
0.5989654486571593
 10
0.3286873351307716
 20
0.5461657824572312
 10
0.3589612765283613
 20
0.4887190196503179
 10
0.3797357576124972
 20
0.4251361878497578
 10
0.39
 20
0.3362499999999994
  0
LWPOLYLINE
  5
15D
330
130
100
AcDbEntity
  8
AM_9
100
AcDbPolyline
 90
        8
 70
     0
 43
0.0
 10
0.1962155419064531
 20
-0.0007951915016118
 10
0.1507044283083376
 20
-0.0234556786989295
 10
0.0870206221186026
 20
-0.0439176095172912
 10
0.0230487011177644
 20
-0.0530683239673985
 10
-0.0434614740199229
 20
-0.0513207680876046
 10
-0.1064672516406794
 20
-0.0389362528506083
 10
-0.1682256552014788
 20
-0.0156024249341388
 10
-0.1956130113328764
 20
-0.001145242701026
  0
LWPOLYLINE
  5
15E
330
130
100
AcDbEntity
  8
AM_9
100
AcDbPolyline
 90
        8
 70
     0
 43
0.0
 10
0.39
 20
0.3362499999999994
 10
0.3846773040234829
 20
0.272036514117166
 10
0.3682478960199235
 20
0.2078230282343319
 10
0.3421151293358583
 20
0.1490142174168916
 10
0.3055469132906511
 20
0.0938844005875512
 10
0.2613061111453319
 20
0.0467346873167092
 10
0.2082987405175341
 20
0.0065355254939372
 10
0.1962155419064531
 20
-0.0007951915016118
  0
LINE
  5
15F
330
130
100
AcDbEntity
  8
AM_9
100
AcDbLine
 10
-2.895
 20
0.9562499999999994
 30
0.0
 11
-2.895
 21
-0.6587500000000007
 31
0.0
  0
LINE
  5
160
330
130
100
AcDbEntity
  8
AM_9
100
AcDbLine
 10
2.895
 20
-0.6587500000000007
 30
0.0
 11
2.895
 21
0.9562499999999994
 31
0.0
  0
LWPOLYLINE
  5
161
330
130
100
AcDbEntity
  8
AM_9
100
AcDbPolyline
 90
       11
 70
     0
 43
0.0
 10
2.764664966527977
 20
-5.33
 10
2.763012332545418
 20
-5.395135523670972
 10
2.758076299331459
 20
-5.458426971765667
 10
2.749810842859682
 20
-5.518027998357785
 10
2.73823636816709
 20
-5.572365599412448
 10
2.723235760941777
 20
-5.620111751794976
 10
2.704991508351798
 20
-5.659714474506063
 10
2.683548742751698
 20
-5.690037901728808
 10
2.65935194354479
 20
-5.710167609517291
 10
2.633012779055318
 20
-5.719333267119766
 10
2.623775405193401
 20
-5.719999998519416
  0
LWPOLYLINE
  5
162
330
130
100
AcDbEntity
  8
AM_9
100
AcDbPolyline
 90
        9
 70
     0
 43
0.0
 10
0.0767763829604334
 20
-4.947631869764866
 10
0.126898452120273
 20
-4.961222583596177
 10
0.1856993560362871
 20
-4.987048474026273
 10
0.2408800503942429
 20
-5.023280582091602
 10
0.2882370431378783
 20
-5.06728455134284
 10
0.3286873351307716
 20
-5.120084217542769
 10
0.3589612765283613
 20
-5.177530980349682
 10
0.3797357576124974
 20
-5.241113812150243
 10
0.39
 20
-5.33
  0
LWPOLYLINE
  5
163
330
130
100
AcDbEntity
  8
AM_9
100
AcDbPolyline
 90
        5
 70
     0
 43
0.0
 10
-0.0760964232455614
 20
-4.947495968166044
 10
-0.0678218612400943
 20
-4.945942458558709
 10
-0.0013644251055684
 20
-4.940002386745597
 10
0.0627473254614621
 20
-4.945080822577735
 10
0.0767763829604334
 20
-4.947631869764866
  0
LWPOLYLINE
  5
164
330
130
100
AcDbEntity
  8
AM_9
100
AcDbPolyline
 90
       28
 70
     0
 43
0.0
 10
0.39
 20
-5.33
 10
0.3846773040234826
 20
-5.394213485882834
 10
0.3682478960199236
 20
-5.458426971765667
 10
0.3421151293358584
 20
-5.517235782583108
 10
0.3055469132906511
 20
-5.572365599412448
 10
0.2613061111453316
 20
-5.619515312683291
 10
0.2082987405175345
 20
-5.659714474506063
 10
0.1507044283083376
 20
-5.689705678698929
 10
0.0870206221186027
 20
-5.710167609517291
 10
0.0230487011177647
 20
-5.719318323967398
 10
-0.0434614740199229
 20
-5.717570768087604
 10
-0.1064672516406793
 20
-5.705186252850608
 10
-0.1682256552014788
 20
-5.681852424934139
 10
-0.2237788428290296
 20
-5.649410440502655
 10
-0.2745326405883681
 20
-5.60700510690523
 10
-0.3166091068937903
 20
-5.557724995184798
 10
-0.3507853279847731
 20
-5.500439589504948
 10
-0.3741910572396291
 20
-5.439913842085012
 10
-0.3874649988938779
 20
-5.374394533809551
 10
-0.3894853295256792
 20
-5.309970569546961
 10
-0.3804579856270501
 20
-5.24425782150769
 10
-0.3612472623743934
 20
-5.183029202128428
 10
-0.3313116917006903
 20
-5.124251213995255
 10
-0.2928814994940993
 20
-5.072472472822636
 10
-0.2450161853584219
 20
-5.026574442552367
 10
-0.1913029286469699
 20
-4.99014239821494
 10
-0.1304609157891015
 20
-4.962467757262755
 10
-0.0760964232455614
 20
-4.947495968166044
  0
LINE
  5
165
330
130
100
AcDbEntity
  8
AM_9
100
AcDbLine
 10
-2.895
 20
-4.335000000000001
 30
0.0
 11
-2.895
 21
-5.949999999999999
 31
0.0
  0
LINE
  5
166
330
130
100
AcDbEntity
  8
AM_9
100
AcDbLine
 10
2.895
 20
-5.949999999999999
 30
0.0
 11
2.895
 21
-4.335000000000001
 31
0.0
  0
LINE
  5
167
330
130
100
AcDbEntity
  8
AM_9
100
AcDbLine
 10
-3.62204
 20
-3.793750000000001
 30
0.0
 11
-3.62204
 21
-4.075625
 31
0.0
  0
LINE
  5
168
330
130
100
AcDbEntity
  8
AM_9
100
AcDbLine
 10
3.62204
 20
-4.075625
 30
0.0
 11
3.62204
 21
-3.793750000000001
 31
0.0
  0
LINE
  5
169
330
130
100
AcDbEntity
  8
AM_9
100
AcDbLine
 10
-3.62204
 20
-0.9181250000000007
 30
0.0
 11
-3.62204
 21
-1.2
 31
0.0
  0
LINE
  5
16A
330
130
100
AcDbEntity
  8
AM_9
100
AcDbLine
 10
3.62204
 20
-1.2
 30
0.0
 11
3.62204
 21
-0.9181250000000007
 31
0.0
  0
LINE
  5
16B
330
130
100
AcDbEntity
  8
AM_9
100
AcDbLine
 10
3.362664999999999
 20
-4.335000000000001
 30
0.0
 11
-3.362664999999999
 21
-4.335000000000001
 31
0.0
  0
ARC
  5
16C
330
130
100
AcDbEntity
  8
AM_9
100
AcDbCircle
 10
-3.362664999999998
 20
-4.075625
 30
0.0
 40
0.2593750000000012
100
AcDbArc
 50
180.0
 51
270.0
  0
ARC
  5
16D
330
130
100
AcDbEntity
  8
AM_9
100
AcDbCircle
 10
3.362664999999997
 20
-4.075624999999999
 30
0.0
 40
0.2593750000000021
100
AcDbArc
 50
270.0
 51
0.0
  0
LINE
  5
16E
330
130
100
AcDbEntity
  8
AM_9
100
AcDbLine
 10
3.622039999999999
 20
-4.075625
 30
0.0
 11
-3.622039999999999
 21
-4.075625
 31
0.0
  0
LINE
  5
16F
330
130
100
AcDbEntity
  8
AM_9
100
AcDbLine
 10
3.362664999999999
 20
-0.6587500000000007
 30
0.0
 11
-3.362664999999999
 21
-0.6587500000000007
 31
0.0
  0
ARC
  5
170
330
130
100
AcDbEntity
  8
AM_9
100
AcDbCircle
 10
-3.362665000000001
 20
-0.9181249999999985
 30
0.0
 40
0.259374999999998
100
AcDbArc
 50
90.0
 51
180.0
  0
ARC
  5
171
330
130
100
AcDbEntity
  8
AM_9
100
AcDbCircle
 10
3.362665000000001
 20
-0.918124999999998
 30
0.0
 40
0.2593749999999977
100
AcDbArc
 50
0.0
 51
90.0
  0
LINE
  5
172
330
130
100
AcDbEntity
  8
AM_9
100
AcDbLine
 10
3.622039999999999
 20
-0.9181250000000007
 30
0.0
 11
-3.622039999999999
 21
-0.9181250000000007
 31
0.0
  0
LINE
  5
173
330
130
100
AcDbEntity
  8
AM_9
100
AcDbLine
 10
-4.346448
 20
-2.367187500000002
 30
0.0
 11
-4.346448
 21
-2.626562499999999
 31
0.0
  0
LINE
  5
174
330
130
100
AcDbEntity
  8
AM_9
100
AcDbLine
 10
4.346448
 20
-2.626562499999999
 30
0.0
 11
4.346448
 21
-2.367187500000002
 31
0.0
  0
LINE
  5
175
330
130
100
AcDbEntity
  8
AM_9
100
AcDbLine
 10
-4.52755
 20
-1.459375
 30
0.0
 11
-4.52755
 21
-2.262628211549222
 31
0.0
  0
LINE
  5
176
330
130
100
AcDbEntity
  8
AM_9
100
AcDbLine
 10
4.52755
 20
-2.262628211549222
 30
0.0
 11
4.52755
 21
-1.459375
 31
0.0
  0
LINE
  5
177
330
130
100
AcDbEntity
  8
AM_9
100
AcDbLine
 10
-4.52755
 20
-2.731121788450779
 30
0.0
 11
-4.52755
 21
-3.534375
 31
0.0
  0
LINE
  5
178
330
130
100
AcDbEntity
  8
AM_9
100
AcDbLine
 10
4.52755
 20
-3.534375
 30
0.0
 11
4.52755
 21
-2.731121788450779
 31
0.0
  0
LINE
  5
179
330
130
100
AcDbEntity
  8
AM_9
100
AcDbLine
 10
-4.346448
 20
-2.626562499999999
 30
0.0
 11
-4.52755
 21
-2.731121788450779
 31
0.0
  0
LINE
  5
17A
330
130
100
AcDbEntity
  8
AM_9
100
AcDbLine
 10
4.527549999999999
 20
-2.731121788450779
 30
0.0
 11
4.346447999999999
 21
-2.626562499999999
 31
0.0
  0
LINE
  5
17B
330
130
100
AcDbEntity
  8
AM_9
100
AcDbLine
 10
4.346447999999999
 20
-2.626562499999999
 30
0.0
 11
-4.346448
 21
-2.626562499999999
 31
0.0
  0
LINE
  5
17C
330
130
100
AcDbEntity
  8
AM_9
100
AcDbLine
 10
4.527549999999999
 20
-2.731121788450779
 30
0.0
 11
-4.52755
 21
-2.731121788450779
 31
0.0
  0
LINE
  5
17D
330
130
100
AcDbEntity
  8
AM_9
100
AcDbLine
 10
4.268174999999999
 20
-1.2
 30
0.0
 11
-4.268174999999999
 21
-1.2
 31
0.0
  0
ARC
  5
17E
330
130
100
AcDbEntity
  8
AM_9
100
AcDbCircle
 10
-4.268174999999997
 20
-1.459375000000002
 30
0.0
 40
0.2593750000000024
100
AcDbArc
 50
90.0
 51
180.0
  0
ARC
  5
17F
330
130
100
AcDbEntity
  8
AM_9
100
AcDbCircle
 10
4.268174999999999
 20
-1.459375
 30
0.0
 40
0.2593750000000004
100
AcDbArc
 50
0.0
 51
90.0
  0
LINE
  5
180
330
130
100
AcDbEntity
  8
AM_9
100
AcDbLine
 10
4.52755
 20
-1.459375
 30
0.0
 11
-4.52755
 21
-1.459375
 31
0.0
  0
LINE
  5
181
330
130
100
AcDbEntity
  8
AM_9
100
AcDbLine
 10
4.268174999999999
 20
-3.793750000000001
 30
0.0
 11
-4.268174999999999
 21
-3.793750000000001
 31
0.0
  0
ARC
  5
182
330
130
100
AcDbEntity
  8
AM_9
100
AcDbCircle
 10
-4.268174999999998
 20
-3.534374999999999
 30
0.0
 40
0.2593750000000021
100
AcDbArc
 50
180.0
 51
270.0
  0
ARC
  5
183
330
130
100
AcDbEntity
  8
AM_9
100
AcDbCircle
 10
4.268174999999998
 20
-3.534374999999999
 30
0.0
 40
0.2593750000000017
100
AcDbArc
 50
270.0
 51
0.0
  0
LINE
  5
184
330
130
100
AcDbEntity
  8
AM_9
100
AcDbLine
 10
4.52755
 20
-3.534375
 30
0.0
 11
-4.52755
 21
-3.534375
 31
0.0
  0
LINE
  5
185
330
130
100
AcDbEntity
  8
AM_9
100
AcDbLine
 10
4.346448
 20
-2.367187500000002
 30
0.0
 11
4.52755
 21
-2.262628211549222
 31
0.0
  0
LINE
  5
186
330
130
100
AcDbEntity
  8
AM_9
100
AcDbLine
 10
-4.527549999999999
 20
-2.262628211549222
 30
0.0
 11
-4.346448
 21
-2.367187500000002
 31
0.0
  0
LINE
  5
187
330
130
100
AcDbEntity
  8
AM_9
100
AcDbLine
 10
4.52755
 20
-2.262628211549222
 30
0.0
 11
-4.527549999999999
 21
-2.262628211549222
 31
0.0
  0
LINE
  5
188
330
130
100
AcDbEntity
  8
AM_9
100
AcDbLine
 10
4.346448
 20
-2.367187500000002
 30
0.0
 11
-4.346448
 21
-2.367187500000002
 31
0.0
  0
LINE
  5
189
330
130
100
AcDbEntity
  8
AM_7
100
AcDbLine
 10
0.0
 20
1.301562499999999
 30
0.0
 11
0.0
 21
-6.2953125
 31
0.0
  0
ENDBLK
  5
133
330
130
100
AcDbEntity
  8
0
100
AcDbBlockEnd
  0
BLOCK
  5
18C
330
18A
100
AcDbEntity
  8
0
100
AcDbBlockBegin
  2
5_405015E_Inch_0_in_071522_4
 70
     2
 10
0.0
 20
0.0
 30
0.0
  3
5_405015E_Inch_0_in_071522_4
  1

  0
ATTDEF
  5
18E
330
18A
100
AcDbEntity
  8
AM_6
100
AcDbText
 10
5.252590742770462
 20
-4.279794165411447
 30
0.0
 40
0.5
  1
405015E -Inch
100
AcDbAttributeDefinition
  3

  2
NN
 70
     8
280
     0
  0
ATTDEF
  5
18F
330
18A
100
AcDbEntity
  8
AM_6
100
AcDbText
 10
5.252590742770462
 20
-4.779794165411447
 30
0.0
 40
0.5
  1
Grease Fitting
100
AcDbAttributeDefinition
  3

  2
NT
 70
     8
280
     0
  0
ATTDEF
  5
190
330
18A
100
AcDbEntity
  8
AM_6
100
AcDbText
 10
5.252590742770462
 20
-5.279794165411447
 30
0.0
 40
0.5
  1
405015E-Inch
100
AcDbAttributeDefinition
  3

  2
NB
 70
     8
280
     0
  0
ATTDEF
  5
191
330
18A
100
AcDbEntity
  8
AM_6
100
AcDbText
 10
5.252590742770462
 20
-5.779794165411447
 30
0.0
 40
0.5
  1
$MN.-Inch
100
AcDbAttributeDefinition
  3

  2
NBSYN
 70
     8
280
     0
  0
ATTDEF
  5
192
330
18A
100
AcDbEntity
  8
AM_6
100
AcDbText
 10
5.252590742770462
 20
-6.279794165411447
 30
0.0
 40
0.5
  1
405015E
100
AcDbAttributeDefinition
  3

  2
LINA
 70
     8
280
     0
  0
ATTDEF
  5
193
330
18A
100
AcDbEntity
  8
AM_6
100
AcDbText
 10
5.252590742770462
 20
-6.779794165411447
 30
0.0
 40
0.5
  1
405015E
100
AcDbAttributeDefinition
  3

  2
MN
 70
     8
280
     0
  0
ATTDEF
  5
194
330
18A
100
AcDbEntity
  8
AM_6
100
AcDbText
 10
5.252590742770462
 20
-7.279794165411447
 30
0.0
 40
0.5
  1
1/8 x 27PTF
100
AcDbAttributeDefinition
  3

  2
T
 70
     8
280
     0
  0
ATTDEF
  5
195
330
18A
100
AcDbEntity
  8
AM_6
100
AcDbText
 10
5.252590742770462
 20
-7.779794165411447
 30
0.0
 40
0.5
  1
baldor
100
AcDbAttributeDefinition
  3

  2
COMPANY
 70
     8
280
     0
  0
LINE
  5
196
330
18A
100
AcDbEntity
  8
AM_9
100
AcDbLine
 10
0.1262953713852306
 20
-4.778367102340284
 30
0.0
 11
0.1262953713852306
 21
-4.707470105339072
 31
0.0
  0
LINE
  5
197
330
18A
100
AcDbEntity
  8
AM_9
100
AcDbLine
 10
-0.1262953713852306
 20
-4.778367102340284
 30
0.0
 11
-0.1262953713852306
 21
-4.707470105339072
 31
0.0
  0
LWPOLYLINE
  5
198
330
18A
100
AcDbEntity
  8
AM_9
100
AcDbPolyline
 90
        5
 70
     0
 43
0.0
 10
0.1262953713852306
 20
-4.707470105339072
 10
0.0949251544150459
 20
-4.704190654062188
 10
0.0634316146914367
 20
-4.701708373594898
 10
0.0317600370486143
 20
-4.700149559793773
 10
0.0
 20
-4.699617333650457
  0
LWPOLYLINE
  5
199
330
18A
100
AcDbEntity
  8
AM_9
100
AcDbPolyline
 90
        4
 70
     0
 43
0.0
 10
0.0
 20
-4.699617333650457
 10
-0.0483998160558989
 20
-4.700844977242904
 10
-0.0967996321117978
 20
-4.704365242164934
 10
-0.1262953713852306
 20
-4.707470105339072
  0
LWPOLYLINE
  5
19A
330
18A
100
AcDbEntity
  8
AM_9
100
AcDbPolyline
 90
        4
 70
     0
 43
0.0
 10
-0.1262953713852306
 20
-4.707470105339072
 10
-0.157743197384355
 20
-4.674471696588644
 10
-0.1735630385535388
 20
-4.65921455924839
 10
-0.1894430570778459
 20
-4.644929833650456
  0
LWPOLYLINE
  5
19B
330
18A
100
AcDbEntity
  8
AM_9
100
AcDbPolyline
 90
        4
 70
     0
 43
0.0
 10
0.1894430570778459
 20
-4.644929833650456
 10
0.1736561356546921
 20
-4.659127744608534
 10
0.1578692142315383
 20
-4.674346312211226
 10
0.1262953713852306
 20
-4.707470105339072
  0
LINE
  5
19C
330
18A
100
AcDbEntity
  8
AM_9
100
AcDbLine
 10
0.1020166476327042
 20
-4.780971133765147
 30
0.0
 11
0.1050109799761659
 21
-4.780673933404994
 31
0.0
  0
LWPOLYLINE
  5
19D
330
18A
100
AcDbEntity
  8
AM_9
100
AcDbPolyline
 90
        5
 70
     0
 43
0.0
 10
0.0
 20
-4.7862198740289
 10
0.0315738428463077
 20
-4.785693838070823
 10
0.0631476856926153
 20
-4.78414714546813
 10
0.0947562840569831
 20
-4.781662141248632
 10
0.1020166476327042
 20
-4.780971133765147
  0
LWPOLYLINE
  5
19E
330
18A
100
AcDbEntity
  8
AM_9
100
AcDbPolyline
 90
        4
 70
     0
 43
0.0
 10
-0.102015954900784
 20
-4.780971201706902
 10
-0.0967996321117978
 20
-4.781471965514421
 10
-0.0485424412477544
 20
-4.784985070548966
 10
0.0
 20
-4.7862198740289
  0
LINE
  5
19F
330
18A
100
AcDbEntity
  8
AM_9
100
AcDbLine
 10
-0.1050087569988762
 20
-4.780674156643629
 30
0.0
 11
-0.102015954900784
 21
-4.780971201706902
 31
0.0
  0
LWPOLYLINE
  5
1A0
330
18A
100
AcDbEntity
  8
AM_9
100
AcDbPolyline
 90
        4
 70
     0
 43
0.0
 10
-0.1894430570778459
 20
-4.644929833650456
 10
-0.2052299785009998
 20
-4.631783994608534
 10
-0.2210359031098993
 20
-4.619644801713068
 10
-0.2525907427704612
 20
-4.598095105339072
  0
LWPOLYLINE
  5
1A1
330
18A
100
AcDbEntity
  8
AM_9
100
AcDbPolyline
 90
        4
 70
     0
 43
0.0
 10
0.2525907427704612
 20
-4.598095105339072
 10
0.229031912716827
 20
-4.613867716990761
 10
0.205323075602153
 20
-4.631709560339155
 10
0.1894430570778459
 20
-4.644929833650456
  0
LINE
  5
1A2
330
18A
100
AcDbEntity
  8
AM_9
100
AcDbLine
 10
-0.1321931418159853
 20
-4.31400826814536
 30
0.0
 11
-0.1621706131788416
 21
-4.335205541428862
 31
0.0
  0
LINE
  5
1A3
330
18A
100
AcDbEntity
  8
AM_9
100
AcDbLine
 10
0.1621706131788416
 20
-4.335205541428862
 30
0.0
 11
0.1321931418159853
 21
-4.31400826814536
 31
0.0
  0
LINE
  5
1A4
330
18A
100
AcDbEntity
  8
AM_9
100
AcDbLine
 10
-0.1985852938306408
 20
-4.390749672964011
 30
0.0
 11
-0.2057184028850727
 21
-4.588386132872826
 31
0.0
  0
LINE
  5
1A5
330
18A
100
AcDbEntity
  8
AM_9
100
AcDbLine
 10
0.2057184028850727
 20
-4.588386132872826
 30
0.0
 11
0.1985852938306408
 21
-4.390749672964011
 31
0.0
  0
LINE
  5
1A6
330
18A
100
AcDbEntity
  8
AM_9
100
AcDbLine
 10
0.10178102724221
 20
-4.780677707814743
 30
0.0
 11
0.105
 21
-4.774375313175216
 31
0.0
  0
LINE
  5
1A7
330
18A
100
AcDbEntity
  8
AM_9
100
AcDbLine
 10
-0.105
 20
-4.774375313175216
 30
0.0
 11
-0.10178102724221
 21
-4.780677707814743
 31
0.0
  0
ELLIPSE
  5
1A8
330
18A
100
AcDbEntity
  8
AM_9
100
AcDbEllipse
 10
0.0
 20
-4.767777541426266
 30
0.0
 11
-0.1050000000000002
 21
1.285879139104723E-17
 31
0.0
210
0.0
220
0.0
230
1.0
 40
0.4999999999999928
 41
0.0
 42
3.141592653589793
  0
LINE
  5
1A9
330
18A
100
AcDbEntity
  8
AM_9
100
AcDbLine
 10
-0.105
 20
-4.786015770238726
 30
0.0
 11
-0.105
 21
-4.793758303539799
 31
0.0
  0
LINE
  5
1AA
330
18A
100
AcDbEntity
  8
AM_9
100
AcDbLine
 10
0.105
 20
-4.793758303539799
 30
0.0
 11
0.105
 21
-4.786015770238726
 31
0.0
  0
ELLIPSE
  5
1AB
330
18A
100
AcDbEntity
  8
AM_9
100
AcDbEllipse
 10
0.0
 20
-4.793758303539799
 30
0.0
 11
-0.1050000000000003
 21
1.285879139104725E-17
 31
0.0
210
0.0
220
0.0
230
1.0
 40
0.5000000000000006
 41
5.990342535451018
 42
9.717620732497949
  0
LINE
  5
1AC
330
18A
100
AcDbEntity
  8
AM_9
100
AcDbLine
 10
0.0976523208201058
 20
-4.773697041287648
 30
0.0
 11
0.1098343496897823
 21
-4.764910188160798
 31
0.0
  0
LINE
  5
1AD
330
18A
100
AcDbEntity
  8
AM_9
100
AcDbLine
 10
-0.1098343496897823
 20
-4.764910188160798
 30
0.0
 11
-0.0976523208201058
 21
-4.773697041287648
 31
0.0
  0
ELLIPSE
  5
1AE
330
18A
100
AcDbEntity
  8
AM_9
100
AcDbEllipse
 10
0.0000000000000035
 20
-4.739850925555195
 30
0.0
 11
-0.1188200907348935
 21
1.770557339659517E-9
 31
0.0
210
0.0
220
0.0
230
1.0
 40
0.5000000000000421
 41
0.2500329215327408
 42
2.891559788924736
  0
ELLIPSE
  5
1AF
330
18A
100
AcDbEntity
  8
AM_9
100
AcDbEllipse
 10
0.0
 20
-4.692708899316871
 30
0.0
 11
-0.172534053283015
 21
2.112932760969632E-17
 31
0.0
210
0.0
220
0.0
230
1.0
 40
0.5000000000000028
 41
0.6061451401950819
 42
2.535447513394711
  0
ELLIPSE
  5
1B0
330
18A
100
AcDbEntity
  8
AM_9
100
AcDbEllipse
 10
0.0000000000000066
 20
-4.676844874028887
 30
0.0
 11
-0.2187500000000253
 21
3.259629037943701E-9
 31
0.0
210
0.0
220
0.0
230
1.0
 40
0.500000000000003
 41
1.065244650944152
 42
2.076348028031371
  0
ELLIPSE
  5
1B1
330
18A
100
AcDbEntity
  8
AM_9
100
AcDbEllipse
 10
0.0000000000042062
 20
-4.676844874010992
 30
0.0
 11
-0.2137500000083528
 21
2.617682533279760E-17
 31
0.0
210
0.0
220
0.0
230
1.0
 40
0.5000000000580332
 41
1.042972124184351
 42
2.098620529371443
  0
ELLIPSE
  5
1B2
330
18A
100
AcDbEntity
  8
AM_9
100
AcDbEllipse
 10
0.0
 20
-4.845719827766866
 30
0.0
 11
-0.1350000000000002
 21
1.653273178848929E-17
 31
0.0
210
0.0
220
0.0
230
1.0
 40
0.499999999999992
 41
0.2354336045415568
 42
2.906159049048237
  0
ELLIPSE
  5
1B3
330
18A
100
AcDbEntity
  8
AM_9
100
AcDbEllipse
 10
0.0000000000000082
 20
-4.360745601647578
 30
0.0
 11
-0.1619028724722607
 21
1.982738345459162E-17
 31
0.0
210
0.0
220
0.0
230
1.0
 40
0.5000000000000012
 41
0.0
 42
6.283185307179586
  0
ELLIPSE
  5
1B4
330
18A
100
AcDbEntity
  8
AM_9
100
AcDbEllipse
 10
0.0000000000000007
 20
-4.590242333650457
 30
0.0
 11
-0.2187500000000004
 21
2.678914873134841E-17
 31
0.0
210
0.0
220
0.0
230
1.0
 40
0.5000000000000031
 41
0.0
 42
6.283185307179586
  0
ELLIPSE
  5
1B5
330
18A
100
AcDbEntity
  8
AM_9
100
AcDbEllipse
 10
-0.0000000000003008
 20
-4.590242333653019
 30
0.0
 11
-0.2057518972233704
 21
2.519734023530958E-17
 31
0.0
210
0.0
220
0.0
230
1.0
 40
0.5000000000001643
 41
0.0
 42
6.283185307179586
  0
ELLIPSE
  5
1B6
330
18A
100
AcDbEntity
  8
AM_9
100
AcDbEllipse
 10
-0.0000000000010385
 20
-4.392541511565965
 30
0.0
 11
-0.1986176267822539
 21
2.432364408931308E-17
 31
0.0
210
0.0
220
0.0
230
1.0
 40
0.4999999999998062
 41
0.0
 42
6.283185307179586
  0
LWPOLYLINE
  5
1B7
330
18A
100
AcDbEntity
  8
AM_4
100
AcDbPolyline
 90
        4
 70
     0
 43
0.0
 10
0.1262953713852306
 20
-4.778367102340284
 10
0.157743197384355
 20
-4.756896278672643
 10
0.1735630385535388
 20
-4.7447526473402
 10
0.1894430570778459
 20
-4.7315323740289
  0
LINE
  5
1B8
330
18A
100
AcDbEntity
  8
AM_4
100
AcDbLine
 10
0.1050109799761659
 20
-4.780673933404994
 30
0.0
 11
0.1262953713852306
 21
-4.778367102340284
 31
0.0
  0
LWPOLYLINE
  5
1B9
330
18A
100
AcDbEntity
  8
AM_4
100
AcDbPolyline
 90
        4
 70
     0
 43
0.0
 10
-0.1894430570778459
 20
-4.7315323740289
 10
-0.1736561356546922
 20
-4.744678213070823
 10
-0.1578502110457927
 20
-4.756817405966288
 10
-0.1262953713852306
 20
-4.778367102340284
  0
LINE
  5
1BA
330
18A
100
AcDbEntity
  8
AM_4
100
AcDbLine
 10
-0.1262953713852306
 20
-4.778367102340284
 30
0.0
 11
-0.1050087569988762
 21
-4.780674156643629
 31
0.0
  0
LWPOLYLINE
  5
1BB
330
18A
100
AcDbEntity
  8
AM_4
100
AcDbPolyline
 90
        4
 70
     0
 43
0.0
 10
0.1894430570778459
 20
-4.7315323740289
 10
0.2052299785009997
 20
-4.717334463070823
 10
0.2210359031098992
 20
-4.702096991483071
 10
0.2525907427704612
 20
-4.668992102340284
  0
LWPOLYLINE
  5
1BC
330
18A
100
AcDbEntity
  8
AM_4
100
AcDbPolyline
 90
        4
 70
     0
 43
0.0
 10
-0.2525907427704612
 20
-4.668992102340284
 10
-0.2211429167713369
 20
-4.701990511090711
 10
-0.2053230756021531
 20
-4.717247648430966
 10
-0.1894430570778459
 20
-4.7315323740289
  0
LINE
  5
1BD
330
18A
100
AcDbEntity
  8
AM_4
100
AcDbLine
 10
0.105
 20
-4.774375313175216
 30
0.0
 11
0.1151252948555658
 21
-4.754551099420401
 31
0.0
  0
LINE
  5
1BE
330
18A
100
AcDbEntity
  8
AM_4
100
AcDbLine
 10
-0.1151252948555658
 20
-4.754551099420401
 30
0.0
 11
-0.105
 21
-4.774375313175216
 31
0.0
  0
ELLIPSE
  5
1BF
330
18A
100
AcDbEntity
  8
AM_4
100
AcDbEllipse
 10
0.000000000000015
 20
-4.739850925555172
 30
0.0
 11
-0.1188200907348826
 21
1.455126437928720E-17
 31
0.0
210
0.0
220
0.0
230
1.0
 40
0.5000000000000134
 41
2.891559760490472
 42
6.533218200278849
  0
ELLIPSE
  5
1C0
330
18A
100
AcDbEntity
  8
AM_4
100
AcDbEllipse
 10
0.0
 20
-4.767777541426266
 30
0.0
 11
-0.1050000000000003
 21
1.564621938212800E-9
 31
0.0
210
0.0
220
0.0
230
1.0
 40
0.5000000000000007
 41
3.141592679399361
 42
6.283185332989154
  0
LINE
  5
1C1
330
18A
100
AcDbEntity
  8
AM_4
100
AcDbLine
 10
-0.105
 20
-4.767777541426266
 30
0.0
 11
-0.105
 21
-4.786015770238726
 31
0.0
  0
LINE
  5
1C2
330
18A
100
AcDbEntity
  8
AM_4
100
AcDbLine
 10
0.105
 20
-4.786015770238726
 30
0.0
 11
0.105
 21
-4.767777541426266
 31
0.0
  0
LINE
  5
1C3
330
18A
100
AcDbEntity
  8
AM_4
100
AcDbLine
 10
0.1098343496897823
 20
-4.764910188160798
 30
0.0
 11
0.1417971541629018
 21
-4.741855533518942
 31
0.0
  0
LINE
  5
1C4
330
18A
100
AcDbEntity
  8
AM_4
100
AcDbLine
 10
-0.1417971541629018
 20
-4.741855533518942
 30
0.0
 11
-0.1098343496897823
 21
-4.764910188160798
 31
0.0
  0
ELLIPSE
  5
1C5
330
18A
100
AcDbEntity
  8
AM_4
100
AcDbEllipse
 10
-0.000000000000004
 20
-4.692708899316864
 30
0.0
 11
-0.1725340532830195
 21
2.112932760969687E-17
 31
0.0
210
0.0
220
0.0
230
1.0
 40
0.5000000000000154
 41
2.535447513394669
 42
6.889330447374732
  0
LWPOLYLINE
  5
1C6
330
18A
100
AcDbEntity
  8
AM_4
100
AcDbPolyline
 90
        4
 70
     0
 43
0.0
 10
0.0
 20
-4.5674698740289
 10
-0.0483998160558989
 20
-4.566242230436452
 10
-0.0967996321117978
 20
-4.562721965514421
 10
-0.1262953713852306
 20
-4.559617102340284
  0
LWPOLYLINE
  5
1C7
330
18A
100
AcDbEntity
  8
AM_4
100
AcDbPolyline
 90
        5
 70
     0
 43
0.0
 10
0.1262953713852306
 20
-4.559617102340284
 10
0.0949251544150459
 20
-4.562896553617168
 10
0.0634316146914367
 20
-4.565378834084457
 10
0.0317600370486143
 20
-4.566937647885583
 10
0.0
 20
-4.5674698740289
  0
LWPOLYLINE
  5
1C8
330
18A
100
AcDbEntity
  8
AM_4
100
AcDbPolyline
 90
        5
 70
     0
 43
0.0
 10
0.0
 20
-4.480867333650456
 10
0.0315738428463077
 20
-4.481393369608534
 10
0.0631476856926153
 20
-4.482940062211226
 10
0.0947562840569831
 20
-4.485425066430723
 10
0.1262953713852306
 20
-4.488720105339072
  0
LWPOLYLINE
  5
1C9
330
18A
100
AcDbEntity
  8
AM_4
100
AcDbPolyline
 90
        4
 70
     0
 43
0.0
 10
-0.1262953713852306
 20
-4.488720105339072
 10
-0.0967996321117978
 20
-4.485615242164934
 10
-0.0485424412477544
 20
-4.48210213713039
 10
0.0
 20
-4.480867333650456
  0
LINE
  5
1CA
330
18A
100
AcDbEntity
  8
AM_4
100
AcDbLine
 10
0.1262953713852306
 20
-4.559617102340284
 30
0.0
 11
0.1262953713852306
 21
-4.488720105339072
 31
0.0
  0
LWPOLYLINE
  5
1CB
330
18A
100
AcDbEntity
  8
AM_4
100
AcDbPolyline
 90
        4
 70
     0
 43
0.0
 10
0.1894430570778459
 20
-4.6221573740289
 10
0.1736561356546922
 20
-4.607959463070822
 10
0.1578502110457927
 20
-4.59272199148307
 10
0.1262953713852306
 20
-4.559617102340284
  0
LWPOLYLINE
  5
1CC
330
18A
100
AcDbEntity
  8
AM_4
100
AcDbPolyline
 90
        4
 70
     0
 43
0.0
 10
0.2525907427704612
 20
-4.668992102340284
 10
0.2211429167713369
 20
-4.647521278672643
 10
0.2053230756021531
 20
-4.635377647340201
 10
0.1894430570778459
 20
-4.6221573740289
  0
LINE
  5
1CD
330
18A
100
AcDbEntity
  8
AM_4
100
AcDbLine
 10
0.2525907427704612
 20
-4.668992102340284
 30
0.0
 11
0.2525907427704612
 21
-4.598095105339072
 31
0.0
  0
LWPOLYLINE
  5
1CE
330
18A
100
AcDbEntity
  8
AM_4
100
AcDbPolyline
 90
        4
 70
     0
 43
0.0
 10
0.1894430570778459
 20
-4.535554833650457
 10
0.2052299785009998
 20
-4.549752744608534
 10
0.2210359031098993
 20
-4.564990216196286
 10
0.2525907427704612
 20
-4.598095105339072
  0
LWPOLYLINE
  5
1CF
330
18A
100
AcDbEntity
  8
AM_4
100
AcDbPolyline
 90
        4
 70
     0
 43
0.0
 10
0.1262953713852306
 20
-4.488720105339072
 10
0.157743197384355
 20
-4.510190929006713
 10
0.1735630385535388
 20
-4.522334560339155
 10
0.1894430570778459
 20
-4.535554833650457
  0
ELLIPSE
  5
1D0
330
18A
100
AcDbEntity
  8
AM_4
100
AcDbEllipse
 10
0.000000000000002
 20
-4.676844874028902
 30
0.0
 11
-0.2187500000000024
 21
2.678914873134864E-17
 31
0.0
210
0.0
220
0.0
230
1.0
 40
0.4999999999999864
 41
2.076348015338549
 42
7.348429945430816
  0
LINE
  5
1D1
330
18A
100
AcDbEntity
  8
AM_4
100
AcDbLine
 10
-0.2525907427704612
 20
-4.668992102340284
 30
0.0
 11
-0.2525907427704612
 21
-4.598095105339072
 31
0.0
  0
LWPOLYLINE
  5
1D2
330
18A
100
AcDbEntity
  8
AM_4
100
AcDbPolyline
 90
        4
 70
     0
 43
0.0
 10
-0.1894430570778459
 20
-4.6221573740289
 10
-0.2052299785009998
 20
-4.635303213070822
 10
-0.2210359031098993
 20
-4.647442405966287
 10
-0.2525907427704612
 20
-4.668992102340284
  0
LWPOLYLINE
  5
1D3
330
18A
100
AcDbEntity
  8
AM_4
100
AcDbPolyline
 90
        4
 70
     0
 43
0.0
 10
-0.1262953713852306
 20
-4.559617102340284
 10
-0.157743197384355
 20
-4.592615511090712
 10
-0.1735630385535388
 20
-4.607872648430965
 10
-0.1894430570778459
 20
-4.6221573740289
  0
LINE
  5
1D4
330
18A
100
AcDbEntity
  8
AM_4
100
AcDbLine
 10
-0.1262953713852306
 20
-4.559617102340284
 30
0.0
 11
-0.1262953713852306
 21
-4.488720105339072
 31
0.0
  0
LWPOLYLINE
  5
1D5
330
18A
100
AcDbEntity
  8
AM_4
100
AcDbPolyline
 90
        4
 70
     0
 43
0.0
 10
-0.1894430570778459
 20
-4.535554833650457
 10
-0.1736561356546921
 20
-4.522408994608534
 10
-0.1578692142315383
 20
-4.510283812211226
 10
-0.1262953713852306
 20
-4.488720105339072
  0
LWPOLYLINE
  5
1D6
330
18A
100
AcDbEntity
  8
AM_4
100
AcDbPolyline
 90
        4
 70
     0
 43
0.0
 10
-0.2525907427704612
 20
-4.598095105339072
 10
-0.229031912716827
 20
-4.573062626370985
 10
-0.205323075602153
 20
-4.54983955924839
 10
-0.1894430570778459
 20
-4.535554833650457
  0
ELLIPSE
  5
1D7
330
18A
100
AcDbEntity
  8
AM_4
100
AcDbEllipse
 10
0.0000000000000006
 20
-4.676844874028897
 30
0.0
 11
-0.2137499999999993
 21
2.617682533177459E-17
 31
0.0
210
0.0
220
0.0
230
1.0
 40
0.500000000000004
 41
2.098620529422317
 42
7.326157431347054
  0
LINE
  5
1D8
330
18A
100
AcDbEntity
  8
AM_4
100
AcDbLine
 10
-0.1005298463144155
 20
-4.778602858973572
 30
0.0
 11
-0.1292526595471057
 21
-4.826234256181715
 31
0.0
  0
LINE
  5
1D9
330
18A
100
AcDbEntity
  8
AM_4
100
AcDbLine
 10
0.1292526595471057
 20
-4.826234256181715
 30
0.0
 11
0.1005298463144155
 21
-4.778602858973572
 31
0.0
  0
ELLIPSE
  5
1DA
330
18A
100
AcDbEntity
  8
AM_4
100
AcDbEllipse
 10
0.0
 20
-4.7937583035398
 30
0.0
 11
-0.105
 21
1.285879139104721E-17
 31
0.0
210
0.0
220
0.0
230
1.0
 40
0.5000000000000105
 41
3.434435425318375
 42
5.990342535451005
  0
LINE
  5
1DB
330
18A
100
AcDbEntity
  8
AM_4
100
AcDbLine
 10
0.0998453562378797
 20
-4.926977422510818
 30
0.0
 11
0.1312757938985219
 21
-4.861465191658443
 31
0.0
  0
LINE
  5
1DC
330
18A
100
AcDbEntity
  8
AM_4
100
AcDbLine
 10
-0.1312757938985219
 20
-4.861465191658443
 30
0.0
 11
-0.0998453562378797
 21
-4.926977422510818
 31
0.0
  0
ELLIPSE
  5
1DD
330
18A
100
AcDbEntity
  8
AM_4
100
AcDbEllipse
 10
0.0000000000000067
 20
-4.845719827766866
 30
0.0
 11
-0.1349999999999933
 21
1.653273178848844E-17
 31
0.0
210
0.0
220
0.0
230
1.0
 40
0.4999999999999781
 41
2.906159049048231
 42
6.518618911721122
  0
ELLIPSE
  5
1DE
330
18A
100
AcDbEntity
  8
AM_4
100
AcDbEllipse
 10
-0.0000000000000002
 20
-4.91500186006962
 30
0.0
 11
-0.1026779019331875
 21
1.257441639456439E-17
 31
0.0
210
0.0
220
0.0
230
1.0
 40
0.499999999999992
 41
0.0
 42
6.283185307179586
  0
ENDBLK
  5
18D
330
18A
100
AcDbEntity
  8
0
100
AcDbBlockEnd
  0
BLOCK
  5
1E1
330
1DF
100
AcDbEntity
  8
0
100
AcDbBlockBegin
  2
6_B071522_0_in_071522_4
 70
     2
 10
0.0
 20
0.0
 30
0.0
  3
6_B071522_0_in_071522_4
  1

  0
ATTDEF
  5
1E3
330
1DF
100
AcDbEntity
  8
AM_6
100
AcDbText
 10
12.375
 20
0.0
 30
0.0
 40
0.5
  1
EFC-S2 -(Contact Seal)-Housing
100
AcDbAttributeDefinition
  3

  2
NN
 70
     8
280
     0
  0
ATTDEF
  5
1E4
330
1DF
100
AcDbEntity
  8
AM_6
100
AcDbText
 10
12.375
 20
-0.5
 30
0.0
 40
0.5
  1
S-2000 Piloted Flange Bearing -Inch
100
AcDbAttributeDefinition
  3

  2
NT
 70
     8
280
     0
  0
ATTDEF
  5
1E5
330
1DF
100
AcDbEntity
  8
AM_6
100
AcDbText
 10
12.375
 20
-1.0
 30
0.0
 40
0.5
  1
B071522
100
AcDbAttributeDefinition
  3

  2
NB
 70
     8
280
     0
  0
ATTDEF
  5
1E6
330
1DF
100
AcDbEntity
  8
AM_6
100
AcDbText
 10
12.375
 20
-1.5
 30
0.0
 40
0.5
  1
$PN.
100
AcDbAttributeDefinition
  3

  2
NBSYN
 70
     8
280
     0
  0
ATTDEF
  5
1E7
330
1DF
100
AcDbEntity
  8
AM_6
100
AcDbText
 10
12.375
 20
-2.0
 30
0.0
 40
0.5
  1
B071522
100
AcDbAttributeDefinition
  3

  2
LINA
 70
     8
280
     0
  0
ATTDEF
  5
1E8
330
1DF
100
AcDbEntity
  8
AM_6
100
AcDbText
 10
12.375
 20
-2.5
 30
0.0
 40
0.5
  1
4-15/16
100
AcDbAttributeDefinition
  3

  2
SS
 70
     8
280
     0
  0
ATTDEF
  5
1E9
330
1DF
100
AcDbEntity
  8
AM_6
100
AcDbText
 10
12.375
 20
-3.0
 30
0.0
 40
0.5
  1
4.937500
100
AcDbAttributeDefinition
  3

  2
SS1
 70
     8
280
     0
  0
ATTDEF
  5
1EA
330
1DF
100
AcDbEntity
  8
AM_6
100
AcDbText
 10
12.375
 20
-3.5
 30
0.0
 40
0.5
  1
071522
100
AcDbAttributeDefinition
  3

  2
PN1
 70
     8
280
     0
  0
ATTDEF
  5
1EB
330
1DF
100
AcDbEntity
  8
AM_6
100
AcDbText
 10
12.375
 20
-4.0
 30
0.0
 40
0.5
  1
071524
100
AcDbAttributeDefinition
  3

  2
PN2
 70
     8
280
     0
  0
ATTDEF
  5
1EC
330
1DF
100
AcDbEntity
  8
AM_6
100
AcDbText
 10
12.375
 20
-4.5
 30
0.0
 40
0.5
  1
EFC-S2-415R
100
AcDbAttributeDefinition
  3

  2
DESC1
 70
     8
280
     0
  0
ATTDEF
  5
1ED
330
1DF
100
AcDbEntity
  8
AM_6
100
AcDbText
 10
12.375
 20
-5.0
 30
0.0
 40
0.5
  1
Non-Expansion Type
100
AcDbAttributeDefinition
  3

  2
EF
 70
     8
280
     0
  0
ATTDEF
  5
1EE
330
1DF
100
AcDbEntity
  8
AM_6
100
AcDbText
 10
12.375
 20
-5.5
 30
0.0
 40
0.5
  1
1
100
AcDbAttributeDefinition
  3

  2
EF1
 70
     8
280
     0
  0
ATTDEF
  5
1EF
330
1DF
100
AcDbEntity
  8
AM_6
100
AcDbText
 10
12.375
 20
-6.0
 30
0.0
 40
0.5
  1
6.91
100
AcDbAttributeDefinition
  3

  2
A
 70
     8
280
     0
  0
ATTDEF
  5
1F0
330
1DF
100
AcDbEntity
  8
AM_6
100
AcDbText
 10
12.375
 20
-6.5
 30
0.0
 40
0.5
  1
6.9100000
100
AcDbAttributeDefinition
  3

  2
A1
 70
     8
280
     0
  0
ATTDEF
  5
1F1
330
1DF
100
AcDbEntity
  8
AM_6
100
AcDbText
 10
12.375
 20
-7.0
 30
0.0
 40
0.5
  1
14.75
100
AcDbAttributeDefinition
  3

  2
B
 70
     8
280
     0
  0
ATTDEF
  5
1F2
330
1DF
100
AcDbEntity
  8
AM_6
100
AcDbText
 10
12.375
 20
-7.5
 30
0.0
 40
0.5
  1
14.7500000
100
AcDbAttributeDefinition
  3

  2
B1
 70
     8
280
     0
  0
ATTDEF
  5
1F3
330
1DF
100
AcDbEntity
  8
AM_6
100
AcDbText
 10
12.375
 20
-8.0
 30
0.0
 40
0.5
  1
4.88
100
AcDbAttributeDefinition
  3

  2
C
 70
     8
280
     0
  0
ATTDEF
  5
1F4
330
1DF
100
AcDbEntity
  8
AM_6
100
AcDbText
 10
12.375
 20
-8.5
 30
0.0
 40
0.5
  1
4.8800000
100
AcDbAttributeDefinition
  3

  2
C1
 70
     8
280
     0
  0
ATTDEF
  5
1F5
330
1DF
100
AcDbEntity
  8
AM_6
100
AcDbText
 10
12.375
 20
-9.0
 30
0.0
 40
0.5
  1
6.38
100
AcDbAttributeDefinition
  3

  2
D
 70
     8
280
     0
  0
ATTDEF
  5
1F6
330
1DF
100
AcDbEntity
  8
AM_6
100
AcDbText
 10
12.375
 20
-9.5
 30
0.0
 40
0.5
  1
6.3800000
100
AcDbAttributeDefinition
  3

  2
D1
 70
     8
280
     0
  0
ATTDEF
  5
1F7
330
1DF
100
AcDbEntity
  8
AM_6
100
AcDbText
 10
12.375
 20
-10.0
 30
0.0
 40
0.5
  1
12.75
100
AcDbAttributeDefinition
  3

  2
DD
 70
     8
280
     0
  0
ATTDEF
  5
1F8
330
1DF
100
AcDbEntity
  8
AM_6
100
AcDbText
 10
12.375
 20
-10.5
 30
0.0
 40
0.5
  1
12.7500000
100
AcDbAttributeDefinition
  3

  2
DD1
 70
     8
280
     0
  0
ATTDEF
  5
1F9
330
1DF
100
AcDbEntity
  8
AM_6
100
AcDbText
 10
12.375
 20
-11.0
 30
0.0
 40
0.5
  1
1.7
100
AcDbAttributeDefinition
  3

  2
E
 70
     8
280
     0
  0
ATTDEF
  5
1FA
330
1DF
100
AcDbEntity
  8
AM_6
100
AcDbText
 10
12.375
 20
-11.5
 30
0.0
 40
0.5
  1
1.7000000
100
AcDbAttributeDefinition
  3

  2
E1
 70
     8
280
     0
  0
ATTDEF
  5
1FB
330
1DF
100
AcDbEntity
  8
AM_6
100
AcDbText
 10
12.375
 20
-12.0
 30
0.0
 40
0.5
  1
7/8
100
AcDbAttributeDefinition
  3

  2
F
 70
     8
280
     0
  0
ATTDEF
  5
1FC
330
1DF
100
AcDbEntity
  8
AM_6
100
AcDbText
 10
12.375
 20
-12.5
 30
0.0
 40
0.5
  1
0.8750000
100
AcDbAttributeDefinition
  3

  2
F1
 70
     8
280
     0
  0
ATTDEF
  5
1FD
330
1DF
100
AcDbEntity
  8
AM_6
100
AcDbText
 10
12.375
 20
-13.0
 30
0.0
 40
0.5
  1
2.97
100
AcDbAttributeDefinition
  3

  2
G
 70
     8
280
     0
  0
ATTDEF
  5
1FE
330
1DF
100
AcDbEntity
  8
AM_6
100
AcDbText
 10
12.375
 20
-13.5
 30
0.0
 40
0.5
  1
2.9700000
100
AcDbAttributeDefinition
  3

  2
G1
 70
     8
280
     0
  0
ATTDEF
  5
1FF
330
1DF
100
AcDbEntity
  8
AM_6
100
AcDbText
 10
12.375
 20
-14.0
 30
0.0
 40
0.5
  1
1.25
100
AcDbAttributeDefinition
  3

  2
H
 70
     8
280
     0
  0
ATTDEF
  5
200
330
1DF
100
AcDbEntity
  8
AM_6
100
AcDbText
 10
12.375
 20
-14.5
 30
0.0
 40
0.5
  1
1.2500000
100
AcDbAttributeDefinition
  3

  2
H1
 70
     8
280
     0
  0
ATTDEF
  5
201
330
1DF
100
AcDbEntity
  8
AM_6
100
AcDbText
 10
12.375
 20
-15.0
 30
0.0
 40
0.5
  1
11.000
100
AcDbAttributeDefinition
  3

  2
K
 70
     8
280
     0
  0
ATTDEF
  5
202
330
1DF
100
AcDbEntity
  8
AM_6
100
AcDbText
 10
12.375
 20
-15.5
 30
0.0
 40
0.5
  1
7.45
100
AcDbAttributeDefinition
  3

  2
L
 70
     8
280
     0
  0
ATTDEF
  5
203
330
1DF
100
AcDbEntity
  8
AM_6
100
AcDbText
 10
12.375
 20
-16.0
 30
0.0
 40
0.5
  1
7.4500000
100
AcDbAttributeDefinition
  3

  2
L1
 70
     8
280
     0
  0
ATTDEF
  5
204
330
1DF
100
AcDbEntity
  8
AM_6
100
AcDbText
 10
12.375
 20
-16.5
 30
0.0
 40
0.5
  1
7/8-9
100
AcDbAttributeDefinition
  3

  2
M
 70
     8
280
     0
  0
ATTDEF
  5
205
330
1DF
100
AcDbEntity
  8
AM_6
100
AcDbText
 10
12.375
 20
-17.0
 30
0.0
 40
0.5
  1
0.8750
100
AcDbAttributeDefinition
  3

  2
MNDM
 70
     8
280
     0
  0
ATTDEF
  5
206
330
1DF
100
AcDbEntity
  8
AM_6
100
AcDbText
 10
12.375
 20
-17.5
 30
0.0
 40
0.5
  1
0.7547
100
AcDbAttributeDefinition
  3

  2
MKDM
 70
     8
280
     0
  0
ATTDEF
  5
207
330
1DF
100
AcDbEntity
  8
AM_6
100
AcDbText
 10
12.375
 20
-18.0
 30
0.0
 40
0.5
  1
5.95
100
AcDbAttributeDefinition
  3

  2
N
 70
     8
280
     0
  0
ATTDEF
  5
208
330
1DF
100
AcDbEntity
  8
AM_6
100
AcDbText
 10
12.375
 20
-18.5
 30
0.0
 40
0.5
  1
5.950000
100
AcDbAttributeDefinition
  3

  2
N1
 70
     8
280
     0
  0
ATTDEF
  5
209
330
1DF
100
AcDbEntity
  8
AM_6
100
AcDbText
 10
12.375
 20
-19.0
 30
0.0
 40
0.5
  1
3.94
100
AcDbAttributeDefinition
  3

  2
P
 70
     8
280
     0
  0
ATTDEF
  5
20A
330
1DF
100
AcDbEntity
  8
AM_6
100
AcDbText
 10
12.375
 20
-19.5
 30
0.0
 40
0.5
  1
3.940000
100
AcDbAttributeDefinition
  3

  2
P1
 70
     8
280
     0
  0
ATTDEF
  5
20B
330
1DF
100
AcDbEntity
  8
AM_6
100
AcDbText
 10
12.375
 20
-20.0
 30
0.0
 40
0.5
  1
3.01
100
AcDbAttributeDefinition
  3

  2
Q
 70
     8
280
     0
  0
ATTDEF
  5
20C
330
1DF
100
AcDbEntity
  8
AM_6
100
AcDbText
 10
12.375
 20
-20.5
 30
0.0
 40
0.5
  1
3.010000
100
AcDbAttributeDefinition
  3

  2
Q1
 70
     8
280
     0
  0
ATTDEF
  5
20D
330
1DF
100
AcDbEntity
  8
AM_6
100
AcDbText
 10
12.375
 20
-21.0
 30
0.0
 40
0.5
  1
0.38
100
AcDbAttributeDefinition
  3

  2
X
 70
     8
280
     0
  0
ATTDEF
  5
20E
330
1DF
100
AcDbEntity
  8
AM_6
100
AcDbText
 10
12.375
 20
-21.5
 30
0.0
 40
0.5
  1
0.380000
100
AcDbAttributeDefinition
  3

  2
X1
 70
     8
280
     0
  0
ATTDEF
  5
20F
330
1DF
100
AcDbEntity
  8
AM_6
100
AcDbText
 10
12.375
 20
-22.0
 30
0.0
 40
0.5
  1
0.000
100
AcDbAttributeDefinition
  3

  2
Y
 70
     8
280
     0
  0
ATTDEF
  5
210
330
1DF
100
AcDbEntity
  8
AM_6
100
AcDbText
 10
12.375
 20
-22.5
 30
0.0
 40
0.5
  1
0
100
AcDbAttributeDefinition
  3

  2
Z
 70
     8
280
     0
  0
ATTDEF
  5
211
330
1DF
100
AcDbEntity
  8
AM_6
100
AcDbText
 10
12.375
 20
-23.0
 30
0.0
 40
0.5
  1
0.000000
100
AcDbAttributeDefinition
  3

  2
Z1
 70
     8
280
     0
  0
ATTDEF
  5
212
330
1DF
100
AcDbEntity
  8
AM_6
100
AcDbText
 10
12.375
 20
-23.5
 30
0.0
 40
0.5
  1
9.0551
100
AcDbAttributeDefinition
  3

  2
BORE
 70
     8
280
     0
  0
ATTDEF
  5
213
330
1DF
100
AcDbEntity
  8
AM_6
100
AcDbText
 10
12.375
 20
-24.0
 30
0.0
 40
0.5
  1
1
100
AcDbAttributeDefinition
  3

  2
ST1
 70
     8
280
     0
  0
ATTDEF
  5
214
330
1DF
100
AcDbEntity
  8
AM_6
100
AcDbText
 10
12.375
 20
-24.5
 30
0.0
 40
0.5
  1
Non-Expansion
100
AcDbAttributeDefinition
  3

  2
TYPE
 70
     8
280
     0
  0
ATTDEF
  5
215
330
1DF
100
AcDbEntity
  8
AM_6
100
AcDbText
 10
12.375
 20
-25.0
 30
0.0
 40
0.5
  1
5.50000
100
AcDbAttributeDefinition
  3

  2
HL
 70
     8
280
     0
  0
ATTDEF
  5
216
330
1DF
100
AcDbEntity
  8
AM_6
100
AcDbText
 10
12.375
 20
-25.5
 30
0.0
 40
0.5
  1
baldor
100
AcDbAttributeDefinition
  3

  2
COMPANY
 70
     8
280
     0
  0
LINE
  5
217
330
1DF
100
AcDbEntity
  8
AM_9
100
AcDbLine
 10
-5.898261949125795
 20
-3.070150000000001
 30
0.0
 11
-5.898261949125795
 21
-4.074850000000001
 31
0.0
  0
LINE
  5
218
330
1DF
100
AcDbEntity
  8
AM_9
100
AcDbLine
 10
-5.143561949125795
 20
-4.074850000000001
 30
0.0
 11
-5.143561949125795
 21
-3.070150000000001
 31
0.0
  0
LINE
  5
219
330
1DF
100
AcDbEntity
  8
AM_9
100
AcDbLine
 10
-5.143561949125795
 20
-3.070150000000001
 30
0.0
 11
-5.898261949125795
 21
-3.070150000000001
 31
0.0
  0
LINE
  5
21A
330
1DF
100
AcDbEntity
  8
AM_9
100
AcDbLine
 10
-5.143561949125795
 20
-3.070150000000001
 30
0.0
 11
-5.083411949125794
 21
-3.010000000000001
 31
0.0
  0
LINE
  5
21B
330
1DF
100
AcDbEntity
  8
AM_9
100
AcDbLine
 10
-5.958411949125796
 20
-3.010000000000001
 30
0.0
 11
-5.898261949125795
 21
-3.070150000000001
 31
0.0
  0
LINE
  5
21C
330
1DF
100
AcDbEntity
  8
AM_9
100
AcDbLine
 10
-5.143561949125795
 20
-4.074850000000001
 30
0.0
 11
-5.898261949125795
 21
-4.074850000000001
 31
0.0
  0
LINE
  5
21D
330
1DF
100
AcDbEntity
  8
AM_9
100
AcDbLine
 10
-5.898261949125795
 20
-4.074850000000001
 30
0.0
 11
-5.958411949125796
 21
-4.135000000000001
 31
0.0
  0
LINE
  5
21E
330
1DF
100
AcDbEntity
  8
AM_9
100
AcDbLine
 10
-5.083411949125794
 20
-4.135000000000001
 30
0.0
 11
-5.143561949125795
 21
-4.074850000000001
 31
0.0
  0
LINE
  5
21F
330
1DF
100
AcDbEntity
  8
AM_9
100
AcDbLine
 10
5.9375
 20
-3.01
 30
0.0
 11
5.9375
 21
-4.26
 31
0.0
  0
LINE
  5
220
330
1DF
100
AcDbEntity
  8
AM_9
100
AcDbLine
 10
6.812499999999999
 20
-4.26
 30
0.0
 11
6.812499999999999
 21
-3.01
 31
0.0
  0
LINE
  5
221
330
1DF
100
AcDbEntity
  8
AM_9
100
AcDbLine
 10
-6.812499999999999
 20
-3.01
 30
0.0
 11
-6.812499999999999
 21
-4.26
 31
0.0
  0
LINE
  5
222
330
1DF
100
AcDbEntity
  8
AM_9
100
AcDbLine
 10
-5.9375
 20
-4.26
 30
0.0
 11
-5.9375
 21
-3.01
 31
0.0
  0
LINE
  5
223
330
1DF
100
AcDbEntity
  8
AM_9
100
AcDbLine
 10
-4.904010574182454
 20
-4.88
 30
0.0
 11
-4.904010574182454
 21
-4.26
 31
0.0
  0
LINE
  5
224
330
1DF
100
AcDbEntity
  8
AM_9
100
AcDbLine
 10
-4.904010574182454
 20
-4.26
 30
0.0
 11
-5.249691977975248
 21
-4.26
 31
0.0
  0
LINE
  5
225
330
1DF
100
AcDbEntity
  8
AM_9
100
AcDbLine
 10
5.249691977975246
 20
-4.26
 30
0.0
 11
4.904010574182454
 21
-4.26
 31
0.0
  0
LINE
  5
226
330
1DF
100
AcDbEntity
  8
AM_9
100
AcDbLine
 10
4.904010574182454
 20
-4.26
 30
0.0
 11
4.904010574182454
 21
-4.88
 31
0.0
  0
LINE
  5
227
330
1DF
100
AcDbEntity
  8
AM_9
100
AcDbLine
 10
-5.260026399542798
 20
-4.88
 30
0.0
 11
-5.260026399542798
 21
-4.26
 31
0.0
  0
LINE
  5
228
330
1DF
100
AcDbEntity
  8
AM_9
100
AcDbLine
 10
5.260026415002181
 20
-4.88
 30
0.0
 11
5.260026415002181
 21
-4.26
 31
0.0
  0
LINE
  5
229
330
1DF
100
AcDbEntity
  8
AM_9
100
AcDbLine
 10
5.898261949125795
 20
-4.074850000000002
 30
0.0
 11
5.898261949125795
 21
-3.070149999999999
 31
0.0
  0
LINE
  5
22A
330
1DF
100
AcDbEntity
  8
AM_9
100
AcDbLine
 10
5.143561949125795
 20
-3.070149999999999
 30
0.0
 11
5.143561949125795
 21
-4.074850000000002
 31
0.0
  0
LINE
  5
22B
330
1DF
100
AcDbEntity
  8
AM_9
100
AcDbLine
 10
5.143561949125795
 20
-4.074850000000002
 30
0.0
 11
5.898261949125795
 21
-4.074850000000002
 31
0.0
  0
LINE
  5
22C
330
1DF
100
AcDbEntity
  8
AM_9
100
AcDbLine
 10
5.143561949125795
 20
-4.074850000000002
 30
0.0
 11
5.083411949125794
 21
-4.135000000000006
 31
0.0
  0
LINE
  5
22D
330
1DF
100
AcDbEntity
  8
AM_9
100
AcDbLine
 10
5.958411949125796
 20
-4.135000000000006
 30
0.0
 11
5.898261949125795
 21
-4.074850000000002
 31
0.0
  0
LINE
  5
22E
330
1DF
100
AcDbEntity
  8
AM_9
100
AcDbLine
 10
5.143561949125795
 20
-3.070149999999999
 30
0.0
 11
5.898261949125795
 21
-3.070149999999999
 31
0.0
  0
LINE
  5
22F
330
1DF
100
AcDbEntity
  8
AM_9
100
AcDbLine
 10
5.898261949125795
 20
-3.070149999999999
 30
0.0
 11
5.958411949125796
 21
-3.010000000000005
 31
0.0
  0
LINE
  5
230
330
1DF
100
AcDbEntity
  8
AM_9
100
AcDbLine
 10
5.083411949125794
 20
-3.010000000000005
 30
0.0
 11
5.143561949125795
 21
-3.070149999999999
 31
0.0
  0
LINE
  5
231
330
1DF
100
AcDbEntity
  8
AM_9
100
AcDbLine
 10
3.947430063321418
 20
-4.135
 30
0.0
 11
3.947430063321418
 21
-4.26
 31
0.0
  0
LINE
  5
232
330
1DF
100
AcDbEntity
  8
AM_9
100
AcDbLine
 10
4.531024938212001
 20
-4.135
 30
0.0
 11
3.918482521298654
 21
-4.135
 31
0.0
  0
LINE
  5
233
330
1DF
100
AcDbEntity
  8
AM_9
100
AcDbLine
 10
4.045427068084048
 20
-4.135
 30
0.0
 11
4.045427068084048
 21
-4.26
 31
0.0
  0
LINE
  5
234
330
1DF
100
AcDbEntity
  8
AM_9
100
AcDbLine
 10
3.918482521298654
 20
-4.135
 30
0.0
 11
3.918482521298654
 21
-4.26
 31
0.0
  0
LINE
  5
235
330
1DF
100
AcDbEntity
  8
AM_9
100
AcDbLine
 10
-3.947430063321418
 20
-4.135
 30
0.0
 11
-3.947430063321418
 21
-4.26
 31
0.0
  0
LINE
  5
236
330
1DF
100
AcDbEntity
  8
AM_9
100
AcDbLine
 10
-4.045427068084045
 20
-4.135
 30
0.0
 11
-4.045427068084045
 21
-4.26
 31
0.0
  0
LINE
  5
237
330
1DF
100
AcDbEntity
  8
AM_9
100
AcDbLine
 10
-3.918482521298654
 20
-4.26
 30
0.0
 11
-3.918482521298654
 21
-4.135
 31
0.0
  0
LINE
  5
238
330
1DF
100
AcDbEntity
  8
AM_9
100
AcDbLine
 10
-3.918482521298654
 20
-4.135
 30
0.0
 11
-4.531024938212001
 21
-4.135
 31
0.0
  0
LINE
  5
239
330
1DF
100
AcDbEntity
  8
AM_9
100
AcDbLine
 10
4.52755
 20
-4.386842105263158
 30
0.0
 11
4.52755
 21
-0.0000000000000005
 31
0.0
  0
LINE
  5
23A
330
1DF
100
AcDbEntity
  8
AM_9
100
AcDbLine
 10
-4.52755
 20
-0.0000000000000005
 30
0.0
 11
-4.52755
 21
-4.386842105263158
 31
0.0
  0
LINE
  5
23B
330
1DF
100
AcDbEntity
  8
AM_9
100
AcDbLine
 10
-4.52755
 20
-4.386842105263158
 30
0.0
 11
4.52755
 21
-4.386842105263158
 31
0.0
  0
LINE
  5
23C
330
1DF
100
AcDbEntity
  8
AM_9
100
AcDbLine
 10
-4.52755
 20
-4.386842105263158
 30
0.0
 11
-4.707044794477595
 21
-4.88
 31
0.0
  0
LINE
  5
23D
330
1DF
100
AcDbEntity
  8
AM_9
100
AcDbLine
 10
4.707044794477595
 20
-4.88
 30
0.0
 11
4.52755
 21
-4.386842105263158
 31
0.0
  0
LINE
  5
23E
330
1DF
100
AcDbEntity
  8
AM_9
100
AcDbLine
 10
2.750000000000004
 20
-3.009999999999999
 30
0.0
 11
2.750000000000004
 21
-4.26
 31
0.0
  0
LINE
  5
23F
330
1DF
100
AcDbEntity
  8
AM_9
100
AcDbLine
 10
3.625000000000004
 20
-4.26
 30
0.0
 11
3.625000000000004
 21
-3.009999999999999
 31
0.0
  0
LINE
  5
240
330
1DF
100
AcDbEntity
  8
AM_9
100
AcDbLine
 10
-3.624999999999999
 20
-3.009999999999999
 30
0.0
 11
-3.624999999999999
 21
-4.26
 31
0.0
  0
LINE
  5
241
330
1DF
100
AcDbEntity
  8
AM_9
100
AcDbLine
 10
-2.75
 20
-4.26
 30
0.0
 11
-2.75
 21
-3.009999999999999
 31
0.0
  0
LINE
  5
242
330
1DF
100
AcDbEntity
  8
AM_9
100
AcDbLine
 10
0.1223834522616761
 20
-4.879999999999999
 30
0.0
 11
-0.122383452261676
 21
-4.879999999999999
 31
0.0
  0
LINE
  5
243
330
1DF
100
AcDbEntity
  8
AM_9
100
AcDbLine
 10
0.3335999961497209
 20
-3.01
 30
0.0
 11
0.3335999961497189
 21
-4.135000000000001
 31
0.0
  0
LINE
  5
244
330
1DF
100
AcDbEntity
  8
AM_9
100
AcDbLine
 10
-0.3335999961497378
 20
-3.01
 30
0.0
 11
-0.3335999961497378
 21
-4.135000000000001
 31
0.0
  0
LINE
  5
245
330
1DF
100
AcDbEntity
  8
AM_5
100
AcDbLine
 10
-5.958411949125796
 20
-3.01
 30
0.0
 11
-5.958411949125796
 21
-4.135
 31
0.0
  0
LINE
  5
246
330
1DF
100
AcDbEntity
  8
AM_5
100
AcDbLine
 10
-5.083411949125795
 20
-3.01
 30
0.0
 11
-5.083411949125795
 21
-4.135
 31
0.0
  0
LINE
  5
247
330
1DF
100
AcDbEntity
  8
AM_5
100
AcDbLine
 10
5.958411949125796
 20
-3.01
 30
0.0
 11
5.958411949125796
 21
-4.135
 31
0.0
  0
LINE
  5
248
330
1DF
100
AcDbEntity
  8
AM_5
100
AcDbLine
 10
5.083411949125795
 20
-3.01
 30
0.0
 11
5.083411949125795
 21
-4.135
 31
0.0
  0
LINE
  5
249
330
1DF
100
AcDbEntity
  8
AM_7
100
AcDbLine
 10
6.375
 20
-4.3225
 30
0.0
 11
6.375
 21
-2.9475
 31
0.0
  0
LINE
  5
24A
330
1DF
100
AcDbEntity
  8
AM_7
100
AcDbLine
 10
3.187499999999997
 20
-4.322500000000001
 30
0.0
 11
3.187499999999997
 21
-2.9475
 31
0.0
  0
LINE
  5
24B
330
1DF
100
AcDbEntity
  8
AM_7
100
AcDbLine
 10
-3.187500000000002
 20
-4.322500000000001
 30
0.0
 11
-3.187500000000002
 21
-2.9475
 31
0.0
  0
LINE
  5
24C
330
1DF
100
AcDbEntity
  8
AM_7
100
AcDbLine
 10
-6.375
 20
-4.3225
 30
0.0
 11
-6.375
 21
-2.9475
 31
0.0
  0
LINE
  5
24D
330
1DF
100
AcDbEntity
  8
AM_7
100
AcDbLine
 10
-5.520911949125795
 20
-4.191250000000001
 30
0.0
 11
-5.520911949125795
 21
-2.953750000000001
 31
0.0
  0
LINE
  5
24E
330
1DF
100
AcDbEntity
  8
AM_7
100
AcDbLine
 10
5.520911949125795
 20
-4.191250000000006
 30
0.0
 11
5.520911949125795
 21
-2.953750000000005
 31
0.0
  0
LINE
  5
24F
330
1DF
100
AcDbEntity
  8
AM_4
100
AcDbLine
 10
-5.381783811816035
 20
-4.26
 30
0.0
 11
-5.381783811816035
 21
-4.88
 31
0.0
  0
LINE
  5
250
330
1DF
100
AcDbEntity
  8
AM_4
100
AcDbLine
 10
5.381783811816036
 20
-4.88
 30
0.0
 11
5.381783811816036
 21
-4.26
 31
0.0
  0
LINE
  5
251
330
1DF
100
AcDbEntity
  8
AM_4
100
AcDbLine
 10
5.249691977975246
 20
-4.26
 30
0.0
 11
7.374999999999999
 21
-4.26
 31
0.0
  0
LINE
  5
252
330
1DF
100
AcDbEntity
  8
AM_4
100
AcDbLine
 10
5.62449578895478
 20
-4.135
 30
0.0
 11
5.62449578895478
 21
-4.26
 31
0.0
  0
LINE
  5
253
330
1DF
100
AcDbEntity
  8
AM_4
100
AcDbLine
 10
-5.624495788954778
 20
-4.135
 30
0.0
 11
-5.624495788954778
 21
-4.26
 31
0.0
  0
LINE
  5
254
330
1DF
100
AcDbEntity
  8
AM_4
100
AcDbLine
 10
5.373009951342188
 20
-4.88
 30
0.0
 11
5.373009951342188
 21
-4.26
 31
0.0
  0
LINE
  5
255
330
1DF
100
AcDbEntity
  8
AM_4
100
AcDbLine
 10
5.249691977975246
 20
-4.135
 30
0.0
 11
5.249691977975246
 21
-4.26
 31
0.0
  0
LINE
  5
256
330
1DF
100
AcDbEntity
  8
AM_4
100
AcDbLine
 10
-5.373009954099255
 20
-4.88
 30
0.0
 11
-5.373009954099255
 21
-4.26
 31
0.0
  0
LINE
  5
257
330
1DF
100
AcDbEntity
  8
AM_4
100
AcDbLine
 10
-5.249691977975248
 20
-4.135
 30
0.0
 11
-5.249691977975248
 21
-4.26
 31
0.0
  0
LINE
  5
258
330
1DF
100
AcDbEntity
  8
AM_4
100
AcDbLine
 10
3.704136061904415
 20
-4.88
 30
0.0
 11
3.704136061904415
 21
-4.26
 31
0.0
  0
LINE
  5
259
330
1DF
100
AcDbEntity
  8
AM_4
100
AcDbLine
 10
-3.704136052365118
 20
-4.88
 30
0.0
 11
-3.704136052365118
 21
-4.26
 31
0.0
  0
LINE
  5
25A
330
1DF
100
AcDbEntity
  8
AM_4
100
AcDbLine
 10
-3.335916350354856
 20
-4.88
 30
0.0
 11
-3.335916350354856
 21
-4.26
 31
0.0
  0
LINE
  5
25B
330
1DF
100
AcDbEntity
  8
AM_4
100
AcDbLine
 10
3.335916350354857
 20
-4.88
 30
0.0
 11
3.335916350354857
 21
-4.26
 31
0.0
  0
LINE
  5
25C
330
1DF
100
AcDbEntity
  8
AM_4
100
AcDbLine
 10
5.238095238095238
 20
0.0
 30
0.0
 11
-5.238095238095238
 21
0.0
 31
0.0
  0
LINE
  5
25D
330
1DF
100
AcDbEntity
  8
AM_4
100
AcDbLine
 10
5.238095238095238
 20
-1.31
 30
0.0
 11
5.238095238095238
 21
0.0
 31
0.0
  0
LINE
  5
25E
330
1DF
100
AcDbEntity
  8
AM_4
100
AcDbLine
 10
-5.238095238095238
 20
0.0
 30
0.0
 11
-5.238095238095238
 21
-1.31
 31
0.0
  0
LINE
  5
25F
330
1DF
100
AcDbEntity
  8
AM_4
100
AcDbLine
 10
-1.924110049187939
 20
-4.879999999999999
 30
0.0
 11
-1.924110049187939
 21
-4.26
 31
0.0
  0
LINE
  5
260
330
1DF
100
AcDbEntity
  8
AM_4
100
AcDbLine
 10
1.924110049187941
 20
-4.879999999999999
 30
0.0
 11
1.924110049187941
 21
-4.26
 31
0.0
  0
LINE
  5
261
330
1DF
100
AcDbEntity
  8
AM_4
100
AcDbLine
 10
5.5
 20
-1.31
 30
0.0
 11
-5.5
 21
-1.31
 31
0.0
  0
LINE
  5
262
330
1DF
100
AcDbEntity
  8
AM_4
100
AcDbLine
 10
5.5
 20
-3.01
 30
0.0
 11
5.5
 21
-1.31
 31
0.0
  0
LINE
  5
263
330
1DF
100
AcDbEntity
  8
AM_4
100
AcDbLine
 10
-5.5
 20
-1.31
 30
0.0
 11
-5.5
 21
-3.01
 31
0.0
  0
LINE
  5
264
330
1DF
100
AcDbEntity
  8
AM_4
100
AcDbLine
 10
-1.66887389219484
 20
-4.879999999999999
 30
0.0
 11
-1.66887389219484
 21
-4.26
 31
0.0
  0
LINE
  5
265
330
1DF
100
AcDbEntity
  8
AM_4
100
AcDbLine
 10
1.668873879898477
 20
-4.879999999999999
 30
0.0
 11
1.668873879898477
 21
-4.26
 31
0.0
  0
LINE
  5
266
330
1DF
100
AcDbEntity
  8
AM_4
100
AcDbLine
 10
-1.204264909891198
 20
-4.135
 30
0.0
 11
-1.204264909891198
 21
-4.26
 31
0.0
  0
LINE
  5
267
330
1DF
100
AcDbEntity
  8
AM_4
100
AcDbLine
 10
1.204264909891201
 20
-4.135
 30
0.0
 11
1.204264909891201
 21
-4.26
 31
0.0
  0
LINE
  5
268
330
1DF
100
AcDbEntity
  8
AM_4
100
AcDbLine
 10
-0.5
 20
-4.26
 30
0.0
 11
0.5
 21
-4.26
 31
0.0
  0
LINE
  5
269
330
1DF
100
AcDbEntity
  8
AM_4
100
AcDbLine
 10
-0.5
 20
-4.26
 30
0.0
 11
-0.5
 21
-4.879999999999999
 31
0.0
  0
LINE
  5
26A
330
1DF
100
AcDbEntity
  8
AM_4
100
AcDbLine
 10
-0.122383452261676
 20
-4.879999999999999
 30
0.0
 11
-5.381783811816035
 21
-4.88
 31
0.0
  0
LINE
  5
26B
330
1DF
100
AcDbEntity
  8
AM_4
100
AcDbLine
 10
5.381783811816036
 20
-4.88
 30
0.0
 11
0.1223834522616761
 21
-4.879999999999999
 31
0.0
  0
LINE
  5
26C
330
1DF
100
AcDbEntity
  8
AM_4
100
AcDbLine
 10
0.5
 20
-4.26
 30
0.0
 11
0.5
 21
-4.879999999999999
 31
0.0
  0
LINE
  5
26D
330
1DF
100
AcDbEntity
  8
AM_4
100
AcDbLine
 10
1.677065725633361
 20
-4.135
 30
0.0
 11
1.677065725633361
 21
-4.26
 31
0.0
  0
LINE
  5
26E
330
1DF
100
AcDbEntity
  8
AM_4
100
AcDbLine
 10
-1.67706572563336
 20
-4.135
 30
0.0
 11
-1.67706572563336
 21
-4.26
 31
0.0
  0
LINE
  5
26F
330
1DF
100
AcDbEntity
  8
AM_4
100
AcDbLine
 10
-2.773865320559671
 20
-4.135
 30
0.0
 11
2.773865320559673
 21
-4.135
 31
0.0
  0
LINE
  5
270
330
1DF
100
AcDbEntity
  8
AM_4
100
AcDbLine
 10
-5.249691977975248
 20
-4.26
 30
0.0
 11
-7.375000000000001
 21
-4.26
 31
0.0
  0
LINE
  5
271
330
1DF
100
AcDbEntity
  8
AM_4
100
AcDbLine
 10
-7.304890258771674
 20
-4.26
 30
0.0
 11
-7.304890258771674
 21
-4.135
 31
0.0
  0
LINE
  5
272
330
1DF
100
AcDbEntity
  8
AM_4
100
AcDbLine
 10
-7.304890258771674
 20
-4.135
 30
0.0
 11
-4.531024938212001
 21
-4.135
 31
0.0
  0
LINE
  5
273
330
1DF
100
AcDbEntity
  8
AM_4
100
AcDbLine
 10
-4.531024938212001
 20
-4.135
 30
0.0
 11
-4.531024938212001
 21
-4.26
 31
0.0
  0
LINE
  5
274
330
1DF
100
AcDbEntity
  8
AM_4
100
AcDbLine
 10
-1.204264909891198
 20
-4.26
 30
0.0
 11
-4.531024938212001
 21
-4.26
 31
0.0
  0
LINE
  5
275
330
1DF
100
AcDbEntity
  8
AM_4
100
AcDbLine
 10
-2.773865320559672
 20
-4.26
 30
0.0
 11
-2.773865320559671
 21
-4.135
 31
0.0
  0
LINE
  5
276
330
1DF
100
AcDbEntity
  8
AM_4
100
AcDbLine
 10
2.773865320559673
 20
-4.135
 30
0.0
 11
2.773865320559672
 21
-4.26
 31
0.0
  0
LINE
  5
277
330
1DF
100
AcDbEntity
  8
AM_4
100
AcDbLine
 10
4.531024938212002
 20
-4.26
 30
0.0
 11
1.204264909891201
 21
-4.26
 31
0.0
  0
LINE
  5
278
330
1DF
100
AcDbEntity
  8
AM_4
100
AcDbLine
 10
4.531024938212002
 20
-4.26
 30
0.0
 11
4.531024938212001
 21
-4.135
 31
0.0
  0
LINE
  5
279
330
1DF
100
AcDbEntity
  8
AM_4
100
AcDbLine
 10
4.531024938212001
 20
-4.135
 30
0.0
 11
7.304890258771676
 21
-4.135
 31
0.0
  0
LINE
  5
27A
330
1DF
100
AcDbEntity
  8
AM_4
100
AcDbLine
 10
7.304890258771676
 20
-4.135
 30
0.0
 11
7.304890258771673
 21
-4.26
 31
0.0
  0
LINE
  5
27B
330
1DF
100
AcDbEntity
  8
AM_4
100
AcDbLine
 10
-7.375000000000001
 20
-3.01
 30
0.0
 11
-7.375000000000001
 21
-4.26
 31
0.0
  0
LINE
  5
27C
330
1DF
100
AcDbEntity
  8
AM_4
100
AcDbLine
 10
7.374999999999999
 20
-4.26
 30
0.0
 11
7.374999999999999
 21
-3.01
 31
0.0
  0
LINE
  5
27D
330
1DF
100
AcDbEntity
  8
AM_4
100
AcDbLine
 10
7.374999999999999
 20
-3.01
 30
0.0
 11
-7.375000000000001
 21
-3.01
 31
0.0
  0
ENDBLK
  5
1E2
330
1DF
100
AcDbEntity
  8
0
100
AcDbBlockEnd
  0
ENDSEC
  0
SECTION
  2
ENTITIES
  0
INSERT
  5
6F
330
1F
100
AcDbEntity
  8
0
100
AcDbBlockReference
  2
1_071522_4
 10
0.0
 20
0.0
 30
0.0
  0
POINT
  5
27F
330
1F
100
AcDbEntity
  8
ConnectionPoints
100
AcDbPoint
 10
0.0000000000000001
 20
0.9562499999999998
 30
0.0
  0
POINT
  5
280
330
1F
100
AcDbEntity
  8
ConnectionPoints
100
AcDbPoint
 10
0.0
 20
-5.95
 30
0.0000000000000004
  0
POINT
  5
281
330
1F
100
AcDbEntity
  8
ConnectionPoints
100
AcDbPoint
 10
0.0
 20
0.9562499999999998
 30
-0.0000000000000001
  0
POINT
  5
282
330
1F
100
AcDbEntity
  8
ConnectionPoints
100
AcDbPoint
 10
0.0
 20
-5.95
 30
0.0000000000000004
  0
POINT
  5
283
330
1F
100
AcDbEntity
  8
ConnectionPoints
100
AcDbPoint
 10
0.0
 20
-4.590242333650457
 30
6.280625
  0
POINT
  5
284
330
1F
100
AcDbEntity
  8
ConnectionPoints
100
AcDbPoint
 10
0.0
 20
-0.046875
 30
0.0
  0
POINT
  5
285
330
1F
100
AcDbEntity
  8
ConnectionPoints
100
AcDbPoint
 10
0.0
 20
-4.653390019343071
 30
5.660833333333333
  0
POINT
  5
286
330
1F
100
AcDbEntity
  8
ConnectionPoints
100
AcDbPoint
 10
0.0
 20
-4.590242333650457
 30
6.280625
  0
POINT
  5
287
330
1F
100
AcDbEntity
  8
ConnectionPoints
100
AcDbPoint
 10
0.0
 20
-5.57
 30
0.0000000000000003
  0
POINT
  5
288
330
1F
100
AcDbEntity
  8
ConnectionPoints
100
AcDbPoint
 10
0.0
 20
-5.95
 30
0.0000000000000004
  0
ENDSEC
  0
SECTION
  2
OBJECTS
  0
DICTIONARY
  5
C
330
0
100
AcDbDictionary
281
     1
  3
ACAD_DETAILVIEWSTYLE
350
290
  3
ACAD_GROUP
350
D
  3
ACAD_LAYOUT
350
1A
  3
ACAD_MATERIAL
350
43
  3
ACAD_MLEADERSTYLE
350
6B
  3
ACAD_MLINESTYLE
350
17
  3
ACAD_PLOTSETTINGS
350
19
  3
ACAD_PLOTSTYLENAME
350
E
  3
ACAD_SCALELIST
350
47
  3
ACAD_SECTIONVIEWSTYLE
350
291
  3
ACAD_TABLESTYLE
350
69
  3
ACAD_VISUALSTYLE
350
2A
  3
ACDB_RECOMPOSE_DATA
350
28D
  3
AcDbVariableDictionary
350
289
  0
SUN
  5
6D
330
29
100
AcDbSun
 90
        1
290
     0
 63
     7
421
 16777215
 40
1.0
291
     1
 91
  2455826
 92
 54000000
292
     0
 70
     2
 71
   256
280
     1
  0
DICTIONARY
  5
290
102
{ACAD_REACTORS
330
C
102
}
330
C
100
AcDbDictionary
281
     1
  0
DICTIONARY
  5
D
102
{ACAD_REACTORS
330
C
102
}
330
C
100
AcDbDictionary
281
     1
  0
DICTIONARY
  5
1A
102
{ACAD_REACTORS
330
C
102
}
330
C
100
AcDbDictionary
281
     1
  3
Layout1
350
1E
  3
Layout2
350
26
  3
Model
350
22
  0
DICTIONARY
  5
43
102
{ACAD_REACTORS
330
C
102
}
330
C
100
AcDbDictionary
281
     1
  3
ByBlock
350
45
  3
ByLayer
350
44
  3
Global
350
46
  0
DICTIONARY
  5
6B
102
{ACAD_REACTORS
330
C
102
}
330
C
100
AcDbDictionary
281
     1
  3
Standard
350
6C
  0
DICTIONARY
  5
17
102
{ACAD_REACTORS
330
C
102
}
330
C
100
AcDbDictionary
281
     1
  3
Standard
350
18
  0
DICTIONARY
  5
19
102
{ACAD_REACTORS
330
C
102
}
330
C
100
AcDbDictionary
281
     1
  0
ACDBDICTIONARYWDFLT
  5
E
102
{ACAD_REACTORS
330
C
102
}
330
C
100
AcDbDictionary
281
     1
  3
Normal
350
F
100
AcDbDictionaryWithDefault
340
F
  0
DICTIONARY
  5
47
102
{ACAD_REACTORS
330
C
102
}
330
C
100
AcDbDictionary
281
     1
  3
A0
350
48
  3
A1
350
49
  3
A2
350
4A
  3
A3
350
4B
  3
A4
350
4C
  3
A5
350
4D
  3
A6
350
4E
  3
A7
350
4F
  3
A8
350
50
  3
A9
350
51
  3
B0
350
52
  3
B1
350
53
  3
B2
350
54
  3
B3
350
55
  3
B4
350
56
  3
B5
350
57
  3
B6
350
58
  3
B7
350
59
  3
B8
350
5A
  3
B9
350
5B
  3
C0
350
5C
  3
C1
350
5D
  3
C2
350
5E
  3
C3
350
5F
  3
C4
350
60
  3
C5
350
61
  3
C6
350
62
  3
C7
350
63
  3
C8
350
64
  3
C9
350
65
  3
D0
350
66
  3
D1
350
67
  3
D2
350
68
  0
DICTIONARY
  5
291
102
{ACAD_REACTORS
330
C
102
}
330
C
100
AcDbDictionary
281
     1
  0
DICTIONARY
  5
69
102
{ACAD_REACTORS
330
C
102
}
330
C
100
AcDbDictionary
281
     1
  3
Standard
350
6A
  0
DICTIONARY
  5
2A
102
{ACAD_REACTORS
330
C
102
}
330
C
100
AcDbDictionary
281
     1
  3
2dWireframe
350
2F
  3
Basic
350
32
  3
Brighten
350
36
  3
ColorChange
350
3A
  3
Conceptual
350
34
  3
Dim
350
35
  3
EdgeColorOff
350
3D
  3
Facepattern
350
39
  3
Flat
350
2B
  3
FlatWithEdges
350
2C
  3
Gouraud
350
2D
  3
GouraudWithEdges
350
2E
  3
Hidden
350
31
  3
JitterOff
350
3B
  3
Linepattern
350
38
  3
OverhangOff
350
3C
  3
Realistic
350
33
  3
Shaded
350
42
  3
Shaded with edges
350
41
  3
Shades of Gray
350
3E
  3
Sketchy
350
3F
  3
Thicken
350
37
  3
Wireframe
350
30
  3
X-Ray
350
40
  0
XRECORD
  5
28D
102
{ACAD_REACTORS
330
C
102
}
330
C
100
AcDbXrecord
280
     1
 90
        1
330
6A
  0
DICTIONARY
  5
289
102
{ACAD_REACTORS
330
C
102
}
330
C
100
AcDbDictionary
281
     1
  3
CANNOSCALE
350
28A
  3
CMLEADERSTYLE
350
28F
  3
CTABLESTYLE
350
28E
  0
LAYOUT
  5
1E
102
{ACAD_REACTORS
330
1A
102
}
330
1A
100
AcDbPlotSettings
  1

  2
none_device
  4

  6

 40
0.0
 41
0.0
 42
0.0
 43
0.0
 44
0.0
 45
0.0
 46
0.0
 47
0.0
 48
0.0
 49
0.0
140
0.0
141
0.0
142
1.0
143
1.0
 70
   688
 72
     0
 73
     0
 74
     5
  7

 75
    16
 76
     0
 77
     2
 78
   300
147
1.0
148
0.0
149
0.0
100
AcDbLayout
  1
Layout1
 70
     1
 71
     1
 10
0.0
 20
0.0
 11
12.0
 21
9.0
 12
0.0
 22
0.0
 32
0.0
 14
1.000000000000000E+20
 24
1.000000000000000E+20
 34
1.000000000000000E+20
 15
-1.000000000000000E+20
 25
-1.000000000000000E+20
 35
-1.000000000000000E+20
146
0.0
 13
0.0
 23
0.0
 33
0.0
 16
1.0
 26
0.0
 36
0.0
 17
0.0
 27
1.0
 37
0.0
 76
     0
330
1B
  0
LAYOUT
  5
26
102
{ACAD_REACTORS
330
1A
102
}
330
1A
100
AcDbPlotSettings
  1

  2
none_device
  4

  6

 40
0.0
 41
0.0
 42
0.0
 43
0.0
 44
0.0
 45
0.0
 46
0.0
 47
0.0
 48
0.0
 49
0.0
140
0.0
141
0.0
142
1.0
143
1.0
 70
   688
 72
     0
 73
     0
 74
     5
  7

 75
    16
 76
     0
 77
     2
 78
   300
147
1.0
148
0.0
149
0.0
100
AcDbLayout
  1
Layout2
 70
     1
 71
     2
 10
0.0
 20
0.0
 11
0.0
 21
0.0
 12
0.0
 22
0.0
 32
0.0
 14
0.0
 24
0.0
 34
0.0
 15
0.0
 25
0.0
 35
0.0
146
0.0
 13
0.0
 23
0.0
 33
0.0
 16
1.0
 26
0.0
 36
0.0
 17
0.0
 27
1.0
 37
0.0
 76
     0
330
23
  0
LAYOUT
  5
22
102
{ACAD_REACTORS
330
1A
102
}
330
1A
100
AcDbPlotSettings
  1

  2
none_device
  4
Letter_(8.50_x_11.00_Inches)
  6

 40
6.35
 41
6.35
 42
6.35000508
 43
6.35000508
 44
215.9
 45
279.4
 46
0.0
 47
0.0
 48
0.0
 49
0.0
140
0.0
141
0.0
142
1.0
143
1.0
 70
  1712
 72
     0
 73
     0
 74
     0
  7

 75
     0
 76
     0
 77
     2
 78
   300
147
1.0
148
0.0
149
0.0
100
AcDbLayout
  1
Model
 70
     1
 71
     0
 10
0.0
 20
0.0
 11
12.0
 21
9.0
 12
0.0
 22
0.0
 32
0.0
 14
1.000000000000000E+20
 24
1.000000000000000E+20
 34
1.000000000000000E+20
 15
-1.000000000000000E+20
 25
-1.000000000000000E+20
 35
-1.000000000000000E+20
146
0.0
 13
0.0
 23
0.0
 33
0.0
 16
1.0
 26
0.0
 36
0.0
 17
0.0
 27
1.0
 37
0.0
 76
     0
330
1F
331
29
  0
MATERIAL
  5
45
102
{ACAD_REACTORS
330
43
102
}
330
43
100
AcDbMaterial
  1
ByBlock
 72
     1
 94
      127
  0
MATERIAL
  5
44
102
{ACAD_REACTORS
330
43
102
}
330
43
100
AcDbMaterial
  1
ByLayer
 72
     1
 94
      127
  0
MATERIAL
  5
46
102
{ACAD_REACTORS
330
43
102
}
330
43
100
AcDbMaterial
  1
Global
 72
     1
 94
      127
  0
MLEADERSTYLE
  5
6C
102
{ACAD_REACTORS
330
6B
102
}
330
6B
100
AcDbMLeaderStyle
179
     2
170
     2
171
     1
172
     0
 90
        2
 40
0.0
 41
0.0
173
     1
 91
-1056964608
340
14
 92
       -2
290
     1
 42
0.09
291
     1
 43
0.36
  3
Standard
341
0
 44
0.18
300

342
11
174
     1
178
     6
175
     1
176
     0
 93
-1056964608
 45
0.18
292
     0
297
     0
 46
0.18
343
0
 94
-1056964608
 47
1.0
 49
1.0
140
1.0
293
     1
141
0.0
294
     1
177
     0
142
1.0
295
     0
296
     0
143
0.125
271
     0
272
     9
273
     9
298
     0
  0
MLINESTYLE
  5
18
102
{ACAD_REACTORS
330
17
102
}
330
17
100
AcDbMlineStyle
  2
Standard
 70
     0
  3

 62
   256
 51
90.0
 52
90.0
 71
     2
 49
0.5
 62
   256
  6
BYLAYER
 49
-0.5
 62
   256
  6
BYLAYER
  0
ACDBPLACEHOLDER
  5
F
102
{ACAD_REACTORS
330
E
102
}
330
E
  0
SCALE
  5
48
102
{ACAD_REACTORS
330
47
102
}
330
47
100
AcDbScale
 70
     0
300
1:1
140
1.0
141
1.0
290
     1
  0
SCALE
  5
49
102
{ACAD_REACTORS
330
47
102
}
330
47
100
AcDbScale
 70
     0
300
1:2
140
1.0
141
2.0
290
     0
  0
SCALE
  5
4A
102
{ACAD_REACTORS
330
47
102
}
330
47
100
AcDbScale
 70
     0
300
1:4
140
1.0
141
4.0
290
     0
  0
SCALE
  5
4B
102
{ACAD_REACTORS
330
47
102
}
330
47
100
AcDbScale
 70
     0
300
1:5
140
1.0
141
5.0
290
     0
  0
SCALE
  5
4C
102
{ACAD_REACTORS
330
47
102
}
330
47
100
AcDbScale
 70
     0
300
1:8
140
1.0
141
8.0
290
     0
  0
SCALE
  5
4D
102
{ACAD_REACTORS
330
47
102
}
330
47
100
AcDbScale
 70
     0
300
1:10
140
1.0
141
10.0
290
     0
  0
SCALE
  5
4E
102
{ACAD_REACTORS
330
47
102
}
330
47
100
AcDbScale
 70
     0
300
1:16
140
1.0
141
16.0
290
     0
  0
SCALE
  5
4F
102
{ACAD_REACTORS
330
47
102
}
330
47
100
AcDbScale
 70
     0
300
1:20
140
1.0
141
20.0
290
     0
  0
SCALE
  5
50
102
{ACAD_REACTORS
330
47
102
}
330
47
100
AcDbScale
 70
     0
300
1:30
140
1.0
141
30.0
290
     0
  0
SCALE
  5
51
102
{ACAD_REACTORS
330
47
102
}
330
47
100
AcDbScale
 70
     0
300
1:40
140
1.0
141
40.0
290
     0
  0
SCALE
  5
52
102
{ACAD_REACTORS
330
47
102
}
330
47
100
AcDbScale
 70
     0
300
1:50
140
1.0
141
50.0
290
     0
  0
SCALE
  5
53
102
{ACAD_REACTORS
330
47
102
}
330
47
100
AcDbScale
 70
     0
300
1:100
140
1.0
141
100.0
290
     0
  0
SCALE
  5
54
102
{ACAD_REACTORS
330
47
102
}
330
47
100
AcDbScale
 70
     0
300
2:1
140
2.0
141
1.0
290
     0
  0
SCALE
  5
55
102
{ACAD_REACTORS
330
47
102
}
330
47
100
AcDbScale
 70
     0
300
4:1
140
4.0
141
1.0
290
     0
  0
SCALE
  5
56
102
{ACAD_REACTORS
330
47
102
}
330
47
100
AcDbScale
 70
     0
300
8:1
140
8.0
141
1.0
290
     0
  0
SCALE
  5
57
102
{ACAD_REACTORS
330
47
102
}
330
47
100
AcDbScale
 70
     0
300
10:1
140
10.0
141
1.0
290
     0
  0
SCALE
  5
58
102
{ACAD_REACTORS
330
47
102
}
330
47
100
AcDbScale
 70
     0
300
100:1
140
100.0
141
1.0
290
     0
  0
SCALE
  5
59
102
{ACAD_REACTORS
330
47
102
}
330
47
100
AcDbScale
 70
     0
300
1/128" = 1'-0"
140
0.0078125
141
12.0
290
     0
  0
SCALE
  5
5A
102
{ACAD_REACTORS
330
47
102
}
330
47
100
AcDbScale
 70
     0
300
1/64" = 1'-0"
140
0.015625
141
12.0
290
     0
  0
SCALE
  5
5B
102
{ACAD_REACTORS
330
47
102
}
330
47
100
AcDbScale
 70
     0
300
1/32" = 1'-0"
140
0.03125
141
12.0
290
     0
  0
SCALE
  5
5C
102
{ACAD_REACTORS
330
47
102
}
330
47
100
AcDbScale
 70
     0
300
1/16" = 1'-0"
140
0.0625
141
12.0
290
     0
  0
SCALE
  5
5D
102
{ACAD_REACTORS
330
47
102
}
330
47
100
AcDbScale
 70
     0
300
3/32" = 1'-0"
140
0.09375
141
12.0
290
     0
  0
SCALE
  5
5E
102
{ACAD_REACTORS
330
47
102
}
330
47
100
AcDbScale
 70
     0
300
1/8" = 1'-0"
140
0.125
141
12.0
290
     0
  0
SCALE
  5
5F
102
{ACAD_REACTORS
330
47
102
}
330
47
100
AcDbScale
 70
     0
300
3/16" = 1'-0"
140
0.1875
141
12.0
290
     0
  0
SCALE
  5
60
102
{ACAD_REACTORS
330
47
102
}
330
47
100
AcDbScale
 70
     0
300
1/4" = 1'-0"
140
0.25
141
12.0
290
     0
  0
SCALE
  5
61
102
{ACAD_REACTORS
330
47
102
}
330
47
100
AcDbScale
 70
     0
300
3/8" = 1'-0"
140
0.375
141
12.0
290
     0
  0
SCALE
  5
62
102
{ACAD_REACTORS
330
47
102
}
330
47
100
AcDbScale
 70
     0
300
1/2" = 1'-0"
140
0.5
141
12.0
290
     0
  0
SCALE
  5
63
102
{ACAD_REACTORS
330
47
102
}
330
47
100
AcDbScale
 70
     0
300
3/4" = 1'-0"
140
0.75
141
12.0
290
     0
  0
SCALE
  5
64
102
{ACAD_REACTORS
330
47
102
}
330
47
100
AcDbScale
 70
     0
300
1" = 1'-0"
140
1.0
141
12.0
290
     0
  0
SCALE
  5
65
102
{ACAD_REACTORS
330
47
102
}
330
47
100
AcDbScale
 70
     0
300
1-1/2" = 1'-0"
140
1.5
141
12.0
290
     0
  0
SCALE
  5
66
102
{ACAD_REACTORS
330
47
102
}
330
47
100
AcDbScale
 70
     0
300
3" = 1'-0"
140
3.0
141
12.0
290
     0
  0
SCALE
  5
67
102
{ACAD_REACTORS
330
47
102
}
330
47
100
AcDbScale
 70
     0
300
6" = 1'-0"
140
6.0
141
12.0
290
     0
  0
SCALE
  5
68
102
{ACAD_REACTORS
330
47
102
}
330
47
100
AcDbScale
 70
     0
300
1'-0" = 1'-0"
140
12.0
141
12.0
290
     0
  0
TABLESTYLE
  5
6A
102
{ACAD_REACTORS
330
69
102
}
102
{ACAD_XDICTIONARY
360
28B
102
}
330
69
100
AcDbTableStyle
  3
Standard
 70
     0
 71
     0
 40
0.06
 41
0.06
280
     0
281
     0
  7
Standard
140
0.18
170
     2
 62
     0
 63
   257
283
     0
 90
        4
 91
        0
  1

274
    -2
284
     1
 64
     0
275
    -2
285
     1
 65
     0
276
    -2
286
     1
 66
     0
277
    -2
287
     1
 67
     0
278
    -2
288
     1
 68
     0
279
    -2
289
     1
 69
     0
  7
Standard
140
0.25
170
     5
 62
     0
 63
   257
283
     0
 90
        4
 91
        0
  1

274
    -2
284
     1
 64
     0
275
    -2
285
     1
 65
     0
276
    -2
286
     1
 66
     0
277
    -2
287
     1
 67
     0
278
    -2
288
     1
 68
     0
279
    -2
289
     1
 69
     0
  7
Standard
140
0.18
170
     5
 62
     0
 63
   257
283
     0
 90
        4
 91
        0
  1

274
    -2
284
     1
 64
     0
275
    -2
285
     1
 65
     0
276
    -2
286
     1
 66
     0
277
    -2
287
     1
 67
     0
278
    -2
288
     1
 68
     0
279
    -2
289
     1
 69
     0
  0
VISUALSTYLE
  5
2F
102
{ACAD_REACTORS
330
2A
102
}
330
2A
100
AcDbVisualStyle
  2
2dWireframe
 70
     4
177
     3
291
     0
 70
    58
 90
        0
176
     1
 90
        2
176
     1
 90
        0
176
     1
 90
        0
176
     1
 40
0.6
176
     1
 40
30.0
176
     1
 62
     7
420
 16777215
176
     1
 90
        1
176
     1
 90
        4
176
     1
 62
     7
176
     1
 62
   257
176
     1
 90
        1
176
     1
 90
        1
176
     1
 40
1.0
176
     1
 90
        0
176
     1
 62
   257
176
     1
 40
1.0
176
     1
 90
        1
176
     1
 90
        6
176
     1
 90
        2
176
     1
 62
     7
176
     1
 90
        5
176
     1
 90
        0
176
     1
 90
        0
176
     1
290
     0
176
     1
 90
        1
176
     1
 40
0.0
176
     1
 90
        0
176
     1
290
     1
176
     1
290
     1
176
     1
290
     0
176
     1
290
     0
176
     1
290
     0
176
     1
290
     0
176
     1
290
     0
176
     1
290
     0
176
     1
290
     0
176
     1
 90
       50
176
     1
 40
0.0
176
     1
 40
1.0
176
     1
 90
        0
176
     1
 62
    18
420
        0
176
     1
 90
       50
176
     1
 90
        3
176
     1
 62
     5
420
      255
176
     1
290
     0
176
     1
 90
       50
176
     1
 90
       50
176
     1
 90
       50
176
     1
290
     0
176
     1
 90
       50
176
     1
 62
   256
176
     0
 40
1.0
176
     0
 90
        2
176
     1
  1
strokes_ogs.tif
176
     1
290
     0
176
     1
 40
1.0
176
     1
 40
1.0
176
     1
  0
VISUALSTYLE
  5
32
102
{ACAD_REACTORS
330
2A
102
}
330
2A
100
AcDbVisualStyle
  2
Basic
 70
     7
177
     3
291
     1
 70
    58
 90
        1
176
     1
 90
        0
176
     1
 90
        1
176
     1
 90
        0
176
     1
 40
0.6
176
     1
 40
30.0
176
     1
 62
     7
420
 16777215
176
     1
 90
        0
176
     1
 90
        4
176
     1
 62
     7
176
     1
 62
   257
176
     1
 90
        1
176
     1
 90
        1
176
     1
 40
1.0
176
     1
 90
        8
176
     1
 62
     7
176
     1
 40
1.0
176
     1
 90
        1
176
     1
 90
        6
176
     1
 90
        2
176
     1
 62
     7
176
     1
 90
        5
176
     1
 90
        0
176
     1
 90
        0
176
     1
290
     0
176
     1
 90
        1
176
     1
 40
0.0
176
     1
 90
        0
176
     1
290
     0
176
     1
290
     1
176
     1
290
     1
176
     1
290
     0
176
     1
290
     0
176
     1
290
     0
176
     1
290
     0
176
     1
290
     0
176
     1
290
     0
176
     1
 90
       50
176
     1
 40
0.0
176
     1
 40
1.0
176
     1
 90
        0
176
     1
 62
    18
420
        0
176
     1
 90
       50
176
     1
 90
        3
176
     1
 62
     5
420
      255
176
     1
290
     0
176
     1
 90
       50
176
     1
 90
       50
176
     1
 90
       50
176
     1
290
     0
176
     1
 90
       50
176
     1
 62
   256
176
     0
 40
1.0
176
     0
 90
        2
176
     1
  1
strokes_ogs.tif
176
     1
290
     0
176
     1
 40
1.0
176
     1
 40
1.0
176
     1
  0
VISUALSTYLE
  5
36
102
{ACAD_REACTORS
330
2A
102
}
330
2A
100
AcDbVisualStyle
  2
Brighten
 70
    12
177
     3
291
     1
 70
    58
 90
        2
176
     1
 90
        2
176
     1
 90
        0
176
     1
 90
        0
176
     1
 40
0.6
176
     1
 40
30.0
176
     1
 62
     7
420
 16777215
176
     1
 90
        1
176
     1
 90
        4
176
     1
 62
     7
176
     1
 62
   257
176
     1
 90
        1
176
     1
 90
        1
176
     1
 40
1.0
176
     1
 90
        8
176
     1
 62
     7
176
     1
 40
1.0
176
     1
 90
        1
176
     1
 90
        6
176
     1
 90
        2
176
     1
 62
     7
176
     1
 90
        5
176
     1
 90
        0
176
     1
 90
        0
176
     1
290
     0
176
     1
 90
        1
176
     1
 40
50.0
176
     1
 90
        0
176
     1
290
     0
176
     1
290
     1
176
     1
290
     1
176
     1
290
     0
176
     1
290
     0
176
     1
290
     0
176
     1
290
     0
176
     1
290
     0
176
     1
290
     0
176
     1
 90
       50
176
     1
 40
0.0
176
     1
 40
1.0
176
     1
 90
        0
176
     1
 62
    18
420
        0
176
     1
 90
       50
176
     1
 90
        3
176
     1
 62
     5
420
      255
176
     1
290
     0
176
     1
 90
       50
176
     1
 90
       50
176
     1
 90
       50
176
     1
290
     0
176
     1
 90
       50
176
     1
 62
   256
176
     0
 40
1.0
176
     0
 90
        2
176
     1
  1
strokes_ogs.tif
176
     1
290
     0
176
     1
 40
1.0
176
     1
 40
1.0
176
     1
  0
VISUALSTYLE
  5
3A
102
{ACAD_REACTORS
330
2A
102
}
330
2A
100
AcDbVisualStyle
  2
ColorChange
 70
    16
177
     3
291
     1
 70
    58
 90
        2
176
     1
 90
        2
176
     1
 90
        3
176
     1
 90
        0
176
     1
 40
0.6
176
     1
 40
30.0
176
     1
 62
     8
420
  8421504
176
     1
 90
        1
176
     1
 90
        4
176
     1
 62
     7
176
     1
 62
   257
176
     1
 90
        1
176
     1
 90
        1
176
     1
 40
1.0
176
     1
 90
        8
176
     1
 62
     8
420
  8421504
176
     1
 40
1.0
176
     1
 90
        1
176
     1
 90
        6
176
     1
 90
        2
176
     1
 62
     7
176
     1
 90
        5
176
     1
 90
        0
176
     1
 90
        0
176
     1
290
     0
176
     1
 90
        1
176
     1
 40
0.0
176
     1
 90
        0
176
     1
290
     0
176
     1
290
     1
176
     1
290
     1
176
     1
290
     0
176
     1
290
     0
176
     1
290
     0
176
     1
290
     0
176
     1
290
     0
176
     1
290
     0
176
     1
 90
       50
176
     1
 40
0.0
176
     1
 40
1.0
176
     1
 90
        0
176
     1
 62
    18
420
        0
176
     1
 90
       50
176
     1
 90
        3
176
     1
 62
     5
420
      255
176
     1
290
     0
176
     1
 90
       50
176
     1
 90
       50
176
     1
 90
       50
176
     1
290
     0
176
     1
 90
       50
176
     1
 62
   256
176
     0
 40
1.0
176
     0
 90
        2
176
     1
  1
strokes_ogs.tif
176
     1
290
     0
176
     1
 40
1.0
176
     1
 40
1.0
176
     1
  0
VISUALSTYLE
  5
34
102
{ACAD_REACTORS
330
2A
102
}
330
2A
100
AcDbVisualStyle
  2
Conceptual
 70
     9
177
     3
291
     0
 70
    58
 90
        3
176
     1
 90
        2
176
     1
 90
        0
176
     1
 90
        0
176
     1
 40
0.6
176
     1
 40
30.0
176
     1
 62
     7
420
 16777215
176
     1
 90
        2
176
     1
 90
        2
176
     1
 62
     7
176
     1
 62
   257
176
     1
 90
        1
176
     1
 90
        1
176
     1
 40
179.0
176
     1
 90
        8
176
     1
 62
     7
176
     1
 40
1.0
176
     1
 90
        1
176
     1
 90
        6
176
     1
 90
        2
176
     1
 62
     7
176
     1
 90
        3
176
     1
 90
        0
176
     1
 90
        0
176
     1
290
     0
176
     1
 90
        1
176
     1
 40
0.0
176
     1
 90
        0
176
     1
290
     0
176
     1
290
     1
176
     1
290
     1
176
     1
290
     0
176
     1
290
     0
176
     1
290
     0
176
     1
290
     0
176
     1
290
     0
176
     1
290
     0
176
     1
 90
       50
176
     1
 40
0.0
176
     1
 40
1.0
176
     1
 90
        0
176
     1
 62
    18
420
        0
176
     1
 90
       50
176
     1
 90
        3
176
     1
 62
     5
420
      255
176
     1
290
     0
176
     1
 90
       50
176
     1
 90
       50
176
     1
 90
       50
176
     1
290
     0
176
     1
 90
       50
176
     1
 62
   256
176
     0
 40
1.0
176
     0
 90
        2
176
     1
  1
strokes_ogs.tif
176
     1
290
     0
176
     1
 40
1.0
176
     1
 40
1.0
176
     1
  0
VISUALSTYLE
  5
35
102
{ACAD_REACTORS
330
2A
102
}
330
2A
100
AcDbVisualStyle
  2
Dim
 70
    11
177
     3
291
     1
 70
    58
 90
        2
176
     1
 90
        2
176
     1
 90
        0
176
     1
 90
        0
176
     1
 40
0.6
176
     1
 40
30.0
176
     1
 62
     7
420
 16777215
176
     1
 90
        1
176
     1
 90
        4
176
     1
 62
     7
176
     1
 62
   257
176
     1
 90
        1
176
     1
 90
        1
176
     1
 40
1.0
176
     1
 90
        8
176
     1
 62
     7
176
     1
 40
1.0
176
     1
 90
        1
176
     1
 90
        6
176
     1
 90
        2
176
     1
 62
     7
176
     1
 90
        5
176
     1
 90
        0
176
     1
 90
        0
176
     1
290
     0
176
     1
 90
        1
176
     1
 40
-50.0
176
     1
 90
        0
176
     1
290
     0
176
     1
290
     1
176
     1
290
     1
176
     1
290
     0
176
     1
290
     0
176
     1
290
     0
176
     1
290
     0
176
     1
290
     0
176
     1
290
     0
176
     1
 90
       50
176
     1
 40
0.0
176
     1
 40
1.0
176
     1
 90
        0
176
     1
 62
    18
420
        0
176
     1
 90
       50
176
     1
 90
        3
176
     1
 62
     5
420
      255
176
     1
290
     0
176
     1
 90
       50
176
     1
 90
       50
176
     1
 90
       50
176
     1
290
     0
176
     1
 90
       50
176
     1
 62
   256
176
     0
 40
1.0
176
     0
 90
        2
176
     1
  1
strokes_ogs.tif
176
     1
290
     0
176
     1
 40
1.0
176
     1
 40
1.0
176
     1
  0
VISUALSTYLE
  5
3D
102
{ACAD_REACTORS
330
2A
102
}
330
2A
100
AcDbVisualStyle
  2
EdgeColorOff
 70
    22
177
     3
291
     1
 70
    58
 90
        2
176
     0
 90
        2
176
     0
 90
        0
176
     0
 90
        0
176
     0
 40
0.6
176
     0
 40
30.0
176
     0
 62
     7
420
 16777215
176
     0
 90
        1
176
     0
 90
        4
176
     0
 62
     7
176
     0
 62
   257
176
     0
 90
        1
176
     0
 90
        1
176
     0
 40
1.0
176
     0
 90
        8
176
     2
 62
     7
176
     0
 40
1.0
176
     0
 90
        1
176
     0
 90
        6
176
     0
 90
        2
176
     0
 62
     7
176
     0
 90
        5
176
     0
 90
        0
176
     0
 90
        0
176
     0
290
     0
176
     0
 90
        1
176
     0
 40
0.0
176
     0
 90
        0
176
     0
290
     0
176
     0
290
     1
176
     0
290
     1
176
     0
290
     0
176
     0
290
     0
176
     0
290
     0
176
     0
290
     0
176
     0
290
     0
176
     0
290
     0
176
     0
 90
       50
176
     0
 40
0.0
176
     0
 40
1.0
176
     0
 90
        0
176
     0
 62
    18
420
        0
176
     0
 90
       50
176
     0
 90
        3
176
     0
 62
     5
420
      255
176
     0
290
     0
176
     0
 90
       50
176
     0
 90
       50
176
     0
 90
       50
176
     0
290
     0
176
     0
 90
       50
176
     0
 62
   256
176
     0
 40
1.0
176
     0
 90
        2
176
     0
  1
strokes_ogs.tif
176
     0
290
     0
176
     0
 40
1.0
176
     0
 40
1.0
176
     0
  0
VISUALSTYLE
  5
39
102
{ACAD_REACTORS
330
2A
102
}
330
2A
100
AcDbVisualStyle
  2
Facepattern
 70
    15
177
     3
291
     1
 70
    58
 90
        2
176
     1
 90
        2
176
     1
 90
        0
176
     1
 90
        0
176
     1
 40
0.6
176
     1
 40
30.0
176
     1
 62
     7
420
 16777215
176
     1
 90
        1
176
     1
 90
        4
176
     1
 62
     7
176
     1
 62
   257
176
     1
 90
        1
176
     1
 90
        1
176
     1
 40
1.0
176
     1
 90
        8
176
     1
 62
     7
176
     1
 40
1.0
176
     1
 90
        1
176
     1
 90
        6
176
     1
 90
        2
176
     1
 62
     7
176
     1
 90
        5
176
     1
 90
        0
176
     1
 90
        0
176
     1
290
     0
176
     1
 90
        1
176
     1
 40
0.0
176
     1
 90
        0
176
     1
290
     0
176
     1
290
     1
176
     1
290
     1
176
     1
290
     0
176
     1
290
     0
176
     1
290
     0
176
     1
290
     0
176
     1
290
     0
176
     1
290
     0
176
     1
 90
       50
176
     1
 40
0.0
176
     1
 40
1.0
176
     1
 90
        0
176
     1
 62
    18
420
        0
176
     1
 90
       50
176
     1
 90
        3
176
     1
 62
     5
420
      255
176
     1
290
     0
176
     1
 90
       50
176
     1
 90
       50
176
     1
 90
       50
176
     1
290
     0
176
     1
 90
       50
176
     1
 62
   256
176
     0
 40
1.0
176
     0
 90
        2
176
     1
  1
strokes_ogs.tif
176
     1
290
     0
176
     1
 40
1.0
176
     1
 40
1.0
176
     1
  0
VISUALSTYLE
  5
2B
102
{ACAD_REACTORS
330
2A
102
}
330
2A
100
AcDbVisualStyle
  2
Flat
 70
     0
177
     3
291
     1
 70
    58
 90
        2
176
     1
 90
        1
176
     1
 90
        1
176
     1
 90
        2
176
     1
 40
0.6
176
     1
 40
30.0
176
     1
 62
     7
420
 16777215
176
     1
 90
        0
176
     1
 90
        0
176
     1
 62
     7
176
     1
 62
   257
176
     1
 90
        1
176
     1
 90
        1
176
     1
 40
1.0
176
     1
 90
        8
176
     1
 62
     7
176
     1
 40
1.0
176
     1
 90
        1
176
     1
 90
        6
176
     1
 90
        2
176
     1
 62
     7
176
     1
 90
        5
176
     1
 90
        0
176
     1
 90
        0
176
     1
290
     0
176
     1
 90
       13
176
     1
 40
0.0
176
     1
 90
        0
176
     1
290
     0
176
     1
290
     1
176
     1
290
     1
176
     1
290
     0
176
     1
290
     0
176
     1
290
     0
176
     1
290
     0
176
     1
290
     0
176
     1
290
     0
176
     1
 90
       50
176
     1
 40
0.0
176
     1
 40
1.0
176
     1
 90
        0
176
     1
 62
    18
420
        0
176
     1
 90
       50
176
     1
 90
        3
176
     1
 62
     5
420
      255
176
     1
290
     0
176
     1
 90
       50
176
     1
 90
       50
176
     1
 90
       50
176
     1
290
     0
176
     1
 90
       50
176
     1
 62
   256
176
     0
 40
1.0
176
     0
 90
        2
176
     1
  1
strokes_ogs.tif
176
     1
290
     0
176
     1
 40
1.0
176
     1
 40
1.0
176
     1
  0
VISUALSTYLE
  5
2C
102
{ACAD_REACTORS
330
2A
102
}
330
2A
100
AcDbVisualStyle
  2
FlatWithEdges
 70
     1
177
     3
291
     1
 70
    58
 90
        2
176
     1
 90
        1
176
     1
 90
        1
176
     1
 90
        2
176
     1
 40
0.6
176
     1
 40
30.0
176
     1
 62
     7
420
 16777215
176
     1
 90
        1
176
     1
 90
        0
176
     1
 62
     7
176
     1
 62
   257
176
     1
 90
        1
176
     1
 90
        1
176
     1
 40
1.0
176
     1
 90
        0
176
     1
 62
   257
176
     1
 40
1.0
176
     1
 90
        1
176
     1
 90
        6
176
     1
 90
        2
176
     1
 62
     7
176
     1
 90
        5
176
     1
 90
        0
176
     1
 90
        0
176
     1
290
     0
176
     1
 90
       13
176
     1
 40
0.0
176
     1
 90
        0
176
     1
290
     0
176
     1
290
     1
176
     1
290
     1
176
     1
290
     0
176
     1
290
     0
176
     1
290
     0
176
     1
290
     0
176
     1
290
     0
176
     1
290
     0
176
     1
 90
       50
176
     1
 40
0.0
176
     1
 40
1.0
176
     1
 90
        0
176
     1
 62
    18
420
        0
176
     1
 90
       50
176
     1
 90
        3
176
     1
 62
     5
420
      255
176
     1
290
     0
176
     1
 90
       50
176
     1
 90
       50
176
     1
 90
       50
176
     1
290
     0
176
     1
 90
       50
176
     1
 62
   256
176
     0
 40
1.0
176
     0
 90
        2
176
     1
  1
strokes_ogs.tif
176
     1
290
     0
176
     1
 40
1.0
176
     1
 40
1.0
176
     1
  0
VISUALSTYLE
  5
2D
102
{ACAD_REACTORS
330
2A
102
}
330
2A
100
AcDbVisualStyle
  2
Gouraud
 70
     2
177
     3
291
     1
 70
    58
 90
        2
176
     1
 90
        2
176
     1
 90
        1
176
     1
 90
        2
176
     1
 40
0.6
176
     1
 40
30.0
176
     1
 62
     7
420
 16777215
176
     1
 90
        0
176
     1
 90
        0
176
     1
 62
     7
176
     1
 62
   257
176
     1
 90
        1
176
     1
 90
        1
176
     1
 40
1.0
176
     1
 90
        0
176
     1
 62
     7
176
     1
 40
1.0
176
     1
 90
        1
176
     1
 90
        6
176
     1
 90
        2
176
     1
 62
     7
176
     1
 90
        5
176
     1
 90
        0
176
     1
 90
        0
176
     1
290
     0
176
     1
 90
       13
176
     1
 40
0.0
176
     1
 90
        0
176
     1
290
     0
176
     1
290
     1
176
     1
290
     1
176
     1
290
     0
176
     1
290
     0
176
     1
290
     0
176
     1
290
     0
176
     1
290
     0
176
     1
290
     0
176
     1
 90
       50
176
     1
 40
0.0
176
     1
 40
1.0
176
     1
 90
        0
176
     1
 62
    18
420
        0
176
     1
 90
       50
176
     1
 90
        3
176
     1
 62
     5
420
      255
176
     1
290
     0
176
     1
 90
       50
176
     1
 90
       50
176
     1
 90
       50
176
     1
290
     0
176
     1
 90
       50
176
     1
 62
   256
176
     0
 40
1.0
176
     0
 90
        2
176
     1
  1
strokes_ogs.tif
176
     1
290
     0
176
     1
 40
1.0
176
     1
 40
1.0
176
     1
  0
VISUALSTYLE
  5
2E
102
{ACAD_REACTORS
330
2A
102
}
330
2A
100
AcDbVisualStyle
  2
GouraudWithEdges
 70
     3
177
     3
291
     1
 70
    58
 90
        2
176
     1
 90
        2
176
     1
 90
        1
176
     1
 90
        2
176
     1
 40
0.6
176
     1
 40
30.0
176
     1
 62
     7
420
 16777215
176
     1
 90
        1
176
     1
 90
        0
176
     1
 62
     7
176
     1
 62
   257
176
     1
 90
        1
176
     1
 90
        1
176
     1
 40
1.0
176
     1
 90
        0
176
     1
 62
   257
176
     1
 40
1.0
176
     1
 90
        1
176
     1
 90
        6
176
     1
 90
        2
176
     1
 62
     7
176
     1
 90
        5
176
     1
 90
        0
176
     1
 90
        0
176
     1
290
     0
176
     1
 90
       13
176
     1
 40
0.0
176
     1
 90
        0
176
     1
290
     0
176
     1
290
     1
176
     1
290
     1
176
     1
290
     0
176
     1
290
     0
176
     1
290
     0
176
     1
290
     0
176
     1
290
     0
176
     1
290
     0
176
     1
 90
       50
176
     1
 40
0.0
176
     1
 40
1.0
176
     1
 90
        0
176
     1
 62
    18
420
        0
176
     1
 90
       50
176
     1
 90
        3
176
     1
 62
     5
420
      255
176
     1
290
     0
176
     1
 90
       50
176
     1
 90
       50
176
     1
 90
       50
176
     1
290
     0
176
     1
 90
       50
176
     1
 62
   256
176
     0
 40
1.0
176
     0
 90
        2
176
     1
  1
strokes_ogs.tif
176
     1
290
     0
176
     1
 40
1.0
176
     1
 40
1.0
176
     1
  0
VISUALSTYLE
  5
31
102
{ACAD_REACTORS
330
2A
102
}
330
2A
100
AcDbVisualStyle
  2
Hidden
 70
     6
177
     3
291
     0
 70
    58
 90
        1
176
     1
 90
        2
176
     1
 90
        2
176
     1
 90
        0
176
     1
 40
0.6
176
     1
 40
30.0
176
     1
 62
     7
420
 16777215
176
     1
 90
        2
176
     1
 90
        2
176
     1
 62
     7
176
     1
 62
   257
176
     1
 90
        2
176
     1
 90
        1
176
     1
 40
40.0
176
     1
 90
        0
176
     1
 62
   257
176
     1
 40
1.0
176
     1
 90
        1
176
     1
 90
        6
176
     1
 90
        2
176
     1
 62
     7
176
     1
 90
        3
176
     1
 90
        0
176
     1
 90
        0
176
     1
290
     0
176
     1
 90
        1
176
     1
 40
0.0
176
     1
 90
        0
176
     1
290
     0
176
     1
290
     1
176
     1
290
     1
176
     1
290
     0
176
     1
290
     0
176
     1
290
     0
176
     1
290
     0
176
     1
290
     0
176
     1
290
     0
176
     1
 90
       50
176
     1
 40
0.0
176
     1
 40
1.0
176
     1
 90
        0
176
     1
 62
    18
420
        0
176
     1
 90
       50
176
     1
 90
        3
176
     1
 62
     5
420
      255
176
     1
290
     0
176
     1
 90
       50
176
     1
 90
       50
176
     1
 90
       50
176
     1
290
     0
176
     1
 90
       50
176
     1
 62
   256
176
     0
 40
1.0
176
     0
 90
        2
176
     1
  1
strokes_ogs.tif
176
     1
290
     0
176
     1
 40
1.0
176
     1
 40
1.0
176
     1
  0
VISUALSTYLE
  5
3B
102
{ACAD_REACTORS
330
2A
102
}
330
2A
100
AcDbVisualStyle
  2
JitterOff
 70
    20
177
     3
291
     1
 70
    58
 90
        2
176
     0
 90
        2
176
     0
 90
        0
176
     0
 90
        0
176
     0
 40
0.6
176
     0
 40
30.0
176
     0
 62
     7
420
 16777215
176
     0
 90
        1
176
     0
 90
        4
176
     0
 62
     7
176
     0
 62
   257
176
     0
 90
        1
176
     0
 90
        1
176
     0
 40
1.0
176
     0
 90
       10
176
     2
 62
     7
176
     0
 40
1.0
176
     0
 90
        1
176
     0
 90
        6
176
     0
 90
        2
176
     0
 62
     7
176
     0
 90
        5
176
     0
 90
        0
176
     0
 90
        0
176
     0
290
     0
176
     0
 90
        1
176
     0
 40
0.0
176
     0
 90
        0
176
     0
290
     0
176
     0
290
     1
176
     0
290
     1
176
     0
290
     0
176
     0
290
     0
176
     0
290
     0
176
     0
290
     0
176
     0
290
     0
176
     0
290
     0
176
     0
 90
       50
176
     0
 40
0.0
176
     0
 40
1.0
176
     0
 90
        0
176
     0
 62
    18
420
        0
176
     0
 90
       50
176
     0
 90
        3
176
     0
 62
     5
420
      255
176
     0
290
     0
176
     0
 90
       50
176
     0
 90
       50
176
     0
 90
       50
176
     0
290
     0
176
     0
 90
       50
176
     0
 62
   256
176
     0
 40
1.0
176
     0
 90
        2
176
     0
  1
strokes_ogs.tif
176
     0
290
     0
176
     0
 40
1.0
176
     0
 40
1.0
176
     0
  0
VISUALSTYLE
  5
38
102
{ACAD_REACTORS
330
2A
102
}
330
2A
100
AcDbVisualStyle
  2
Linepattern
 70
    14
177
     3
291
     1
 70
    58
 90
        2
176
     1
 90
        2
176
     1
 90
        0
176
     1
 90
        0
176
     1
 40
0.6
176
     1
 40
30.0
176
     1
 62
     7
420
 16777215
176
     1
 90
        1
176
     1
 90
        4
176
     1
 62
     7
176
     1
 62
   257
176
     1
 90
        7
176
     1
 90
        7
176
     1
 40
1.0
176
     1
 90
        8
176
     1
 62
     7
176
     1
 40
1.0
176
     1
 90
        1
176
     1
 90
        6
176
     1
 90
        2
176
     1
 62
     7
176
     1
 90
        5
176
     1
 90
        0
176
     1
 90
        0
176
     1
290
     0
176
     1
 90
        1
176
     1
 40
0.0
176
     1
 90
        0
176
     1
290
     0
176
     1
290
     1
176
     1
290
     1
176
     1
290
     0
176
     1
290
     0
176
     1
290
     0
176
     1
290
     0
176
     1
290
     0
176
     1
290
     0
176
     1
 90
       50
176
     1
 40
0.0
176
     1
 40
1.0
176
     1
 90
        0
176
     1
 62
    18
420
        0
176
     1
 90
       50
176
     1
 90
        3
176
     1
 62
     5
420
      255
176
     1
290
     0
176
     1
 90
       50
176
     1
 90
       50
176
     1
 90
       50
176
     1
290
     0
176
     1
 90
       50
176
     1
 62
   256
176
     0
 40
1.0
176
     0
 90
        2
176
     1
  1
strokes_ogs.tif
176
     1
290
     0
176
     1
 40
1.0
176
     1
 40
1.0
176
     1
  0
VISUALSTYLE
  5
3C
102
{ACAD_REACTORS
330
2A
102
}
330
2A
100
AcDbVisualStyle
  2
OverhangOff
 70
    21
177
     3
291
     1
 70
    58
 90
        2
176
     0
 90
        2
176
     0
 90
        0
176
     0
 90
        0
176
     0
 40
0.6
176
     0
 40
30.0
176
     0
 62
     7
420
 16777215
176
     0
 90
        1
176
     0
 90
        4
176
     0
 62
     7
176
     0
 62
   257
176
     0
 90
        1
176
     0
 90
        1
176
     0
 40
1.0
176
     0
 90
        9
176
     2
 62
     7
176
     0
 40
1.0
176
     0
 90
        1
176
     0
 90
        6
176
     0
 90
        2
176
     0
 62
     7
176
     0
 90
        5
176
     0
 90
        0
176
     0
 90
        0
176
     0
290
     0
176
     0
 90
        1
176
     0
 40
0.0
176
     0
 90
        0
176
     0
290
     0
176
     0
290
     1
176
     0
290
     1
176
     0
290
     0
176
     0
290
     0
176
     0
290
     0
176
     0
290
     0
176
     0
290
     0
176
     0
290
     0
176
     0
 90
       50
176
     0
 40
0.0
176
     0
 40
1.0
176
     0
 90
        0
176
     0
 62
    18
420
        0
176
     0
 90
       50
176
     0
 90
        3
176
     0
 62
     5
420
      255
176
     0
290
     0
176
     0
 90
       50
176
     0
 90
       50
176
     0
 90
       50
176
     0
290
     0
176
     0
 90
       50
176
     0
 62
   256
176
     0
 40
1.0
176
     0
 90
        2
176
     0
  1
strokes_ogs.tif
176
     0
290
     0
176
     0
 40
1.0
176
     0
 40
1.0
176
     0
  0
VISUALSTYLE
  5
33
102
{ACAD_REACTORS
330
2A
102
}
330
2A
100
AcDbVisualStyle
  2
Realistic
 70
     8
177
     3
291
     0
 70
    58
 90
        2
176
     1
 90
        3
176
     1
 90
        0
176
     1
 90
        2
176
     1
 40
0.6
176
     1
 40
30.0
176
     1
 62
     7
420
 16777215
176
     1
 90
        0
176
     1
 90
        0
176
     1
 62
     7
176
     1
 62
   257
176
     1
 90
        1
176
     1
 90
        1
176
     1
 40
1.0
176
     1
 90
        8
176
     1
 62
   257
176
     1
 40
1.0
176
     1
 90
        1
176
     1
 90
        6
176
     1
 90
        2
176
     1
 62
     7
176
     1
 90
        3
176
     1
 90
        0
176
     1
 90
        0
176
     1
290
     0
176
     1
 90
       13
176
     1
 40
0.0
176
     1
 90
        0
176
     1
290
     0
176
     1
290
     1
176
     1
290
     1
176
     1
290
     0
176
     1
290
     0
176
     1
290
     0
176
     1
290
     0
176
     1
290
     0
176
     1
290
     0
176
     1
 90
       50
176
     1
 40
0.0
176
     1
 40
1.0
176
     1
 90
        0
176
     1
 62
    18
420
        0
176
     1
 90
       50
176
     1
 90
        3
176
     1
 62
     5
420
      255
176
     1
290
     0
176
     1
 90
       50
176
     1
 90
       50
176
     1
 90
       50
176
     1
290
     0
176
     1
 90
       50
176
     1
 62
   256
176
     0
 40
1.0
176
     0
 90
        2
176
     1
  1
strokes_ogs.tif
176
     1
290
     0
176
     1
 40
1.0
176
     1
 40
1.0
176
     1
  0
VISUALSTYLE
  5
42
102
{ACAD_REACTORS
330
2A
102
}
330
2A
100
AcDbVisualStyle
  2
Shaded
 70
    27
177
     3
291
     0
 70
    58
 90
        2
176
     1
 90
        2
176
     1
 90
        1
176
     1
 90
        2
176
     1
 40
0.6
176
     1
 40
30.0
176
     1
 62
     7
420
 16777215
176
     1
 90
        0
176
     1
 90
        4
176
     1
 62
     7
176
     1
 62
   257
176
     1
 90
        1
176
     1
 90
        1
176
     1
 40
1.0
176
     1
 90
        8
176
     1
 62
   257
176
     1
 40
1.0
176
     1
 90
        1
176
     1
 90
        6
176
     1
 90
        2
176
     1
 62
     8
420
  7895160
176
     1
 90
        3
176
     1
 90
        0
176
     1
 90
        0
176
     1
290
     0
176
     1
 90
        5
176
     1
 40
0.0
176
     1
 90
        0
176
     1
290
     0
176
     1
290
     1
176
     1
290
     1
176
     1
290
     0
176
     1
290
     0
176
     1
290
     0
176
     1
290
     0
176
     1
290
     0
176
     1
290
     0
176
     1
 90
       50
176
     1
 40
0.0
176
     1
 40
1.0
176
     1
 90
        0
176
     1
 62
    18
420
        0
176
     1
 90
       50
176
     1
 90
        3
176
     1
 62
     5
420
      255
176
     1
290
     0
176
     1
 90
       50
176
     1
 90
       50
176
     1
 90
       50
176
     1
290
     0
176
     1
 90
       50
176
     1
 62
   256
176
     0
 40
1.0
176
     0
 90
        2
176
     1
  1
strokes_ogs.tif
176
     1
290
     0
176
     1
 40
1.0
176
     1
 40
1.0
176
     1
  0
VISUALSTYLE
  5
41
102
{ACAD_REACTORS
330
2A
102
}
330
2A
100
AcDbVisualStyle
  2
Shaded with edges
 70
    26
177
     3
291
     0
 70
    58
 90
        2
176
     1
 90
        2
176
     1
 90
        1
176
     1
 90
        2
176
     1
 40
0.6
176
     1
 40
30.0
176
     1
 62
     7
420
 16777215
176
     1
 90
        1
176
     1
 90
       10
176
     1
 62
     7
176
     1
 62
   257
176
     1
 90
        2
176
     1
 90
        1
176
     1
 40
1.0
176
     1
 90
        8
176
     1
 62
   257
176
     1
 40
1.0
176
     1
 90
        1
176
     1
 90
        6
176
     1
 90
        2
176
     1
 62
     7
176
     1
 90
        3
176
     1
 90
        0
176
     1
 90
        0
176
     1
290
     0
176
     1
 90
        5
176
     1
 40
0.0
176
     1
 90
        0
176
     1
290
     0
176
     1
290
     1
176
     1
290
     1
176
     1
290
     0
176
     1
290
     0
176
     1
290
     0
176
     1
290
     0
176
     1
290
     0
176
     1
290
     0
176
     1
 90
       50
176
     1
 40
0.0
176
     1
 40
1.0
176
     1
 90
        0
176
     1
 62
    18
420
        0
176
     1
 90
       50
176
     1
 90
        3
176
     1
 62
     5
420
      255
176
     1
290
     0
176
     1
 90
       50
176
     1
 90
       50
176
     1
 90
       50
176
     1
290
     0
176
     1
 90
       50
176
     1
 62
   256
176
     0
 40
1.0
176
     0
 90
        2
176
     1
  1
strokes_ogs.tif
176
     1
290
     0
176
     1
 40
1.0
176
     1
 40
1.0
176
     1
  0
VISUALSTYLE
  5
3E
102
{ACAD_REACTORS
330
2A
102
}
330
2A
100
AcDbVisualStyle
  2
Shades of Gray
 70
    23
177
     3
291
     0
 70
    58
 90
        2
176
     1
 90
        2
176
     1
 90
        3
176
     1
 90
        0
176
     1
 40
0.6
176
     1
 40
30.0
176
     1
 62
     7
420
 16777215
176
     1
 90
        2
176
     1
 90
        2
176
     1
 62
     7
176
     1
 62
     7
176
     1
 90
        1
176
     1
 90
        1
176
     1
 40
40.0
176
     1
 90
        8
176
     1
 62
     7
176
     1
 40
1.0
176
     1
 90
        1
176
     1
 90
        6
176
     1
 90
        2
176
     1
 62
     7
176
     1
 90
        3
176
     1
 90
        0
176
     1
 90
        0
176
     1
290
     0
176
     1
 90
        1
176
     1
 40
0.0
176
     1
 90
        0
176
     1
290
     0
176
     1
290
     1
176
     1
290
     1
176
     1
290
     0
176
     1
290
     0
176
     1
290
     0
176
     1
290
     0
176
     1
290
     0
176
     1
290
     0
176
     1
 90
       50
176
     1
 40
0.0
176
     1
 40
1.0
176
     1
 90
        0
176
     1
 62
    18
420
        0
176
     1
 90
       50
176
     1
 90
        3
176
     1
 62
     5
420
      255
176
     1
290
     0
176
     1
 90
       50
176
     1
 90
       50
176
     1
 90
       50
176
     1
290
     0
176
     1
 90
       50
176
     1
 62
   256
176
     0
 40
1.0
176
     0
 90
        2
176
     1
  1
strokes_ogs.tif
176
     1
290
     0
176
     1
 40
1.0
176
     1
 40
1.0
176
     1
  0
VISUALSTYLE
  5
3F
102
{ACAD_REACTORS
330
2A
102
}
330
2A
100
AcDbVisualStyle
  2
Sketchy
 70
    24
177
     3
291
     0
 70
    58
 90
        1
176
     1
 90
        2
176
     1
 90
        2
176
     1
 90
        0
176
     1
 40
0.6
176
     1
 40
30.0
176
     1
 62
     7
420
 16777215
176
     1
 90
        2
176
     1
 90
        2
176
     1
 62
     7
176
     1
 62
     7
176
     1
 90
        1
176
     1
 90
        1
176
     1
 40
40.0
176
     1
 90
       11
176
     1
 62
     7
176
     1
 40
1.0
176
     1
 90
        1
176
     1
 90
        6
176
     1
 90
        2
176
     1
 62
     7
176
     1
 90
        6
176
     1
 90
        0
176
     1
 90
        0
176
     1
290
     0
176
     1
 90
        1
176
     1
 40
0.0
176
     1
 90
        0
176
     1
290
     0
176
     1
290
     1
176
     1
290
     1
176
     1
290
     0
176
     1
290
     0
176
     1
290
     0
176
     1
290
     0
176
     1
290
     0
176
     1
290
     0
176
     1
 90
       50
176
     1
 40
0.0
176
     1
 40
1.0
176
     1
 90
        0
176
     1
 62
    18
420
        0
176
     1
 90
       50
176
     1
 90
        3
176
     1
 62
     5
420
      255
176
     1
290
     0
176
     1
 90
       50
176
     1
 90
       50
176
     1
 90
       50
176
     1
290
     0
176
     1
 90
       50
176
     1
 62
   256
176
     0
 40
1.0
176
     0
 90
        2
176
     1
  1
strokes_ogs.tif
176
     1
290
     0
176
     1
 40
1.0
176
     1
 40
1.0
176
     1
  0
VISUALSTYLE
  5
37
102
{ACAD_REACTORS
330
2A
102
}
330
2A
100
AcDbVisualStyle
  2
Thicken
 70
    13
177
     3
291
     1
 70
    58
 90
        2
176
     1
 90
        2
176
     1
 90
        0
176
     1
 90
        0
176
     1
 40
0.6
176
     1
 40
30.0
176
     1
 62
     7
420
 16777215
176
     1
 90
        1
176
     1
 90
        4
176
     1
 62
     7
176
     1
 62
   257
176
     1
 90
        1
176
     1
 90
        1
176
     1
 40
1.0
176
     1
 90
       12
176
     1
 62
     7
176
     1
 40
1.0
176
     1
 90
        1
176
     1
 90
        6
176
     1
 90
        2
176
     1
 62
     7
176
     1
 90
        5
176
     1
 90
        0
176
     1
 90
        0
176
     1
290
     0
176
     1
 90
        1
176
     1
 40
0.0
176
     1
 90
        0
176
     1
290
     0
176
     1
290
     1
176
     1
290
     1
176
     1
290
     0
176
     1
290
     0
176
     1
290
     0
176
     1
290
     0
176
     1
290
     0
176
     1
290
     0
176
     1
 90
       50
176
     1
 40
0.0
176
     1
 40
1.0
176
     1
 90
        0
176
     1
 62
    18
420
        0
176
     1
 90
       50
176
     1
 90
        3
176
     1
 62
     5
420
      255
176
     1
290
     0
176
     1
 90
       50
176
     1
 90
       50
176
     1
 90
       50
176
     1
290
     0
176
     1
 90
       50
176
     1
 62
   256
176
     0
 40
1.0
176
     0
 90
        2
176
     1
  1
strokes_ogs.tif
176
     1
290
     0
176
     1
 40
1.0
176
     1
 40
1.0
176
     1
  0
VISUALSTYLE
  5
30
102
{ACAD_REACTORS
330
2A
102
}
330
2A
100
AcDbVisualStyle
  2
Wireframe
 70
     5
177
     3
291
     0
 70
    58
 90
        0
176
     1
 90
        2
176
     1
 90
        0
176
     1
 90
        0
176
     1
 40
0.6
176
     1
 40
30.0
176
     1
 62
     7
420
 16777215
176
     1
 90
        1
176
     1
 90
        4
176
     1
 62
     7
176
     1
 62
   257
176
     1
 90
        1
176
     1
 90
        1
176
     1
 40
1.0
176
     1
 90
        0
176
     1
 62
   257
176
     1
 40
1.0
176
     1
 90
        1
176
     1
 90
        6
176
     1
 90
        2
176
     1
 62
     7
176
     1
 90
        3
176
     1
 90
        0
176
     1
 90
        0
176
     1
290
     0
176
     1
 90
        1
176
     1
 40
0.0
176
     1
 90
        0
176
     1
290
     0
176
     1
290
     1
176
     1
290
     1
176
     1
290
     0
176
     1
290
     0
176
     1
290
     0
176
     1
290
     0
176
     1
290
     0
176
     1
290
     0
176
     1
 90
       50
176
     1
 40
0.0
176
     1
 40
1.0
176
     1
 90
        0
176
     1
 62
    18
420
        0
176
     1
 90
       50
176
     1
 90
        3
176
     1
 62
     5
420
      255
176
     1
290
     0
176
     1
 90
       50
176
     1
 90
       50
176
     1
 90
       50
176
     1
290
     0
176
     1
 90
       50
176
     1
 62
   256
176
     0
 40
1.0
176
     0
 90
        2
176
     1
  1
strokes_ogs.tif
176
     1
290
     0
176
     1
 40
1.0
176
     1
 40
1.0
176
     1
  0
VISUALSTYLE
  5
40
102
{ACAD_REACTORS
330
2A
102
}
330
2A
100
AcDbVisualStyle
  2
X-Ray
 70
    25
177
     3
291
     0
 70
    58
 90
        2
176
     1
 90
        2
176
     1
 90
        1
176
     1
 90
        1
176
     1
 40
0.5
176
     1
 40
30.0
176
     1
 62
     7
420
 16777215
176
     1
 90
        1
176
     1
 90
        0
176
     1
 62
     7
176
     1
 62
   257
176
     1
 90
        1
176
     1
 90
        1
176
     1
 40
1.0
176
     1
 90
        8
176
     1
 62
     7
176
     1
 40
1.0
176
     1
 90
        1
176
     1
 90
        6
176
     1
 90
        2
176
     1
 62
     7
176
     1
 90
        3
176
     1
 90
        0
176
     1
 90
        0
176
     1
290
     0
176
     1
 90
       13
176
     1
 40
0.0
176
     1
 90
        0
176
     1
290
     0
176
     1
290
     1
176
     1
290
     1
176
     1
290
     0
176
     1
290
     0
176
     1
290
     0
176
     1
290
     0
176
     1
290
     0
176
     1
290
     0
176
     1
 90
       50
176
     1
 40
0.0
176
     1
 40
1.0
176
     1
 90
        0
176
     1
 62
    18
420
        0
176
     1
 90
       50
176
     1
 90
        3
176
     1
 62
     5
420
      255
176
     1
290
     0
176
     1
 90
       50
176
     1
 90
       50
176
     1
 90
       50
176
     1
290
     0
176
     1
 90
       50
176
     1
 62
   256
176
     0
 40
1.0
176
     0
 90
        2
176
     1
  1
strokes_ogs.tif
176
     1
290
     0
176
     1
 40
1.0
176
     1
 40
1.0
176
     1
  0
DICTIONARYVAR
  5
28A
102
{ACAD_REACTORS
330
289
102
}
330
289
100
DictionaryVariables
280
     0
  1
1:1
  0
DICTIONARYVAR
  5
28F
102
{ACAD_REACTORS
330
289
102
}
330
289
100
DictionaryVariables
280
     0
  1
Standard
  0
DICTIONARYVAR
  5
28E
102
{ACAD_REACTORS
330
289
102
}
330
289
100
DictionaryVariables
280
     0
  1
Standard
  0
DICTIONARY
  5
28B
330
6A
100
AcDbDictionary
280
     1
281
     1
  3
ACAD_ROUNDTRIP_2008_TABLESTYLE_CELLSTYLEMAP
360
28C
  0
CELLSTYLEMAP
  5
28C
102
{ACAD_REACTORS
330
28B
102
}
330
28B
100
AcDbCellStyleMap
 90
        3
300
CELLSTYLE
  1
TABLEFORMAT_BEGIN
 90
        5
170
     1
 91
        0
 92
    32768
 62
   257
 93
        1
300
CONTENTFORMAT
  1
CONTENTFORMAT_BEGIN
 90
        0
 91
        0
 92
        4
 93
        0
300

 40
0.0
140
1.0
 94
        5
 62
     0
340
11
144
0.25
309
CONTENTFORMAT_END
171
     1
301
MARGIN
  1
CELLMARGIN_BEGIN
 40
0.06
 40
0.06
 40
0.06
 40
0.06
 40
0.06
 40
0.06
309
CELLMARGIN_END
 94
        6
 95
        1
302
GRIDFORMAT
  1
GRIDFORMAT_BEGIN
 90
        0
 91
        1
 62
     0
 92
       -2
340
14
 93
        0
 40
0.045
309
GRIDFORMAT_END
 95
        2
302
GRIDFORMAT
  1
GRIDFORMAT_BEGIN
 90
        0
 91
        1
 62
     0
 92
       -2
340
14
 93
        0
 40
0.045
309
GRIDFORMAT_END
 95
        4
302
GRIDFORMAT
  1
GRIDFORMAT_BEGIN
 90
        0
 91
        1
 62
     0
 92
       -2
340
14
 93
        0
 40
0.045
309
GRIDFORMAT_END
 95
        8
302
GRIDFORMAT
  1
GRIDFORMAT_BEGIN
 90
        0
 91
        1
 62
     0
 92
       -2
340
14
 93
        0
 40
0.045
309
GRIDFORMAT_END
 95
       16
302
GRIDFORMAT
  1
GRIDFORMAT_BEGIN
 90
        0
 91
        1
 62
     0
 92
       -2
340
14
 93
        0
 40
0.045
309
GRIDFORMAT_END
 95
       32
302
GRIDFORMAT
  1
GRIDFORMAT_BEGIN
 90
        0
 91
        1
 62
     0
 92
       -2
340
14
 93
        0
 40
0.045
309
GRIDFORMAT_END
309
TABLEFORMAT_END
  1
CELLSTYLE_BEGIN
 90
        1
 91
        1
300
_TITLE
309
CELLSTYLE_END
300
CELLSTYLE
  1
TABLEFORMAT_BEGIN
 90
        5
170
     1
 91
        0
 92
        0
 62
   257
 93
        1
300
CONTENTFORMAT
  1
CONTENTFORMAT_BEGIN
 90
        0
 91
        0
 92
        4
 93
        0
300

 40
0.0
140
1.0
 94
        5
 62
     0
340
11
144
0.18
309
CONTENTFORMAT_END
171
     1
301
MARGIN
  1
CELLMARGIN_BEGIN
 40
0.06
 40
0.06
 40
0.06
 40
0.06
 40
0.06
 40
0.06
309
CELLMARGIN_END
 94
        6
 95
        1
302
GRIDFORMAT
  1
GRIDFORMAT_BEGIN
 90
        0
 91
        1
 62
     0
 92
       -2
340
14
 93
        0
 40
0.045
309
GRIDFORMAT_END
 95
        2
302
GRIDFORMAT
  1
GRIDFORMAT_BEGIN
 90
        0
 91
        1
 62
     0
 92
       -2
340
14
 93
        0
 40
0.045
309
GRIDFORMAT_END
 95
        4
302
GRIDFORMAT
  1
GRIDFORMAT_BEGIN
 90
        0
 91
        1
 62
     0
 92
       -2
340
14
 93
        0
 40
0.045
309
GRIDFORMAT_END
 95
        8
302
GRIDFORMAT
  1
GRIDFORMAT_BEGIN
 90
        0
 91
        1
 62
     0
 92
       -2
340
14
 93
        0
 40
0.045
309
GRIDFORMAT_END
 95
       16
302
GRIDFORMAT
  1
GRIDFORMAT_BEGIN
 90
        0
 91
        1
 62
     0
 92
       -2
340
14
 93
        0
 40
0.045
309
GRIDFORMAT_END
 95
       32
302
GRIDFORMAT
  1
GRIDFORMAT_BEGIN
 90
        0
 91
        1
 62
     0
 92
       -2
340
14
 93
        0
 40
0.045
309
GRIDFORMAT_END
309
TABLEFORMAT_END
  1
CELLSTYLE_BEGIN
 90
        2
 91
        1
300
_HEADER
309
CELLSTYLE_END
300
CELLSTYLE
  1
TABLEFORMAT_BEGIN
 90
        5
170
     1
 91
        0
 92
        0
 62
   257
 93
        1
300
CONTENTFORMAT
  1
CONTENTFORMAT_BEGIN
 90
        0
 91
        0
 92
        4
 93
        0
300

 40
0.0
140
1.0
 94
        2
 62
     0
340
11
144
0.18
309
CONTENTFORMAT_END
171
     1
301
MARGIN
  1
CELLMARGIN_BEGIN
 40
0.06
 40
0.06
 40
0.06
 40
0.06
 40
0.06
 40
0.06
309
CELLMARGIN_END
 94
        6
 95
        1
302
GRIDFORMAT
  1
GRIDFORMAT_BEGIN
 90
        0
 91
        1
 62
     0
 92
       -2
340
14
 93
        0
 40
0.045
309
GRIDFORMAT_END
 95
        2
302
GRIDFORMAT
  1
GRIDFORMAT_BEGIN
 90
        0
 91
        1
 62
     0
 92
       -2
340
14
 93
        0
 40
0.045
309
GRIDFORMAT_END
 95
        4
302
GRIDFORMAT
  1
GRIDFORMAT_BEGIN
 90
        0
 91
        1
 62
     0
 92
       -2
340
14
 93
        0
 40
0.045
309
GRIDFORMAT_END
 95
        8
302
GRIDFORMAT
  1
GRIDFORMAT_BEGIN
 90
        0
 91
        1
 62
     0
 92
       -2
340
14
 93
        0
 40
0.045
309
GRIDFORMAT_END
 95
       16
302
GRIDFORMAT
  1
GRIDFORMAT_BEGIN
 90
        0
 91
        1
 62
     0
 92
       -2
340
14
 93
        0
 40
0.045
309
GRIDFORMAT_END
 95
       32
302
GRIDFORMAT
  1
GRIDFORMAT_BEGIN
 90
        0
 91
        1
 62
     0
 92
       -2
340
14
 93
        0
 40
0.045
309
GRIDFORMAT_END
309
TABLEFORMAT_END
  1
CELLSTYLE_BEGIN
 90
        3
 91
        2
300
_DATA
309
CELLSTYLE_END
  0
ENDSEC
  0
EOF