0
SECTION
  2
HEADER
  9
$ACADVER
  1
AC1027
  9
$ACADMAINTVER
 70
     8
  9
$DWGCODEPAGE
  3
ANSI_1252
  9
$REQUIREDVERSIONS
160
                 0
  9
$COMMENTS
  1
File was created by Cadenas
  9
$CUSTOMPROPERTYTAG
  1
NN
  9
$CUSTOMPROPERTY
  1
S-2000 Piloted Flange with Type E dimensions Trident Seal Non-Expansion
  9
$CUSTOMPROPERTYTAG
  1
NT
  9
$CUSTOMPROPERTY
  1
S-2000 - E Type - Inch
  9
$CUSTOMPROPERTYTAG
  1
NB
  9
$CUSTOMPROPERTY
  1
071521
  9
$CUSTOMPROPERTYTAG
  1
NBSYN
  9
$CUSTOMPROPERTY
  1
$PN.
  9
$CUSTOMPROPERTYTAG
  1
LINA
  9
$CUSTOMPROPERTY
  1
071521
  9
$CUSTOMPROPERTYTAG
  1
SS
  9
$CUSTOMPROPERTY
  1
4-7/16
  9
$CUSTOMPROPERTYTAG
  1
TYPE
  9
$CUSTOMPROPERTY
  1
Non-Expansion
  9
$CUSTOMPROPERTYTAG
  1
PN
  9
$CUSTOMPROPERTY
  1
071521
  9
$CUSTOMPROPERTYTAG
  1
DESCRIPTION
  9
$CUSTOMPROPERTY
  1
EFC-S2-407R
  9
$CUSTOMPROPERTYTAG
  1
A
  9
$CUSTOMPROPERTY
  1
6.53
  9
$CUSTOMPROPERTYTAG
  1
B
  9
$CUSTOMPROPERTY
  1
13.5
  9
$CUSTOMPROPERTYTAG
  1
C
  9
$CUSTOMPROPERTY
  1
4.58
  9
$CUSTOMPROPERTYTAG
  1
D
  9
$CUSTOMPROPERTY
  1
5.88
  9
$CUSTOMPROPERTYTAG
  1
DD
  9
$CUSTOMPROPERTY
  1
11.75
  9
$CUSTOMPROPERTYTAG
  1
E
  9
$CUSTOMPROPERTY
  1
1.45
  9
$CUSTOMPROPERTYTAG
  1
F
  9
$CUSTOMPROPERTY
  1
3/4
  9
$CUSTOMPROPERTYTAG
  1
G
  9
$CUSTOMPROPERTY
  1
3
  9
$CUSTOMPROPERTYTAG
  1
H
  9
$CUSTOMPROPERTY
  1
0.94
  9
$CUSTOMPROPERTYTAG
  1
K
  9
$CUSTOMPROPERTY
  1
10.250
  9
$CUSTOMPROPERTYTAG
  1
L
  9
$CUSTOMPROPERTY
  1
6.45
  9
$CUSTOMPROPERTYTAG
  1
M
  9
$CUSTOMPROPERTY
  1
3/4-10
  9
$CUSTOMPROPERTYTAG
  1
N
  9
$CUSTOMPROPERTY
  1
5.63
  9
$CUSTOMPROPERTYTAG
  1
P
  9
$CUSTOMPROPERTY
  1
3.53
  9
$CUSTOMPROPERTYTAG
  1
Q
  9
$CUSTOMPROPERTY
  1
2.63
  9
$CUSTOMPROPERTYTAG
  1
X
  9
$CUSTOMPROPERTY
  1
0.38
  9
$CUSTOMPROPERTYTAG
  1
Y
  9
$CUSTOMPROPERTY
  1
N/A
  9
$CUSTOMPROPERTYTAG
  1
Z
  9
$CUSTOMPROPERTY
  1
N/A
  9
$CUSTOMPROPERTYTAG
  1
CS
  9
$CUSTOMPROPERTY
  1
5/8
  9
$CUSTOMPROPERTYTAG
  1
TORQUE
  9
$CUSTOMPROPERTY
  1
1325
  9
$CUSTOMPROPERTYTAG
  1
COMPANY
  9
$CUSTOMPROPERTY
  1
baldor
  9
$INSBASE
 10
0.0
 20
0.0
 30
0.0
  9
$EXTMIN
 10
1.000000000000000E+20
 20
1.000000000000000E+20
 30
1.000000000000000E+20
  9
$EXTMAX
 10
-1.000000000000000E+20
 20
-1.000000000000000E+20
 30
-1.000000000000000E+20
  9
$LIMMIN
 10
0.0
 20
0.0
  9
$LIMMAX
 10
12.0
 20
9.0
  9
$ORTHOMODE
 70
     0
  9
$REGENMODE
 70
     1
  9
$FILLMODE
 70
     1
  9
$QTEXTMODE
 70
     0
  9
$MIRRTEXT
 70
     1
  9
$LTSCALE
 40
1.0
  9
$ATTMODE
 70
     1
  9
$TEXTSIZE
 40
0.2
  9
$TRACEWID
 40
0.05
  9
$TEXTSTYLE
  7
Standard
  9
$CLAYER
  8
0
  9
$CELTYPE
  6
ByLayer
  9
$CECOLOR
 62
   256
  9
$CELTSCALE
 40
1.0
  9
$DISPSILH
 70
     0
  9
$DIMSCALE
 40
1.0
  9
$DIMASZ
 40
0.18
  9
$DIMEXO
 40
0.0625
  9
$DIMDLI
 40
0.38
  9
$DIMRND
 40
0.0
  9
$DIMDLE
 40
0.0
  9
$DIMEXE
 40
0.18
  9
$DIMTP
 40
0.0
  9
$DIMTM
 40
0.0
  9
$DIMTXT
 40
0.18
  9
$DIMCEN
 40
0.09
  9
$DIMTSZ
 40
0.0
  9
$DIMTOL
 70
     0
  9
$DIMLIM
 70
     0
  9
$DIMTIH
 70
     1
  9
$DIMTOH
 70
     1
  9
$DIMSE1
 70
     0
  9
$DIMSE2
 70
     0
  9
$DIMTAD
 70
     0
  9
$DIMZIN
 70
     0
  9
$DIMBLK
  1

  9
$DIMASO
 70
     1
  9
$DIMSHO
 70
     1
  9
$DIMPOST
  1

  9
$DIMAPOST
  1

  9
$DIMALT
 70
     0
  9
$DIMALTD
 70
     2
  9
$DIMALTF
 40
25.4
  9
$DIMLFAC
 40
1.0
  9
$DIMTOFL
 70
     0
  9
$DIMTVP
 40
0.0
  9
$DIMTIX
 70
     0
  9
$DIMSOXD
 70
     0
  9
$DIMSAH
 70
     0
  9
$DIMBLK1
  1

  9
$DIMBLK2
  1

  9
$DIMSTYLE
  2
Standard
  9
$DIMCLRD
 70
     0
  9
$DIMCLRE
 70
     0
  9
$DIMCLRT
 70
     0
  9
$DIMTFAC
 40
1.0
  9
$DIMGAP
 40
0.09
  9
$DIMJUST
 70
     0
  9
$DIMSD1
 70
     0
  9
$DIMSD2
 70
     0
  9
$DIMTOLJ
 70
     1
  9
$DIMTZIN
 70
     0
  9
$DIMALTZ
 70
     0
  9
$DIMALTTZ
 70
     0
  9
$DIMUPT
 70
     0
  9
$DIMDEC
 70
     4
  9
$DIMTDEC
 70
     4
  9
$DIMALTU
 70
     2
  9
$DIMALTTD
 70
     2
  9
$DIMTXSTY
  7
Standard
  9
$DIMAUNIT
 70
     0
  9
$DIMADEC
 70
     0
  9
$DIMALTRND
 40
0.0
  9
$DIMAZIN
 70
     0
  9
$DIMDSEP
 70
    46
  9
$DIMATFIT
 70
     3
  9
$DIMFRAC
 70
     0
  9
$DIMLDRBLK
  1

  9
$DIMLUNIT
 70
     2
  9
$DIMLWD
 70
    -2
  9
$DIMLWE
 70
    -2
  9
$DIMTMOVE
 70
     0
  9
$DIMFXL
 40
1.0
  9
$DIMFXLON
 70
     0
  9
$DIMJOGANG
 40
0.7853981633974483
  9
$DIMTFILL
 70
     0
  9
$DIMTFILLCLR
 70
     0
  9
$DIMARCSYM
 70
     0
  9
$DIMLTYPE
  6

  9
$DIMLTEX1
  6

  9
$DIMLTEX2
  6

  9
$DIMTXTDIRECTION
 70
     0
  9
$LUNITS
 70
     2
  9
$LUPREC
 70
     4
  9
$SKETCHINC
 40
0.1
  9
$FILLETRAD
 40
0.5
  9
$AUNITS
 70
     0
  9
$AUPREC
 70
     0
  9
$MENU
  1
.
  9
$ELEVATION
 40
0.0
  9
$PELEVATION
 40
0.0
  9
$THICKNESS
 40
0.0
  9
$LIMCHECK
 70
     0
  9
$CHAMFERA
 40
0.0
  9
$CHAMFERB
 40
0.0
  9
$CHAMFERC
 40
0.0
  9
$CHAMFERD
 40
0.0
  9
$SKPOLY
 70
     0
  9
$TDCREATE
 40
2458168.981742072
  9
$TDUCREATE
 40
2458168.940075405
  9
$TDUPDATE
 40
2458168.981742257
  9
$TDUUPDATE
 40
2458168.94007559
  9
$TDINDWG
 40
0.0000000116
  9
$TDUSRTIMER
 40
0.0000000116
  9
$USRTIMER
 70
     1
  9
$ANGBASE
 50
0.0
  9
$ANGDIR
 70
     0
  9
$PDMODE
 70
     0
  9
$PDSIZE
 40
0.0
  9
$PLINEWID
 40
0.0
  9
$SPLFRAME
 70
     0
  9
$SPLINETYPE
 70
     6
  9
$SPLINESEGS
 70
     8
  9
$HANDSEED
  5
29D
  9
$SURFTAB1
 70
     6
  9
$SURFTAB2
 70
     6
  9
$SURFTYPE
 70
     6
  9
$SURFU
 70
     6
  9
$SURFV
 70
     6
  9
$UCSBASE
  2

  9
$UCSNAME
  2

  9
$UCSORG
 10
0.0
 20
0.0
 30
0.0
  9
$UCSXDIR
 10
1.0
 20
0.0
 30
0.0
  9
$UCSYDIR
 10
0.0
 20
1.0
 30
0.0
  9
$UCSORTHOREF
  2

  9
$UCSORTHOVIEW
 70
     0
  9
$UCSORGTOP
 10
0.0
 20
0.0
 30
0.0
  9
$UCSORGBOTTOM
 10
0.0
 20
0.0
 30
0.0
  9
$UCSORGLEFT
 10
0.0
 20
0.0
 30
0.0
  9
$UCSORGRIGHT
 10
0.0
 20
0.0
 30
0.0
  9
$UCSORGFRONT
 10
0.0
 20
0.0
 30
0.0
  9
$UCSORGBACK
 10
0.0
 20
0.0
 30
0.0
  9
$PUCSBASE
  2

  9
$PUCSNAME
  2

  9
$PUCSORG
 10
0.0
 20
0.0
 30
0.0
  9
$PUCSXDIR
 10
1.0
 20
0.0
 30
0.0
  9
$PUCSYDIR
 10
0.0
 20
1.0
 30
0.0
  9
$PUCSORTHOREF
  2

  9
$PUCSORTHOVIEW
 70
     0
  9
$PUCSORGTOP
 10
0.0
 20
0.0
 30
0.0
  9
$PUCSORGBOTTOM
 10
0.0
 20
0.0
 30
0.0
  9
$PUCSORGLEFT
 10
0.0
 20
0.0
 30
0.0
  9
$PUCSORGRIGHT
 10
0.0
 20
0.0
 30
0.0
  9
$PUCSORGFRONT
 10
0.0
 20
0.0
 30
0.0
  9
$PUCSORGBACK
 10
0.0
 20
0.0
 30
0.0
  9
$USERI1
 70
     0
  9
$USERI2
 70
     0
  9
$USERI3
 70
     0
  9
$USERI4
 70
     0
  9
$USERI5
 70
     0
  9
$USERR1
 40
0.0
  9
$USERR2
 40
0.0
  9
$USERR3
 40
0.0
  9
$USERR4
 40
0.0
  9
$USERR5
 40
0.0
  9
$WORLDVIEW
 70
     1
  9
$SHADEDGE
 70
     3
  9
$SHADEDIF
 70
    70
  9
$TILEMODE
 70
     1
  9
$MAXACTVP
 70
    64
  9
$PINSBASE
 10
0.0
 20
0.0
 30
0.0
  9
$PLIMCHECK
 70
     0
  9
$PEXTMIN
 10
1.000000000000000E+20
 20
1.000000000000000E+20
 30
1.000000000000000E+20
  9
$PEXTMAX
 10
-1.000000000000000E+20
 20
-1.000000000000000E+20
 30
-1.000000000000000E+20
  9
$PLIMMIN
 10
0.0
 20
0.0
  9
$PLIMMAX
 10
12.0
 20
9.0
  9
$UNITMODE
 70
     0
  9
$VISRETAIN
 70
     1
  9
$PLINEGEN
 70
     0
  9
$PSLTSCALE
 70
     1
  9
$TREEDEPTH
 70
  3020
  9
$CMLSTYLE
  2
Standard
  9
$CMLJUST
 70
     0
  9
$CMLSCALE
 40
1.0
  9
$PROXYGRAPHICS
 70
     1
  9
$MEASUREMENT
 70
     0
  9
$CELWEIGHT
370
    -1
  9
$ENDCAPS
280
     0
  9
$JOINSTYLE
280
     0
  9
$LWDISPLAY
290
     0
  9
$INSUNITS
 70
     1
  9
$HYPERLINKBASE
  1

  9
$STYLESHEET
  1

  9
$XEDIT
290
     1
  9
$CEPSNTYPE
380
     0
  9
$PSTYLEMODE
290
     1
  9
$FINGERPRINTGUID
  2
{97990361-0217-4BB7-A14E-F8221CBA867C}
  9
$VERSIONGUID
  2
{FAEB1C32-E019-11D5-929B-00C0DF256EC4}
  9
$EXTNAMES
290
     1
  9
$PSVPSCALE
 40
0.0
  9
$OLESTARTUP
290
     0
  9
$SORTENTS
280
   127
  9
$INDEXCTL
280
     0
  9
$HIDETEXT
280
     1
  9
$XCLIPFRAME
280
     2
  9
$HALOGAP
280
     0
  9
$OBSCOLOR
 70
   257
  9
$OBSLTYPE
280
     0
  9
$INTERSECTIONDISPLAY
280
     0
  9
$INTERSECTIONCOLOR
 70
   257
  9
$DIMASSOC
280
     2
  9
$PROJECTNAME
  1

  9
$CAMERADISPLAY
290
     0
  9
$LENSLENGTH
 40
50.0
  9
$CAMERAHEIGHT
 40
0.0
  9
$STEPSPERSEC
 40
2.0
  9
$STEPSIZE
 40
6.0
  9
$3DDWFPREC
 40
2.0
  9
$PSOLWIDTH
 40
0.25
  9
$PSOLHEIGHT
 40
4.0
  9
$LOFTANG1
 40
1.570796326794897
  9
$LOFTANG2
 40
1.570796326794897
  9
$LOFTMAG1
 40
0.0
  9
$LOFTMAG2
 40
0.0
  9
$LOFTPARAM
 70
     7
  9
$LOFTNORMALS
280
     1
  9
$LATITUDE
 40
37.795
  9
$LONGITUDE
 40
-122.394
  9
$NORTHDIRECTION
 40
0.0
  9
$TIMEZONE
 70
 -8000
  9
$LIGHTGLYPHDISPLAY
280
     1
  9
$TILEMODELIGHTSYNCH
280
     1
  9
$CMATERIAL
347
44
  9
$SOLIDHIST
280
     0
  9
$SHOWHIST
280
     1
  9
$DWFFRAME
280
     2
  9
$DGNFRAME
280
     2
  9
$REALWORLDSCALE
290
     1
  9
$INTERFERECOLOR
 62
   256
  9
$CSHADOW
280
     0
  9
$SHADOWPLANELOCATION
 40
0.0
  0
ENDSEC
  0
SECTION
  2
CLASSES
  0
CLASS
  1
ACDBDICTIONARYWDFLT
  2
AcDbDictionaryWithDefault
  3
ObjectDBX Classes
 90
        0
 91
        4
280
     0
281
     0
  0
CLASS
  1
VISUALSTYLE
  2
AcDbVisualStyle
  3
ObjectDBX Classes
 90
     4095
 91
        4
280
     0
281
     0
  0
CLASS
  1
MATERIAL
  2
AcDbMaterial
  3
ObjectDBX Classes
 90
     1153
 91
        4
280
     0
281
     0
  0
CLASS
  1
SCALE
  2
AcDbScale
  3
ObjectDBX Classes
 90
     1153
 91
        4
280
     0
281
     0
  0
CLASS
  1
TABLESTYLE
  2
AcDbTableStyle
  3
ObjectDBX Classes
 90
     4095
 91
        4
280
     0
281
     0
  0
CLASS
  1
MLEADERSTYLE
  2
AcDbMLeaderStyle
  3
ACDB_MLEADERSTYLE_CLASS
 90
     4095
 91
        4
280
     0
281
     0
  0
CLASS
  1
SUN
  2
AcDbSun
  3
SCENEOE
 90
     1153
 91
        4
280
     0
281
     0
  0
CLASS
  1
DICTIONARYVAR
  2
AcDbDictionaryVar
  3
ObjectDBX Classes
 90
        0
 91
        4
280
     0
281
     0
  0
CLASS
  1
CELLSTYLEMAP
  2
AcDbCellStyleMap
  3
ObjectDBX Classes
 90
     1152
 91
        4
280
     0
281
     0
  0
ENDSEC
  0
SECTION
  2
TABLES
  0
TABLE
  2
VPORT
  5
8
330
0
100
AcDbSymbolTable
 70
     1
  0
VPORT
  5
29
330
8
100
AcDbSymbolTableRecord
100
AcDbViewportTableRecord
  2
*Active
 70
     0
 10
0.0
 20
0.0
 11
1.0
 21
1.0
 12
-0.0000000000000071
 22
-2.364375
 13
0.0
 23
0.0
 14
0.5
 24
0.5
 15
0.5
 25
0.5
 16
0.0
 26
0.0
 36
1.0
 17
0.0
 27
0.0
 37
0.0
 40
7.328062500000001
 41
1.879077859939104
 42
50.0
 43
0.0
 44
0.0
 50
0.0
 51
0.0
 71
     0
 72
   100
 73
     1
 74
     3
 75
     0
 76
     0
 77
     0
 78
     0
281
     0
 65
     1
110
0.0
120
0.0
130
0.0
111
1.0
121
0.0
131
0.0
112
0.0
122
1.0
132
0.0
 79
     0
146
0.0
348
2F
 60
     3
 61
     5
292
     1
282
     1
141
0.0
142
0.0
 63
   250
361
6D
  0
ENDTAB
  0
TABLE
  2
LTYPE
  5
5
330
0
100
AcDbSymbolTable
 70
     3
  0
LTYPE
  5
14
330
5
100
AcDbSymbolTableRecord
100
AcDbLinetypeTableRecord
  2
ByBlock
 70
     0
  3

 72
    65
 73
     0
 40
0.0
  0
LTYPE
  5
15
330
5
100
AcDbSymbolTableRecord
100
AcDbLinetypeTableRecord
  2
ByLayer
 70
     0
  3

 72
    65
 73
     0
 40
0.0
  0
LTYPE
  5
16
330
5
100
AcDbSymbolTableRecord
100
AcDbLinetypeTableRecord
  2
Continuous
 70
     0
  3
Solid line
 72
    65
 73
     0
 40
0.0
  0
LTYPE
  5
AA
330
5
100
AcDbSymbolTableRecord
100
AcDbLinetypeTableRecord
  2
Dashed
 70
     0
  3

 72
    65
 73
     2
 40
2.0
 49
1.0
 74
     0
 49
-1.0
 74
     0
  0
LTYPE
  5
CB
330
5
100
AcDbSymbolTableRecord
100
AcDbLinetypeTableRecord
  2
Center
 70
     0
  3

 72
    65
 73
     4
 40
1.5
 49
0.45
 74
     0
 49
-0.5
 74
     0
 49
0.05
 74
     0
 49
-0.5
 74
     0
  0
ENDTAB
  0
TABLE
  2
LAYER
  5
2
330
0
100
AcDbSymbolTable
 70
     7
  0
LAYER
  5
10
330
2
100
AcDbSymbolTableRecord
100
AcDbLayerTableRecord
  2
0
 70
     0
 62
     7
  6
Continuous
370
    -3
390
F
347
46
348
0
  0
LAYER
  5
72
330
2
100
AcDbSymbolTableRecord
100
AcDbLayerTableRecord
  2
AM_6
 70
     0
 62
    -2
  6
Continuous
370
    35
390
F
347
46
348
0
  0
LAYER
  5
AB
330
2
100
AcDbSymbolTableRecord
100
AcDbLayerTableRecord
  2
AM_9
 70
     0
 62
     6
  6
Dashed
370
    25
390
F
347
46
348
0
  0
LAYER
  5
CC
330
2
100
AcDbSymbolTableRecord
100
AcDbLayerTableRecord
  2
AM_7
 70
     0
 62
     7
  6
Center
370
    25
390
F
347
46
348
0
  0
LAYER
  5
CE
330
2
100
AcDbSymbolTableRecord
100
AcDbLayerTableRecord
  2
AM_4
 70
     0
 62
     7
  6
Continuous
370
    50
390
F
347
46
348
0
  0
LAYER
  5
EA
330
2
100
AcDbSymbolTableRecord
100
AcDbLayerTableRecord
  2
AM_5
 70
     0
 62
     3
  6
Continuous
370
    25
390
F
347
46
348
0
  0
LAYER
  5
289
330
2
100
AcDbSymbolTableRecord
100
AcDbLayerTableRecord
  2
ConnectionPoints
 70
     0
 62
     7
  6
Continuous
370
    50
390
F
347
46
348
0
  0
ENDTAB
  0
TABLE
  2
STYLE
  5
3
330
0
100
AcDbSymbolTable
 70
     1
  0
STYLE
  5
11
330
3
100
AcDbSymbolTableRecord
100
AcDbTextStyleTableRecord
  2
Standard
 70
     0
 40
0.0
 41
1.0
 50
0.0
 71
     0
 42
0.2
  3
txt
  4

  0
ENDTAB
  0
TABLE
  2
VIEW
  5
6
330
0
100
AcDbSymbolTable
 70
     0
  0
ENDTAB
  0
TABLE
  2
UCS
  5
7
330
0
100
AcDbSymbolTable
 70
     0
  0
ENDTAB
  0
TABLE
  2
APPID
  5
9
330
0
100
AcDbSymbolTable
 70
     1
  0
APPID
  5
12
330
9
100
AcDbSymbolTableRecord
100
AcDbRegAppTableRecord
  2
ACAD
 70
     0
  0
ENDTAB
  0
TABLE
  2
DIMSTYLE
  5
A
330
0
100
AcDbSymbolTable
 70
     1
100
AcDbDimStyleTable
  0
DIMSTYLE
105
27
330
A
100
AcDbSymbolTableRecord
100
AcDbDimStyleTableRecord
  2
Standard
 70
     0
178
     0
340
11
  0
ENDTAB
  0
TABLE
  2
BLOCK_RECORD
  5
1
330
0
100
AcDbSymbolTable
 70
     7
  0
BLOCK_RECORD
  5
1F
330
1
100
AcDbSymbolTableRecord
100
AcDbBlockTableRecord
  2
*Model_Space
340
22
 70
     0
280
     1
281
     0
  0
BLOCK_RECORD
  5
1B
330
1
100
AcDbSymbolTableRecord
100
AcDbBlockTableRecord
  2
*Paper_Space
340
1E
 70
     0
280
     1
281
     0
  0
BLOCK_RECORD
  5
23
330
1
100
AcDbSymbolTableRecord
100
AcDbBlockTableRecord
  2
*Paper_Space0
340
26
 70
     0
280
     1
281
     0
  0
BLOCK_RECORD
  5
6E
330
1
100
AcDbSymbolTableRecord
100
AcDbBlockTableRecord
  2
1_071521_4
340
0
102
{BLKREFS
331
6F
102
}
 70
     0
280
     1
281
     0
  0
BLOCK_RECORD
  5
91
330
1
100
AcDbSymbolTableRecord
100
AcDbBlockTableRecord
  2
2_4_7_16CS2i_1_0_in_071521_4
340
0
102
{BLKREFS
331
92
102
}
 70
     0
280
     1
281
     0
  0
BLOCK_RECORD
  5
EC
330
1
100
AcDbSymbolTableRecord
100
AcDbBlockTableRecord
  2
3_4_7_16CS2i_2_0_in_071521_4
340
0
102
{BLKREFS
331
ED
102
}
 70
     0
280
     1
281
     0
  0
BLOCK_RECORD
  5
13C
330
1
100
AcDbSymbolTableRecord
100
AcDbBlockTableRecord
  2
4_070014i_0_in_071521_4
340
0
102
{BLKREFS
331
13D
102
}
 70
     0
280
     1
281
     0
  0
BLOCK_RECORD
  5
19A
330
1
100
AcDbSymbolTableRecord
100
AcDbBlockTableRecord
  2
5_405015E_Inch_0_in_071521_4
340
0
102
{BLKREFS
331
19B
102
}
 70
     0
280
     1
281
     0
  0
BLOCK_RECORD
  5
1EF
330
1
100
AcDbSymbolTableRecord
100
AcDbBlockTableRecord
  2
6_B071521_0_in_071521_4
340
0
102
{BLKREFS
331
1F0
102
}
 70
     0
280
     1
281
     0
  0
ENDTAB
  0
ENDSEC
  0
SECTION
  2
BLOCKS
  0
BLOCK
  5
20
330
1F
100
AcDbEntity
  8
0
100
AcDbBlockBegin
  2
*Model_Space
 70
     0
 10
0.0
 20
0.0
 30
0.0
  3
*Model_Space
  1

  0
ENDBLK
  5
21
330
1F
100
AcDbEntity
  8
0
100
AcDbBlockEnd
  0
BLOCK
  5
1C
330
1B
100
AcDbEntity
 67
     1
  8
0
100
AcDbBlockBegin
  2
*Paper_Space
 70
     0
 10
0.0
 20
0.0
 30
0.0
  3
*Paper_Space
  1

  0
ENDBLK
  5
1D
330
1B
100
AcDbEntity
 67
     1
  8
0
100
AcDbBlockEnd
  0
BLOCK
  5
24
330
23
100
AcDbEntity
  8
0
100
AcDbBlockBegin
  2
*Paper_Space0
 70
     0
 10
0.0
 20
0.0
 30
0.0
  3
*Paper_Space0
  1

  0
ENDBLK
  5
25
330
23
100
AcDbEntity
  8
0
100
AcDbBlockEnd
  0
BLOCK
  5
70
330
6E
100
AcDbEntity
  8
0
100
AcDbBlockBegin
  2
1_071521_4
 70
     2
 10
0.0
 20
0.0
 30
0.0
  3
1_071521_4
  1

  0
ATTDEF
  5
73
330
6E
100
AcDbEntity
  8
AM_6
100
AcDbText
 10
11.74999999999999
 20
1.2278125
 30
0.0
 40
0.5
  1
S-2000 Piloted Flange with Type E dimensions Trident Seal Non-Expansion
100
AcDbAttributeDefinition
  3

  2
NN
 70
     8
280
     0
  0
ATTDEF
  5
74
330
6E
100
AcDbEntity
  8
AM_6
100
AcDbText
 10
11.74999999999999
 20
0.7278125000000004
 30
0.0
 40
0.5
  1
S-2000 - E Type - Inch
100
AcDbAttributeDefinition
  3

  2
NT
 70
     8
280
     0
  0
ATTDEF
  5
75
330
6E
100
AcDbEntity
  8
AM_6
100
AcDbText
 10
11.74999999999999
 20
0.2278125000000004
 30
0.0
 40
0.5
  1
071521
100
AcDbAttributeDefinition
  3

  2
NB
 70
     8
280
     0
  0
ATTDEF
  5
76
330
6E
100
AcDbEntity
  8
AM_6
100
AcDbText
 10
11.74999999999999
 20
-0.2721874999999996
 30
0.0
 40
0.5
  1
$PN.
100
AcDbAttributeDefinition
  3

  2
NBSYN
 70
     8
280
     0
  0
ATTDEF
  5
77
330
6E
100
AcDbEntity
  8
AM_6
100
AcDbText
 10
11.74999999999999
 20
-0.7721874999999996
 30
0.0
 40
0.5
  1
071521
100
AcDbAttributeDefinition
  3

  2
LINA
 70
     8
280
     0
  0
ATTDEF
  5
78
330
6E
100
AcDbEntity
  8
AM_6
100
AcDbText
 10
11.74999999999999
 20
-1.2721875
 30
0.0
 40
0.5
  1
4-7/16
100
AcDbAttributeDefinition
  3

  2
SS
 70
     8
280
     0
  0
ATTDEF
  5
79
330
6E
100
AcDbEntity
  8
AM_6
100
AcDbText
 10
11.74999999999999
 20
-1.7721875
 30
0.0
 40
0.5
  1
Non-Expansion
100
AcDbAttributeDefinition
  3

  2
TYPE
 70
     8
280
     0
  0
ATTDEF
  5
7A
330
6E
100
AcDbEntity
  8
AM_6
100
AcDbText
 10
11.74999999999999
 20
-2.272187499999999
 30
0.0
 40
0.5
  1
071521
100
AcDbAttributeDefinition
  3

  2
PN
 70
     8
280
     0
  0
ATTDEF
  5
7B
330
6E
100
AcDbEntity
  8
AM_6
100
AcDbText
 10
11.74999999999999
 20
-2.772187499999999
 30
0.0
 40
0.5
  1
EFC-S2-407R
100
AcDbAttributeDefinition
  3

  2
DESCRIPTION
 70
     8
280
     0
  0
ATTDEF
  5
7C
330
6E
100
AcDbEntity
  8
AM_6
100
AcDbText
 10
11.74999999999999
 20
-3.272187499999999
 30
0.0
 40
0.5
  1
6.53
100
AcDbAttributeDefinition
  3

  2
A
 70
     8
280
     0
  0
ATTDEF
  5
7D
330
6E
100
AcDbEntity
  8
AM_6
100
AcDbText
 10
11.74999999999999
 20
-3.772187499999999
 30
0.0
 40
0.5
  1
13.5
100
AcDbAttributeDefinition
  3

  2
B
 70
     8
280
     0
  0
ATTDEF
  5
7E
330
6E
100
AcDbEntity
  8
AM_6
100
AcDbText
 10
11.74999999999999
 20
-4.272187499999999
 30
0.0
 40
0.5
  1
4.58
100
AcDbAttributeDefinition
  3

  2
C
 70
     8
280
     0
  0
ATTDEF
  5
7F
330
6E
100
AcDbEntity
  8
AM_6
100
AcDbText
 10
11.74999999999999
 20
-4.772187499999999
 30
0.0
 40
0.5
  1
5.88
100
AcDbAttributeDefinition
  3

  2
D
 70
     8
280
     0
  0
ATTDEF
  5
80
330
6E
100
AcDbEntity
  8
AM_6
100
AcDbText
 10
11.74999999999999
 20
-5.272187499999999
 30
0.0
 40
0.5
  1
11.75
100
AcDbAttributeDefinition
  3

  2
DD
 70
     8
280
     0
  0
ATTDEF
  5
81
330
6E
100
AcDbEntity
  8
AM_6
100
AcDbText
 10
11.74999999999999
 20
-5.772187499999999
 30
0.0
 40
0.5
  1
1.45
100
AcDbAttributeDefinition
  3

  2
E
 70
     8
280
     0
  0
ATTDEF
  5
82
330
6E
100
AcDbEntity
  8
AM_6
100
AcDbText
 10
11.74999999999999
 20
-6.272187499999999
 30
0.0
 40
0.5
  1
3/4
100
AcDbAttributeDefinition
  3

  2
F
 70
     8
280
     0
  0
ATTDEF
  5
83
330
6E
100
AcDbEntity
  8
AM_6
100
AcDbText
 10
11.74999999999999
 20
-6.772187499999999
 30
0.0
 40
0.5
  1
3
100
AcDbAttributeDefinition
  3

  2
G
 70
     8
280
     0
  0
ATTDEF
  5
84
330
6E
100
AcDbEntity
  8
AM_6
100
AcDbText
 10
11.74999999999999
 20
-7.272187499999999
 30
0.0
 40
0.5
  1
0.94
100
AcDbAttributeDefinition
  3

  2
H
 70
     8
280
     0
  0
ATTDEF
  5
85
330
6E
100
AcDbEntity
  8
AM_6
100
AcDbText
 10
11.74999999999999
 20
-7.772187499999999
 30
0.0
 40
0.5
  1
10.250
100
AcDbAttributeDefinition
  3

  2
K
 70
     8
280
     0
  0
ATTDEF
  5
86
330
6E
100
AcDbEntity
  8
AM_6
100
AcDbText
 10
11.74999999999999
 20
-8.2721875
 30
0.0
 40
0.5
  1
6.45
100
AcDbAttributeDefinition
  3

  2
L
 70
     8
280
     0
  0
ATTDEF
  5
87
330
6E
100
AcDbEntity
  8
AM_6
100
AcDbText
 10
11.74999999999999
 20
-8.7721875
 30
0.0
 40
0.5
  1
3/4-10
100
AcDbAttributeDefinition
  3

  2
M
 70
     8
280
     0
  0
ATTDEF
  5
88
330
6E
100
AcDbEntity
  8
AM_6
100
AcDbText
 10
11.74999999999999
 20
-9.2721875
 30
0.0
 40
0.5
  1
5.63
100
AcDbAttributeDefinition
  3

  2
N
 70
     8
280
     0
  0
ATTDEF
  5
89
330
6E
100
AcDbEntity
  8
AM_6
100
AcDbText
 10
11.74999999999999
 20
-9.7721875
 30
0.0
 40
0.5
  1
3.53
100
AcDbAttributeDefinition
  3

  2
P
 70
     8
280
     0
  0
ATTDEF
  5
8A
330
6E
100
AcDbEntity
  8
AM_6
100
AcDbText
 10
11.74999999999999
 20
-10.2721875
 30
0.0
 40
0.5
  1
2.63
100
AcDbAttributeDefinition
  3

  2
Q
 70
     8
280
     0
  0
ATTDEF
  5
8B
330
6E
100
AcDbEntity
  8
AM_6
100
AcDbText
 10
11.74999999999999
 20
-10.7721875
 30
0.0
 40
0.5
  1
0.38
100
AcDbAttributeDefinition
  3

  2
X
 70
     8
280
     0
  0
ATTDEF
  5
8C
330
6E
100
AcDbEntity
  8
AM_6
100
AcDbText
 10
11.74999999999999
 20
-11.2721875
 30
0.0
 40
0.5
  1
N/A
100
AcDbAttributeDefinition
  3

  2
Y
 70
     8
280
     0
  0
ATTDEF
  5
8D
330
6E
100
AcDbEntity
  8
AM_6
100
AcDbText
 10
11.74999999999999
 20
-11.7721875
 30
0.0
 40
0.5
  1
N/A
100
AcDbAttributeDefinition
  3

  2
Z
 70
     8
280
     0
  0
ATTDEF
  5
8E
330
6E
100
AcDbEntity
  8
AM_6
100
AcDbText
 10
11.74999999999999
 20
-12.2721875
 30
0.0
 40
0.5
  1
5/8
100
AcDbAttributeDefinition
  3

  2
CS
 70
     8
280
     0
  0
ATTDEF
  5
8F
330
6E
100
AcDbEntity
  8
AM_6
100
AcDbText
 10
11.74999999999999
 20
-12.7721875
 30
0.0
 40
0.5
  1
1325
100
AcDbAttributeDefinition
  3

  2
TORQUE
 70
     8
280
     0
  0
ATTDEF
  5
90
330
6E
100
AcDbEntity
  8
AM_6
100
AcDbText
 10
11.74999999999999
 20
-13.2721875
 30
0.0
 40
0.5
  1
baldor
100
AcDbAttributeDefinition
  3

  2
COMPANY
 70
     8
280
     0
  0
INSERT
  5
92
330
6E
100
AcDbEntity
  8
0
100
AcDbBlockReference
  2
2_4_7_16CS2i_1_0_in_071521_4
 10
0.0
 20
0.0
 30
0.0
  0
INSERT
  5
ED
330
6E
100
AcDbEntity
  8
0
100
AcDbBlockReference
  2
3_4_7_16CS2i_2_0_in_071521_4
 10
0.0
 20
0.0
 30
0.0
  0
INSERT
  5
13D
330
6E
100
AcDbEntity
  8
0
100
AcDbBlockReference
  2
4_070014i_0_in_071521_4
 10
0.0
 20
0.0
 30
0.0
  0
INSERT
  5
19B
330
6E
100
AcDbEntity
  8
0
100
AcDbBlockReference
  2
5_405015E_Inch_0_in_071521_4
 10
0.0
 20
0.0
 30
0.0
  0
INSERT
  5
1F0
330
6E
100
AcDbEntity
  8
0
100
AcDbBlockReference
  2
6_B071521_0_in_071521_4
 10
0.0
 20
0.0
 30
0.0
  0
ENDBLK
  5
71
330
6E
100
AcDbEntity
  8
0
100
AcDbBlockEnd
  0
BLOCK
  5
93
330
91
100
AcDbEntity
  8
0
100
AcDbBlockBegin
  2
2_4_7_16CS2i_1_0_in_071521_4
 70
     2
 10
0.0
 20
0.0
 30
0.0
  3
2_4_7_16CS2i_1_0_in_071521_4
  1

  0
ATTDEF
  5
95
330
91
100
AcDbEntity
  8
AM_6
100
AcDbText
 10
8.22656
 20
-4.39
 30
0.0
 40
0.5
  1
S-2000 Collar -Inch
100
AcDbAttributeDefinition
  3

  2
NN
 70
     8
280
     0
  0
ATTDEF
  5
96
330
91
100
AcDbEntity
  8
AM_6
100
AcDbText
 10
8.22656
 20
-4.89
 30
0.0
 40
0.5
  1
S-2000 Bearings
100
AcDbAttributeDefinition
  3

  2
NT
 70
     8
280
     0
  0
ATTDEF
  5
97
330
91
100
AcDbEntity
  8
AM_6
100
AcDbText
 10
8.22656
 20
-5.39
 30
0.0
 40
0.5
  1
4-7/16CS2i
100
AcDbAttributeDefinition
  3

  2
NB
 70
     8
280
     0
  0
ATTDEF
  5
98
330
91
100
AcDbEntity
  8
AM_6
100
AcDbText
 10
8.22656
 20
-5.89
 30
0.0
 40
0.5
  1
$BORE.CS2i
100
AcDbAttributeDefinition
  3

  2
NBSYN
 70
     8
280
     0
  0
ATTDEF
  5
99
330
91
100
AcDbEntity
  8
AM_6
100
AcDbText
 10
8.22656
 20
-6.39
 30
0.0
 40
0.5
  1
4-7/16CS2i
100
AcDbAttributeDefinition
  3

  2
LINA
 70
     8
280
     0
  0
ATTDEF
  5
9A
330
91
100
AcDbEntity
  8
AM_6
100
AcDbText
 10
8.22656
 20
-6.89
 30
0.0
 40
0.5
  1
4-7/16
100
AcDbAttributeDefinition
  3

  2
BORE
 70
     8
280
     0
  0
ATTDEF
  5
9B
330
91
100
AcDbEntity
  8
AM_6
100
AcDbText
 10
8.22656
 20
-7.39
 30
0.0
 40
0.5
  1
4.437500
100
AcDbAttributeDefinition
  3

  2
BORE1
 70
     8
280
     0
  0
ATTDEF
  5
9C
330
91
100
AcDbEntity
  8
AM_6
100
AcDbText
 10
8.22656
 20
-7.89
 30
0.0
 40
0.5
  1
6-29/64
100
AcDbAttributeDefinition
  3

  2
L1
 70
     8
280
     0
  0
ATTDEF
  5
9D
330
91
100
AcDbEntity
  8
AM_6
100
AcDbText
 10
8.22656
 20
-8.39
 30
0.0
 40
0.5
  1
6.45313
100
AcDbAttributeDefinition
  3

  2
L
 70
     8
280
     0
  0
ATTDEF
  5
9E
330
91
100
AcDbEntity
  8
AM_6
100
AcDbText
 10
8.22656
 20
-8.89
 30
0.0
 40
0.5
  1
6.45312
100
AcDbAttributeDefinition
  3

  2
L2
 70
     8
280
     0
  0
ATTDEF
  5
9F
330
91
100
AcDbEntity
  8
AM_6
100
AcDbText
 10
8.22656
 20
-9.39
 30
0.0
 40
0.5
  1
6.75
100
AcDbAttributeDefinition
  3

  2
A
 70
     8
280
     0
  0
ATTDEF
  5
A0
330
91
100
AcDbEntity
  8
AM_6
100
AcDbText
 10
8.22656
 20
-9.89
 30
0.0
 40
0.5
  1
3.25
100
AcDbAttributeDefinition
  3

  2
B
 70
     8
280
     0
  0
ATTDEF
  5
A1
330
91
100
AcDbEntity
  8
AM_6
100
AcDbText
 10
8.22656
 20
-10.39
 30
0.0
 40
0.5
  1
5.00
100
AcDbAttributeDefinition
  3

  2
C
 70
     8
280
     0
  0
ATTDEF
  5
A2
330
91
100
AcDbEntity
  8
AM_6
100
AcDbText
 10
8.22656
 20
-10.89
 30
0.0
 40
0.5
  1
7.00
100
AcDbAttributeDefinition
  3

  2
D
 70
     8
280
     0
  0
ATTDEF
  5
A3
330
91
100
AcDbEntity
  8
AM_6
100
AcDbText
 10
8.22656
 20
-11.39
 30
0.0
 40
0.5
  1
0.78
100
AcDbAttributeDefinition
  3

  2
E
 70
     8
280
     0
  0
ATTDEF
  5
A4
330
91
100
AcDbEntity
  8
AM_6
100
AcDbText
 10
8.22656
 20
-11.89
 30
0.0
 40
0.5
  1
0.620
100
AcDbAttributeDefinition
  3

  2
F
 70
     8
280
     0
  0
ATTDEF
  5
A5
330
91
100
AcDbEntity
  8
AM_6
100
AcDbText
 10
8.22656
 20
-12.39
 30
0.0
 40
0.5
  1
5/8-11
100
AcDbAttributeDefinition
  3

  2
CS
 70
     8
280
     0
  0
ATTDEF
  5
A6
330
91
100
AcDbEntity
  8
AM_6
100
AcDbText
 10
8.22656
 20
-12.89
 30
0.0
 40
0.5
  1
0.6250
100
AcDbAttributeDefinition
  3

  2
NDM
 70
     8
280
     0
  0
ATTDEF
  5
A7
330
91
100
AcDbEntity
  8
AM_6
100
AcDbText
 10
8.22656
 20
-13.39
 30
0.0
 40
0.5
  1
0.5270
100
AcDbAttributeDefinition
  3

  2
KDM
 70
     8
280
     0
  0
ATTDEF
  5
A8
330
91
100
AcDbEntity
  8
AM_6
100
AcDbText
 10
8.22656
 20
-13.89
 30
0.0
 40
0.5
  1
2
100
AcDbAttributeDefinition
  3

  2
DD
 70
     8
280
     0
  0
ATTDEF
  5
A9
330
91
100
AcDbEntity
  8
AM_6
100
AcDbText
 10
8.22656
 20
-14.39
 30
0.0
 40
0.5
  1
baldor
100
AcDbAttributeDefinition
  3

  2
COMPANY
 70
     8
280
     0
  0
LINE
  5
AC
330
91
100
AcDbEntity
  8
AM_9
100
AcDbLine
 10
2.324485551990041
 20
-4.777078865920447
 30
0.0
 11
2.316951214773503
 21
-4.767681388178139
 31
0.0
  0
LINE
  5
AD
330
91
100
AcDbEntity
  8
AM_9
100
AcDbLine
 10
2.317044978683475
 20
-5.252201661354729
 30
0.0
 11
2.324485551990041
 21
-5.242921134079552
 31
0.0
  0
LWPOLYLINE
  5
AE
330
91
100
AcDbEntity
  8
AM_9
100
AcDbPolyline
 90
       22
 70
     0
 43
0.0
 10
2.248176291504413
 20
-4.741935790336655
 10
2.23421868177197
 20
-4.747936690580128
 10
2.212556679293271
 20
-4.763886846836243
 10
2.191106055235394
 20
-4.78838463061327
 10
2.172315228900317
 20
-4.818819030695508
 10
2.155509657028694
 20
-4.856723027356618
 10
2.14311438793078
 20
-4.896673209141603
 10
2.134176589205053
 20
-4.941765161661825
 10
2.129940188285243
 20
-4.984845622454929
 10
2.129700571780227
 20
-5.030062262630289
 10
2.133264563277511
 20
-5.071623810947481
 10
2.140541905483726
 20
-5.112611573709104
 10
2.150893648423353
 20
-5.150090616498539
 10
2.164317791394345
 20
-5.184763357779448
 10
2.180394291022512
 20
-5.215488759461327
 10
2.198678054056721
 20
-5.241353949484822
 10
2.218745407269537
 20
-5.261515432420793
 10
2.239893686225772
 20
-5.274902687899306
 10
2.261203448401206
 20
-5.28064287397405
 10
2.282325221725054
 20
-5.278205932498213
 10
2.301834351715848
 20
-5.267557715902776
 10
2.316821277264145
 20
-5.25248068102589
  0
LWPOLYLINE
  5
AF
330
91
100
AcDbEntity
  8
AM_9
100
AcDbPolyline
 90
        4
 70
     0
 43
0.0
 10
2.316814419962599
 20
-4.76751076738921
 10
2.314618024084274
 20
-4.764856192188113
 10
2.297029709621241
 20
-4.748969214820761
 10
2.283246949386383
 20
-4.742102205313149
  0
LWPOLYLINE
  5
B0
330
91
100
AcDbEntity
  8
AM_9
100
AcDbPolyline
 90
       13
 70
     0
 43
0.0
 10
2.316821277264145
 20
-5.25248068102589
 10
2.320044395103427
 20
-5.248272110291938
 10
2.335392505757513
 20
-5.222163330753046
 10
2.348697575827198
 20
-5.188093483908029
 10
2.358583414264854
 20
-5.150554143292768
 10
2.366063938353267
 20
-5.106990272575161
 10
2.370343926006321
 20
-5.064286390050189
 10
2.372166329573059
 20
-5.018458310322242
 10
2.371487078751428
 20
-4.976056316374695
 10
2.36844275688463
 20
-4.933405773149241
 10
2.363293859976327
 20
-4.894346790633993
 10
2.355821569673044
 20
-4.857398153368126
 10
2.340113686257207
 20
-4.808397228143252
  0
LINE
  5
B1
330
91
100
AcDbEntity
  8
AM_9
100
AcDbLine
 10
2.272596986253969
 20
-5.273299999999999
 30
0.0
 11
2.879670641757706
 21
-5.273299999999999
 31
0.0
  0
LINE
  5
B2
330
91
100
AcDbEntity
  8
AM_9
100
AcDbLine
 10
2.879670641757706
 20
-4.7467
 30
0.0
 11
2.272596986253969
 21
-4.7467
 31
0.0
  0
ELLIPSE
  5
B3
330
91
100
AcDbEntity
  8
AM_9
100
AcDbEllipse
 10
2.879670641757704
 20
-5.009999999999998
 30
0.0
 11
-4.836742533232538E-17
 21
-0.2633000000000036
 31
0.0
210
0.0
220
0.0
230
1.0
 40
0.4226182617406904
 41
3.471089693705483
 42
5.927620150752123
  0
LINE
  5
B4
330
91
100
AcDbEntity
  8
AM_9
100
AcDbLine
 10
2.827782076021631
 20
-5.24292113407955
 30
0.0
 11
2.860195094815556
 21
-5.283349457623166
 31
0.0
  0
LINE
  5
B5
330
91
100
AcDbEntity
  8
AM_9
100
AcDbLine
 10
2.857319577635255
 20
-4.740237136382763
 30
0.0
 11
2.827782076021631
 21
-4.777078865920449
 31
0.0
  0
LWPOLYLINE
  5
B6
330
91
100
AcDbEntity
  8
AM_9
100
AcDbPolyline
 90
       39
 70
     0
 43
0.0
 10
-0.2004855335474919
 20
-4.816137936045279
 10
-0.2287714115339829
 20
-4.846302086858131
 10
-0.2522235207574053
 20
-4.880361504859065
 10
-0.2718407512406077
 20
-4.922340915323669
 10
-0.283770859357038
 20
-4.967130709932781
 10
-0.2873756260006186
 20
-5.010786541689403
 10
-0.2835012365354689
 20
-5.054419076317277
 10
-0.2725988802545992
 20
-5.095580349753513
 10
-0.2551744219456224
 20
-5.134417343416291
 10
-0.2311352296960708
 20
-5.170718940027149
 10
-0.2016678074271643
 20
-5.202769979336693
 10
-0.1655396803963745
 20
-5.231219514002438
 10
-0.1253505053837697
 20
-5.253620850913378
 10
-0.0796307171673742
 20
-5.27016455108258
 10
-0.0318205490037119
 20
-5.279161448187613
 10
0.0184921463621229
 20
-5.280243196418068
 10
0.068290890829341
 20
-5.273046082574479
 10
0.1165589449859317
 20
-5.257445323439968
 10
0.1614546016346637
 20
-5.233913561748869
 10
0.2008906782845414
 20
-5.203445010730461
 10
0.2343650563525936
 20
-5.166551847804662
 10
0.2594930322064563
 20
-5.126156169484281
 10
0.2770471746647944
 20
-5.081927023532752
 10
0.2858096581686298
 20
-5.038165803003548
 10
0.2868756933141809
 20
-4.993541870743098
 10
0.2805161315886248
 20
-4.951278228914739
 10
0.267296594514554
 20
-4.910647191448043
 10
0.247448555799395
 20
-4.872491300392792
 10
0.2218009032832165
 20
-4.837975868315244
 10
0.1894554972719356
 20
-4.806549868077671
 10
0.1525499724393796
 20
-4.780600058956833
 10
0.1095353573215369
 20
-4.759706849796729
 10
0.0637083966896327
 20
-4.745931137430503
 10
0.0142123022892928
 20
-4.73952512986182
 10
-0.0356723312723043
 20
-4.741269453099532
 10
-0.0853725506742785
 20
-4.751467614248011
 10
-0.1326316164390688
 20
-4.769835484649315
 10
-0.1682163361413054
 20
-4.790574102201325
 10
-0.2004855335474919
 20
-4.816137936045279
  0
LINE
  5
B7
330
91
100
AcDbEntity
  8
AM_9
100
AcDbLine
 10
2.323671975083615
 20
-4.776940449013322
 30
0.0
 11
2.316814419962599
 21
-4.76751076738921
 31
0.0
  0
LWPOLYLINE
  5
B8
330
91
100
AcDbEntity
  8
AM_9
100
AcDbPolyline
 90
        3
 70
     0
 43
0.0
 10
2.340113686257207
 20
-4.808397228143252
 10
2.328286763600369
 20
-4.784371923010356
 10
2.323671975083615
 20
-4.776940449013322
  0
LINE
  5
B9
330
91
100
AcDbEntity
  8
AM_9
100
AcDbLine
 10
2.5
 20
-5.629999999999999
 30
0.0
 11
2.5
 21
-4.39
 31
0.0
  0
LINE
  5
BA
330
91
100
AcDbEntity
  8
AM_9
100
AcDbLine
 10
-2.5
 20
-4.39
 30
0.0
 11
-2.5
 21
-5.629999999999999
 31
0.0
  0
LINE
  5
BB
330
91
100
AcDbEntity
  8
AM_9
100
AcDbLine
 10
-3.072914285714285
 20
-4.39
 30
0.0
 11
3.072914285714285
 21
-4.39
 31
0.0
  0
LINE
  5
BC
330
91
100
AcDbEntity
  8
AM_9
100
AcDbLine
 10
3.072914285714285
 20
-4.518384204413472
 30
0.0
 11
3.072914285714285
 21
-4.39
 31
0.0
  0
LINE
  5
BD
330
91
100
AcDbEntity
  8
AM_9
100
AcDbLine
 10
-3.072914285714285
 20
-4.39
 30
0.0
 11
-3.072914285714285
 21
-4.518384204413472
 31
0.0
  0
LINE
  5
BE
330
91
100
AcDbEntity
  8
AM_9
100
AcDbLine
 10
0.1338494832051653
 20
-4.518384204413472
 30
0.0
 11
3.072914285714285
 21
-4.518384204413472
 31
0.0
  0
LINE
  5
BF
330
91
100
AcDbEntity
  8
AM_9
100
AcDbLine
 10
0.1055600920023926
 20
-4.518384204413472
 30
0.0
 11
0.1280246581262735
 21
-4.518384204413472
 31
0.0
  0
LINE
  5
C0
330
91
100
AcDbEntity
  8
AM_9
100
AcDbLine
 10
-0.0982322858325984
 20
-4.518384204413472
 30
0.0
 11
0.0982322858325984
 21
-4.518384204413472
 31
0.0
  0
LINE
  5
C1
330
91
100
AcDbEntity
  8
AM_9
100
AcDbLine
 10
-0.1281005242301723
 20
-4.518384204413472
 30
0.0
 11
-0.1055600920023926
 21
-4.518384204413472
 31
0.0
  0
LINE
  5
C2
330
91
100
AcDbEntity
  8
AM_9
100
AcDbLine
 10
-3.072914285714285
 20
-4.518384204413472
 30
0.0
 11
-0.1338619746694839
 21
-4.518384204413472
 31
0.0
  0
LINE
  5
C3
330
91
100
AcDbEntity
  8
AM_9
100
AcDbLine
 10
-3.072914285714285
 20
-4.518384204413472
 30
0.0
 11
-3.134530081300814
 21
-4.58
 31
0.0
  0
LINE
  5
C4
330
91
100
AcDbEntity
  8
AM_9
100
AcDbLine
 10
3.134530081300814
 20
-4.58
 30
0.0
 11
3.072914285714285
 21
-4.518384204413472
 31
0.0
  0
LINE
  5
C5
330
91
100
AcDbEntity
  8
AM_9
100
AcDbLine
 10
-0.134906780508869
 20
-4.593333333333333
 30
0.0
 11
0.134906780508869
 21
-4.593333333333333
 31
0.0
  0
LINE
  5
C6
330
91
100
AcDbEntity
  8
AM_9
100
AcDbLine
 10
-0.0703555996666812
 20
-4.697499999999999
 30
0.0
 11
0.0703555996666812
 21
-4.697499999999999
 31
0.0
  0
LINE
  5
C7
330
91
100
AcDbEntity
  8
AM_9
100
AcDbLine
 10
-0.0438259549227972
 20
-4.74293549474528
 30
0.0
 11
-0.1549716393969374
 21
-4.74293549474528
 31
0.0
  0
LINE
  5
C8
330
91
100
AcDbEntity
  8
AM_9
100
AcDbLine
 10
0.1549716393969333
 20
-4.74293549474528
 30
0.0
 11
0.0405556335919628
 21
-4.74293549474528
 31
0.0
  0
LINE
  5
C9
330
91
100
AcDbEntity
  8
AM_9
100
AcDbLine
 10
2.986375396653855
 20
-4.74293549474528
 30
0.0
 11
2.856697122360206
 21
-4.74293549474528
 31
0.0
  0
ELLIPSE
  5
CA
330
91
100
AcDbEntity
  8
AM_9
100
AcDbEllipse
 10
2.272596986253969
 20
-5.010000000000001
 30
0.0
 11
-4.836742533232440E-17
 21
-0.2632999999999983
 31
0.0
210
0.0
220
0.0
230
1.0
 40
0.4226182617407007
 41
0.0
 42
6.283185307179586
  0
LINE
  5
CD
330
91
100
AcDbEntity
  8
AM_7
100
AcDbLine
 10
-0.276465
 20
-5.009999999999999
 30
0.0
 11
0.276465
 21
-5.009999999999999
 31
0.0
  0
ELLIPSE
  5
CF
330
91
100
AcDbEntity
  8
AM_4
100
AcDbEllipse
 10
2.879670641757706
 20
-5.009999999999999
 30
0.0
 11
-4.836742533232473E-17
 21
-0.2633000000000001
 31
0.0
210
0.0
220
0.0
230
1.0
 40
0.4226182617406995
 41
5.927620150752114
 42
9.754275000885073
  0
LWPOLYLINE
  5
D0
330
91
100
AcDbEntity
  8
AM_4
100
AcDbPolyline
 90
        5
 70
     0
 43
0.0
 10
2.857230717803461
 20
-4.740347986902108
 10
2.870133268127412
 20
-4.730924094510197
 10
2.897146778782862
 20
-4.726310806074765
 10
2.935938550173305
 20
-4.730375027564242
 10
2.986375396653851
 20
-4.742935494745276
  0
LWPOLYLINE
  5
D1
330
91
100
AcDbEntity
  8
AM_4
100
AcDbPolyline
 90
       15
 70
     0
 43
0.0
 10
2.860372356244009
 20
-5.283570551297669
 10
2.857477744843468
 20
-5.279863158718347
 10
2.839151146497043
 20
-5.251491023066942
 10
2.822425122427435
 20
-5.216305103818515
 10
2.80815988286131
 20
-5.175356156471199
 10
2.796848827518389
 20
-5.129034683201818
 10
2.789217112656367
 20
-5.078921270586168
 10
2.785678900596505
 20
-5.025555837769852
 10
2.786620954893802
 20
-4.971908994886096
 10
2.792212768532099
 20
-4.917818497585177
 10
2.801978682415189
 20
-4.867655489763925
 10
2.816112090303225
 20
-4.82020246842349
 10
2.832903826919759
 20
-4.780424580879626
 10
2.852976366150002
 20
-4.746295061246174
 10
2.855387706931781
 20
-4.742935494745279
  0
LINE
  5
D2
330
91
100
AcDbEntity
  8
AM_4
100
AcDbLine
 10
-3.134530081300814
 20
-4.58
 30
0.0
 11
-3.147863414634147
 21
-4.593333333333333
 31
0.0
  0
LINE
  5
D3
330
91
100
AcDbEntity
  8
AM_4
100
AcDbLine
 10
3.147863414634147
 20
-4.593333333333333
 30
0.0
 11
3.134530081300814
 21
-4.58
 31
0.0
  0
LINE
  5
D4
330
91
100
AcDbEntity
  8
AM_4
100
AcDbLine
 10
0.134906780508869
 20
-4.593333333333333
 30
0.0
 11
3.147863414634147
 21
-4.593333333333333
 31
0.0
  0
LINE
  5
D5
330
91
100
AcDbEntity
  8
AM_4
100
AcDbLine
 10
-3.147863414634147
 20
-4.593333333333333
 30
0.0
 11
-0.134906780508869
 21
-4.593333333333333
 31
0.0
  0
LINE
  5
D6
330
91
100
AcDbEntity
  8
AM_4
100
AcDbLine
 10
3.147863414634147
 20
-4.697499999999999
 30
0.0
 11
3.147863414634147
 21
-4.593333333333333
 31
0.0
  0
LINE
  5
D7
330
91
100
AcDbEntity
  8
AM_4
100
AcDbLine
 10
-3.147863414634147
 20
-4.593333333333333
 30
0.0
 11
-3.147863414634147
 21
-4.697499999999999
 31
0.0
  0
LINE
  5
D8
330
91
100
AcDbEntity
  8
AM_4
100
AcDbLine
 10
-3.019893333333334
 20
-5.629999999999999
 30
0.0
 11
3.019893333301991
 21
-5.629999999999999
 31
0.0
  0
ARC
  5
D9
330
91
100
AcDbEntity
  8
AM_4
100
AcDbCircle
 10
3.019893333333334
 20
-5.423333333333333
 30
0.0
 40
0.2066666666666661
100
AcDbArc
 50
270.0
 51
0.0
  0
ARC
  5
DA
330
91
100
AcDbEntity
  8
AM_4
100
AcDbCircle
 10
-3.019893333333334
 20
-5.423333333333335
 30
0.0
 40
0.2066666666666657
100
AcDbArc
 50
180.0
 51
270.0
  0
LINE
  5
DB
330
91
100
AcDbEntity
  8
AM_4
100
AcDbLine
 10
-3.22656
 20
-5.423333333333332
 30
0.0
 11
3.22656
 21
-5.423333333333332
 31
0.0
  0
LWPOLYLINE
  5
DC
330
91
100
AcDbEntity
  8
AM_4
100
AcDbPolyline
 90
       20
 70
     0
 43
0.0
 10
2.986375396653855
 20
-4.742935494745271
 10
2.996499910598927
 20
-4.762283605239228
 10
3.008578308220337
 20
-4.793085387299966
 10
3.018833591055521
 20
-4.829219401432455
 10
3.027646552249137
 20
-4.873652163720799
 10
3.033882790590416
 20
-4.922880120862031
 10
3.037272412988838
 20
-4.974832979063808
 10
3.037724648779595
 20
-5.029201737815232
 10
3.035142880493721
 20
-5.082521627863358
 10
3.029335913712483
 20
-5.135287721891284
 10
3.020679395063113
 20
-5.182821543636781
 10
3.008667192773266
 20
-5.226648055151899
 10
2.994527020776548
 20
-5.26188451856995
 10
2.977274763192616
 20
-5.290690100976484
 10
2.959153559641446
 20
-5.309557080144568
 10
2.938723653163769
 20
-5.320383159691911
 10
2.918651448086296
 20
-5.322188847278148
 10
2.897484314863442
 20
-5.315659794698018
 10
2.877360990694671
 20
-5.301656343286656
 10
2.860372356244009
 20
-5.283570551297669
  0
LINE
  5
DD
330
91
100
AcDbEntity
  8
AM_4
100
AcDbLine
 10
3.22656
 20
-5.423333333333332
 30
0.0
 11
3.22656
 21
-4.74293549474528
 31
0.0
  0
LINE
  5
DE
330
91
100
AcDbEntity
  8
AM_4
100
AcDbLine
 10
-3.22656
 20
-4.74293549474528
 30
0.0
 11
-3.22656
 21
-5.423333333333332
 31
0.0
  0
LWPOLYLINE
  5
DF
330
91
100
AcDbEntity
  8
AM_4
100
AcDbPolyline
 90
       33
 70
     0
 43
0.0
 10
0.1549716393969333
 20
-4.742935494745277
 10
0.1611807186241715
 20
-4.7469934456231
 10
0.1995219062239974
 20
-4.777605991497144
 10
0.2324838956122308
 20
-4.81395608233278
 10
0.2602971194098734
 20
-4.856964243849798
 10
0.2808721945460893
 20
-4.903891840296611
 10
0.2940420173994681
 20
-4.955561612531738
 10
0.2986417011306892
 20
-5.008698571723149
 10
0.2942686337159439
 20
-5.063067286362503
 10
0.2809299988206142
 20
-5.115940707861313
 10
0.2587786211887727
 20
-5.165812085551073
 10
0.2284610463572835
 20
-5.211153752591527
 10
0.1915086629364099
 20
-5.249649321523658
 10
0.1484195697285503
 20
-5.281112201670081
 10
0.1024128541504359
 20
-5.303475501406688
 10
0.0532071819604984
 20
-5.317486763229927
 10
0.0045554240433679
 20
-5.322424413699201
 10
-0.0442297750832677
 20
-5.319042826115447
 10
-0.0907180484395466
 20
-5.307673457623017
 10
-0.1347097018402034
 20
-5.288847711434314
 10
-0.1755815836269606
 20
-5.262671234731019
 10
-0.2117315146683223
 20
-5.230283288341223
 10
-0.2433777380106629
 20
-5.190952641299384
 10
-0.2683428458618898
 20
-5.147054971192198
 10
-0.2866192417942265
 20
-5.097611537729465
 10
-0.2966695963443696
 20
-5.045845132696373
 10
-0.2980952649041979
 20
-4.991587058207073
 10
-0.2905594982156016
 20
-4.937841135093939
 10
-0.2739417234868184
 20
-4.885730434535356
 10
-0.2487647926749895
 20
-4.837202434418701
 10
-0.2238065760895936
 20
-4.803217834168937
 10
-0.1944776738653987
 20
-4.772935472918605
 10
-0.1549716393969374
 20
-4.742935494745279
  0
CIRCLE
  5
E0
330
91
100
AcDbEntity
  8
AM_4
100
AcDbCircle
 10
0.0
 20
-5.009999999999999
 30
0.0
 40
0.2633
  0
LWPOLYLINE
  5
E1
330
91
100
AcDbEntity
  8
AM_4
100
AcDbPolyline
 90
        5
 70
     0
 43
0.0
 10
-0.1549716393969374
 20
-4.742935494745279
 10
-0.0812432212758297
 20
-4.730924094510197
 10
-0.0023943729638295
 20
-4.726310806074765
 10
0.0762418415662113
 20
-4.730375027564242
 10
0.1549716393969333
 20
-4.742935494745277
  0
LINE
  5
E2
330
91
100
AcDbEntity
  8
AM_4
100
AcDbLine
 10
0.1549716393969333
 20
-4.742935494745277
 30
0.0
 11
2.855387706931781
 21
-4.74293549474528
 31
0.0
  0
LINE
  5
E3
330
91
100
AcDbEntity
  8
AM_4
100
AcDbLine
 10
2.855387706931781
 20
-4.742935494745279
 30
0.0
 11
2.857230717803461
 21
-4.740347986902108
 31
0.0
  0
LINE
  5
E4
330
91
100
AcDbEntity
  8
AM_4
100
AcDbLine
 10
2.986375396653855
 20
-4.74293549474527
 30
0.0
 11
3.22656
 21
-4.74293549474528
 31
0.0
  0
LINE
  5
E5
330
91
100
AcDbEntity
  8
AM_4
100
AcDbLine
 10
0.0703555996666812
 20
-4.697499999999999
 30
0.0
 11
3.147863414634147
 21
-4.697499999999999
 31
0.0
  0
LINE
  5
E6
330
91
100
AcDbEntity
  8
AM_4
100
AcDbLine
 10
-3.147863414634147
 20
-4.697499999999999
 30
0.0
 11
-0.0703555996666812
 21
-4.697499999999999
 31
0.0
  0
LINE
  5
E7
330
91
100
AcDbEntity
  8
AM_4
100
AcDbLine
 10
-3.147863414634147
 20
-4.697499999999999
 30
0.0
 11
-3.22656
 21
-4.74293549474528
 31
0.0
  0
LINE
  5
E8
330
91
100
AcDbEntity
  8
AM_4
100
AcDbLine
 10
3.22656
 20
-4.74293549474528
 30
0.0
 11
3.147863414634147
 21
-4.697499999999999
 31
0.0
  0
LINE
  5
E9
330
91
100
AcDbEntity
  8
AM_4
100
AcDbLine
 10
-3.22656
 20
-4.74293549474528
 30
0.0
 11
-0.1549716393969374
 21
-4.742935494745279
 31
0.0
  0
CIRCLE
  5
EB
330
91
100
AcDbEntity
  8
AM_5
100
AcDbCircle
 10
0.0000000000000008
 20
-5.009999999999999
 30
0.0
 40
0.3124999999999996
  0
ENDBLK
  5
94
330
91
100
AcDbEntity
  8
0
100
AcDbBlockEnd
  0
BLOCK
  5
EE
330
EC
100
AcDbEntity
  8
0
100
AcDbBlockBegin
  2
3_4_7_16CS2i_2_0_in_071521_4
 70
     2
 10
0.0
 20
0.0
 30
0.0
  3
3_4_7_16CS2i_2_0_in_071521_4
  1

  0
ATTDEF
  5
F0
330
EC
100
AcDbEntity
  8
AM_6
100
AcDbText
 10
8.226560000000001
 20
0.9012500000000001
 30
0.0
 40
0.5
  1
S-2000 Collar -Inch
100
AcDbAttributeDefinition
  3

  2
NN
 70
     8
280
     0
  0
ATTDEF
  5
F1
330
EC
100
AcDbEntity
  8
AM_6
100
AcDbText
 10
8.226560000000001
 20
0.4012500000000001
 30
0.0
 40
0.5
  1
S-2000 Bearings
100
AcDbAttributeDefinition
  3

  2
NT
 70
     8
280
     0
  0
ATTDEF
  5
F2
330
EC
100
AcDbEntity
  8
AM_6
100
AcDbText
 10
8.226560000000001
 20
-0.0987499999999999
 30
0.0
 40
0.5
  1
4-7/16CS2i
100
AcDbAttributeDefinition
  3

  2
NB
 70
     8
280
     0
  0
ATTDEF
  5
F3
330
EC
100
AcDbEntity
  8
AM_6
100
AcDbText
 10
8.226560000000001
 20
-0.5987499999999999
 30
0.0
 40
0.5
  1
$BORE.CS2i
100
AcDbAttributeDefinition
  3

  2
NBSYN
 70
     8
280
     0
  0
ATTDEF
  5
F4
330
EC
100
AcDbEntity
  8
AM_6
100
AcDbText
 10
8.226560000000001
 20
-1.09875
 30
0.0
 40
0.5
  1
4-7/16CS2i
100
AcDbAttributeDefinition
  3

  2
LINA
 70
     8
280
     0
  0
ATTDEF
  5
F5
330
EC
100
AcDbEntity
  8
AM_6
100
AcDbText
 10
8.226560000000001
 20
-1.59875
 30
0.0
 40
0.5
  1
4-7/16
100
AcDbAttributeDefinition
  3

  2
BORE
 70
     8
280
     0
  0
ATTDEF
  5
F6
330
EC
100
AcDbEntity
  8
AM_6
100
AcDbText
 10
8.226560000000001
 20
-2.09875
 30
0.0
 40
0.5
  1
4.437500
100
AcDbAttributeDefinition
  3

  2
BORE1
 70
     8
280
     0
  0
ATTDEF
  5
F7
330
EC
100
AcDbEntity
  8
AM_6
100
AcDbText
 10
8.226560000000001
 20
-2.59875
 30
0.0
 40
0.5
  1
6-29/64
100
AcDbAttributeDefinition
  3

  2
L1
 70
     8
280
     0
  0
ATTDEF
  5
F8
330
EC
100
AcDbEntity
  8
AM_6
100
AcDbText
 10
8.226560000000001
 20
-3.09875
 30
0.0
 40
0.5
  1
6.45313
100
AcDbAttributeDefinition
  3

  2
L
 70
     8
280
     0
  0
ATTDEF
  5
F9
330
EC
100
AcDbEntity
  8
AM_6
100
AcDbText
 10
8.226560000000001
 20
-3.59875
 30
0.0
 40
0.5
  1
6.45312
100
AcDbAttributeDefinition
  3

  2
L2
 70
     8
280
     0
  0
ATTDEF
  5
FA
330
EC
100
AcDbEntity
  8
AM_6
100
AcDbText
 10
8.226560000000001
 20
-4.09875
 30
0.0
 40
0.5
  1
6.75
100
AcDbAttributeDefinition
  3

  2
A
 70
     8
280
     0
  0
ATTDEF
  5
FB
330
EC
100
AcDbEntity
  8
AM_6
100
AcDbText
 10
8.226560000000001
 20
-4.59875
 30
0.0
 40
0.5
  1
3.25
100
AcDbAttributeDefinition
  3

  2
B
 70
     8
280
     0
  0
ATTDEF
  5
FC
330
EC
100
AcDbEntity
  8
AM_6
100
AcDbText
 10
8.226560000000001
 20
-5.09875
 30
0.0
 40
0.5
  1
5.00
100
AcDbAttributeDefinition
  3

  2
C
 70
     8
280
     0
  0
ATTDEF
  5
FD
330
EC
100
AcDbEntity
  8
AM_6
100
AcDbText
 10
8.226560000000001
 20
-5.59875
 30
0.0
 40
0.5
  1
7.00
100
AcDbAttributeDefinition
  3

  2
D
 70
     8
280
     0
  0
ATTDEF
  5
FE
330
EC
100
AcDbEntity
  8
AM_6
100
AcDbText
 10
8.226560000000001
 20
-6.09875
 30
0.0
 40
0.5
  1
0.78
100
AcDbAttributeDefinition
  3

  2
E
 70
     8
280
     0
  0
ATTDEF
  5
FF
330
EC
100
AcDbEntity
  8
AM_6
100
AcDbText
 10
8.226560000000001
 20
-6.59875
 30
0.0
 40
0.5
  1
0.620
100
AcDbAttributeDefinition
  3

  2
F
 70
     8
280
     0
  0
ATTDEF
  5
100
330
EC
100
AcDbEntity
  8
AM_6
100
AcDbText
 10
8.226560000000001
 20
-7.09875
 30
0.0
 40
0.5
  1
5/8-11
100
AcDbAttributeDefinition
  3

  2
CS
 70
     8
280
     0
  0
ATTDEF
  5
101
330
EC
100
AcDbEntity
  8
AM_6
100
AcDbText
 10
8.226560000000001
 20
-7.59875
 30
0.0
 40
0.5
  1
0.6250
100
AcDbAttributeDefinition
  3

  2
NDM
 70
     8
280
     0
  0
ATTDEF
  5
102
330
EC
100
AcDbEntity
  8
AM_6
100
AcDbText
 10
8.226560000000001
 20
-8.098749999999999
 30
0.0
 40
0.5
  1
0.5270
100
AcDbAttributeDefinition
  3

  2
KDM
 70
     8
280
     0
  0
ATTDEF
  5
103
330
EC
100
AcDbEntity
  8
AM_6
100
AcDbText
 10
8.226560000000001
 20
-8.598749999999999
 30
0.0
 40
0.5
  1
2
100
AcDbAttributeDefinition
  3

  2
DD
 70
     8
280
     0
  0
ATTDEF
  5
104
330
EC
100
AcDbEntity
  8
AM_6
100
AcDbText
 10
8.226560000000001
 20
-9.098749999999999
 30
0.0
 40
0.5
  1
baldor
100
AcDbAttributeDefinition
  3

  2
COMPANY
 70
     8
280
     0
  0
LINE
  5
105
330
EC
100
AcDbEntity
  8
AM_9
100
AcDbLine
 10
2.324485551990041
 20
0.5141711340795532
 30
0.0
 11
2.31689069995176
 21
0.5236440911472557
 31
0.0
  0
LINE
  5
106
330
EC
100
AcDbEntity
  8
AM_9
100
AcDbLine
 10
2.316957937173596
 20
0.0389397729375986
 30
0.0
 11
2.324485551990041
 21
0.0483288659204472
 31
0.0
  0
LWPOLYLINE
  5
107
330
EC
100
AcDbEntity
  8
AM_9
100
AcDbPolyline
 90
        3
 70
     0
 43
0.0
 10
2.283964027229756
 20
0.0136044005600391
 10
2.300522000073958
 20
0.0227176142480124
 10
2.316823402383263
 20
0.0387719695004229
  0
LWPOLYLINE
  5
108
330
EC
100
AcDbEntity
  8
AM_9
100
AcDbPolyline
 90
       23
 70
     0
 43
0.0
 10
2.316818059849384
 20
0.5237346935984131
 10
2.315894970570229
 20
0.5248708509133782
 10
2.298268077557129
 20
0.5414145510825809
 10
2.279033869357457
 20
0.5504114481876147
 10
2.257886071061365
 20
0.5514931964180693
 10
2.236062992567633
 20
0.5442960825744797
 10
2.21404012591565
 20
0.5286953234399684
 10
2.192805815700117
 20
0.5051635617488697
 10
2.173539747643094
 20
0.4746950107304628
 10
2.15674439388938
 20
0.437801847804663
 10
2.143865342138973
 20
0.3974061694842825
 10
2.13472853720772
 20
0.3531770235327535
 10
2.130128291787391
 20
0.3094158030035496
 10
2.129563725415936
 20
0.2647918707430991
 10
2.132911557287133
 20
0.2225282289147393
 10
2.13981714105874
 20
0.1818971914480445
 10
2.150067158717076
 20
0.1437413003927923
 10
2.163097459890992
 20
0.1092258683152451
 10
2.179184573694872
 20
0.0777998680776723
 10
2.197076902243251
 20
0.0518500589568337
 10
2.217297585664704
 20
0.0309568497967295
 10
2.238109319120772
 20
0.0171811374305042
 10
2.248267027583781
 20
0.0131576392546075
  0
LWPOLYLINE
  5
109
330
EC
100
AcDbEntity
  8
AM_9
100
AcDbPolyline
 90
        3
 70
     0
 43
0.0
 10
2.323568131944152
 20
0.0480338437176488
 10
2.331724041117134
 20
0.0618241022013263
 10
2.343200855209431
 20
0.0873879360452798
  0
LWPOLYLINE
  5
10A
330
EC
100
AcDbEntity
  8
AM_9
100
AcDbPolyline
 90
        3
 70
     0
 43
0.0
 10
2.316823402383263
 20
0.0387719695004229
 10
2.318631165513536
 20
0.0410854846493154
 10
2.323568131944152
 20
0.0480338437176488
  0
LINE
  5
10B
330
EC
100
AcDbEntity
  8
AM_9
100
AcDbLine
 10
2.272596986253969
 20
0.0179500000000002
 30
0.0
 11
2.879670641757706
 21
0.0179500000000002
 31
0.0
  0
LINE
  5
10C
330
EC
100
AcDbEntity
  8
AM_9
100
AcDbLine
 10
2.879670641757706
 20
0.5445500000000001
 30
0.0
 11
2.272596986253969
 21
0.5445500000000001
 31
0.0
  0
LINE
  5
10D
330
EC
100
AcDbEntity
  8
AM_9
100
AcDbLine
 10
2.827782076021631
 20
0.0483288659204504
 30
0.0
 11
2.857327067185741
 21
0.0114777947669098
 31
0.0
  0
LINE
  5
10E
330
EC
100
AcDbEntity
  8
AM_9
100
AcDbLine
 10
2.860240922236433
 20
0.554656617550485
 30
0.0
 11
2.827782076021631
 21
0.51417113407955
 31
0.0
  0
ELLIPSE
  5
10F
330
EC
100
AcDbEntity
  8
AM_9
100
AcDbEllipse
 10
2.879670641757671
 20
0.2812499999999668
 30
0.0
 11
-4.836742533231807E-17
 21
-0.2632999999999638
 31
0.0
210
0.0
220
0.0
230
1.0
 40
0.4226182617406582
 41
3.486710796638866
 42
5.963474358683581
  0
LWPOLYLINE
  5
110
330
EC
100
AcDbEntity
  8
AM_9
100
AcDbPolyline
 90
       13
 70
     0
 43
0.0
 10
2.343200855209431
 20
0.0873879360452798
 10
2.352945376819894
 20
0.1175520868581318
 10
2.360802977051097
 20
0.1516115048590662
 10
2.367221546978597
 20
0.1935909153236695
 10
2.371052644364665
 20
0.2383807099327825
 10
2.37220302027534
 20
0.2820365416894047
 10
2.37096660087238
 20
0.3256690763172788
 10
2.367466211115886
 20
0.3668303497535143
 10
2.361777273875156
 20
0.4056673434162911
 10
2.353746435249324
 20
0.44196894002715
 10
2.343614043835539
 20
0.4740199793366937
 10
2.330754074486079
 20
0.5024695140024388
 10
2.316818059849384
 20
0.5237346935984131
  0
LWPOLYLINE
  5
111
330
EC
100
AcDbEntity
  8
AM_9
100
AcDbPolyline
 90
       38
 70
     0
 43
0.0
 10
-0.1916979582435595
 20
0.0796472281432531
 10
-0.1587481795873096
 20
0.0556219230103574
 10
-0.121969957738367
 20
0.0361061921881131
 10
-0.0764771609340913
 20
0.0202192148207622
 10
-0.0276900255873286
 20
0.0116817410691817
 10
0.02196593972045
 20
0.0112120890259348
 10
0.0724064489605718
 20
0.0191866905801293
 10
0.1197574165413572
 20
0.0351368468362438
 10
0.1649816966187541
 20
0.0596346306132705
 10
0.2033640746405269
 20
0.0900690306955087
 10
0.2367937142355052
 20
0.1279730273566187
 10
0.2609423744941723
 20
0.1679232091416046
 10
0.2781007693577628
 20
0.213015161661826
 10
0.2861615821499207
 20
0.2560956224549298
 10
0.2866161512793263
 20
0.3013122626302904
 10
0.2798399921101583
 20
0.3428738109474822
 10
0.2659023368588905
 20
0.3838615737091047
 10
0.2458356522718607
 20
0.4213406164985402
 10
0.2193743120801808
 20
0.4560133577794488
 10
0.1869961990258741
 20
0.4867387594613281
 10
0.1491961647220107
 20
0.5126039494848229
 10
0.1064097399665211
 20
0.5327654324207937
 10
0.0596985290568685
 20
0.5461526878993072
 10
0.0107545150476589
 20
0.5518928739740506
 10
-0.0398555911203682
 20
0.549455932498214
 10
-0.088713326358974
 20
0.5388077159027765
 10
-0.1364125279017593
 20
0.519522110291939
 10
-0.1784118371972112
 20
0.4934133307530464
 10
-0.2163353456705062
 20
0.4593434839080302
 10
-0.2455369406606303
 20
0.4218041432927694
 10
-0.2682749777841534
 20
0.3782402725751624
 10
-0.2815525480306395
 20
0.3355363900501905
 10
-0.2872682951268918
 20
0.2897083103222429
 10
-0.285133475636432
 20
0.2473063163746963
 10
-0.2756297086276784
 20
0.2046557731492422
 10
-0.2597872407378028
 20
0.1655967906339939
 10
-0.2372849965845636
 20
0.128648153368127
 10
-0.1916979582435593
 20
0.0796472281432533
  0
LINE
  5
112
330
EC
100
AcDbEntity
  8
AM_9
100
AcDbLine
 10
-2.5
 20
0.9012500000000001
 30
0.0
 11
-2.5
 21
-0.3387499999999998
 31
0.0
  0
LINE
  5
113
330
EC
100
AcDbEntity
  8
AM_9
100
AcDbLine
 10
2.5
 20
-0.3387499999999998
 30
0.0
 11
2.5
 21
0.9012500000000001
 31
0.0
  0
LINE
  5
114
330
EC
100
AcDbEntity
  8
AM_9
100
AcDbLine
 10
-3.072914285714285
 20
-0.2103657955865276
 30
0.0
 11
-3.072914285714285
 21
-0.3387499999999998
 31
0.0
  0
LINE
  5
115
330
EC
100
AcDbEntity
  8
AM_9
100
AcDbLine
 10
3.072914285714285
 20
-0.3387499999999998
 30
0.0
 11
3.072914285714285
 21
-0.2103657955865276
 31
0.0
  0
LINE
  5
116
330
EC
100
AcDbEntity
  8
AM_9
100
AcDbLine
 10
3.072914285714285
 20
-0.3387499999999998
 30
0.0
 11
-3.072914285714285
 21
-0.3387499999999998
 31
0.0
  0
LINE
  5
117
330
EC
100
AcDbEntity
  8
AM_9
100
AcDbLine
 10
-3.147863414634147
 20
-0.0312499999999999
 30
0.0
 11
-3.147863414634147
 21
-0.1354166666666666
 31
0.0
  0
LINE
  5
118
330
EC
100
AcDbEntity
  8
AM_9
100
AcDbLine
 10
3.147863414634147
 20
-0.1354166666666666
 30
0.0
 11
3.147863414634147
 21
-0.0312499999999999
 31
0.0
  0
LINE
  5
119
330
EC
100
AcDbEntity
  8
AM_9
100
AcDbLine
 10
3.072914285714285
 20
-0.2103657955865276
 30
0.0
 11
3.147863414634147
 21
-0.1354166666666666
 31
0.0
  0
LINE
  5
11A
330
EC
100
AcDbEntity
  8
AM_9
100
AcDbLine
 10
-3.147863414634147
 20
-0.1354166666666666
 30
0.0
 11
-3.072914285714285
 21
-0.2103657955865276
 31
0.0
  0
LINE
  5
11B
330
EC
100
AcDbEntity
  8
AM_9
100
AcDbLine
 10
3.147863414634147
 20
-0.1354166666666666
 30
0.0
 11
-3.147863414634147
 21
-0.1354166666666666
 31
0.0
  0
LINE
  5
11C
330
EC
100
AcDbEntity
  8
AM_9
100
AcDbLine
 10
3.072914285714285
 20
-0.2103657955865276
 30
0.0
 11
-3.072914285714285
 21
-0.2103657955865276
 31
0.0
  0
LINE
  5
11D
330
EC
100
AcDbEntity
  8
AM_9
100
AcDbLine
 10
3.147863414634147
 20
-0.0312499999999999
 30
0.0
 11
3.201990002370674
 21
0.0000000000000003
 31
0.0
  0
LINE
  5
11E
330
EC
100
AcDbEntity
  8
AM_9
100
AcDbLine
 10
-3.201990002370675
 20
0.0000000000000006
 30
0.0
 11
-3.147863414634147
 21
-0.0312499999999999
 31
0.0
  0
LINE
  5
11F
330
EC
100
AcDbEntity
  8
AM_9
100
AcDbLine
 10
2.855926890148893
 20
0.0141854947452799
 30
0.0
 11
2.986375396653862
 21
0.01418549474528
 31
0.0
  0
LINE
  5
120
330
EC
100
AcDbEntity
  8
AM_9
100
AcDbLine
 10
0.0407926431000385
 20
0.0141854947452798
 30
0.0
 11
0.1549716393969366
 21
0.01418549474528
 31
0.0
  0
LINE
  5
121
330
EC
100
AcDbEntity
  8
AM_9
100
AcDbLine
 10
-0.154971639396923
 20
0.01418549474528
 30
0.0
 11
-0.041999385064738
 21
0.0141854947452798
 31
0.0
  0
LINE
  5
122
330
EC
100
AcDbEntity
  8
AM_9
100
AcDbLine
 10
3.147863414634147
 20
-0.0312499999999999
 30
0.0
 11
-3.147863414634147
 21
-0.0312499999999999
 31
0.0
  0
ELLIPSE
  5
123
330
EC
100
AcDbEntity
  8
AM_9
100
AcDbEllipse
 10
2.272596986253969
 20
0.2812500000000002
 30
0.0
 11
-4.836742533232471E-17
 21
-0.2633
 31
0.0
210
0.0
220
0.0
230
1.0
 40
0.4226182617406997
 41
0.0
 42
6.283185307179586
  0
LINE
  5
124
330
EC
100
AcDbEntity
  8
AM_7
100
AcDbLine
 10
-0.2764649999999998
 20
0.2812500000000003
 30
0.0
 11
0.276465
 21
0.2812500000000003
 31
0.0
  0
ELLIPSE
  5
125
330
EC
100
AcDbEntity
  8
AM_4
100
AcDbEllipse
 10
2.879670641757706
 20
0.2812500000000002
 30
0.0
 11
-4.836742533232471E-17
 21
-0.2633
 31
0.0
210
0.0
220
0.0
230
1.0
 40
0.4226182617406997
 41
5.963474358683351
 42
9.769896103818759
  0
LWPOLYLINE
  5
126
330
EC
100
AcDbEntity
  8
AM_4
100
AcDbPolyline
 90
       20
 70
     0
 43
0.0
 10
2.860374724696068
 20
0.5548235061084453
 10
2.87949702602647
 20
0.5747255014066894
 10
2.901372499454115
 20
0.5887367632299284
 10
2.922323419295145
 20
0.5936744136992024
 10
2.942674002531056
 20
0.5902928261154479
 10
2.961435851192036
 20
0.5789234576230176
 10
2.978637509812972
 20
0.5600977114343154
 10
2.994125695146897
 20
0.5339212347310193
 10
3.007435087552521
 20
0.5015332883412238
 10
3.018781786773852
 20
0.4622026412993855
 10
3.02753235236636
 20
0.4183049711921993
 10
3.033828564698605
 20
0.3688615377294653
 10
3.037247250549346
 20
0.3170951326963734
 10
3.037733005713651
 20
0.2628370582070742
 10
3.035171031369941
 20
0.20909113509394
 10
3.029472406870979
 20
0.1569804345353567
 10
3.02068476205853
 20
0.1084524344187015
 10
3.011797716098813
 20
0.0744678341689375
 10
3.001129591014966
 20
0.0441854729186059
 10
2.986375396653861
 20
0.0141854947452804
  0
LINE
  5
127
330
EC
100
AcDbEntity
  8
AM_4
100
AcDbLine
 10
2.857228491826276
 20
0.0116007686081729
 30
0.0
 11
2.855387706931781
 21
0.0141854947452793
 31
0.0
  0
CIRCLE
  5
128
330
EC
100
AcDbEntity
  8
AM_4
100
AcDbCircle
 10
0.0000000000000001
 20
0.2812500000000003
 30
0.0
 40
0.2632999999999999
  0
LINE
  5
129
330
EC
100
AcDbEntity
  8
AM_4
100
AcDbLine
 10
3.019893333333333
 20
0.9012500000000001
 30
0.0
 11
-3.019893333333333
 21
0.9012500000000001
 31
0.0
  0
ARC
  5
12A
330
EC
100
AcDbEntity
  8
AM_4
100
AcDbCircle
 10
-3.019893333333333
 20
0.694583333333333
 30
0.0
 40
0.2066666666666669
100
AcDbArc
 50
90.0
 51
180.0
  0
ARC
  5
12B
330
EC
100
AcDbEntity
  8
AM_4
100
AcDbCircle
 10
3.019893333333333
 20
0.694583333333333
 30
0.0
 40
0.2066666666666666
100
AcDbArc
 50
0.0
 51
90.0
  0
LWPOLYLINE
  5
12C
330
EC
100
AcDbEntity
  8
AM_4
100
AcDbPolyline
 90
       33
 70
     0
 43
0.0
 10
-0.154971639396923
 20
0.0141854947452713
 10
-0.1819534878530662
 20
0.0335336052392294
 10
-0.2148846107418818
 20
0.0643353872999674
 10
-0.2435247882313737
 20
0.1004694014324556
 10
-0.2686720140526948
 20
0.1449021637208006
 10
-0.2867839559762342
 20
0.1941301208620319
 10
-0.2967438389682205
 20
0.2460829790638092
 10
-0.2980789656505947
 20
0.3004517378152345
 10
-0.2904768672342506
 20
0.3537716278633589
 10
-0.2735518056605382
 20
0.406537721891285
 10
-0.2487495687245506
 20
0.4540715436367817
 10
-0.2151300869096808
 20
0.4978980551518996
 10
-0.1766525605470528
 20
0.533134518569951
 10
-0.1311723489010109
 20
0.5619401009764851
 10
-0.0849735278891924
 20
0.5808070801445698
 10
-0.0346308742629644
 20
0.5916331596919118
 10
0.0132046278550022
 20
0.5934388472781489
 10
0.0620679160831201
 20
0.5869097946980191
 10
0.1071478044399702
 20
0.5729063432866566
 10
0.1504823973127963
 20
0.5511131587183482
 10
0.1894398612750945
 20
0.5227410230669434
 10
0.2242251608925861
 20
0.4875551038185156
 10
0.2533452805762358
 20
0.446606156471201
 10
0.276093542211639
 20
0.4002846832018194
 10
0.2912776301536334
 20
0.3501712705861684
 10
0.2982733867007212
 20
0.2968058377698531
 10
0.2964134422190773
 20
0.2431589948860979
 10
0.2853329903654895
 20
0.1890684975851779
 10
0.2658131931737009
 20
0.1389054897639256
 10
0.2371726956943173
 20
0.0914524684234919
 10
0.2025159034235151
 20
0.0516745808796274
 10
0.1601359241265997
 20
0.017545061246175
 10
0.1549716393969366
 20
0.0141854947452802
  0
LWPOLYLINE
  5
12D
330
EC
100
AcDbEntity
  8
AM_4
100
AcDbPolyline
 90
       15
 70
     0
 43
0.0
 10
2.855387706931783
 20
0.0141854947452775
 10
2.85248760962094
 20
0.0182434456231015
 10
2.834337401994245
 20
0.0488559914971453
 10
2.81840376264424
 20
0.0852060823327808
 10
2.804719708835713
 20
0.1282142438497985
 10
2.794454081055433
 20
0.175141840296612
 10
2.787823121561008
 20
0.2268116125317396
 10
2.785492234087731
 20
0.2799485717231498
 10
2.787708788143691
 20
0.3343172863625045
 10
2.794425073642983
 20
0.3871907078613141
 10
2.805472695062327
 20
0.437062085551074
 10
2.820364987853375
 20
0.4824037525915289
 10
2.838164036054805
 20
0.5208993215236598
 10
2.858436222467633
 20
0.5523622016700823
 10
2.860374724696068
 20
0.5548235061084453
  0
LINE
  5
12E
330
EC
100
AcDbEntity
  8
AM_4
100
AcDbLine
 10
-3.22656
 20
0.6945833333333333
 30
0.0
 11
-3.22656
 21
0.01418549474528
 31
0.0
  0
LINE
  5
12F
330
EC
100
AcDbEntity
  8
AM_4
100
AcDbLine
 10
3.22656
 20
0.01418549474528
 30
0.0
 11
3.22656
 21
0.6945833333333333
 31
0.0
  0
LINE
  5
130
330
EC
100
AcDbEntity
  8
AM_4
100
AcDbLine
 10
3.22656
 20
0.6945833333333333
 30
0.0
 11
-3.22656
 21
0.6945833333333333
 31
0.0
  0
LWPOLYLINE
  5
131
330
EC
100
AcDbEntity
  8
AM_4
100
AcDbPolyline
 90
        3
 70
     0
 43
0.0
 10
2.881074613231074
 20
-0.0010220122228979
 10
2.871496161064059
 20
0.0016250275642428
 10
2.857228491826276
 20
0.0116007686081729
  0
LWPOLYLINE
  5
132
330
EC
100
AcDbEntity
  8
AM_4
100
AcDbPolyline
 90
        3
 70
     0
 43
0.0
 10
2.986375396653862
 20
0.0141854947452801
 10
2.938803006035022
 20
0.0021740945101984
 10
2.918758982603839
 20
-0.0010664497873749
  0
LINE
  5
133
330
EC
100
AcDbEntity
  8
AM_4
100
AcDbLine
 10
2.855387706931783
 20
0.0141854947452774
 30
0.0
 11
0.1549716393969366
 21
0.0141854947452802
 31
0.0
  0
LWPOLYLINE
  5
134
330
EC
100
AcDbEntity
  8
AM_4
100
AcDbPolyline
 90
        3
 70
     0
 43
0.0
 10
-0.0450113857056397
 20
-0.0010220122228975
 10
-0.0762418415662135
 20
0.001625027564243
 10
-0.154971639396923
 20
0.0141854947452713
  0
LWPOLYLINE
  5
135
330
EC
100
AcDbEntity
  8
AM_4
100
AcDbPolyline
 90
        3
 70
     0
 43
0.0
 10
0.1549716393969366
 20
0.0141854947452802
 10
0.0812432212758226
 20
0.0021740945101976
 10
0.0443012505599713
 20
-0.0010664497873751
  0
LINE
  5
136
330
EC
100
AcDbEntity
  8
AM_4
100
AcDbLine
 10
-0.154971639396923
 20
0.0141854947452713
 30
0.0
 11
-3.22656
 21
0.01418549474528
 31
0.0
  0
LINE
  5
137
330
EC
100
AcDbEntity
  8
AM_4
100
AcDbLine
 10
3.201990002370674
 20
0.0000000000000003
 30
0.0
 11
3.226560000000001
 21
0.01418549474528
 31
0.0
  0
LINE
  5
138
330
EC
100
AcDbEntity
  8
AM_4
100
AcDbLine
 10
-3.22656
 20
0.01418549474528
 30
0.0
 11
-3.201990002370675
 21
0.0000000000000006
 31
0.0
  0
LINE
  5
139
330
EC
100
AcDbEntity
  8
AM_4
100
AcDbLine
 10
3.226560000000001
 20
0.01418549474528
 30
0.0
 11
2.986375396653862
 21
0.01418549474528
 31
0.0
  0
ARC
  5
13A
330
EC
100
AcDbEntity
  8
AM_5
100
AcDbCircle
 10
0.0000000000000002
 20
0.2812500000000004
 30
0.0
 40
0.3125
100
AcDbArc
 50
75.0
 51
14.99999999999997
  0
ARC
  5
13B
330
EC
100
AcDbEntity
  8
AM_5
100
AcDbCircle
 10
0.0000000000000005
 20
0.2812500000000022
 30
0.0
 40
0.3124999999999982
100
AcDbArc
 50
63.85157066748177
 51
74.99999999999994
  0
ENDBLK
  5
EF
330
EC
100
AcDbEntity
  8
0
100
AcDbBlockEnd
  0
BLOCK
  5
13E
330
13C
100
AcDbEntity
  8
0
100
AcDbBlockBegin
  2
4_070014i_0_in_071521_4
 70
     2
 10
0.0
 20
0.0
 30
0.0
  3
4_070014i_0_in_071521_4
  1

  0
ATTDEF
  5
140
330
13C
100
AcDbEntity
  8
AM_6
100
AcDbText
 10
8.937
 20
1.2278125
 30
0.0
 40
0.5
  1
S-2000 Insert -Inch
100
AcDbAttributeDefinition
  3

  2
NN
 70
     8
280
     0
  0
ATTDEF
  5
141
330
13C
100
AcDbEntity
  8
AM_6
100
AcDbText
 10
8.937
 20
0.7278125000000004
 30
0.0
 40
0.5
  1
S-2000 Bearings
100
AcDbAttributeDefinition
  3

  2
NT
 70
     8
280
     0
  0
ATTDEF
  5
142
330
13C
100
AcDbEntity
  8
AM_6
100
AcDbText
 10
8.937
 20
0.2278125000000004
 30
0.0
 40
0.5
  1
070014i
100
AcDbAttributeDefinition
  3

  2
NB
 70
     8
280
     0
  0
ATTDEF
  5
143
330
13C
100
AcDbEntity
  8
AM_6
100
AcDbText
 10
8.937
 20
-0.2721874999999996
 30
0.0
 40
0.5
  1
$PN.i
100
AcDbAttributeDefinition
  3

  2
NBSYN
 70
     8
280
     0
  0
ATTDEF
  5
144
330
13C
100
AcDbEntity
  8
AM_6
100
AcDbText
 10
8.937
 20
-0.7721874999999996
 30
0.0
 40
0.5
  1
070014i
100
AcDbAttributeDefinition
  3

  2
LINA
 70
     8
280
     0
  0
ATTDEF
  5
145
330
13C
100
AcDbEntity
  8
AM_6
100
AcDbText
 10
8.937
 20
-1.2721875
 30
0.0
 40
0.5
  1
4-7/16
100
AcDbAttributeDefinition
  3

  2
SS
 70
     8
280
     0
  0
ATTDEF
  5
146
330
13C
100
AcDbEntity
  8
AM_6
100
AcDbText
 10
8.937
 20
-1.7721875
 30
0.0
 40
0.5
  1
5.00
100
AcDbAttributeDefinition
  3

  2
CC
 70
     8
280
     0
  0
ATTDEF
  5
147
330
13C
100
AcDbEntity
  8
AM_6
100
AcDbText
 10
8.937
 20
-2.272187499999999
 30
0.0
 40
0.5
  1
4.437500
100
AcDbAttributeDefinition
  3

  2
SS1
 70
     8
280
     0
  0
ATTDEF
  5
148
330
13C
100
AcDbEntity
  8
AM_6
100
AcDbText
 10
8.937
 20
-2.772187499999999
 30
0.0
 40
0.5
  1
070014
100
AcDbAttributeDefinition
  3

  2
PN
 70
     8
280
     0
  0
ATTDEF
  5
149
330
13C
100
AcDbEntity
  8
AM_6
100
AcDbText
 10
8.937
 20
-3.272187499999999
 30
0.0
 40
0.5
  1
INS-S2-407R
100
AcDbAttributeDefinition
  3

  2
DESCRIPTION
 70
     8
280
     0
  0
ATTDEF
  5
14A
330
13C
100
AcDbEntity
  8
AM_6
100
AcDbText
 10
8.937
 20
-3.772187499999999
 30
0.0
 40
0.5
  1
Contact Seal
100
AcDbAttributeDefinition
  3

  2
ST
 70
     8
280
     0
  0
ATTDEF
  5
14B
330
13C
100
AcDbEntity
  8
AM_6
100
AcDbText
 10
8.937
 20
-4.272187499999999
 30
0.0
 40
0.5
  1
1
100
AcDbAttributeDefinition
  3

  2
ST1
 70
     8
280
     0
  0
ATTDEF
  5
14C
330
13C
100
AcDbEntity
  8
AM_6
100
AcDbText
 10
8.937
 20
-4.772187499999999
 30
0.0
 40
0.5
  1
7.8740
100
AcDbAttributeDefinition
  3

  2
A
 70
     8
280
     0
  0
ATTDEF
  5
14D
330
13C
100
AcDbEntity
  8
AM_6
100
AcDbText
 10
8.937
 20
-5.272187499999999
 30
0.0
 40
0.5
  1
2-5/32
100
AcDbAttributeDefinition
  3

  2
B
 70
     8
280
     0
  0
ATTDEF
  5
14E
330
13C
100
AcDbEntity
  8
AM_6
100
AcDbText
 10
8.937
 20
-5.772187499999999
 30
0.0
 40
0.5
  1
6-17/32
100
AcDbAttributeDefinition
  3

  2
C
 70
     8
280
     0
  0
ATTDEF
  5
14F
330
13C
100
AcDbEntity
  8
AM_6
100
AcDbText
 10
8.937
 20
-6.272187499999999
 30
0.0
 40
0.5
  1
3.266
100
AcDbAttributeDefinition
  3

  2
D
 70
     8
280
     0
  0
ATTDEF
  5
150
330
13C
100
AcDbEntity
  8
AM_6
100
AcDbText
 10
8.937
 20
-6.772187499999999
 30
0.0
 40
0.5
  1
6-29/64
100
AcDbAttributeDefinition
  3

  2
E
 70
     8
280
     0
  0
ATTDEF
  5
151
330
13C
100
AcDbEntity
  8
AM_6
100
AcDbText
 10
8.937
 20
-7.272187499999999
 30
0.0
 40
0.5
  1
0.43750
100
AcDbAttributeDefinition
  3

  2
F
 70
     8
280
     0
  0
ATTDEF
  5
152
330
13C
100
AcDbEntity
  8
AM_6
100
AcDbText
 10
8.937
 20
-7.772187499999999
 30
0.0
 40
0.5
  1
2
100
AcDbAttributeDefinition
  3

  2
DD
 70
     8
280
     0
  0
ATTDEF
  5
153
330
13C
100
AcDbEntity
  8
AM_6
100
AcDbText
 10
8.937
 20
-8.2721875
 30
0.0
 40
0.5
  1
baldor
100
AcDbAttributeDefinition
  3

  2
COMPANY
 70
     8
280
     0
  0
LINE
  5
154
330
13C
100
AcDbEntity
  8
AM_9
100
AcDbLine
 10
2.265769467591625
 20
0.6712499999999998
 30
0.0
 11
2.010662166385627
 21
0.6712499999999998
 31
0.0
  0
LINE
  5
155
330
13C
100
AcDbEntity
  8
AM_9
100
AcDbLine
 10
2.010805980668961
 20
-0.10875
 30
0.0
 11
2.265769467591625
 21
-0.10875
 31
0.0
  0
LWPOLYLINE
  5
156
330
13C
100
AcDbEntity
  8
AM_9
100
AcDbPolyline
 90
       21
 70
     0
 43
0.0
 10
2.010883452367077
 20
0.6712499987775394
 10
1.992637080369742
 20
0.6689514601879316
 10
1.963846511410627
 20
0.6565775412591984
 10
1.934874597676671
 20
0.6339608368392007
 10
1.906642316844467
 20
0.601437112223606
 10
1.880417602268087
 20
0.5601348507847423
 10
1.857064509283933
 20
0.5103558040492086
 10
1.837993307492582
 20
0.4540692894538747
 10
1.824213010542119
 20
0.3926650109757386
 10
1.816384413756529
 20
0.3280237514070415
 10
1.815023849570296
 20
0.2628727296164752
 10
1.819945973882121
 20
0.1982459831944436
 10
1.830894232507766
 20
0.1364475113202203
 10
1.847217938706389
 20
0.0786667004309944
 10
1.86842810107104
 20
0.0260267460730419
 10
1.893319418905554
 20
-0.01952052068554
 10
1.921159482097264
 20
-0.0570145795762902
 10
1.950467595558332
 20
-0.0849290496704119
 10
1.979933548910967
 20
-0.1022360693171326
 10
2.008647456676044
 20
-0.1087147071502935
 10
2.010858335313289
 20
-0.1087499989547791
  0
LWPOLYLINE
  5
157
330
13C
100
AcDbEntity
  8
AM_9
100
AcDbPolyline
 90
        6
 70
     0
 43
0.0
 10
2.120688109854242
 20
0.0382346696124965
 10
2.126716111722927
 20
0.066636965091127
 10
2.135584859885662
 20
0.1246527556180536
 10
2.141353117227074
 20
0.1872010238826108
 10
2.143626560743487
 20
0.2338658852712068
 10
2.144383138759292
 20
0.2812499999999999
  0
LWPOLYLINE
  5
158
330
13C
100
AcDbEntity
  8
AM_9
100
AcDbPolyline
 90
        3
 70
     0
 43
0.0
 10
2.109791032403538
 20
-0.0009172029737057
 10
2.114696524089497
 20
0.01522382804516
 10
2.120688109854242
 20
0.0382346696124965
  0
LWPOLYLINE
  5
159
330
13C
100
AcDbEntity
  8
AM_9
100
AcDbPolyline
 90
        6
 70
     0
 43
0.0
 10
2.010858335313289
 20
-0.1087499989547791
 10
2.035295493209872
 20
-0.1041392689525042
 10
2.059624735854459
 20
-0.0889665923786277
 10
2.081060729091502
 20
-0.0635492465043523
 10
2.099414514826627
 20
-0.0287395837100233
 10
2.109791032403538
 20
-0.0009172029737057
  0
LWPOLYLINE
  5
15A
330
13C
100
AcDbEntity
  8
AM_9
100
AcDbPolyline
 90
       17
 70
     0
 43
0.0
 10
2.138472481309083
 20
-0.0002902894819473
 10
2.136528697837837
 20
0.0033290507051897
 10
2.113849777764381
 20
0.0532583164370767
 10
2.09541659512164
 20
0.109655038212915
 10
2.082174709821313
 20
0.1710869560830659
 10
2.074717473449861
 20
0.2356987714199754
 10
2.073518721305757
 20
0.3009588544471648
 10
2.078422346465016
 20
0.3656582781260403
 10
2.089205129318325
 20
0.4275961539316864
 10
2.105249316332166
 20
0.4854603271513147
 10
2.126055398478711
 20
0.5380046365714924
 10
2.150502805702975
 20
0.5833909528378012
 10
2.17783396176187
 20
0.6205613668463135
 10
2.206690727193555
 20
0.6481307961685678
 10
2.235843821670368
 20
0.6650996975307891
 10
2.2643933853177
 20
0.6712364451492623
 10
2.265761144811102
 20
0.6712499995027915
  0
LWPOLYLINE
  5
15B
330
13C
100
AcDbEntity
  8
AM_9
100
AcDbPolyline
 90
        6
 70
     0
 43
0.0
 10
2.265783204387584
 20
-0.1087499986454599
 10
2.247311258350221
 20
-0.1063847671358485
 10
2.218644363557162
 20
-0.0938563009423091
 10
2.189964238117227
 20
-0.071021767002876
 10
2.162194513097455
 20
-0.0382526883200508
 10
2.138472481309083
 20
-0.0002902894819473
  0
LWPOLYLINE
  5
15C
330
13C
100
AcDbEntity
  8
AM_9
100
AcDbPolyline
 90
       11
 70
     0
 43
0.0
 10
2.265761144811102
 20
0.6712499995027915
 10
2.291126862745232
 20
0.6663057582161034
 10
2.315696239258886
 20
0.6507348472334622
 10
2.337517000520263
 20
0.6248664557084904
 10
2.356340391291953
 20
0.5895688090107745
 10
2.372092646299096
 20
0.5452137327364094
 10
2.384565460311587
 20
0.4934514607045783
 10
2.393793079604179
 20
0.4352647163476592
 10
2.399793556216568
 20
0.372644023199816
 10
2.402086358317878
 20
0.3272746491565642
 10
2.402850899037565
 20
0.2812499999999999
  0
LINE
  5
15D
330
13C
100
AcDbEntity
  8
AM_9
100
AcDbLine
 10
2.265769467591625
 20
-4.619999999999999
 30
0.0
 11
2.010662166385627
 21
-4.619999999999999
 31
0.0
  0
LINE
  5
15E
330
13C
100
AcDbEntity
  8
AM_9
100
AcDbLine
 10
2.010805980668961
 20
-5.399999999999999
 30
0.0
 11
2.265769467591625
 21
-5.399999999999999
 31
0.0
  0
LWPOLYLINE
  5
15F
330
13C
100
AcDbEntity
  8
AM_9
100
AcDbPolyline
 90
       21
 70
     0
 43
0.0
 10
2.010883452367077
 20
-4.62000000122246
 10
1.992637080369742
 20
-4.622298539812068
 10
1.963846511410627
 20
-4.634672458740801
 10
1.934874597676671
 20
-4.657289163160799
 10
1.906642316844467
 20
-4.689812887776394
 10
1.880417602268087
 20
-4.731115149215257
 10
1.857064509283933
 20
-4.780894195950791
 10
1.837993307492582
 20
-4.837180710546124
 10
1.824213010542119
 20
-4.898584989024261
 10
1.816384413756529
 20
-4.963226248592958
 10
1.815023849570296
 20
-5.028377270383524
 10
1.819945973882121
 20
-5.093004016805556
 10
1.830894232507766
 20
-5.154802488679779
 10
1.847217938706389
 20
-5.212583299569005
 10
1.86842810107104
 20
-5.265223253926958
 10
1.893319418905554
 20
-5.31077052068554
 10
1.921159482097264
 20
-5.34826457957629
 10
1.950467595558331
 20
-5.376179049670411
 10
1.979933548910967
 20
-5.393486069317132
 10
2.008647456676044
 20
-5.399964707150294
 10
2.010858335313289
 20
-5.399999998954779
  0
LWPOLYLINE
  5
160
330
13C
100
AcDbEntity
  8
AM_9
100
AcDbPolyline
 90
        6
 70
     0
 43
0.0
 10
2.120688109854242
 20
-5.253015330387502
 10
2.126716111722927
 20
-5.224613034908873
 10
2.135584859885662
 20
-5.166597244381946
 10
2.141353117227074
 20
-5.104048976117388
 10
2.143626560743487
 20
-5.057384114728793
 10
2.144383138759292
 20
-5.009999999999999
  0
LWPOLYLINE
  5
161
330
13C
100
AcDbEntity
  8
AM_9
100
AcDbPolyline
 90
        7
 70
     0
 43
0.0
 10
2.010858335313289
 20
-5.399999998954779
 10
2.035295493209872
 20
-5.395389268952504
 10
2.059624735854459
 20
-5.380216592378628
 10
2.081060729091502
 20
-5.354799246504352
 10
2.099414514826627
 20
-5.319989583710023
 10
2.114696524089497
 20
-5.27602617195484
 10
2.120688109854242
 20
-5.253015330387502
  0
LWPOLYLINE
  5
162
330
13C
100
AcDbEntity
  8
AM_9
100
AcDbPolyline
 90
       21
 70
     0
 43
0.0
 10
2.265783204387584
 20
-5.399999998645459
 10
2.247311258350221
 20
-5.397634767135848
 10
2.218644363557162
 20
-5.385106300942309
 10
2.189964238117227
 20
-5.362271767002875
 10
2.162194513097455
 20
-5.32950268832005
 10
2.136528697837837
 20
-5.28792094929481
 10
2.113849777764381
 20
-5.237991683562923
 10
2.09541659512164
 20
-5.181594961787085
 10
2.082174709821313
 20
-5.120163043916934
 10
2.074717473449861
 20
-5.055551228580024
 10
2.073518721305757
 20
-4.990291145552835
 10
2.078422346465016
 20
-4.92559172187396
 10
2.089205129318325
 20
-4.863653846068313
 10
2.105249316332166
 20
-4.805789672848684
 10
2.126055398478711
 20
-4.753245363428507
 10
2.150502805702975
 20
-4.707859047162198
 10
2.177833961761869
 20
-4.670688633153686
 10
2.206690727193555
 20
-4.643119203831431
 10
2.235843821670368
 20
-4.62615030246921
 10
2.2643933853177
 20
-4.620013554850737
 10
2.265761144811102
 20
-4.620000000497208
  0
LWPOLYLINE
  5
163
330
13C
100
AcDbEntity
  8
AM_9
100
AcDbPolyline
 90
       11
 70
     0
 43
0.0
 10
2.265761144811102
 20
-4.620000000497208
 10
2.291126862745232
 20
-4.624944241783896
 10
2.315696239258886
 20
-4.640515152766537
 10
2.337517000520263
 20
-4.666383544291509
 10
2.356340391291953
 20
-4.701681190989225
 10
2.372092646299096
 20
-4.74603626726359
 10
2.384565460311587
 20
-4.797798539295421
 10
2.393793079604179
 20
-4.85598528365234
 10
2.399793556216568
 20
-4.918605976800184
 10
2.402086358317878
 20
-4.963975350843436
 10
2.402850899037565
 20
-5.009999999999999
  0
LWPOLYLINE
  5
164
330
13C
100
AcDbEntity
  8
AM_9
100
AcDbPolyline
 90
        7
 70
     0
 43
0.0
 10
2.120664689707141
 20
-4.766885671194609
 10
2.107365949351632
 20
-4.720710235677227
 10
2.090393425047168
 20
-4.680988192161695
 10
2.069976167155672
 20
-4.650418509657787
 10
2.046484404751818
 20
-4.630061397687812
 10
2.020553426311557
 20
-4.620731833380841
 10
2.010883452367077
 20
-4.62000000122246
  0
LWPOLYLINE
  5
165
330
13C
100
AcDbEntity
  8
AM_9
100
AcDbPolyline
 90
        6
 70
     0
 43
0.0
 10
2.144383138759292
 20
-5.009999999999999
 10
2.142953650007355
 20
-4.945099590930385
 10
2.13865334762639
 20
-4.882042431241274
 10
2.131382272697179
 20
-4.822676067840065
 10
2.121050883035888
 20
-4.768528040285472
 10
2.120664689707141
 20
-4.766885671194609
  0
LWPOLYLINE
  5
166
330
13C
100
AcDbEntity
  8
AM_9
100
AcDbPolyline
 90
        7
 70
     0
 43
0.0
 10
2.120664689707141
 20
0.52436432880539
 10
2.107365949351632
 20
0.5705397643227713
 10
2.090393425047168
 20
0.6102618078383052
 10
2.069976167155672
 20
0.6408314903422129
 10
2.046484404751818
 20
0.6611886023121876
 10
2.020553426311557
 20
0.670518166619159
 10
2.010883452367077
 20
0.6712499987775394
  0
LWPOLYLINE
  5
167
330
13C
100
AcDbEntity
  8
AM_9
100
AcDbPolyline
 90
        6
 70
     0
 43
0.0
 10
2.144383138759292
 20
0.2812499999999999
 10
2.142953650007355
 20
0.3461504090696139
 10
2.13865334762639
 20
0.4092075687587249
 10
2.131382272697179
 20
0.4685739321599348
 10
2.121050883035888
 20
0.5227219597145265
 10
2.120664689707141
 20
0.52436432880539
  0
LINE
  5
168
330
13C
100
AcDbEntity
  8
AM_9
100
AcDbLine
 10
-2.21875
 20
0.9012500000000004
 30
0.0
 11
-2.21875
 21
-5.63
 31
0.0
  0
LINE
  5
169
330
13C
100
AcDbEntity
  8
AM_9
100
AcDbLine
 10
2.21875
 20
-5.63
 30
0.0
 11
2.21875
 21
0.9012500000000004
 31
0.0
  0
LWPOLYLINE
  5
16A
330
13C
100
AcDbEntity
  8
AM_9
100
AcDbPolyline
 90
       11
 70
     0
 43
0.0
 10
2.402850899037565
 20
-5.009999999999999
 10
2.401313441402158
 20
-5.075021506400926
 10
2.396705519739894
 20
-5.138199353951453
 10
2.388953199728143
 20
-5.197686620187095
 10
2.378019814162874
 20
-5.251932398030443
 10
2.363697455559759
 20
-5.299713594016299
 10
2.346108274285411
 20
-5.339374438616161
 10
2.325194356802712
 20
-5.369817109963931
 10
2.301361453803466
 20
-5.390056915059461
 10
2.275230373669896
 20
-5.399302052014113
 10
2.265783204387584
 20
-5.399999998645459
  0
LWPOLYLINE
  5
16B
330
13C
100
AcDbEntity
  8
AM_9
100
AcDbPolyline
 90
       10
 70
     0
 43
0.0
 10
0.1162289172981754
 20
-4.637722094687724
 10
0.124823666285143
 20
-4.640515152766537
 10
0.1836018297002148
 20
-4.665920985628688
 10
0.238829462190445
 20
-4.701681190989225
 10
0.2864412457463024
 20
-4.745327725790353
 10
0.3272163505615865
 20
-4.797798539295421
 10
0.3579127123463262
 20
-4.855085538632133
 10
0.3791399906674994
 20
-4.918605976800184
 10
0.3872353834875072
 20
-4.963645304711568
 10
0.3900000000000002
 20
-5.009999999999999
  0
LWPOLYLINE
  5
16C
330
13C
100
AcDbEntity
  8
AM_9
100
AcDbPolyline
 90
        5
 70
     0
 43
0.0
 10
-0.1161777850754167
 20
-4.637706134545606
 10
-0.0697135829966551
 20
-4.626281331773174
 10
-0.0032515534504866
 20
-4.620013554850737
 10
0.0607390841471662
 20
-4.624758824037507
 10
0.1162289172981754
 20
-4.637722094687724
  0
LWPOLYLINE
  5
16D
330
13C
100
AcDbEntity
  8
AM_9
100
AcDbPolyline
 90
       28
 70
     0
 43
0.0
 10
0.3900000000000002
 20
-5.009999999999999
 10
0.3846962846345249
 20
-5.074099676975727
 10
0.3683271991673026
 20
-5.138199353951453
 10
0.3422992160661122
 20
-5.19689902803526
 10
0.305890037077442
 20
-5.251932398030443
 10
0.2617458609152352
 20
-5.299117803488028
 10
0.208836010271909
 20
-5.339374438616161
 10
0.1512378717215656
 20
-5.369481718807968
 10
0.087502807472018
 20
-5.390056915059461
 10
0.023589815808531
 20
-5.399285911111767
 10
-0.042886913010109
 20
-5.397634767135848
 10
-0.1057312018206749
 20
-5.385394343273251
 10
-0.1673457563629012
 20
-5.362271767002875
 10
-0.2228554812324346
 20
-5.330055361593366
 10
-0.2736054567128944
 20
-5.28792094929481
 10
-0.3158492013923911
 20
-5.238777800452291
 10
-0.3502215999753426
 20
-5.181594961787085
 10
-0.373840008211922
 20
-5.121101972350224
 10
-0.3873307186047221
 20
-5.055551228580024
 10
-0.3895482823296129
 20
-4.991234719984816
 10
-0.3807561458253788
 20
-4.92559172187396
 10
-0.3618370530553301
 20
-4.864487295962743
 10
-0.3322621589720276
 20
-4.805789672848684
 10
-0.2941423656774658
 20
-4.75391355226474
 10
-0.246598549505599
 20
-4.707859047162198
 10
-0.1930394363525759
 20
-4.67112572240921
 10
-0.1322818256704894
 20
-4.643119203831431
 10
-0.1161777850754167
 20
-4.637706134545606
  0
LINE
  5
16E
330
13C
100
AcDbEntity
  8
AM_9
100
AcDbLine
 10
-2.5
 20
-3.9525
 30
0.0
 11
-2.5
 21
-5.63
 31
0.0
  0
LINE
  5
16F
330
13C
100
AcDbEntity
  8
AM_9
100
AcDbLine
 10
2.5
 20
-5.63
 30
0.0
 11
2.5
 21
-3.9525
 31
0.0
  0
LWPOLYLINE
  5
170
330
13C
100
AcDbEntity
  8
AM_9
100
AcDbPolyline
 90
        7
 70
     0
 43
0.0
 10
2.366478755458424
 20
-0.0006030593807518
 10
2.363697455559759
 20
-0.0084635940162995
 10
2.346108274285411
 20
-0.0481244386161608
 10
2.325194356802712
 20
-0.0785671099639303
 10
2.301361453803466
 20
-0.0988069150594618
 10
2.275230373669896
 20
-0.1080520520141122
 10
2.265783204387584
 20
-0.1087499986454599
  0
LWPOLYLINE
  5
171
330
13C
100
AcDbEntity
  8
AM_9
100
AcDbPolyline
 90
        6
 70
     0
 43
0.0
 10
2.402850899037565
 20
0.2812499999999999
 10
2.401313441402158
 20
0.2162284935990731
 10
2.396705519739894
 20
0.1530506460485459
 10
2.388953199728143
 20
0.0935633798129036
 10
2.378019814162874
 20
0.0393176019695561
 10
2.366478755458424
 20
-0.0006030593807518
  0
LWPOLYLINE
  5
172
330
13C
100
AcDbEntity
  8
AM_9
100
AcDbPolyline
 90
       26
 70
     0
 43
0.0
 10
-0.2698771409928454
 20
-0.0002927654363178
 10
-0.2736054567128945
 20
0.0033290507051897
 10
-0.315849201392391
 20
0.052472199547708
 10
-0.3502215999753424
 20
0.1096550382129145
 10
-0.3738400082119219
 20
0.1701480276497746
 10
-0.3873307186047221
 20
0.2356987714199754
 10
-0.3895482823296129
 20
0.3000152800151838
 10
-0.3807561458253788
 20
0.3656582781260398
 10
-0.3618370530553301
 20
0.4267627040372565
 10
-0.3322621589720276
 20
0.4854603271513147
 10
-0.2941423656774661
 20
0.5373364477352597
 10
-0.2465985495055992
 20
0.5833909528378012
 10
-0.193039436352576
 20
0.6201242775907897
 10
-0.1322818256704893
 20
0.6481307961685678
 10
-0.0697135829966551
 20
0.6649686682268254
 10
-0.003251553450486
 20
0.6712364451492623
 10
0.0607390841471666
 20
0.6664911759624914
 10
0.1248236662851432
 20
0.6507348472334622
 10
0.1836018297002151
 20
0.6253290143713116
 10
0.2388294621904453
 20
0.5895688090107749
 10
0.2864412457463024
 20
0.5459222742096465
 10
0.3272163505615868
 20
0.4934514607045783
 10
0.3579127123463262
 20
0.4361644613678654
 10
0.3791399906674994
 20
0.372644023199816
 10
0.3872353834875072
 20
0.3276046952884322
 10
0.3900000000000002
 20
0.2812499999999999
  0
LWPOLYLINE
  5
173
330
13C
100
AcDbEntity
  8
AM_9
100
AcDbPolyline
 90
       11
 70
     0
 43
0.0
 10
0.2696211755184239
 20
-0.0005379019973416
 10
0.2617458609152352
 20
-0.0078678034880288
 10
0.2088360102719092
 20
-0.0481244386161608
 10
0.1512378717215659
 20
-0.0782317188079684
 10
0.0875028074720181
 20
-0.0988069150594618
 10
0.023589815808531
 20
-0.1080359111117683
 10
-0.042886913010109
 20
-0.1063847671358485
 10
-0.1057312018206747
 20
-0.0941443432732516
 10
-0.1673457563629011
 20
-0.071021767002876
 10
-0.2228554812324346
 20
-0.0388053615933657
 10
-0.2698771409928454
 20
-0.0002927654363178
  0
LWPOLYLINE
  5
174
330
13C
100
AcDbEntity
  8
AM_9
100
AcDbPolyline
 90
        6
 70
     0
 43
0.0
 10
0.3900000000000002
 20
0.2812499999999999
 10
0.3846962846345249
 20
0.2171503230242729
 10
0.3683271991673026
 20
0.1530506460485459
 10
0.3422992160661124
 20
0.0943509719647397
 10
0.3058900370774422
 20
0.0393176019695561
 10
0.2696211755184239
 20
-0.0005379019973416
  0
LINE
  5
175
330
13C
100
AcDbEntity
  8
AM_9
100
AcDbLine
 10
-2.5
 20
0.9012500000000004
 30
0.0
 11
-2.5
 21
-0.77625
 31
0.0
  0
LINE
  5
176
330
13C
100
AcDbEntity
  8
AM_9
100
AcDbLine
 10
2.5
 20
-0.77625
 30
0.0
 11
2.5
 21
0.9012500000000004
 31
0.0
  0
LINE
  5
177
330
13C
100
AcDbEntity
  8
AM_9
100
AcDbLine
 10
2.933975000000001
 20
-3.9525
 30
0.0
 11
-2.933975000000001
 21
-3.9525
 31
0.0
  0
ARC
  5
178
330
13C
100
AcDbEntity
  8
AM_9
100
AcDbCircle
 10
-2.933974999999999
 20
-3.736875
 30
0.0
 40
0.2156250000000002
100
AcDbArc
 50
180.0
 51
270.0
  0
ARC
  5
179
330
13C
100
AcDbEntity
  8
AM_9
100
AcDbCircle
 10
2.933974999999999
 20
-3.736875
 30
0.0
 40
0.2156250000000002
100
AcDbArc
 50
270.0
 51
0.0
  0
LINE
  5
17A
330
13C
100
AcDbEntity
  8
AM_9
100
AcDbLine
 10
2.933975
 20
-0.77625
 30
0.0
 11
-2.933975
 21
-0.77625
 31
0.0
  0
ARC
  5
17B
330
13C
100
AcDbEntity
  8
AM_9
100
AcDbCircle
 10
-2.933974999999999
 20
-0.991875
 30
0.0
 40
0.215625
100
AcDbArc
 50
90.0
 51
180.0
  0
ARC
  5
17C
330
13C
100
AcDbEntity
  8
AM_9
100
AcDbCircle
 10
2.933974999999999
 20
-0.9918750000000001
 30
0.0
 40
0.2156250000000002
100
AcDbArc
 50
0.0
 51
90.0
  0
LINE
  5
17D
330
13C
100
AcDbEntity
  8
AM_9
100
AcDbLine
 10
-3.1496
 20
-3.4425
 30
0.0
 11
-3.1496
 21
-3.736875
 31
0.0
  0
LINE
  5
17E
330
13C
100
AcDbEntity
  8
AM_9
100
AcDbLine
 10
3.1496
 20
-3.736875
 30
0.0
 11
3.1496
 21
-3.4425
 31
0.0
  0
LINE
  5
17F
330
13C
100
AcDbEntity
  8
AM_9
100
AcDbLine
 10
3.1496
 20
-3.736875
 30
0.0
 11
-3.1496
 21
-3.736875
 31
0.0
  0
LINE
  5
180
330
13C
100
AcDbEntity
  8
AM_9
100
AcDbLine
 10
-3.1496
 20
-0.9918750000000002
 30
0.0
 11
-3.1496
 21
-1.28625
 31
0.0
  0
LINE
  5
181
330
13C
100
AcDbEntity
  8
AM_9
100
AcDbLine
 10
3.1496
 20
-1.28625
 30
0.0
 11
3.1496
 21
-0.9918750000000002
 31
0.0
  0
LINE
  5
182
330
13C
100
AcDbEntity
  8
AM_9
100
AcDbLine
 10
3.1496
 20
-0.9918750000000002
 30
0.0
 11
-3.1496
 21
-0.9918750000000002
 31
0.0
  0
LINE
  5
183
330
13C
100
AcDbEntity
  8
AM_9
100
AcDbLine
 10
-3.77952
 20
-2.256562499999994
 30
0.0
 11
-3.77952
 21
-2.472187500000005
 31
0.0
  0
LINE
  5
184
330
13C
100
AcDbEntity
  8
AM_9
100
AcDbLine
 10
3.77952
 20
-2.472187500000005
 30
0.0
 11
3.77952
 21
-2.256562499999994
 31
0.0
  0
LINE
  5
185
330
13C
100
AcDbEntity
  8
AM_9
100
AcDbLine
 10
-3.936999999999999
 20
-1.501875
 30
0.0
 11
-3.936999999999999
 21
-2.165641379608013
 31
0.0
  0
LINE
  5
186
330
13C
100
AcDbEntity
  8
AM_9
100
AcDbLine
 10
3.936999999999999
 20
-2.165641379608013
 30
0.0
 11
3.936999999999999
 21
-1.501875
 31
0.0
  0
LINE
  5
187
330
13C
100
AcDbEntity
  8
AM_9
100
AcDbLine
 10
3.77952
 20
-2.256562499999994
 30
0.0
 11
3.936999999999999
 21
-2.165641379608013
 31
0.0
  0
LINE
  5
188
330
13C
100
AcDbEntity
  8
AM_9
100
AcDbLine
 10
-3.936999999999999
 20
-2.165641379608013
 30
0.0
 11
-3.77952
 21
-2.256562499999994
 31
0.0
  0
LINE
  5
189
330
13C
100
AcDbEntity
  8
AM_9
100
AcDbLine
 10
3.936999999999999
 20
-2.165641379608013
 30
0.0
 11
-3.936999999999999
 21
-2.165641379608013
 31
0.0
  0
LINE
  5
18A
330
13C
100
AcDbEntity
  8
AM_9
100
AcDbLine
 10
3.77952
 20
-2.256562499999994
 30
0.0
 11
-3.77952
 21
-2.256562499999994
 31
0.0
  0
LINE
  5
18B
330
13C
100
AcDbEntity
  8
AM_9
100
AcDbLine
 10
-3.936999999999999
 20
-2.563108620391987
 30
0.0
 11
-3.936999999999999
 21
-3.226874999999999
 31
0.0
  0
LINE
  5
18C
330
13C
100
AcDbEntity
  8
AM_9
100
AcDbLine
 10
3.936999999999999
 20
-3.226874999999999
 30
0.0
 11
3.936999999999999
 21
-2.563108620391987
 31
0.0
  0
LINE
  5
18D
330
13C
100
AcDbEntity
  8
AM_9
100
AcDbLine
 10
3.721374999999999
 20
-3.4425
 30
0.0
 11
-3.721374999999999
 21
-3.4425
 31
0.0
  0
ARC
  5
18E
330
13C
100
AcDbEntity
  8
AM_9
100
AcDbCircle
 10
-3.721374999999997
 20
-3.226874999999997
 30
0.0
 40
0.2156250000000028
100
AcDbArc
 50
180.0
 51
270.0
  0
ARC
  5
18F
330
13C
100
AcDbEntity
  8
AM_9
100
AcDbCircle
 10
3.721374999999997
 20
-3.226874999999998
 30
0.0
 40
0.215625000000002
100
AcDbArc
 50
270.0
 51
0.0000008537736463
  0
LINE
  5
190
330
13C
100
AcDbEntity
  8
AM_9
100
AcDbLine
 10
3.936999999999999
 20
-3.226874999999999
 30
0.0
 11
-3.936999999999999
 21
-3.226874999999999
 31
0.0
  0
LINE
  5
191
330
13C
100
AcDbEntity
  8
AM_9
100
AcDbLine
 10
-3.77952
 20
-2.472187500000005
 30
0.0
 11
-3.936999999999999
 21
-2.563108620391987
 31
0.0
  0
LINE
  5
192
330
13C
100
AcDbEntity
  8
AM_9
100
AcDbLine
 10
3.936999999999999
 20
-2.563108620391987
 30
0.0
 11
3.77952
 21
-2.472187500000005
 31
0.0
  0
LINE
  5
193
330
13C
100
AcDbEntity
  8
AM_9
100
AcDbLine
 10
3.77952
 20
-2.472187500000005
 30
0.0
 11
-3.77952
 21
-2.472187500000005
 31
0.0
  0
LINE
  5
194
330
13C
100
AcDbEntity
  8
AM_9
100
AcDbLine
 10
3.936999999999999
 20
-2.563108620391987
 30
0.0
 11
-3.936999999999999
 21
-2.563108620391987
 31
0.0
  0
LINE
  5
195
330
13C
100
AcDbEntity
  8
AM_9
100
AcDbLine
 10
3.721374999999999
 20
-1.28625
 30
0.0
 11
-3.721374999999999
 21
-1.28625
 31
0.0
  0
ARC
  5
196
330
13C
100
AcDbEntity
  8
AM_9
100
AcDbCircle
 10
-3.721374999999998
 20
-1.501875
 30
0.0
 40
0.2156250000000006
100
AcDbArc
 50
90.0
 51
180.0
  0
ARC
  5
197
330
13C
100
AcDbEntity
  8
AM_9
100
AcDbCircle
 10
3.721374999999998
 20
-1.501875
 30
0.0
 40
0.2156250000000011
100
AcDbArc
 50
0.0
 51
90.0
  0
LINE
  5
198
330
13C
100
AcDbEntity
  8
AM_9
100
AcDbLine
 10
3.936999999999999
 20
-1.501875
 30
0.0
 11
-3.936999999999999
 21
-1.501875
 31
0.0
  0
LINE
  5
199
330
13C
100
AcDbEntity
  8
AM_7
100
AcDbLine
 10
0.0
 20
1.2278125
 30
0.0
 11
0.0
 21
-5.9565625
 31
0.0
  0
ENDBLK
  5
13F
330
13C
100
AcDbEntity
  8
0
100
AcDbBlockEnd
  0
BLOCK
  5
19C
330
19A
100
AcDbEntity
  8
0
100
AcDbBlockBegin
  2
5_405015E_Inch_0_in_071521_4
 70
     2
 10
0.0
 20
0.0
 30
0.0
  3
5_405015E_Inch_0_in_071521_4
  1

  0
ATTDEF
  5
19E
330
19A
100
AcDbEntity
  8
AM_6
100
AcDbText
 10
5.252590742770462
 20
-4.024899655191887
 30
0.0
 40
0.5
  1
405015E -Inch
100
AcDbAttributeDefinition
  3

  2
NN
 70
     8
280
     0
  0
ATTDEF
  5
19F
330
19A
100
AcDbEntity
  8
AM_6
100
AcDbText
 10
5.252590742770462
 20
-4.524899655191887
 30
0.0
 40
0.5
  1
Grease Fitting
100
AcDbAttributeDefinition
  3

  2
NT
 70
     8
280
     0
  0
ATTDEF
  5
1A0
330
19A
100
AcDbEntity
  8
AM_6
100
AcDbText
 10
5.252590742770462
 20
-5.024899655191887
 30
0.0
 40
0.5
  1
405015E-Inch
100
AcDbAttributeDefinition
  3

  2
NB
 70
     8
280
     0
  0
ATTDEF
  5
1A1
330
19A
100
AcDbEntity
  8
AM_6
100
AcDbText
 10
5.252590742770462
 20
-5.524899655191887
 30
0.0
 40
0.5
  1
$MN.-Inch
100
AcDbAttributeDefinition
  3

  2
NBSYN
 70
     8
280
     0
  0
ATTDEF
  5
1A2
330
19A
100
AcDbEntity
  8
AM_6
100
AcDbText
 10
5.252590742770462
 20
-6.024899655191887
 30
0.0
 40
0.5
  1
405015E
100
AcDbAttributeDefinition
  3

  2
LINA
 70
     8
280
     0
  0
ATTDEF
  5
1A3
330
19A
100
AcDbEntity
  8
AM_6
100
AcDbText
 10
5.252590742770462
 20
-6.524899655191887
 30
0.0
 40
0.5
  1
405015E
100
AcDbAttributeDefinition
  3

  2
MN
 70
     8
280
     0
  0
ATTDEF
  5
1A4
330
19A
100
AcDbEntity
  8
AM_6
100
AcDbText
 10
5.252590742770462
 20
-7.024899655191887
 30
0.0
 40
0.5
  1
1/8 x 27PTF
100
AcDbAttributeDefinition
  3

  2
T
 70
     8
280
     0
  0
ATTDEF
  5
1A5
330
19A
100
AcDbEntity
  8
AM_6
100
AcDbText
 10
5.252590742770462
 20
-7.524899655191887
 30
0.0
 40
0.5
  1
baldor
100
AcDbAttributeDefinition
  3

  2
COMPANY
 70
     8
280
     0
  0
LINE
  5
1A6
330
19A
100
AcDbEntity
  8
AM_9
100
AcDbLine
 10
0.1262953713852306
 20
-4.523472592120723
 30
0.0
 11
0.1262953713852306
 21
-4.452575595119511
 31
0.0
  0
LINE
  5
1A7
330
19A
100
AcDbEntity
  8
AM_9
100
AcDbLine
 10
-0.1262953713852306
 20
-4.523472592120723
 30
0.0
 11
-0.1262953713852306
 21
-4.452575595119511
 31
0.0
  0
LWPOLYLINE
  5
1A8
330
19A
100
AcDbEntity
  8
AM_9
100
AcDbPolyline
 90
        3
 70
     0
 43
0.0
 10
0.1262953713852306
 20
-4.452575595119511
 10
0.0634316146914367
 20
-4.446813863375337
 10
0.0
 20
-4.444722823430896
  0
LWPOLYLINE
  5
1A9
330
19A
100
AcDbEntity
  8
AM_9
100
AcDbPolyline
 90
        4
 70
     0
 43
0.0
 10
0.0
 20
-4.444722823430896
 10
-0.0483998160558989
 20
-4.445950467023343
 10
-0.0967996321117978
 20
-4.449470731945373
 10
-0.1262953713852306
 20
-4.452575595119511
  0
LWPOLYLINE
  5
1AA
330
19A
100
AcDbEntity
  8
AM_9
100
AcDbPolyline
 90
        3
 70
     0
 43
0.0
 10
-0.1262953713852306
 20
-4.452575595119511
 10
-0.1577272497321276
 20
-4.419593058238263
 10
-0.1894430570778459
 20
-4.390035323430895
  0
LWPOLYLINE
  5
1AB
330
19A
100
AcDbEntity
  8
AM_9
100
AcDbPolyline
 90
        3
 70
     0
 43
0.0
 10
0.1894430570778459
 20
-4.390035323430895
 10
0.1578692142315383
 20
-4.419451801991665
 10
0.1262953713852306
 20
-4.452575595119511
  0
LWPOLYLINE
  5
1AC
330
19A
100
AcDbEntity
  8
AM_9
100
AcDbPolyline
 90
        4
 70
     0
 43
0.0
 10
-0.1020015272510723
 20
-4.526078106436106
 10
-0.0967996321117978
 20
-4.52657745529486
 10
-0.0485424412477544
 20
-4.530090560329405
 10
0.0
 20
-4.531325363809339
  0
LINE
  5
1AD
330
19A
100
AcDbEntity
  8
AM_9
100
AcDbLine
 10
-0.1050087569988762
 20
-4.525779646424068
 30
0.0
 11
-0.1020015272510723
 21
-4.526078106436106
 31
0.0
  0
LINE
  5
1AE
330
19A
100
AcDbEntity
  8
AM_9
100
AcDbLine
 10
0.1018661927049469
 20
-4.526091370963898
 30
0.0
 11
0.1050474083588161
 21
-4.525775764381223
 31
0.0
  0
LWPOLYLINE
  5
1AF
330
19A
100
AcDbEntity
  8
AM_9
100
AcDbPolyline
 90
        3
 70
     0
 43
0.0
 10
0.0
 20
-4.531325363809339
 10
0.0631476856926153
 20
-4.529252635248569
 10
0.1018661927049469
 20
-4.526091370963898
  0
LWPOLYLINE
  5
1B0
330
19A
100
AcDbEntity
  8
AM_9
100
AcDbPolyline
 90
        3
 70
     0
 43
0.0
 10
-0.1894430570778459
 20
-4.390035323430895
 10
-0.2210168999241536
 20
-4.364764301991665
 10
-0.2525907427704612
 20
-4.343200595119511
  0
LWPOLYLINE
  5
1B1
330
19A
100
AcDbEntity
  8
AM_9
100
AcDbPolyline
 90
        3
 70
     0
 43
0.0
 10
0.2525907427704612
 20
-4.343200595119511
 10
0.2211588644235643
 20
-4.364659668512412
 10
0.1894430570778459
 20
-4.390035323430895
  0
LINE
  5
1B2
330
19A
100
AcDbEntity
  8
AM_9
100
AcDbLine
 10
-0.1321931418159853
 20
-4.059113757925799
 30
0.0
 11
-0.1621706131788416
 21
-4.080311031209301
 31
0.0
  0
LINE
  5
1B3
330
19A
100
AcDbEntity
  8
AM_9
100
AcDbLine
 10
0.1621706131788416
 20
-4.080311031209301
 30
0.0
 11
0.1321931418159853
 21
-4.059113757925799
 31
0.0
  0
LINE
  5
1B4
330
19A
100
AcDbEntity
  8
AM_9
100
AcDbLine
 10
-0.1985852938306408
 20
-4.135855162744451
 30
0.0
 11
-0.2057184028850727
 21
-4.333491622653265
 31
0.0
  0
LINE
  5
1B5
330
19A
100
AcDbEntity
  8
AM_9
100
AcDbLine
 10
0.2057184028850727
 20
-4.333491622653265
 30
0.0
 11
0.1985852938306408
 21
-4.135855162744451
 31
0.0
  0
LINE
  5
1B6
330
19A
100
AcDbEntity
  8
AM_9
100
AcDbLine
 10
0.10178102724221
 20
-4.525783197595182
 30
0.0
 11
0.105
 21
-4.519480802955655
 31
0.0
  0
LINE
  5
1B7
330
19A
100
AcDbEntity
  8
AM_9
100
AcDbLine
 10
-0.105
 20
-4.519480802955655
 30
0.0
 11
-0.10178102724221
 21
-4.525783197595183
 31
0.0
  0
ELLIPSE
  5
1B8
330
19A
100
AcDbEntity
  8
AM_9
100
AcDbEllipse
 10
0.0
 20
-4.512883031206704
 30
0.0
 11
-0.1049999999999995
 21
1.285879139104715E-17
 31
0.0
210
0.0
220
0.0
230
1.0
 40
0.4999999999999958
 41
0.0
 42
3.141592653589793
  0
LINE
  5
1B9
330
19A
100
AcDbEntity
  8
AM_9
100
AcDbLine
 10
-0.105
 20
-4.531121260019164
 30
0.0
 11
-0.105
 21
-4.538863793320238
 31
0.0
  0
LINE
  5
1BA
330
19A
100
AcDbEntity
  8
AM_9
100
AcDbLine
 10
0.105
 20
-4.538863793320238
 30
0.0
 11
0.105
 21
-4.531121260019164
 31
0.0
  0
ELLIPSE
  5
1BB
330
19A
100
AcDbEntity
  8
AM_9
100
AcDbEllipse
 10
0.0
 20
-4.538863793320239
 30
0.0
 11
-0.1049999999999999
 21
1.285879139104719E-17
 31
0.0
210
0.0
220
0.0
230
1.0
 40
0.4999999999999942
 41
5.990342535450996
 42
9.717620732497972
  0
LINE
  5
1BC
330
19A
100
AcDbEntity
  8
AM_9
100
AcDbLine
 10
0.0976523208201058
 20
-4.518802531068087
 30
0.0
 11
0.1098343496897825
 21
-4.510015677941237
 31
0.0
  0
LINE
  5
1BD
330
19A
100
AcDbEntity
  8
AM_9
100
AcDbLine
 10
-0.1098343496897825
 20
-4.510015677941237
 30
0.0
 11
-0.0976523208201058
 21
-4.518802531068087
 31
0.0
  0
ELLIPSE
  5
1BE
330
19A
100
AcDbEntity
  8
AM_9
100
AcDbEllipse
 10
-0.0000000000000204
 20
-4.484956415335625
 30
0.0
 11
-0.1188200907349194
 21
1.455126437929171E-17
 31
0.0
210
0.0
220
0.0
230
1.0
 40
0.500000000000038
 41
0.2500328930991049
 42
2.891559760490774
  0
ELLIPSE
  5
1BF
330
19A
100
AcDbEntity
  8
AM_9
100
AcDbEllipse
 10
0.0
 20
-4.43781438909731
 30
0.0
 11
-0.172534053283015
 21
2.112932760969632E-17
 31
0.0
210
0.0
220
0.0
230
1.0
 40
0.5000000000000028
 41
0.6061451401950819
 42
2.535447513394711
  0
ELLIPSE
  5
1C0
330
19A
100
AcDbEntity
  8
AM_9
100
AcDbEllipse
 10
0.0000000000000054
 20
-4.421950363809335
 30
0.0
 11
-0.2187500000000159
 21
2.678914873135030E-17
 31
0.0
210
0.0
220
0.0
230
1.0
 40
0.4999999999999757
 41
1.065244638251244
 42
2.076348015338505
  0
ELLIPSE
  5
1C1
330
19A
100
AcDbEntity
  8
AM_9
100
AcDbEllipse
 10
-0.0000000000021652
 20
-4.421950363804427
 30
0.0
 11
-0.213749999995641
 21
2.617682533124086E-17
 31
0.0
210
0.0
220
0.0
230
1.0
 40
0.5000000000276756
 41
1.042972124175273
 42
2.098620529432019
  0
ELLIPSE
  5
1C2
330
19A
100
AcDbEntity
  8
AM_9
100
AcDbEllipse
 10
0.0
 20
-4.590825317547305
 30
0.0
 11
-0.1350000000000002
 21
1.653273178848929E-17
 31
0.0
210
0.0
220
0.0
230
1.0
 40
0.499999999999992
 41
0.2354336045415568
 42
2.906159049048237
  0
ELLIPSE
  5
1C3
330
19A
100
AcDbEntity
  8
AM_9
100
AcDbEllipse
 10
0.0000000000000024
 20
-4.105851091428021
 30
0.0
 11
-0.1619028724722666
 21
2.412540820283589E-9
 31
0.0
210
0.0
220
0.0
230
1.0
 40
0.5000000000000048
 41
0.0
 42
6.283185307179586
  0
ELLIPSE
  5
1C4
330
19A
100
AcDbEntity
  8
AM_9
100
AcDbEllipse
 10
0.0000000000000005
 20
-4.335347823430896
 30
0.0
 11
-0.2187500000000003
 21
2.678914873134839E-17
 31
0.0
210
0.0
220
0.0
230
1.0
 40
0.5000000000000034
 41
0.0
 42
6.283185307179586
  0
ELLIPSE
  5
1C5
330
19A
100
AcDbEntity
  8
AM_9
100
AcDbEllipse
 10
-0.0000000000004714
 20
-4.335347823433459
 30
0.0
 11
-0.205751897223541
 21
2.519734023533046E-17
 31
0.0
210
0.0
220
0.0
230
1.0
 40
0.5000000000001643
 41
0.0
 42
6.283185307179586
  0
ELLIPSE
  5
1C6
330
19A
100
AcDbEntity
  8
AM_9
100
AcDbEllipse
 10
-0.0000000000010658
 20
-4.137647001354589
 30
0.0
 11
-0.1986176267822812
 21
2.432364408931643E-17
 31
0.0
210
0.0
220
0.0
230
1.0
 40
0.4999999999999922
 41
0.0
 42
6.283185307179586
  0
LWPOLYLINE
  5
1C7
330
19A
100
AcDbEntity
  8
AM_4
100
AcDbPolyline
 90
        3
 70
     0
 43
0.0
 10
-0.1894430570778459
 20
-4.476637863809339
 10
-0.1578692142315383
 20
-4.50190888524857
 10
-0.1262953713852306
 20
-4.523472592120723
  0
LINE
  5
1C8
330
19A
100
AcDbEntity
  8
AM_4
100
AcDbLine
 10
-0.1262953713852306
 20
-4.523472592120723
 30
0.0
 11
-0.1050087569988762
 21
-4.525779646424068
 31
0.0
  0
LWPOLYLINE
  5
1C9
330
19A
100
AcDbEntity
  8
AM_4
100
AcDbPolyline
 90
        3
 70
     0
 43
0.0
 10
0.1262953713852306
 20
-4.523472592120723
 10
0.1577272497321276
 20
-4.502013518727822
 10
0.1894430570778459
 20
-4.476637863809339
  0
LINE
  5
1CA
330
19A
100
AcDbEntity
  8
AM_4
100
AcDbLine
 10
0.1050474083588161
 20
-4.525775764381223
 30
0.0
 11
0.1262953713852306
 21
-4.523472592120723
 31
0.0
  0
LWPOLYLINE
  5
1CB
330
19A
100
AcDbEntity
  8
AM_4
100
AcDbPolyline
 90
        3
 70
     0
 43
0.0
 10
-0.2525907427704612
 20
-4.414097592120723
 10
-0.2211588644235643
 20
-4.447080129001971
 10
-0.1894430570778459
 20
-4.476637863809339
  0
LWPOLYLINE
  5
1CC
330
19A
100
AcDbEntity
  8
AM_4
100
AcDbPolyline
 90
        3
 70
     0
 43
0.0
 10
0.1894430570778459
 20
-4.476637863809339
 10
0.2210168999241535
 20
-4.447221385248569
 10
0.2525907427704612
 20
-4.414097592120723
  0
LINE
  5
1CD
330
19A
100
AcDbEntity
  8
AM_4
100
AcDbLine
 10
0.105
 20
-4.519480802955655
 30
0.0
 11
0.1151252948555658
 21
-4.499656589200841
 31
0.0
  0
LINE
  5
1CE
330
19A
100
AcDbEntity
  8
AM_4
100
AcDbLine
 10
-0.1151252948555658
 20
-4.499656589200841
 30
0.0
 11
-0.105
 21
-4.519480802955655
 31
0.0
  0
ELLIPSE
  5
1CF
330
19A
100
AcDbEntity
  8
AM_4
100
AcDbEllipse
 10
0.0000000000000037
 20
-4.484956415335652
 30
0.0
 11
-0.1188200907348939
 21
1.455126437928859E-17
 31
0.0
210
0.0
220
0.0
230
1.0
 40
0.4999999999999881
 41
2.89155976049115
 42
6.533218200278209
  0
ELLIPSE
  5
1D0
330
19A
100
AcDbEntity
  8
AM_4
100
AcDbEllipse
 10
0.0
 20
-4.512883031206705
 30
0.0
 11
-0.1050000000000003
 21
1.564621938212800E-9
 31
0.0
210
0.0
220
0.0
230
1.0
 40
0.5000000000000007
 41
3.141592679399361
 42
6.283185332989154
  0
LINE
  5
1D1
330
19A
100
AcDbEntity
  8
AM_4
100
AcDbLine
 10
-0.105
 20
-4.512883031206705
 30
0.0
 11
-0.105
 21
-4.531121260019164
 31
0.0
  0
LINE
  5
1D2
330
19A
100
AcDbEntity
  8
AM_4
100
AcDbLine
 10
0.105
 20
-4.531121260019164
 30
0.0
 11
0.105
 21
-4.512883031206705
 31
0.0
  0
LINE
  5
1D3
330
19A
100
AcDbEntity
  8
AM_4
100
AcDbLine
 10
0.1098343496897825
 20
-4.510015677941237
 30
0.0
 11
0.1417971541629018
 21
-4.486961023299381
 31
0.0
  0
LINE
  5
1D4
330
19A
100
AcDbEntity
  8
AM_4
100
AcDbLine
 10
-0.1417971541629018
 20
-4.486961023299381
 30
0.0
 11
-0.1098343496897825
 21
-4.510015677941237
 31
0.0
  0
ELLIPSE
  5
1D5
330
19A
100
AcDbEntity
  8
AM_4
100
AcDbEllipse
 10
-0.000000000000004
 20
-4.437814389097303
 30
0.0
 11
-0.1725340532830195
 21
2.112932760969687E-17
 31
0.0
210
0.0
220
0.0
230
1.0
 40
0.5000000000000154
 41
2.535447513394669
 42
6.889330447374732
  0
LINE
  5
1D6
330
19A
100
AcDbEntity
  8
AM_4
100
AcDbLine
 10
-0.2525907427704612
 20
-4.414097592120723
 30
0.0
 11
-0.2525907427704612
 21
-4.343200595119511
 31
0.0
  0
LWPOLYLINE
  5
1D7
330
19A
100
AcDbEntity
  8
AM_4
100
AcDbPolyline
 90
        3
 70
     0
 43
0.0
 10
-0.1894430570778459
 20
-4.367262863809339
 10
-0.2210168999241536
 20
-4.39253388524857
 10
-0.2525907427704612
 20
-4.414097592120723
  0
LWPOLYLINE
  5
1D8
330
19A
100
AcDbEntity
  8
AM_4
100
AcDbPolyline
 90
        3
 70
     0
 43
0.0
 10
-0.1894430570778459
 20
-4.280660323430896
 10
-0.1578692142315383
 20
-4.255389301991665
 10
-0.1262953713852306
 20
-4.233825595119511
  0
LWPOLYLINE
  5
1D9
330
19A
100
AcDbEntity
  8
AM_4
100
AcDbPolyline
 90
        3
 70
     0
 43
0.0
 10
-0.2525907427704612
 20
-4.343200595119511
 10
-0.2211588644235643
 20
-4.310218058238262
 10
-0.1894430570778459
 20
-4.280660323430896
  0
LWPOLYLINE
  5
1DA
330
19A
100
AcDbEntity
  8
AM_4
100
AcDbPolyline
 90
        3
 70
     0
 43
0.0
 10
0.2525907427704612
 20
-4.414097592120723
 10
0.2211588644235643
 20
-4.392638518727822
 10
0.1894430570778459
 20
-4.367262863809339
  0
LINE
  5
1DB
330
19A
100
AcDbEntity
  8
AM_4
100
AcDbLine
 10
0.2525907427704612
 20
-4.414097592120723
 30
0.0
 11
0.2525907427704612
 21
-4.343200595119511
 31
0.0
  0
LWPOLYLINE
  5
1DC
330
19A
100
AcDbEntity
  8
AM_4
100
AcDbPolyline
 90
        3
 70
     0
 43
0.0
 10
0.1894430570778459
 20
-4.280660323430896
 10
0.2210168999241536
 20
-4.310076801991665
 10
0.2525907427704612
 20
-4.343200595119511
  0
LWPOLYLINE
  5
1DD
330
19A
100
AcDbEntity
  8
AM_4
100
AcDbPolyline
 90
        3
 70
     0
 43
0.0
 10
0.1262953713852306
 20
-4.233825595119511
 10
0.1577272497321276
 20
-4.255284668512412
 10
0.1894430570778459
 20
-4.280660323430896
  0
LWPOLYLINE
  5
1DE
330
19A
100
AcDbEntity
  8
AM_4
100
AcDbPolyline
 90
        3
 70
     0
 43
0.0
 10
-0.1262953713852306
 20
-4.304722592120723
 10
-0.1577272497321276
 20
-4.337705129001971
 10
-0.1894430570778459
 20
-4.367262863809339
  0
ELLIPSE
  5
1DF
330
19A
100
AcDbEntity
  8
AM_4
100
AcDbEllipse
 10
0.0000000000000017
 20
-4.421950363809341
 30
0.0
 11
-0.2187500000000027
 21
2.678914873134869E-17
 31
0.0
210
0.0
220
0.0
230
1.0
 40
0.4999999999999978
 41
2.076348015338563
 42
7.348429945430802
  0
LINE
  5
1E0
330
19A
100
AcDbEntity
  8
AM_4
100
AcDbLine
 10
-0.1262953713852306
 20
-4.304722592120723
 30
0.0
 11
-0.1262953713852306
 21
-4.233825595119511
 31
0.0
  0
LWPOLYLINE
  5
1E1
330
19A
100
AcDbEntity
  8
AM_4
100
AcDbPolyline
 90
        4
 70
     0
 43
0.0
 10
0.0
 20
-4.312575363809339
 10
-0.0483998160558989
 20
-4.311347720216891
 10
-0.0967996321117978
 20
-4.30782745529486
 10
-0.1262953713852306
 20
-4.304722592120723
  0
LINE
  5
1E2
330
19A
100
AcDbEntity
  8
AM_4
100
AcDbLine
 10
0.1262953713852306
 20
-4.304722592120723
 30
0.0
 11
0.1262953713852306
 21
-4.233825595119511
 31
0.0
  0
LWPOLYLINE
  5
1E3
330
19A
100
AcDbEntity
  8
AM_4
100
AcDbPolyline
 90
        3
 70
     0
 43
0.0
 10
0.0
 20
-4.225972823430895
 10
0.0631476856926153
 20
-4.228045551991665
 10
0.1262953713852306
 20
-4.233825595119511
  0
LWPOLYLINE
  5
1E4
330
19A
100
AcDbEntity
  8
AM_4
100
AcDbPolyline
 90
        4
 70
     0
 43
0.0
 10
-0.1262953713852306
 20
-4.233825595119511
 10
-0.0967996321117978
 20
-4.230720731945373
 10
-0.0485424412477544
 20
-4.227207626910829
 10
0.0
 20
-4.225972823430895
  0
LWPOLYLINE
  5
1E5
330
19A
100
AcDbEntity
  8
AM_4
100
AcDbPolyline
 90
        3
 70
     0
 43
0.0
 10
0.1894430570778459
 20
-4.367262863809339
 10
0.1578692142315383
 20
-4.33784638524857
 10
0.1262953713852306
 20
-4.304722592120723
  0
LWPOLYLINE
  5
1E6
330
19A
100
AcDbEntity
  8
AM_4
100
AcDbPolyline
 90
        3
 70
     0
 43
0.0
 10
0.1262953713852306
 20
-4.304722592120723
 10
0.0634316146914367
 20
-4.310484323864897
 10
0.0
 20
-4.312575363809339
  0
ELLIPSE
  5
1E7
330
19A
100
AcDbEntity
  8
AM_4
100
AcDbEllipse
 10
0.0000000000000003
 20
-4.421950363809336
 30
0.0
 11
-0.2137499999999996
 21
2.617682533177463E-17
 31
0.0
210
0.0
220
0.0
230
1.0
 40
0.5000000000000032
 41
2.098620529422318
 42
7.326157431347054
  0
LINE
  5
1E8
330
19A
100
AcDbEntity
  8
AM_4
100
AcDbLine
 10
-0.1005298463144155
 20
-4.523708348754011
 30
0.0
 11
-0.1292526595471057
 21
-4.571339745962154
 31
0.0
  0
LINE
  5
1E9
330
19A
100
AcDbEntity
  8
AM_4
100
AcDbLine
 10
0.1292526595471057
 20
-4.571339745962154
 30
0.0
 11
0.1005298463144155
 21
-4.523708348754011
 31
0.0
  0
ELLIPSE
  5
1EA
330
19A
100
AcDbEntity
  8
AM_4
100
AcDbEllipse
 10
0.0
 20
-4.538863793320238
 30
0.0
 11
-0.1050000000000003
 21
1.285879139104725E-17
 31
0.0
210
0.0
220
0.0
230
1.0
 40
0.5000000000000006
 41
3.434435425318362
 42
5.990342535451018
  0
LINE
  5
1EB
330
19A
100
AcDbEntity
  8
AM_4
100
AcDbLine
 10
0.0998453562378797
 20
-4.672082912291258
 30
0.0
 11
0.1312757938985219
 21
-4.606570681438882
 31
0.0
  0
LINE
  5
1EC
330
19A
100
AcDbEntity
  8
AM_4
100
AcDbLine
 10
-0.1312757938985219
 20
-4.606570681438882
 30
0.0
 11
-0.0998453562378797
 21
-4.672082912291258
 31
0.0
  0
ELLIPSE
  5
1ED
330
19A
100
AcDbEntity
  8
AM_4
100
AcDbEllipse
 10
0.0000000000000092
 20
-4.590825317547334
 30
0.0
 11
-0.1349999999999908
 21
1.653273178848814E-17
 31
0.0
210
0.0
220
0.0
230
1.0
 40
0.4999999999999675
 41
2.906159049048633
 42
6.518618911720717
  0
ELLIPSE
  5
1EE
330
19A
100
AcDbEntity
  8
AM_4
100
AcDbEllipse
 10
-0.0000000000000004
 20
-4.66010734985006
 30
0.0
 11
-0.1026779019331873
 21
1.257441639456436E-17
 31
0.0
210
0.0
220
0.0
230
1.0
 40
0.5000000000000103
 41
0.0
 42
6.283185307179586
  0
ENDBLK
  5
19D
330
19A
100
AcDbEntity
  8
0
100
AcDbBlockEnd
  0
BLOCK
  5
1F1
330
1EF
100
AcDbEntity
  8
0
100
AcDbBlockBegin
  2
6_B071521_0_in_071521_4
 70
     2
 10
0.0
 20
0.0
 30
0.0
  3
6_B071521_0_in_071521_4
  1

  0
ATTDEF
  5
1F3
330
1EF
100
AcDbEntity
  8
AM_6
100
AcDbText
 10
11.74999999999999
 20
0.0
 30
0.0
 40
0.5
  1
EFC-S2 -(Contact Seal)-Housing
100
AcDbAttributeDefinition
  3

  2
NN
 70
     8
280
     0
  0
ATTDEF
  5
1F4
330
1EF
100
AcDbEntity
  8
AM_6
100
AcDbText
 10
11.74999999999999
 20
-0.5
 30
0.0
 40
0.5
  1
S-2000 Piloted Flange Bearing -Inch
100
AcDbAttributeDefinition
  3

  2
NT
 70
     8
280
     0
  0
ATTDEF
  5
1F5
330
1EF
100
AcDbEntity
  8
AM_6
100
AcDbText
 10
11.74999999999999
 20
-1.0
 30
0.0
 40
0.5
  1
B071521
100
AcDbAttributeDefinition
  3

  2
NB
 70
     8
280
     0
  0
ATTDEF
  5
1F6
330
1EF
100
AcDbEntity
  8
AM_6
100
AcDbText
 10
11.74999999999999
 20
-1.5
 30
0.0
 40
0.5
  1
$PN.
100
AcDbAttributeDefinition
  3

  2
NBSYN
 70
     8
280
     0
  0
ATTDEF
  5
1F7
330
1EF
100
AcDbEntity
  8
AM_6
100
AcDbText
 10
11.74999999999999
 20
-2.0
 30
0.0
 40
0.5
  1
B071521
100
AcDbAttributeDefinition
  3

  2
LINA
 70
     8
280
     0
  0
ATTDEF
  5
1F8
330
1EF
100
AcDbEntity
  8
AM_6
100
AcDbText
 10
11.74999999999999
 20
-2.5
 30
0.0
 40
0.5
  1
4-7/16
100
AcDbAttributeDefinition
  3

  2
SS
 70
     8
280
     0
  0
ATTDEF
  5
1F9
330
1EF
100
AcDbEntity
  8
AM_6
100
AcDbText
 10
11.74999999999999
 20
-3.0
 30
0.0
 40
0.5
  1
4.437500
100
AcDbAttributeDefinition
  3

  2
SS1
 70
     8
280
     0
  0
ATTDEF
  5
1FA
330
1EF
100
AcDbEntity
  8
AM_6
100
AcDbText
 10
11.74999999999999
 20
-3.5
 30
0.0
 40
0.5
  1
071521
100
AcDbAttributeDefinition
  3

  2
PN1
 70
     8
280
     0
  0
ATTDEF
  5
1FB
330
1EF
100
AcDbEntity
  8
AM_6
100
AcDbText
 10
11.74999999999999
 20
-4.0
 30
0.0
 40
0.5
  1
071523
100
AcDbAttributeDefinition
  3

  2
PN2
 70
     8
280
     0
  0
ATTDEF
  5
1FC
330
1EF
100
AcDbEntity
  8
AM_6
100
AcDbText
 10
11.74999999999999
 20
-4.5
 30
0.0
 40
0.5
  1
EFC-S2-407R
100
AcDbAttributeDefinition
  3

  2
DESC1
 70
     8
280
     0
  0
ATTDEF
  5
1FD
330
1EF
100
AcDbEntity
  8
AM_6
100
AcDbText
 10
11.74999999999999
 20
-5.0
 30
0.0
 40
0.5
  1
Non-Expansion Type
100
AcDbAttributeDefinition
  3

  2
EF
 70
     8
280
     0
  0
ATTDEF
  5
1FE
330
1EF
100
AcDbEntity
  8
AM_6
100
AcDbText
 10
11.74999999999999
 20
-5.5
 30
0.0
 40
0.5
  1
1
100
AcDbAttributeDefinition
  3

  2
EF1
 70
     8
280
     0
  0
ATTDEF
  5
1FF
330
1EF
100
AcDbEntity
  8
AM_6
100
AcDbText
 10
11.74999999999999
 20
-6.0
 30
0.0
 40
0.5
  1
6.53
100
AcDbAttributeDefinition
  3

  2
A
 70
     8
280
     0
  0
ATTDEF
  5
200
330
1EF
100
AcDbEntity
  8
AM_6
100
AcDbText
 10
11.74999999999999
 20
-6.5
 30
0.0
 40
0.5
  1
6.5300000
100
AcDbAttributeDefinition
  3

  2
A1
 70
     8
280
     0
  0
ATTDEF
  5
201
330
1EF
100
AcDbEntity
  8
AM_6
100
AcDbText
 10
11.74999999999999
 20
-7.0
 30
0.0
 40
0.5
  1
13.5
100
AcDbAttributeDefinition
  3

  2
B
 70
     8
280
     0
  0
ATTDEF
  5
202
330
1EF
100
AcDbEntity
  8
AM_6
100
AcDbText
 10
11.74999999999999
 20
-7.5
 30
0.0
 40
0.5
  1
13.5000000
100
AcDbAttributeDefinition
  3

  2
B1
 70
     8
280
     0
  0
ATTDEF
  5
203
330
1EF
100
AcDbEntity
  8
AM_6
100
AcDbText
 10
11.74999999999999
 20
-8.0
 30
0.0
 40
0.5
  1
4.58
100
AcDbAttributeDefinition
  3

  2
C
 70
     8
280
     0
  0
ATTDEF
  5
204
330
1EF
100
AcDbEntity
  8
AM_6
100
AcDbText
 10
11.74999999999999
 20
-8.5
 30
0.0
 40
0.5
  1
4.5800000
100
AcDbAttributeDefinition
  3

  2
C1
 70
     8
280
     0
  0
ATTDEF
  5
205
330
1EF
100
AcDbEntity
  8
AM_6
100
AcDbText
 10
11.74999999999999
 20
-9.0
 30
0.0
 40
0.5
  1
5.88
100
AcDbAttributeDefinition
  3

  2
D
 70
     8
280
     0
  0
ATTDEF
  5
206
330
1EF
100
AcDbEntity
  8
AM_6
100
AcDbText
 10
11.74999999999999
 20
-9.5
 30
0.0
 40
0.5
  1
5.8800000
100
AcDbAttributeDefinition
  3

  2
D1
 70
     8
280
     0
  0
ATTDEF
  5
207
330
1EF
100
AcDbEntity
  8
AM_6
100
AcDbText
 10
11.74999999999999
 20
-10.0
 30
0.0
 40
0.5
  1
11.75
100
AcDbAttributeDefinition
  3

  2
DD
 70
     8
280
     0
  0
ATTDEF
  5
208
330
1EF
100
AcDbEntity
  8
AM_6
100
AcDbText
 10
11.74999999999999
 20
-10.5
 30
0.0
 40
0.5
  1
11.7500000
100
AcDbAttributeDefinition
  3

  2
DD1
 70
     8
280
     0
  0
ATTDEF
  5
209
330
1EF
100
AcDbEntity
  8
AM_6
100
AcDbText
 10
11.74999999999999
 20
-11.0
 30
0.0
 40
0.5
  1
1.45
100
AcDbAttributeDefinition
  3

  2
E
 70
     8
280
     0
  0
ATTDEF
  5
20A
330
1EF
100
AcDbEntity
  8
AM_6
100
AcDbText
 10
11.74999999999999
 20
-11.5
 30
0.0
 40
0.5
  1
1.4500000
100
AcDbAttributeDefinition
  3

  2
E1
 70
     8
280
     0
  0
ATTDEF
  5
20B
330
1EF
100
AcDbEntity
  8
AM_6
100
AcDbText
 10
11.74999999999999
 20
-12.0
 30
0.0
 40
0.5
  1
3/4
100
AcDbAttributeDefinition
  3

  2
F
 70
     8
280
     0
  0
ATTDEF
  5
20C
330
1EF
100
AcDbEntity
  8
AM_6
100
AcDbText
 10
11.74999999999999
 20
-12.5
 30
0.0
 40
0.5
  1
0.7500000
100
AcDbAttributeDefinition
  3

  2
F1
 70
     8
280
     0
  0
ATTDEF
  5
20D
330
1EF
100
AcDbEntity
  8
AM_6
100
AcDbText
 10
11.74999999999999
 20
-13.0
 30
0.0
 40
0.5
  1
3
100
AcDbAttributeDefinition
  3

  2
G
 70
     8
280
     0
  0
ATTDEF
  5
20E
330
1EF
100
AcDbEntity
  8
AM_6
100
AcDbText
 10
11.74999999999999
 20
-13.5
 30
0.0
 40
0.5
  1
3.0000000
100
AcDbAttributeDefinition
  3

  2
G1
 70
     8
280
     0
  0
ATTDEF
  5
20F
330
1EF
100
AcDbEntity
  8
AM_6
100
AcDbText
 10
11.74999999999999
 20
-14.0
 30
0.0
 40
0.5
  1
0.94
100
AcDbAttributeDefinition
  3

  2
H
 70
     8
280
     0
  0
ATTDEF
  5
210
330
1EF
100
AcDbEntity
  8
AM_6
100
AcDbText
 10
11.74999999999999
 20
-14.5
 30
0.0
 40
0.5
  1
0.9400000
100
AcDbAttributeDefinition
  3

  2
H1
 70
     8
280
     0
  0
ATTDEF
  5
211
330
1EF
100
AcDbEntity
  8
AM_6
100
AcDbText
 10
11.74999999999999
 20
-15.0
 30
0.0
 40
0.5
  1
10.250
100
AcDbAttributeDefinition
  3

  2
K
 70
     8
280
     0
  0
ATTDEF
  5
212
330
1EF
100
AcDbEntity
  8
AM_6
100
AcDbText
 10
11.74999999999999
 20
-15.5
 30
0.0
 40
0.5
  1
6.45
100
AcDbAttributeDefinition
  3

  2
L
 70
     8
280
     0
  0
ATTDEF
  5
213
330
1EF
100
AcDbEntity
  8
AM_6
100
AcDbText
 10
11.74999999999999
 20
-16.0
 30
0.0
 40
0.5
  1
6.4500000
100
AcDbAttributeDefinition
  3

  2
L1
 70
     8
280
     0
  0
ATTDEF
  5
214
330
1EF
100
AcDbEntity
  8
AM_6
100
AcDbText
 10
11.74999999999999
 20
-16.5
 30
0.0
 40
0.5
  1
3/4-10
100
AcDbAttributeDefinition
  3

  2
M
 70
     8
280
     0
  0
ATTDEF
  5
215
330
1EF
100
AcDbEntity
  8
AM_6
100
AcDbText
 10
11.74999999999999
 20
-17.0
 30
0.0
 40
0.5
  1
0.7500
100
AcDbAttributeDefinition
  3

  2
MNDM
 70
     8
280
     0
  0
ATTDEF
  5
216
330
1EF
100
AcDbEntity
  8
AM_6
100
AcDbText
 10
11.74999999999999
 20
-17.5
 30
0.0
 40
0.5
  1
0.6417
100
AcDbAttributeDefinition
  3

  2
MKDM
 70
     8
280
     0
  0
ATTDEF
  5
217
330
1EF
100
AcDbEntity
  8
AM_6
100
AcDbText
 10
11.74999999999999
 20
-18.0
 30
0.0
 40
0.5
  1
5.63
100
AcDbAttributeDefinition
  3

  2
N
 70
     8
280
     0
  0
ATTDEF
  5
218
330
1EF
100
AcDbEntity
  8
AM_6
100
AcDbText
 10
11.74999999999999
 20
-18.5
 30
0.0
 40
0.5
  1
5.630000
100
AcDbAttributeDefinition
  3

  2
N1
 70
     8
280
     0
  0
ATTDEF
  5
219
330
1EF
100
AcDbEntity
  8
AM_6
100
AcDbText
 10
11.74999999999999
 20
-19.0
 30
0.0
 40
0.5
  1
3.53
100
AcDbAttributeDefinition
  3

  2
P
 70
     8
280
     0
  0
ATTDEF
  5
21A
330
1EF
100
AcDbEntity
  8
AM_6
100
AcDbText
 10
11.74999999999999
 20
-19.5
 30
0.0
 40
0.5
  1
3.530000
100
AcDbAttributeDefinition
  3

  2
P1
 70
     8
280
     0
  0
ATTDEF
  5
21B
330
1EF
100
AcDbEntity
  8
AM_6
100
AcDbText
 10
11.74999999999999
 20
-20.0
 30
0.0
 40
0.5
  1
2.63
100
AcDbAttributeDefinition
  3

  2
Q
 70
     8
280
     0
  0
ATTDEF
  5
21C
330
1EF
100
AcDbEntity
  8
AM_6
100
AcDbText
 10
11.74999999999999
 20
-20.5
 30
0.0
 40
0.5
  1
2.630000
100
AcDbAttributeDefinition
  3

  2
Q1
 70
     8
280
     0
  0
ATTDEF
  5
21D
330
1EF
100
AcDbEntity
  8
AM_6
100
AcDbText
 10
11.74999999999999
 20
-21.0
 30
0.0
 40
0.5
  1
0.38
100
AcDbAttributeDefinition
  3

  2
X
 70
     8
280
     0
  0
ATTDEF
  5
21E
330
1EF
100
AcDbEntity
  8
AM_6
100
AcDbText
 10
11.74999999999999
 20
-21.5
 30
0.0
 40
0.5
  1
0.380000
100
AcDbAttributeDefinition
  3

  2
X1
 70
     8
280
     0
  0
ATTDEF
  5
21F
330
1EF
100
AcDbEntity
  8
AM_6
100
AcDbText
 10
11.74999999999999
 20
-22.0
 30
0.0
 40
0.5
  1
0.000
100
AcDbAttributeDefinition
  3

  2
Y
 70
     8
280
     0
  0
ATTDEF
  5
220
330
1EF
100
AcDbEntity
  8
AM_6
100
AcDbText
 10
11.74999999999999
 20
-22.5
 30
0.0
 40
0.5
  1
0
100
AcDbAttributeDefinition
  3

  2
Z
 70
     8
280
     0
  0
ATTDEF
  5
221
330
1EF
100
AcDbEntity
  8
AM_6
100
AcDbText
 10
11.74999999999999
 20
-23.0
 30
0.0
 40
0.5
  1
0.000000
100
AcDbAttributeDefinition
  3

  2
Z1
 70
     8
280
     0
  0
ATTDEF
  5
222
330
1EF
100
AcDbEntity
  8
AM_6
100
AcDbText
 10
11.74999999999999
 20
-23.5
 30
0.0
 40
0.5
  1
7.8740
100
AcDbAttributeDefinition
  3

  2
BORE
 70
     8
280
     0
  0
ATTDEF
  5
223
330
1EF
100
AcDbEntity
  8
AM_6
100
AcDbText
 10
11.74999999999999
 20
-24.0
 30
0.0
 40
0.5
  1
1
100
AcDbAttributeDefinition
  3

  2
ST1
 70
     8
280
     0
  0
ATTDEF
  5
224
330
1EF
100
AcDbEntity
  8
AM_6
100
AcDbText
 10
11.74999999999999
 20
-24.5
 30
0.0
 40
0.5
  1
Non-Expansion
100
AcDbAttributeDefinition
  3

  2
TYPE
 70
     8
280
     0
  0
ATTDEF
  5
225
330
1EF
100
AcDbEntity
  8
AM_6
100
AcDbText
 10
11.74999999999999
 20
-25.0
 30
0.0
 40
0.5
  1
5.00000
100
AcDbAttributeDefinition
  3

  2
HL
 70
     8
280
     0
  0
ATTDEF
  5
226
330
1EF
100
AcDbEntity
  8
AM_6
100
AcDbText
 10
11.74999999999999
 20
-25.5
 30
0.0
 40
0.5
  1
baldor
100
AcDbAttributeDefinition
  3

  2
COMPANY
 70
     8
280
     0
  0
LINE
  5
227
330
1EF
100
AcDbEntity
  8
AM_9
100
AcDbLine
 10
-5.408749247233576
 20
-2.684150000000001
 30
0.0
 11
-5.408749247233576
 21
-3.421850000000001
 31
0.0
  0
LINE
  5
228
330
1EF
100
AcDbEntity
  8
AM_9
100
AcDbLine
 10
-4.767049247233575
 20
-3.421850000000001
 30
0.0
 11
-4.767049247233575
 21
-2.684150000000001
 31
0.0
  0
LINE
  5
229
330
1EF
100
AcDbEntity
  8
AM_9
100
AcDbLine
 10
-4.767049247233575
 20
-3.421850000000001
 30
0.0
 11
-5.408749247233576
 21
-3.421850000000001
 31
0.0
  0
LINE
  5
22A
330
1EF
100
AcDbEntity
  8
AM_9
100
AcDbLine
 10
-5.408749247233576
 20
-3.421850000000001
 30
0.0
 11
-5.462899247233576
 21
-3.476000000000001
 31
0.0
  0
LINE
  5
22B
330
1EF
100
AcDbEntity
  8
AM_9
100
AcDbLine
 10
-4.712899247233576
 20
-3.476000000000001
 30
0.0
 11
-4.767049247233575
 21
-3.421850000000001
 31
0.0
  0
LINE
  5
22C
330
1EF
100
AcDbEntity
  8
AM_9
100
AcDbLine
 10
-4.767049247233575
 20
-2.684150000000001
 30
0.0
 11
-5.408749247233576
 21
-2.684150000000001
 31
0.0
  0
LINE
  5
22D
330
1EF
100
AcDbEntity
  8
AM_9
100
AcDbLine
 10
-4.767049247233575
 20
-2.684150000000001
 30
0.0
 11
-4.712899247233576
 21
-2.630000000000001
 31
0.0
  0
LINE
  5
22E
330
1EF
100
AcDbEntity
  8
AM_9
100
AcDbLine
 10
-5.462899247233576
 20
-2.630000000000001
 30
0.0
 11
-5.408749247233576
 21
-2.684150000000001
 31
0.0
  0
LINE
  5
22F
330
1EF
100
AcDbEntity
  8
AM_9
100
AcDbLine
 10
5.499999999999999
 20
-2.63
 30
0.0
 11
5.499999999999999
 21
-3.57
 31
0.0
  0
LINE
  5
230
330
1EF
100
AcDbEntity
  8
AM_9
100
AcDbLine
 10
6.249999999999999
 20
-3.57
 30
0.0
 11
6.249999999999999
 21
-2.63
 31
0.0
  0
LINE
  5
231
330
1EF
100
AcDbEntity
  8
AM_9
100
AcDbLine
 10
-6.25
 20
-2.63
 30
0.0
 11
-6.25
 21
-3.57
 31
0.0
  0
LINE
  5
232
330
1EF
100
AcDbEntity
  8
AM_9
100
AcDbLine
 10
-5.5
 20
-3.57
 30
0.0
 11
-5.5
 21
-2.63
 31
0.0
  0
LINE
  5
233
330
1EF
100
AcDbEntity
  8
AM_9
100
AcDbLine
 10
4.571494942280308
 20
-3.57
 30
0.0
 11
4.571494942280308
 21
-4.58
 31
0.0
  0
LINE
  5
234
330
1EF
100
AcDbEntity
  8
AM_9
100
AcDbLine
 10
-4.571494942280309
 20
-4.58
 30
0.0
 11
-4.571494942280309
 21
-3.57
 31
0.0
  0
LINE
  5
235
330
1EF
100
AcDbEntity
  8
AM_9
100
AcDbLine
 10
4.816340329038855
 20
-4.58
 30
0.0
 11
4.816340329038855
 21
-3.57
 31
0.0
  0
LINE
  5
236
330
1EF
100
AcDbEntity
  8
AM_9
100
AcDbLine
 10
-4.816340363551417
 20
-4.58
 30
0.0
 11
-4.816340363551417
 21
-3.57
 31
0.0
  0
LINE
  5
237
330
1EF
100
AcDbEntity
  8
AM_9
100
AcDbLine
 10
5.408749247233576
 20
-3.421850000000001
 30
0.0
 11
5.408749247233576
 21
-2.68415
 31
0.0
  0
LINE
  5
238
330
1EF
100
AcDbEntity
  8
AM_9
100
AcDbLine
 10
4.767049247233575
 20
-2.68415
 30
0.0
 11
4.767049247233575
 21
-3.421850000000001
 31
0.0
  0
LINE
  5
239
330
1EF
100
AcDbEntity
  8
AM_9
100
AcDbLine
 10
4.767049247233575
 20
-2.68415
 30
0.0
 11
5.408749247233576
 21
-2.68415
 31
0.0
  0
LINE
  5
23A
330
1EF
100
AcDbEntity
  8
AM_9
100
AcDbLine
 10
5.408749247233576
 20
-2.68415
 30
0.0
 11
5.462899247233576
 21
-2.630000000000004
 31
0.0
  0
LINE
  5
23B
330
1EF
100
AcDbEntity
  8
AM_9
100
AcDbLine
 10
4.712899247233576
 20
-2.630000000000004
 30
0.0
 11
4.767049247233575
 21
-2.68415
 31
0.0
  0
LINE
  5
23C
330
1EF
100
AcDbEntity
  8
AM_9
100
AcDbLine
 10
4.767049247233575
 20
-3.421850000000001
 30
0.0
 11
5.408749247233576
 21
-3.421850000000001
 31
0.0
  0
LINE
  5
23D
330
1EF
100
AcDbEntity
  8
AM_9
100
AcDbLine
 10
4.767049247233575
 20
-3.421850000000001
 30
0.0
 11
4.712899247233576
 21
-3.476
 31
0.0
  0
LINE
  5
23E
330
1EF
100
AcDbEntity
  8
AM_9
100
AcDbLine
 10
5.462899247233576
 20
-3.476
 30
0.0
 11
5.408749247233576
 21
-3.421850000000001
 31
0.0
  0
LINE
  5
23F
330
1EF
100
AcDbEntity
  8
AM_9
100
AcDbLine
 10
3.936999999999999
 20
-4.257052631578947
 30
0.0
 11
3.936999999999999
 21
-0.0000000000000005
 31
0.0
  0
LINE
  5
240
330
1EF
100
AcDbEntity
  8
AM_9
100
AcDbLine
 10
-3.936999999999999
 20
-0.0000000000000005
 30
0.0
 11
-3.936999999999999
 21
-4.257052631578947
 31
0.0
  0
LINE
  5
241
330
1EF
100
AcDbEntity
  8
AM_9
100
AcDbLine
 10
-3.61006064081803
 20
-3.476
 30
0.0
 11
-3.61006064081803
 21
-3.57
 31
0.0
  0
LINE
  5
242
330
1EF
100
AcDbEntity
  8
AM_9
100
AcDbLine
 10
-3.713328212546964
 20
-3.476
 30
0.0
 11
-3.713328212546964
 21
-3.57
 31
0.0
  0
LINE
  5
243
330
1EF
100
AcDbEntity
  8
AM_9
100
AcDbLine
 10
-3.581113098795266
 20
-3.57
 30
0.0
 11
-3.581113098795266
 21
-3.476
 31
0.0
  0
LINE
  5
244
330
1EF
100
AcDbEntity
  8
AM_9
100
AcDbLine
 10
-3.581113098795266
 20
-3.476
 30
0.0
 11
-4.096807460075266
 21
-3.475999999999999
 31
0.0
  0
LINE
  5
245
330
1EF
100
AcDbEntity
  8
AM_9
100
AcDbLine
 10
3.610060640818031
 20
-3.476
 30
0.0
 11
3.610060640818031
 21
-3.57
 31
0.0
  0
LINE
  5
246
330
1EF
100
AcDbEntity
  8
AM_9
100
AcDbLine
 10
4.096807460075264
 20
-3.475999999999999
 30
0.0
 11
3.581113098795267
 21
-3.476
 31
0.0
  0
LINE
  5
247
330
1EF
100
AcDbEntity
  8
AM_9
100
AcDbLine
 10
3.713328212546966
 20
-3.476
 30
0.0
 11
3.713328212546966
 21
-3.57
 31
0.0
  0
LINE
  5
248
330
1EF
100
AcDbEntity
  8
AM_9
100
AcDbLine
 10
3.581113098795267
 20
-3.476
 30
0.0
 11
3.581113098795267
 21
-3.57
 31
0.0
  0
LINE
  5
249
330
1EF
100
AcDbEntity
  8
AM_9
100
AcDbLine
 10
-3.936999999999999
 20
-4.257052631578947
 30
0.0
 11
3.936999999999999
 21
-4.257052631578947
 31
0.0
  0
LINE
  5
24A
330
1EF
100
AcDbEntity
  8
AM_9
100
AcDbLine
 10
-3.936999999999999
 20
-4.257052631578947
 30
0.0
 11
-4.054543229339864
 21
-4.58
 31
0.0
  0
LINE
  5
24B
330
1EF
100
AcDbEntity
  8
AM_9
100
AcDbLine
 10
4.054543229339864
 20
-4.58
 30
0.0
 11
3.936999999999999
 21
-4.257052631578947
 31
0.0
  0
LINE
  5
24C
330
1EF
100
AcDbEntity
  8
AM_9
100
AcDbLine
 10
2.562500000000002
 20
-2.629999999999999
 30
0.0
 11
2.562500000000002
 21
-3.569999999999999
 31
0.0
  0
LINE
  5
24D
330
1EF
100
AcDbEntity
  8
AM_9
100
AcDbLine
 10
3.312500000000002
 20
-3.569999999999999
 30
0.0
 11
3.312500000000002
 21
-2.629999999999999
 31
0.0
  0
LINE
  5
24E
330
1EF
100
AcDbEntity
  8
AM_9
100
AcDbLine
 10
-3.312499999999999
 20
-2.629999999999999
 30
0.0
 11
-3.312499999999999
 21
-3.569999999999999
 31
0.0
  0
LINE
  5
24F
330
1EF
100
AcDbEntity
  8
AM_9
100
AcDbLine
 10
-2.5625
 20
-3.569999999999999
 30
0.0
 11
-2.5625
 21
-2.629999999999999
 31
0.0
  0
LINE
  5
250
330
1EF
100
AcDbEntity
  8
AM_9
100
AcDbLine
 10
0.1332525797123643
 20
-4.579999999999999
 30
0.0
 11
-0.1332525797123643
 21
-4.579999999999999
 31
0.0
  0
LINE
  5
251
330
1EF
100
AcDbEntity
  8
AM_9
100
AcDbLine
 10
0.2842297066505601
 20
-2.630000000000001
 30
0.0
 11
0.2842297066505535
 21
-3.476
 31
0.0
  0
LINE
  5
252
330
1EF
100
AcDbEntity
  8
AM_9
100
AcDbLine
 10
-0.2842297066505582
 20
-2.630000000000001
 30
0.0
 11
-0.2842297066505582
 21
-3.476
 31
0.0
  0
LINE
  5
253
330
1EF
100
AcDbEntity
  8
AM_5
100
AcDbLine
 10
-5.462899247233576
 20
-2.63
 30
0.0
 11
-5.462899247233576
 21
-3.476
 31
0.0
  0
LINE
  5
254
330
1EF
100
AcDbEntity
  8
AM_5
100
AcDbLine
 10
-4.712899247233576
 20
-2.63
 30
0.0
 11
-4.712899247233576
 21
-3.476
 31
0.0
  0
LINE
  5
255
330
1EF
100
AcDbEntity
  8
AM_5
100
AcDbLine
 10
5.462899247233576
 20
-2.63
 30
0.0
 11
5.462899247233576
 21
-3.476
 31
0.0
  0
LINE
  5
256
330
1EF
100
AcDbEntity
  8
AM_5
100
AcDbLine
 10
4.712899247233576
 20
-2.63
 30
0.0
 11
4.712899247233576
 21
-3.476
 31
0.0
  0
LINE
  5
257
330
1EF
100
AcDbEntity
  8
AM_7
100
AcDbLine
 10
5.874999999999999
 20
-3.617
 30
0.0
 11
5.874999999999999
 21
-2.583
 31
0.0
  0
LINE
  5
258
330
1EF
100
AcDbEntity
  8
AM_7
100
AcDbLine
 10
2.937499999999998
 20
-3.617
 30
0.0
 11
2.937499999999998
 21
-2.583000000000001
 31
0.0
  0
LINE
  5
259
330
1EF
100
AcDbEntity
  8
AM_7
100
AcDbLine
 10
-2.937500000000002
 20
-3.617
 30
0.0
 11
-2.937500000000002
 21
-2.583000000000001
 31
0.0
  0
LINE
  5
25A
330
1EF
100
AcDbEntity
  8
AM_7
100
AcDbLine
 10
-5.875
 20
-3.617
 30
0.0
 11
-5.875
 21
-2.583
 31
0.0
  0
LINE
  5
25B
330
1EF
100
AcDbEntity
  8
AM_7
100
AcDbLine
 10
-5.087899247233576
 20
-3.518300000000001
 30
0.0
 11
-5.087899247233576
 21
-2.587700000000001
 31
0.0
  0
LINE
  5
25C
330
1EF
100
AcDbEntity
  8
AM_7
100
AcDbLine
 10
5.087899247233576
 20
-3.518300000000001
 30
0.0
 11
5.087899247233576
 21
-2.587700000000004
 31
0.0
  0
LINE
  5
25D
330
1EF
100
AcDbEntity
  8
AM_4
100
AcDbLine
 10
4.912039926520809
 20
-4.58
 30
0.0
 11
4.912039926520809
 21
-3.57
 31
0.0
  0
LINE
  5
25E
330
1EF
100
AcDbEntity
  8
AM_4
100
AcDbLine
 10
-4.912039926520808
 20
-3.57
 30
0.0
 11
-4.912039926520808
 21
-4.58
 31
0.0
  0
LINE
  5
25F
330
1EF
100
AcDbEntity
  8
AM_4
100
AcDbLine
 10
5.292730651805254
 20
-3.476
 30
0.0
 11
5.292730651805254
 21
-3.57
 31
0.0
  0
LINE
  5
260
330
1EF
100
AcDbEntity
  8
AM_4
100
AcDbLine
 10
-5.292730651805251
 20
-3.476
 30
0.0
 11
-5.292730651805251
 21
-3.57
 31
0.0
  0
LINE
  5
261
330
1EF
100
AcDbEntity
  8
AM_4
100
AcDbLine
 10
4.915685835425971
 20
-3.476
 30
0.0
 11
4.915685835425971
 21
-3.57
 31
0.0
  0
LINE
  5
262
330
1EF
100
AcDbEntity
  8
AM_4
100
AcDbLine
 10
-4.915685835425969
 20
-3.476
 30
0.0
 11
-4.915685835425969
 21
-3.57
 31
0.0
  0
LINE
  5
263
330
1EF
100
AcDbEntity
  8
AM_4
100
AcDbLine
 10
4.904805117328539
 20
-4.58
 30
0.0
 11
4.904805117328539
 21
-3.57
 31
0.0
  0
LINE
  5
264
330
1EF
100
AcDbEntity
  8
AM_4
100
AcDbLine
 10
-4.904805115282259
 20
-4.58
 30
0.0
 11
-4.904805115282259
 21
-3.57
 31
0.0
  0
LINE
  5
265
330
1EF
100
AcDbEntity
  8
AM_4
100
AcDbLine
 10
3.293333640326112
 20
-4.58
 30
0.0
 11
3.293333640326113
 21
-3.57
 31
0.0
  0
LINE
  5
266
330
1EF
100
AcDbEntity
  8
AM_4
100
AcDbLine
 10
-3.293333632397924
 20
-4.58
 30
0.0
 11
-3.293333632397924
 21
-3.57
 31
0.0
  0
LINE
  5
267
330
1EF
100
AcDbEntity
  8
AM_4
100
AcDbLine
 10
2.966833126838325
 20
-4.58
 30
0.0
 11
2.966833126838325
 21
-3.57
 31
0.0
  0
LINE
  5
268
330
1EF
100
AcDbEntity
  8
AM_4
100
AcDbLine
 10
-2.966833118399979
 20
-4.58
 30
0.0
 11
-2.966833118399979
 21
-3.57
 31
0.0
  0
LINE
  5
269
330
1EF
100
AcDbEntity
  8
AM_4
100
AcDbLine
 10
-1.849507241859118
 20
-4.58
 30
0.0
 11
-1.849507241859118
 21
-3.569999999999999
 31
0.0
  0
LINE
  5
26A
330
1EF
100
AcDbEntity
  8
AM_4
100
AcDbLine
 10
1.849507249492176
 20
-4.58
 30
0.0
 11
1.849507249492175
 21
-3.569999999999999
 31
0.0
  0
LINE
  5
26B
330
1EF
100
AcDbEntity
  8
AM_4
100
AcDbLine
 10
4.88095238095238
 20
0.0
 30
0.0
 11
-4.88095238095238
 21
0.0
 31
0.0
  0
LINE
  5
26C
330
1EF
100
AcDbEntity
  8
AM_4
100
AcDbLine
 10
4.88095238095238
 20
-1.18
 30
0.0
 11
4.88095238095238
 21
0.0
 31
0.0
  0
LINE
  5
26D
330
1EF
100
AcDbEntity
  8
AM_4
100
AcDbLine
 10
-4.88095238095238
 20
0.0
 30
0.0
 11
-4.88095238095238
 21
-1.18
 31
0.0
  0
LINE
  5
26E
330
1EF
100
AcDbEntity
  8
AM_4
100
AcDbLine
 10
1.611471464981678
 20
-4.58
 30
0.0
 11
1.611471464981678
 21
-3.569999999999999
 31
0.0
  0
LINE
  5
26F
330
1EF
100
AcDbEntity
  8
AM_4
100
AcDbLine
 10
-1.611471474956146
 20
-4.58
 30
0.0
 11
-1.611471474956146
 21
-3.569999999999999
 31
0.0
  0
LINE
  5
270
330
1EF
100
AcDbEntity
  8
AM_4
100
AcDbLine
 10
5.125
 20
-1.18
 30
0.0
 11
-5.125
 21
-1.18
 31
0.0
  0
LINE
  5
271
330
1EF
100
AcDbEntity
  8
AM_4
100
AcDbLine
 10
5.125
 20
-2.63
 30
0.0
 11
5.125
 21
-1.18
 31
0.0
  0
LINE
  5
272
330
1EF
100
AcDbEntity
  8
AM_4
100
AcDbLine
 10
-5.125
 20
-1.18
 30
0.0
 11
-5.125
 21
-2.63
 31
0.0
  0
LINE
  5
273
330
1EF
100
AcDbEntity
  8
AM_4
100
AcDbLine
 10
1.202357601151091
 20
-3.475999999999999
 30
0.0
 11
1.202357601151091
 21
-3.569999999999999
 31
0.0
  0
LINE
  5
274
330
1EF
100
AcDbEntity
  8
AM_4
100
AcDbLine
 10
-1.202357622879004
 20
-3.475999999999999
 30
0.0
 11
-1.202357622879004
 21
-3.569999999999999
 31
0.0
  0
LINE
  5
275
330
1EF
100
AcDbEntity
  8
AM_4
100
AcDbLine
 10
1.682670010987221
 20
-3.475999999999999
 30
0.0
 11
1.682670010987221
 21
-3.569999999999999
 31
0.0
  0
LINE
  5
276
330
1EF
100
AcDbEntity
  8
AM_4
100
AcDbLine
 10
-1.68267001098722
 20
-3.475999999999999
 30
0.0
 11
-1.68267001098722
 21
-3.569999999999999
 31
0.0
  0
LINE
  5
277
330
1EF
100
AcDbEntity
  8
AM_4
100
AcDbLine
 10
-0.5
 20
-3.569999999999999
 30
0.0
 11
-0.5
 21
-4.579999999999999
 31
0.0
  0
LINE
  5
278
330
1EF
100
AcDbEntity
  8
AM_4
100
AcDbLine
 10
0.5
 20
-3.569999999999999
 30
0.0
 11
0.5
 21
-4.579999999999999
 31
0.0
  0
LINE
  5
279
330
1EF
100
AcDbEntity
  8
AM_4
100
AcDbLine
 10
-0.1332525797123643
 20
-4.579999999999999
 30
0.0
 11
-4.912039926520808
 21
-4.58
 31
0.0
  0
LINE
  5
27A
330
1EF
100
AcDbEntity
  8
AM_4
100
AcDbLine
 10
4.912039926520809
 20
-4.58
 30
0.0
 11
0.1332525797123643
 21
-4.579999999999999
 31
0.0
  0
LINE
  5
27B
330
1EF
100
AcDbEntity
  8
AM_4
100
AcDbLine
 10
0.5
 20
-4.038734122634725
 30
0.0
 11
-0.5
 21
-4.038734122634725
 31
0.0
  0
LINE
  5
27C
330
1EF
100
AcDbEntity
  8
AM_4
100
AcDbLine
 10
-6.694262259556564
 20
-3.57
 30
0.0
 11
-6.694262259556562
 21
-3.476
 31
0.0
  0
LINE
  5
27D
330
1EF
100
AcDbEntity
  8
AM_4
100
AcDbLine
 10
-6.694262259556562
 20
-3.476
 30
0.0
 11
-4.096807460075266
 21
-3.475999999999999
 31
0.0
  0
LINE
  5
27E
330
1EF
100
AcDbEntity
  8
AM_4
100
AcDbLine
 10
-4.096807460075266
 20
-3.475999999999999
 30
0.0
 11
-4.096807460075266
 21
-3.569999999999999
 31
0.0
  0
LINE
  5
27F
330
1EF
100
AcDbEntity
  8
AM_4
100
AcDbLine
 10
6.749999999999993
 20
-3.57
 30
0.0
 11
-6.750000000000006
 21
-3.57
 31
0.0
  0
LINE
  5
280
330
1EF
100
AcDbEntity
  8
AM_4
100
AcDbLine
 10
-2.597454799481292
 20
-3.569999999999999
 30
0.0
 11
-2.597454799481292
 21
-3.475999999999999
 31
0.0
  0
LINE
  5
281
330
1EF
100
AcDbEntity
  8
AM_4
100
AcDbLine
 10
-2.597454799481292
 20
-3.475999999999999
 30
0.0
 11
2.59745479948129
 21
-3.475999999999999
 31
0.0
  0
LINE
  5
282
330
1EF
100
AcDbEntity
  8
AM_4
100
AcDbLine
 10
2.59745479948129
 20
-3.475999999999999
 30
0.0
 11
2.597454799481291
 21
-3.569999999999999
 31
0.0
  0
LINE
  5
283
330
1EF
100
AcDbEntity
  8
AM_4
100
AcDbLine
 10
4.096807460075265
 20
-3.569999999999999
 30
0.0
 11
4.096807460075264
 21
-3.475999999999999
 31
0.0
  0
LINE
  5
284
330
1EF
100
AcDbEntity
  8
AM_4
100
AcDbLine
 10
4.096807460075264
 20
-3.475999999999999
 30
0.0
 11
6.694262259556549
 21
-3.476
 31
0.0
  0
LINE
  5
285
330
1EF
100
AcDbEntity
  8
AM_4
100
AcDbLine
 10
6.694262259556549
 20
-3.476
 30
0.0
 11
6.694262259556551
 21
-3.57
 31
0.0
  0
LINE
  5
286
330
1EF
100
AcDbEntity
  8
AM_4
100
AcDbLine
 10
-6.750000000000006
 20
-2.63
 30
0.0
 11
-6.750000000000006
 21
-3.57
 31
0.0
  0
LINE
  5
287
330
1EF
100
AcDbEntity
  8
AM_4
100
AcDbLine
 10
6.749999999999993
 20
-3.57
 30
0.0
 11
6.749999999999993
 21
-2.63
 31
0.0
  0
LINE
  5
288
330
1EF
100
AcDbEntity
  8
AM_4
100
AcDbLine
 10
6.749999999999993
 20
-2.63
 30
0.0
 11
-6.750000000000006
 21
-2.63
 31
0.0
  0
ENDBLK
  5
1F2
330
1EF
100
AcDbEntity
  8
0
100
AcDbBlockEnd
  0
ENDSEC
  0
SECTION
  2
ENTITIES
  0
INSERT
  5
6F
330
1F
100
AcDbEntity
  8
0
100
AcDbBlockReference
  2
1_071521_4
 10
0.0
 20
0.0
 30
0.0
  0
POINT
  5
28A
330
1F
100
AcDbEntity
  8
ConnectionPoints
100
AcDbPoint
 10
0.0000000000000001
 20
0.9012500000000001
 30
0.0
  0
POINT
  5
28B
330
1F
100
AcDbEntity
  8
ConnectionPoints
100
AcDbPoint
 10
0.0
 20
-5.63
 30
0.0000000000000003
  0
POINT
  5
28C
330
1F
100
AcDbEntity
  8
ConnectionPoints
100
AcDbPoint
 10
0.0
 20
0.9012500000000001
 30
-0.0000000000000001
  0
POINT
  5
28D
330
1F
100
AcDbEntity
  8
ConnectionPoints
100
AcDbPoint
 10
0.0
 20
-5.63
 30
0.0000000000000003
  0
POINT
  5
28E
330
1F
100
AcDbEntity
  8
ConnectionPoints
100
AcDbPoint
 10
0.0
 20
-4.335347823430896
 30
5.796250000000001
  0
POINT
  5
28F
330
1F
100
AcDbEntity
  8
ConnectionPoints
100
AcDbPoint
 10
0.0
 20
-0.046875
 30
0.0
  0
POINT
  5
290
330
1F
100
AcDbEntity
  8
ConnectionPoints
100
AcDbPoint
 10
0.0
 20
-4.389474411167424
 30
5.264999999999999
  0
POINT
  5
291
330
1F
100
AcDbEntity
  8
ConnectionPoints
100
AcDbPoint
 10
0.0
 20
-4.335347823430896
 30
5.796250000000001
  0
POINT
  5
292
330
1F
100
AcDbEntity
  8
ConnectionPoints
100
AcDbPoint
 10
0.0
 20
-5.25
 30
0.0000000000000003
  0
POINT
  5
293
330
1F
100
AcDbEntity
  8
ConnectionPoints
100
AcDbPoint
 10
0.0
 20
-5.63
 30
0.0000000000000003
  0
ENDSEC
  0
SECTION
  2
OBJECTS
  0
DICTIONARY
  5
C
330
0
100
AcDbDictionary
281
     1
  3
ACAD_DETAILVIEWSTYLE
350
29B
  3
ACAD_GROUP
350
D
  3
ACAD_LAYOUT
350
1A
  3
ACAD_MATERIAL
350
43
  3
ACAD_MLEADERSTYLE
350
6B
  3
ACAD_MLINESTYLE
350
17
  3
ACAD_PLOTSETTINGS
350
19
  3
ACAD_PLOTSTYLENAME
350
E
  3
ACAD_SCALELIST
350
47
  3
ACAD_SECTIONVIEWSTYLE
350
29C
  3
ACAD_TABLESTYLE
350
69
  3
ACAD_VISUALSTYLE
350
2A
  3
ACDB_RECOMPOSE_DATA
350
298
  3
AcDbVariableDictionary
350
294
  0
SUN
  5
6D
330
29
100
AcDbSun
 90
        1
290
     0
 63
     7
421
 16777215
 40
1.0
291
     1
 91
  2455826
 92
 54000000
292
     0
 70
     2
 71
   256
280
     1
  0
DICTIONARY
  5
29B
102
{ACAD_REACTORS
330
C
102
}
330
C
100
AcDbDictionary
281
     1
  0
DICTIONARY
  5
D
102
{ACAD_REACTORS
330
C
102
}
330
C
100
AcDbDictionary
281
     1
  0
DICTIONARY
  5
1A
102
{ACAD_REACTORS
330
C
102
}
330
C
100
AcDbDictionary
281
     1
  3
Layout1
350
1E
  3
Layout2
350
26
  3
Model
350
22
  0
DICTIONARY
  5
43
102
{ACAD_REACTORS
330
C
102
}
330
C
100
AcDbDictionary
281
     1
  3
ByBlock
350
45
  3
ByLayer
350
44
  3
Global
350
46
  0
DICTIONARY
  5
6B
102
{ACAD_REACTORS
330
C
102
}
330
C
100
AcDbDictionary
281
     1
  3
Standard
350
6C
  0
DICTIONARY
  5
17
102
{ACAD_REACTORS
330
C
102
}
330
C
100
AcDbDictionary
281
     1
  3
Standard
350
18
  0
DICTIONARY
  5
19
102
{ACAD_REACTORS
330
C
102
}
330
C
100
AcDbDictionary
281
     1
  0
ACDBDICTIONARYWDFLT
  5
E
102
{ACAD_REACTORS
330
C
102
}
330
C
100
AcDbDictionary
281
     1
  3
Normal
350
F
100
AcDbDictionaryWithDefault
340
F
  0
DICTIONARY
  5
47
102
{ACAD_REACTORS
330
C
102
}
330
C
100
AcDbDictionary
281
     1
  3
A0
350
48
  3
A1
350
49
  3
A2
350
4A
  3
A3
350
4B
  3
A4
350
4C
  3
A5
350
4D
  3
A6
350
4E
  3
A7
350
4F
  3
A8
350
50
  3
A9
350
51
  3
B0
350
52
  3
B1
350
53
  3
B2
350
54
  3
B3
350
55
  3
B4
350
56
  3
B5
350
57
  3
B6
350
58
  3
B7
350
59
  3
B8
350
5A
  3
B9
350
5B
  3
C0
350
5C
  3
C1
350
5D
  3
C2
350
5E
  3
C3
350
5F
  3
C4
350
60
  3
C5
350
61
  3
C6
350
62
  3
C7
350
63
  3
C8
350
64
  3
C9
350
65
  3
D0
350
66
  3
D1
350
67
  3
D2
350
68
  0
DICTIONARY
  5
29C
102
{ACAD_REACTORS
330
C
102
}
330
C
100
AcDbDictionary
281
     1
  0
DICTIONARY
  5
69
102
{ACAD_REACTORS
330
C
102
}
330
C
100
AcDbDictionary
281
     1
  3
Standard
350
6A
  0
DICTIONARY
  5
2A
102
{ACAD_REACTORS
330
C
102
}
330
C
100
AcDbDictionary
281
     1
  3
2dWireframe
350
2F
  3
Basic
350
32
  3
Brighten
350
36
  3
ColorChange
350
3A
  3
Conceptual
350
34
  3
Dim
350
35
  3
EdgeColorOff
350
3D
  3
Facepattern
350
39
  3
Flat
350
2B
  3
FlatWithEdges
350
2C
  3
Gouraud
350
2D
  3
GouraudWithEdges
350
2E
  3
Hidden
350
31
  3
JitterOff
350
3B
  3
Linepattern
350
38
  3
OverhangOff
350
3C
  3
Realistic
350
33
  3
Shaded
350
42
  3
Shaded with edges
350
41
  3
Shades of Gray
350
3E
  3
Sketchy
350
3F
  3
Thicken
350
37
  3
Wireframe
350
30
  3
X-Ray
350
40
  0
XRECORD
  5
298
102
{ACAD_REACTORS
330
C
102
}
330
C
100
AcDbXrecord
280
     1
 90
        1
330
6A
  0
DICTIONARY
  5
294
102
{ACAD_REACTORS
330
C
102
}
330
C
100
AcDbDictionary
281
     1
  3
CANNOSCALE
350
295
  3
CMLEADERSTYLE
350
29A
  3
CTABLESTYLE
350
299
  0
LAYOUT
  5
1E
102
{ACAD_REACTORS
330
1A
102
}
330
1A
100
AcDbPlotSettings
  1

  2
none_device
  4

  6

 40
0.0
 41
0.0
 42
0.0
 43
0.0
 44
0.0
 45
0.0
 46
0.0
 47
0.0
 48
0.0
 49
0.0
140
0.0
141
0.0
142
1.0
143
1.0
 70
   688
 72
     0
 73
     0
 74
     5
  7

 75
    16
 76
     0
 77
     2
 78
   300
147
1.0
148
0.0
149
0.0
100
AcDbLayout
  1
Layout1
 70
     1
 71
     1
 10
0.0
 20
0.0
 11
12.0
 21
9.0
 12
0.0
 22
0.0
 32
0.0
 14
1.000000000000000E+20
 24
1.000000000000000E+20
 34
1.000000000000000E+20
 15
-1.000000000000000E+20
 25
-1.000000000000000E+20
 35
-1.000000000000000E+20
146
0.0
 13
0.0
 23
0.0
 33
0.0
 16
1.0
 26
0.0
 36
0.0
 17
0.0
 27
1.0
 37
0.0
 76
     0
330
1B
  0
LAYOUT
  5
26
102
{ACAD_REACTORS
330
1A
102
}
330
1A
100
AcDbPlotSettings
  1

  2
none_device
  4

  6

 40
0.0
 41
0.0
 42
0.0
 43
0.0
 44
0.0
 45
0.0
 46
0.0
 47
0.0
 48
0.0
 49
0.0
140
0.0
141
0.0
142
1.0
143
1.0
 70
   688
 72
     0
 73
     0
 74
     5
  7

 75
    16
 76
     0
 77
     2
 78
   300
147
1.0
148
0.0
149
0.0
100
AcDbLayout
  1
Layout2
 70
     1
 71
     2
 10
0.0
 20
0.0
 11
0.0
 21
0.0
 12
0.0
 22
0.0
 32
0.0
 14
0.0
 24
0.0
 34
0.0
 15
0.0
 25
0.0
 35
0.0
146
0.0
 13
0.0
 23
0.0
 33
0.0
 16
1.0
 26
0.0
 36
0.0
 17
0.0
 27
1.0
 37
0.0
 76
     0
330
23
  0
LAYOUT
  5
22
102
{ACAD_REACTORS
330
1A
102
}
330
1A
100
AcDbPlotSettings
  1

  2
none_device
  4
Letter_(8.50_x_11.00_Inches)
  6

 40
6.35
 41
6.35
 42
6.35000508
 43
6.35000508
 44
215.9
 45
279.4
 46
0.0
 47
0.0
 48
0.0
 49
0.0
140
0.0
141
0.0
142
1.0
143
1.0
 70
  1712
 72
     0
 73
     0
 74
     0
  7

 75
     0
 76
     0
 77
     2
 78
   300
147
1.0
148
0.0
149
0.0
100
AcDbLayout
  1
Model
 70
     1
 71
     0
 10
0.0
 20
0.0
 11
12.0
 21
9.0
 12
0.0
 22
0.0
 32
0.0
 14
1.000000000000000E+20
 24
1.000000000000000E+20
 34
1.000000000000000E+20
 15
-1.000000000000000E+20
 25
-1.000000000000000E+20
 35
-1.000000000000000E+20
146
0.0
 13
0.0
 23
0.0
 33
0.0
 16
1.0
 26
0.0
 36
0.0
 17
0.0
 27
1.0
 37
0.0
 76
     0
330
1F
331
29
  0
MATERIAL
  5
45
102
{ACAD_REACTORS
330
43
102
}
330
43
100
AcDbMaterial
  1
ByBlock
 72
     1
 94
      127
  0
MATERIAL
  5
44
102
{ACAD_REACTORS
330
43
102
}
330
43
100
AcDbMaterial
  1
ByLayer
 72
     1
 94
      127
  0
MATERIAL
  5
46
102
{ACAD_REACTORS
330
43
102
}
330
43
100
AcDbMaterial
  1
Global
 72
     1
 94
      127
  0
MLEADERSTYLE
  5
6C
102
{ACAD_REACTORS
330
6B
102
}
330
6B
100
AcDbMLeaderStyle
179
     2
170
     2
171
     1
172
     0
 90
        2
 40
0.0
 41
0.0
173
     1
 91
-1056964608
340
14
 92
       -2
290
     1
 42
0.09
291
     1
 43
0.36
  3
Standard
341
0
 44
0.18
300

342
11
174
     1
178
     6
175
     1
176
     0
 93
-1056964608
 45
0.18
292
     0
297
     0
 46
0.18
343
0
 94
-1056964608
 47
1.0
 49
1.0
140
1.0
293
     1
141
0.0
294
     1
177
     0
142
1.0
295
     0
296
     0
143
0.125
271
     0
272
     9
273
     9
298
     0
  0
MLINESTYLE
  5
18
102
{ACAD_REACTORS
330
17
102
}
330
17
100
AcDbMlineStyle
  2
Standard
 70
     0
  3

 62
   256
 51
90.0
 52
90.0
 71
     2
 49
0.5
 62
   256
  6
BYLAYER
 49
-0.5
 62
   256
  6
BYLAYER
  0
ACDBPLACEHOLDER
  5
F
102
{ACAD_REACTORS
330
E
102
}
330
E
  0
SCALE
  5
48
102
{ACAD_REACTORS
330
47
102
}
330
47
100
AcDbScale
 70
     0
300
1:1
140
1.0
141
1.0
290
     1
  0
SCALE
  5
49
102
{ACAD_REACTORS
330
47
102
}
330
47
100
AcDbScale
 70
     0
300
1:2
140
1.0
141
2.0
290
     0
  0
SCALE
  5
4A
102
{ACAD_REACTORS
330
47
102
}
330
47
100
AcDbScale
 70
     0
300
1:4
140
1.0
141
4.0
290
     0
  0
SCALE
  5
4B
102
{ACAD_REACTORS
330
47
102
}
330
47
100
AcDbScale
 70
     0
300
1:5
140
1.0
141
5.0
290
     0
  0
SCALE
  5
4C
102
{ACAD_REACTORS
330
47
102
}
330
47
100
AcDbScale
 70
     0
300
1:8
140
1.0
141
8.0
290
     0
  0
SCALE
  5
4D
102
{ACAD_REACTORS
330
47
102
}
330
47
100
AcDbScale
 70
     0
300
1:10
140
1.0
141
10.0
290
     0
  0
SCALE
  5
4E
102
{ACAD_REACTORS
330
47
102
}
330
47
100
AcDbScale
 70
     0
300
1:16
140
1.0
141
16.0
290
     0
  0
SCALE
  5
4F
102
{ACAD_REACTORS
330
47
102
}
330
47
100
AcDbScale
 70
     0
300
1:20
140
1.0
141
20.0
290
     0
  0
SCALE
  5
50
102
{ACAD_REACTORS
330
47
102
}
330
47
100
AcDbScale
 70
     0
300
1:30
140
1.0
141
30.0
290
     0
  0
SCALE
  5
51
102
{ACAD_REACTORS
330
47
102
}
330
47
100
AcDbScale
 70
     0
300
1:40
140
1.0
141
40.0
290
     0
  0
SCALE
  5
52
102
{ACAD_REACTORS
330
47
102
}
330
47
100
AcDbScale
 70
     0
300
1:50
140
1.0
141
50.0
290
     0
  0
SCALE
  5
53
102
{ACAD_REACTORS
330
47
102
}
330
47
100
AcDbScale
 70
     0
300
1:100
140
1.0
141
100.0
290
     0
  0
SCALE
  5
54
102
{ACAD_REACTORS
330
47
102
}
330
47
100
AcDbScale
 70
     0
300
2:1
140
2.0
141
1.0
290
     0
  0
SCALE
  5
55
102
{ACAD_REACTORS
330
47
102
}
330
47
100
AcDbScale
 70
     0
300
4:1
140
4.0
141
1.0
290
     0
  0
SCALE
  5
56
102
{ACAD_REACTORS
330
47
102
}
330
47
100
AcDbScale
 70
     0
300
8:1
140
8.0
141
1.0
290
     0
  0
SCALE
  5
57
102
{ACAD_REACTORS
330
47
102
}
330
47
100
AcDbScale
 70
     0
300
10:1
140
10.0
141
1.0
290
     0
  0
SCALE
  5
58
102
{ACAD_REACTORS
330
47
102
}
330
47
100
AcDbScale
 70
     0
300
100:1
140
100.0
141
1.0
290
     0
  0
SCALE
  5
59
102
{ACAD_REACTORS
330
47
102
}
330
47
100
AcDbScale
 70
     0
300
1/128" = 1'-0"
140
0.0078125
141
12.0
290
     0
  0
SCALE
  5
5A
102
{ACAD_REACTORS
330
47
102
}
330
47
100
AcDbScale
 70
     0
300
1/64" = 1'-0"
140
0.015625
141
12.0
290
     0
  0
SCALE
  5
5B
102
{ACAD_REACTORS
330
47
102
}
330
47
100
AcDbScale
 70
     0
300
1/32" = 1'-0"
140
0.03125
141
12.0
290
     0
  0
SCALE
  5
5C
102
{ACAD_REACTORS
330
47
102
}
330
47
100
AcDbScale
 70
     0
300
1/16" = 1'-0"
140
0.0625
141
12.0
290
     0
  0
SCALE
  5
5D
102
{ACAD_REACTORS
330
47
102
}
330
47
100
AcDbScale
 70
     0
300
3/32" = 1'-0"
140
0.09375
141
12.0
290
     0
  0
SCALE
  5
5E
102
{ACAD_REACTORS
330
47
102
}
330
47
100
AcDbScale
 70
     0
300
1/8" = 1'-0"
140
0.125
141
12.0
290
     0
  0
SCALE
  5
5F
102
{ACAD_REACTORS
330
47
102
}
330
47
100
AcDbScale
 70
     0
300
3/16" = 1'-0"
140
0.1875
141
12.0
290
     0
  0
SCALE
  5
60
102
{ACAD_REACTORS
330
47
102
}
330
47
100
AcDbScale
 70
     0
300
1/4" = 1'-0"
140
0.25
141
12.0
290
     0
  0
SCALE
  5
61
102
{ACAD_REACTORS
330
47
102
}
330
47
100
AcDbScale
 70
     0
300
3/8" = 1'-0"
140
0.375
141
12.0
290
     0
  0
SCALE
  5
62
102
{ACAD_REACTORS
330
47
102
}
330
47
100
AcDbScale
 70
     0
300
1/2" = 1'-0"
140
0.5
141
12.0
290
     0
  0
SCALE
  5
63
102
{ACAD_REACTORS
330
47
102
}
330
47
100
AcDbScale
 70
     0
300
3/4" = 1'-0"
140
0.75
141
12.0
290
     0
  0
SCALE
  5
64
102
{ACAD_REACTORS
330
47
102
}
330
47
100
AcDbScale
 70
     0
300
1" = 1'-0"
140
1.0
141
12.0
290
     0
  0
SCALE
  5
65
102
{ACAD_REACTORS
330
47
102
}
330
47
100
AcDbScale
 70
     0
300
1-1/2" = 1'-0"
140
1.5
141
12.0
290
     0
  0
SCALE
  5
66
102
{ACAD_REACTORS
330
47
102
}
330
47
100
AcDbScale
 70
     0
300
3" = 1'-0"
140
3.0
141
12.0
290
     0
  0
SCALE
  5
67
102
{ACAD_REACTORS
330
47
102
}
330
47
100
AcDbScale
 70
     0
300
6" = 1'-0"
140
6.0
141
12.0
290
     0
  0
SCALE
  5
68
102
{ACAD_REACTORS
330
47
102
}
330
47
100
AcDbScale
 70
     0
300
1'-0" = 1'-0"
140
12.0
141
12.0
290
     0
  0
TABLESTYLE
  5
6A
102
{ACAD_REACTORS
330
69
102
}
102
{ACAD_XDICTIONARY
360
296
102
}
330
69
100
AcDbTableStyle
  3
Standard
 70
     0
 71
     0
 40
0.06
 41
0.06
280
     0
281
     0
  7
Standard
140
0.18
170
     2
 62
     0
 63
   257
283
     0
 90
        4
 91
        0
  1

274
    -2
284
     1
 64
     0
275
    -2
285
     1
 65
     0
276
    -2
286
     1
 66
     0
277
    -2
287
     1
 67
     0
278
    -2
288
     1
 68
     0
279
    -2
289
     1
 69
     0
  7
Standard
140
0.25
170
     5
 62
     0
 63
   257
283
     0
 90
        4
 91
        0
  1

274
    -2
284
     1
 64
     0
275
    -2
285
     1
 65
     0
276
    -2
286
     1
 66
     0
277
    -2
287
     1
 67
     0
278
    -2
288
     1
 68
     0
279
    -2
289
     1
 69
     0
  7
Standard
140
0.18
170
     5
 62
     0
 63
   257
283
     0
 90
        4
 91
        0
  1

274
    -2
284
     1
 64
     0
275
    -2
285
     1
 65
     0
276
    -2
286
     1
 66
     0
277
    -2
287
     1
 67
     0
278
    -2
288
     1
 68
     0
279
    -2
289
     1
 69
     0
  0
VISUALSTYLE
  5
2F
102
{ACAD_REACTORS
330
2A
102
}
330
2A
100
AcDbVisualStyle
  2
2dWireframe
 70
     4
177
     3
291
     0
 70
    58
 90
        0
176
     1
 90
        2
176
     1
 90
        0
176
     1
 90
        0
176
     1
 40
0.6
176
     1
 40
30.0
176
     1
 62
     7
420
 16777215
176
     1
 90
        1
176
     1
 90
        4
176
     1
 62
     7
176
     1
 62
   257
176
     1
 90
        1
176
     1
 90
        1
176
     1
 40
1.0
176
     1
 90
        0
176
     1
 62
   257
176
     1
 40
1.0
176
     1
 90
        1
176
     1
 90
        6
176
     1
 90
        2
176
     1
 62
     7
176
     1
 90
        5
176
     1
 90
        0
176
     1
 90
        0
176
     1
290
     0
176
     1
 90
        1
176
     1
 40
0.0
176
     1
 90
        0
176
     1
290
     1
176
     1
290
     1
176
     1
290
     0
176
     1
290
     0
176
     1
290
     0
176
     1
290
     0
176
     1
290
     0
176
     1
290
     0
176
     1
290
     0
176
     1
 90
       50
176
     1
 40
0.0
176
     1
 40
1.0
176
     1
 90
        0
176
     1
 62
    18
420
        0
176
     1
 90
       50
176
     1
 90
        3
176
     1
 62
     5
420
      255
176
     1
290
     0
176
     1
 90
       50
176
     1
 90
       50
176
     1
 90
       50
176
     1
290
     0
176
     1
 90
       50
176
     1
 62
   256
176
     0
 40
1.0
176
     0
 90
        2
176
     1
  1
strokes_ogs.tif
176
     1
290
     0
176
     1
 40
1.0
176
     1
 40
1.0
176
     1
  0
VISUALSTYLE
  5
32
102
{ACAD_REACTORS
330
2A
102
}
330
2A
100
AcDbVisualStyle
  2
Basic
 70
     7
177
     3
291
     1
 70
    58
 90
        1
176
     1
 90
        0
176
     1
 90
        1
176
     1
 90
        0
176
     1
 40
0.6
176
     1
 40
30.0
176
     1
 62
     7
420
 16777215
176
     1
 90
        0
176
     1
 90
        4
176
     1
 62
     7
176
     1
 62
   257
176
     1
 90
        1
176
     1
 90
        1
176
     1
 40
1.0
176
     1
 90
        8
176
     1
 62
     7
176
     1
 40
1.0
176
     1
 90
        1
176
     1
 90
        6
176
     1
 90
        2
176
     1
 62
     7
176
     1
 90
        5
176
     1
 90
        0
176
     1
 90
        0
176
     1
290
     0
176
     1
 90
        1
176
     1
 40
0.0
176
     1
 90
        0
176
     1
290
     0
176
     1
290
     1
176
     1
290
     1
176
     1
290
     0
176
     1
290
     0
176
     1
290
     0
176
     1
290
     0
176
     1
290
     0
176
     1
290
     0
176
     1
 90
       50
176
     1
 40
0.0
176
     1
 40
1.0
176
     1
 90
        0
176
     1
 62
    18
420
        0
176
     1
 90
       50
176
     1
 90
        3
176
     1
 62
     5
420
      255
176
     1
290
     0
176
     1
 90
       50
176
     1
 90
       50
176
     1
 90
       50
176
     1
290
     0
176
     1
 90
       50
176
     1
 62
   256
176
     0
 40
1.0
176
     0
 90
        2
176
     1
  1
strokes_ogs.tif
176
     1
290
     0
176
     1
 40
1.0
176
     1
 40
1.0
176
     1
  0
VISUALSTYLE
  5
36
102
{ACAD_REACTORS
330
2A
102
}
330
2A
100
AcDbVisualStyle
  2
Brighten
 70
    12
177
     3
291
     1
 70
    58
 90
        2
176
     1
 90
        2
176
     1
 90
        0
176
     1
 90
        0
176
     1
 40
0.6
176
     1
 40
30.0
176
     1
 62
     7
420
 16777215
176
     1
 90
        1
176
     1
 90
        4
176
     1
 62
     7
176
     1
 62
   257
176
     1
 90
        1
176
     1
 90
        1
176
     1
 40
1.0
176
     1
 90
        8
176
     1
 62
     7
176
     1
 40
1.0
176
     1
 90
        1
176
     1
 90
        6
176
     1
 90
        2
176
     1
 62
     7
176
     1
 90
        5
176
     1
 90
        0
176
     1
 90
        0
176
     1
290
     0
176
     1
 90
        1
176
     1
 40
50.0
176
     1
 90
        0
176
     1
290
     0
176
     1
290
     1
176
     1
290
     1
176
     1
290
     0
176
     1
290
     0
176
     1
290
     0
176
     1
290
     0
176
     1
290
     0
176
     1
290
     0
176
     1
 90
       50
176
     1
 40
0.0
176
     1
 40
1.0
176
     1
 90
        0
176
     1
 62
    18
420
        0
176
     1
 90
       50
176
     1
 90
        3
176
     1
 62
     5
420
      255
176
     1
290
     0
176
     1
 90
       50
176
     1
 90
       50
176
     1
 90
       50
176
     1
290
     0
176
     1
 90
       50
176
     1
 62
   256
176
     0
 40
1.0
176
     0
 90
        2
176
     1
  1
strokes_ogs.tif
176
     1
290
     0
176
     1
 40
1.0
176
     1
 40
1.0
176
     1
  0
VISUALSTYLE
  5
3A
102
{ACAD_REACTORS
330
2A
102
}
330
2A
100
AcDbVisualStyle
  2
ColorChange
 70
    16
177
     3
291
     1
 70
    58
 90
        2
176
     1
 90
        2
176
     1
 90
        3
176
     1
 90
        0
176
     1
 40
0.6
176
     1
 40
30.0
176
     1
 62
     8
420
  8421504
176
     1
 90
        1
176
     1
 90
        4
176
     1
 62
     7
176
     1
 62
   257
176
     1
 90
        1
176
     1
 90
        1
176
     1
 40
1.0
176
     1
 90
        8
176
     1
 62
     8
420
  8421504
176
     1
 40
1.0
176
     1
 90
        1
176
     1
 90
        6
176
     1
 90
        2
176
     1
 62
     7
176
     1
 90
        5
176
     1
 90
        0
176
     1
 90
        0
176
     1
290
     0
176
     1
 90
        1
176
     1
 40
0.0
176
     1
 90
        0
176
     1
290
     0
176
     1
290
     1
176
     1
290
     1
176
     1
290
     0
176
     1
290
     0
176
     1
290
     0
176
     1
290
     0
176
     1
290
     0
176
     1
290
     0
176
     1
 90
       50
176
     1
 40
0.0
176
     1
 40
1.0
176
     1
 90
        0
176
     1
 62
    18
420
        0
176
     1
 90
       50
176
     1
 90
        3
176
     1
 62
     5
420
      255
176
     1
290
     0
176
     1
 90
       50
176
     1
 90
       50
176
     1
 90
       50
176
     1
290
     0
176
     1
 90
       50
176
     1
 62
   256
176
     0
 40
1.0
176
     0
 90
        2
176
     1
  1
strokes_ogs.tif
176
     1
290
     0
176
     1
 40
1.0
176
     1
 40
1.0
176
     1
  0
VISUALSTYLE
  5
34
102
{ACAD_REACTORS
330
2A
102
}
330
2A
100
AcDbVisualStyle
  2
Conceptual
 70
     9
177
     3
291
     0
 70
    58
 90
        3
176
     1
 90
        2
176
     1
 90
        0
176
     1
 90
        0
176
     1
 40
0.6
176
     1
 40
30.0
176
     1
 62
     7
420
 16777215
176
     1
 90
        2
176
     1
 90
        2
176
     1
 62
     7
176
     1
 62
   257
176
     1
 90
        1
176
     1
 90
        1
176
     1
 40
179.0
176
     1
 90
        8
176
     1
 62
     7
176
     1
 40
1.0
176
     1
 90
        1
176
     1
 90
        6
176
     1
 90
        2
176
     1
 62
     7
176
     1
 90
        3
176
     1
 90
        0
176
     1
 90
        0
176
     1
290
     0
176
     1
 90
        1
176
     1
 40
0.0
176
     1
 90
        0
176
     1
290
     0
176
     1
290
     1
176
     1
290
     1
176
     1
290
     0
176
     1
290
     0
176
     1
290
     0
176
     1
290
     0
176
     1
290
     0
176
     1
290
     0
176
     1
 90
       50
176
     1
 40
0.0
176
     1
 40
1.0
176
     1
 90
        0
176
     1
 62
    18
420
        0
176
     1
 90
       50
176
     1
 90
        3
176
     1
 62
     5
420
      255
176
     1
290
     0
176
     1
 90
       50
176
     1
 90
       50
176
     1
 90
       50
176
     1
290
     0
176
     1
 90
       50
176
     1
 62
   256
176
     0
 40
1.0
176
     0
 90
        2
176
     1
  1
strokes_ogs.tif
176
     1
290
     0
176
     1
 40
1.0
176
     1
 40
1.0
176
     1
  0
VISUALSTYLE
  5
35
102
{ACAD_REACTORS
330
2A
102
}
330
2A
100
AcDbVisualStyle
  2
Dim
 70
    11
177
     3
291
     1
 70
    58
 90
        2
176
     1
 90
        2
176
     1
 90
        0
176
     1
 90
        0
176
     1
 40
0.6
176
     1
 40
30.0
176
     1
 62
     7
420
 16777215
176
     1
 90
        1
176
     1
 90
        4
176
     1
 62
     7
176
     1
 62
   257
176
     1
 90
        1
176
     1
 90
        1
176
     1
 40
1.0
176
     1
 90
        8
176
     1
 62
     7
176
     1
 40
1.0
176
     1
 90
        1
176
     1
 90
        6
176
     1
 90
        2
176
     1
 62
     7
176
     1
 90
        5
176
     1
 90
        0
176
     1
 90
        0
176
     1
290
     0
176
     1
 90
        1
176
     1
 40
-50.0
176
     1
 90
        0
176
     1
290
     0
176
     1
290
     1
176
     1
290
     1
176
     1
290
     0
176
     1
290
     0
176
     1
290
     0
176
     1
290
     0
176
     1
290
     0
176
     1
290
     0
176
     1
 90
       50
176
     1
 40
0.0
176
     1
 40
1.0
176
     1
 90
        0
176
     1
 62
    18
420
        0
176
     1
 90
       50
176
     1
 90
        3
176
     1
 62
     5
420
      255
176
     1
290
     0
176
     1
 90
       50
176
     1
 90
       50
176
     1
 90
       50
176
     1
290
     0
176
     1
 90
       50
176
     1
 62
   256
176
     0
 40
1.0
176
     0
 90
        2
176
     1
  1
strokes_ogs.tif
176
     1
290
     0
176
     1
 40
1.0
176
     1
 40
1.0
176
     1
  0
VISUALSTYLE
  5
3D
102
{ACAD_REACTORS
330
2A
102
}
330
2A
100
AcDbVisualStyle
  2
EdgeColorOff
 70
    22
177
     3
291
     1
 70
    58
 90
        2
176
     0
 90
        2
176
     0
 90
        0
176
     0
 90
        0
176
     0
 40
0.6
176
     0
 40
30.0
176
     0
 62
     7
420
 16777215
176
     0
 90
        1
176
     0
 90
        4
176
     0
 62
     7
176
     0
 62
   257
176
     0
 90
        1
176
     0
 90
        1
176
     0
 40
1.0
176
     0
 90
        8
176
     2
 62
     7
176
     0
 40
1.0
176
     0
 90
        1
176
     0
 90
        6
176
     0
 90
        2
176
     0
 62
     7
176
     0
 90
        5
176
     0
 90
        0
176
     0
 90
        0
176
     0
290
     0
176
     0
 90
        1
176
     0
 40
0.0
176
     0
 90
        0
176
     0
290
     0
176
     0
290
     1
176
     0
290
     1
176
     0
290
     0
176
     0
290
     0
176
     0
290
     0
176
     0
290
     0
176
     0
290
     0
176
     0
290
     0
176
     0
 90
       50
176
     0
 40
0.0
176
     0
 40
1.0
176
     0
 90
        0
176
     0
 62
    18
420
        0
176
     0
 90
       50
176
     0
 90
        3
176
     0
 62
     5
420
      255
176
     0
290
     0
176
     0
 90
       50
176
     0
 90
       50
176
     0
 90
       50
176
     0
290
     0
176
     0
 90
       50
176
     0
 62
   256
176
     0
 40
1.0
176
     0
 90
        2
176
     0
  1
strokes_ogs.tif
176
     0
290
     0
176
     0
 40
1.0
176
     0
 40
1.0
176
     0
  0
VISUALSTYLE
  5
39
102
{ACAD_REACTORS
330
2A
102
}
330
2A
100
AcDbVisualStyle
  2
Facepattern
 70
    15
177
     3
291
     1
 70
    58
 90
        2
176
     1
 90
        2
176
     1
 90
        0
176
     1
 90
        0
176
     1
 40
0.6
176
     1
 40
30.0
176
     1
 62
     7
420
 16777215
176
     1
 90
        1
176
     1
 90
        4
176
     1
 62
     7
176
     1
 62
   257
176
     1
 90
        1
176
     1
 90
        1
176
     1
 40
1.0
176
     1
 90
        8
176
     1
 62
     7
176
     1
 40
1.0
176
     1
 90
        1
176
     1
 90
        6
176
     1
 90
        2
176
     1
 62
     7
176
     1
 90
        5
176
     1
 90
        0
176
     1
 90
        0
176
     1
290
     0
176
     1
 90
        1
176
     1
 40
0.0
176
     1
 90
        0
176
     1
290
     0
176
     1
290
     1
176
     1
290
     1
176
     1
290
     0
176
     1
290
     0
176
     1
290
     0
176
     1
290
     0
176
     1
290
     0
176
     1
290
     0
176
     1
 90
       50
176
     1
 40
0.0
176
     1
 40
1.0
176
     1
 90
        0
176
     1
 62
    18
420
        0
176
     1
 90
       50
176
     1
 90
        3
176
     1
 62
     5
420
      255
176
     1
290
     0
176
     1
 90
       50
176
     1
 90
       50
176
     1
 90
       50
176
     1
290
     0
176
     1
 90
       50
176
     1
 62
   256
176
     0
 40
1.0
176
     0
 90
        2
176
     1
  1
strokes_ogs.tif
176
     1
290
     0
176
     1
 40
1.0
176
     1
 40
1.0
176
     1
  0
VISUALSTYLE
  5
2B
102
{ACAD_REACTORS
330
2A
102
}
330
2A
100
AcDbVisualStyle
  2
Flat
 70
     0
177
     3
291
     1
 70
    58
 90
        2
176
     1
 90
        1
176
     1
 90
        1
176
     1
 90
        2
176
     1
 40
0.6
176
     1
 40
30.0
176
     1
 62
     7
420
 16777215
176
     1
 90
        0
176
     1
 90
        0
176
     1
 62
     7
176
     1
 62
   257
176
     1
 90
        1
176
     1
 90
        1
176
     1
 40
1.0
176
     1
 90
        8
176
     1
 62
     7
176
     1
 40
1.0
176
     1
 90
        1
176
     1
 90
        6
176
     1
 90
        2
176
     1
 62
     7
176
     1
 90
        5
176
     1
 90
        0
176
     1
 90
        0
176
     1
290
     0
176
     1
 90
       13
176
     1
 40
0.0
176
     1
 90
        0
176
     1
290
     0
176
     1
290
     1
176
     1
290
     1
176
     1
290
     0
176
     1
290
     0
176
     1
290
     0
176
     1
290
     0
176
     1
290
     0
176
     1
290
     0
176
     1
 90
       50
176
     1
 40
0.0
176
     1
 40
1.0
176
     1
 90
        0
176
     1
 62
    18
420
        0
176
     1
 90
       50
176
     1
 90
        3
176
     1
 62
     5
420
      255
176
     1
290
     0
176
     1
 90
       50
176
     1
 90
       50
176
     1
 90
       50
176
     1
290
     0
176
     1
 90
       50
176
     1
 62
   256
176
     0
 40
1.0
176
     0
 90
        2
176
     1
  1
strokes_ogs.tif
176
     1
290
     0
176
     1
 40
1.0
176
     1
 40
1.0
176
     1
  0
VISUALSTYLE
  5
2C
102
{ACAD_REACTORS
330
2A
102
}
330
2A
100
AcDbVisualStyle
  2
FlatWithEdges
 70
     1
177
     3
291
     1
 70
    58
 90
        2
176
     1
 90
        1
176
     1
 90
        1
176
     1
 90
        2
176
     1
 40
0.6
176
     1
 40
30.0
176
     1
 62
     7
420
 16777215
176
     1
 90
        1
176
     1
 90
        0
176
     1
 62
     7
176
     1
 62
   257
176
     1
 90
        1
176
     1
 90
        1
176
     1
 40
1.0
176
     1
 90
        0
176
     1
 62
   257
176
     1
 40
1.0
176
     1
 90
        1
176
     1
 90
        6
176
     1
 90
        2
176
     1
 62
     7
176
     1
 90
        5
176
     1
 90
        0
176
     1
 90
        0
176
     1
290
     0
176
     1
 90
       13
176
     1
 40
0.0
176
     1
 90
        0
176
     1
290
     0
176
     1
290
     1
176
     1
290
     1
176
     1
290
     0
176
     1
290
     0
176
     1
290
     0
176
     1
290
     0
176
     1
290
     0
176
     1
290
     0
176
     1
 90
       50
176
     1
 40
0.0
176
     1
 40
1.0
176
     1
 90
        0
176
     1
 62
    18
420
        0
176
     1
 90
       50
176
     1
 90
        3
176
     1
 62
     5
420
      255
176
     1
290
     0
176
     1
 90
       50
176
     1
 90
       50
176
     1
 90
       50
176
     1
290
     0
176
     1
 90
       50
176
     1
 62
   256
176
     0
 40
1.0
176
     0
 90
        2
176
     1
  1
strokes_ogs.tif
176
     1
290
     0
176
     1
 40
1.0
176
     1
 40
1.0
176
     1
  0
VISUALSTYLE
  5
2D
102
{ACAD_REACTORS
330
2A
102
}
330
2A
100
AcDbVisualStyle
  2
Gouraud
 70
     2
177
     3
291
     1
 70
    58
 90
        2
176
     1
 90
        2
176
     1
 90
        1
176
     1
 90
        2
176
     1
 40
0.6
176
     1
 40
30.0
176
     1
 62
     7
420
 16777215
176
     1
 90
        0
176
     1
 90
        0
176
     1
 62
     7
176
     1
 62
   257
176
     1
 90
        1
176
     1
 90
        1
176
     1
 40
1.0
176
     1
 90
        0
176
     1
 62
     7
176
     1
 40
1.0
176
     1
 90
        1
176
     1
 90
        6
176
     1
 90
        2
176
     1
 62
     7
176
     1
 90
        5
176
     1
 90
        0
176
     1
 90
        0
176
     1
290
     0
176
     1
 90
       13
176
     1
 40
0.0
176
     1
 90
        0
176
     1
290
     0
176
     1
290
     1
176
     1
290
     1
176
     1
290
     0
176
     1
290
     0
176
     1
290
     0
176
     1
290
     0
176
     1
290
     0
176
     1
290
     0
176
     1
 90
       50
176
     1
 40
0.0
176
     1
 40
1.0
176
     1
 90
        0
176
     1
 62
    18
420
        0
176
     1
 90
       50
176
     1
 90
        3
176
     1
 62
     5
420
      255
176
     1
290
     0
176
     1
 90
       50
176
     1
 90
       50
176
     1
 90
       50
176
     1
290
     0
176
     1
 90
       50
176
     1
 62
   256
176
     0
 40
1.0
176
     0
 90
        2
176
     1
  1
strokes_ogs.tif
176
     1
290
     0
176
     1
 40
1.0
176
     1
 40
1.0
176
     1
  0
VISUALSTYLE
  5
2E
102
{ACAD_REACTORS
330
2A
102
}
330
2A
100
AcDbVisualStyle
  2
GouraudWithEdges
 70
     3
177
     3
291
     1
 70
    58
 90
        2
176
     1
 90
        2
176
     1
 90
        1
176
     1
 90
        2
176
     1
 40
0.6
176
     1
 40
30.0
176
     1
 62
     7
420
 16777215
176
     1
 90
        1
176
     1
 90
        0
176
     1
 62
     7
176
     1
 62
   257
176
     1
 90
        1
176
     1
 90
        1
176
     1
 40
1.0
176
     1
 90
        0
176
     1
 62
   257
176
     1
 40
1.0
176
     1
 90
        1
176
     1
 90
        6
176
     1
 90
        2
176
     1
 62
     7
176
     1
 90
        5
176
     1
 90
        0
176
     1
 90
        0
176
     1
290
     0
176
     1
 90
       13
176
     1
 40
0.0
176
     1
 90
        0
176
     1
290
     0
176
     1
290
     1
176
     1
290
     1
176
     1
290
     0
176
     1
290
     0
176
     1
290
     0
176
     1
290
     0
176
     1
290
     0
176
     1
290
     0
176
     1
 90
       50
176
     1
 40
0.0
176
     1
 40
1.0
176
     1
 90
        0
176
     1
 62
    18
420
        0
176
     1
 90
       50
176
     1
 90
        3
176
     1
 62
     5
420
      255
176
     1
290
     0
176
     1
 90
       50
176
     1
 90
       50
176
     1
 90
       50
176
     1
290
     0
176
     1
 90
       50
176
     1
 62
   256
176
     0
 40
1.0
176
     0
 90
        2
176
     1
  1
strokes_ogs.tif
176
     1
290
     0
176
     1
 40
1.0
176
     1
 40
1.0
176
     1
  0
VISUALSTYLE
  5
31
102
{ACAD_REACTORS
330
2A
102
}
330
2A
100
AcDbVisualStyle
  2
Hidden
 70
     6
177
     3
291
     0
 70
    58
 90
        1
176
     1
 90
        2
176
     1
 90
        2
176
     1
 90
        0
176
     1
 40
0.6
176
     1
 40
30.0
176
     1
 62
     7
420
 16777215
176
     1
 90
        2
176
     1
 90
        2
176
     1
 62
     7
176
     1
 62
   257
176
     1
 90
        2
176
     1
 90
        1
176
     1
 40
40.0
176
     1
 90
        0
176
     1
 62
   257
176
     1
 40
1.0
176
     1
 90
        1
176
     1
 90
        6
176
     1
 90
        2
176
     1
 62
     7
176
     1
 90
        3
176
     1
 90
        0
176
     1
 90
        0
176
     1
290
     0
176
     1
 90
        1
176
     1
 40
0.0
176
     1
 90
        0
176
     1
290
     0
176
     1
290
     1
176
     1
290
     1
176
     1
290
     0
176
     1
290
     0
176
     1
290
     0
176
     1
290
     0
176
     1
290
     0
176
     1
290
     0
176
     1
 90
       50
176
     1
 40
0.0
176
     1
 40
1.0
176
     1
 90
        0
176
     1
 62
    18
420
        0
176
     1
 90
       50
176
     1
 90
        3
176
     1
 62
     5
420
      255
176
     1
290
     0
176
     1
 90
       50
176
     1
 90
       50
176
     1
 90
       50
176
     1
290
     0
176
     1
 90
       50
176
     1
 62
   256
176
     0
 40
1.0
176
     0
 90
        2
176
     1
  1
strokes_ogs.tif
176
     1
290
     0
176
     1
 40
1.0
176
     1
 40
1.0
176
     1
  0
VISUALSTYLE
  5
3B
102
{ACAD_REACTORS
330
2A
102
}
330
2A
100
AcDbVisualStyle
  2
JitterOff
 70
    20
177
     3
291
     1
 70
    58
 90
        2
176
     0
 90
        2
176
     0
 90
        0
176
     0
 90
        0
176
     0
 40
0.6
176
     0
 40
30.0
176
     0
 62
     7
420
 16777215
176
     0
 90
        1
176
     0
 90
        4
176
     0
 62
     7
176
     0
 62
   257
176
     0
 90
        1
176
     0
 90
        1
176
     0
 40
1.0
176
     0
 90
       10
176
     2
 62
     7
176
     0
 40
1.0
176
     0
 90
        1
176
     0
 90
        6
176
     0
 90
        2
176
     0
 62
     7
176
     0
 90
        5
176
     0
 90
        0
176
     0
 90
        0
176
     0
290
     0
176
     0
 90
        1
176
     0
 40
0.0
176
     0
 90
        0
176
     0
290
     0
176
     0
290
     1
176
     0
290
     1
176
     0
290
     0
176
     0
290
     0
176
     0
290
     0
176
     0
290
     0
176
     0
290
     0
176
     0
290
     0
176
     0
 90
       50
176
     0
 40
0.0
176
     0
 40
1.0
176
     0
 90
        0
176
     0
 62
    18
420
        0
176
     0
 90
       50
176
     0
 90
        3
176
     0
 62
     5
420
      255
176
     0
290
     0
176
     0
 90
       50
176
     0
 90
       50
176
     0
 90
       50
176
     0
290
     0
176
     0
 90
       50
176
     0
 62
   256
176
     0
 40
1.0
176
     0
 90
        2
176
     0
  1
strokes_ogs.tif
176
     0
290
     0
176
     0
 40
1.0
176
     0
 40
1.0
176
     0
  0
VISUALSTYLE
  5
38
102
{ACAD_REACTORS
330
2A
102
}
330
2A
100
AcDbVisualStyle
  2
Linepattern
 70
    14
177
     3
291
     1
 70
    58
 90
        2
176
     1
 90
        2
176
     1
 90
        0
176
     1
 90
        0
176
     1
 40
0.6
176
     1
 40
30.0
176
     1
 62
     7
420
 16777215
176
     1
 90
        1
176
     1
 90
        4
176
     1
 62
     7
176
     1
 62
   257
176
     1
 90
        7
176
     1
 90
        7
176
     1
 40
1.0
176
     1
 90
        8
176
     1
 62
     7
176
     1
 40
1.0
176
     1
 90
        1
176
     1
 90
        6
176
     1
 90
        2
176
     1
 62
     7
176
     1
 90
        5
176
     1
 90
        0
176
     1
 90
        0
176
     1
290
     0
176
     1
 90
        1
176
     1
 40
0.0
176
     1
 90
        0
176
     1
290
     0
176
     1
290
     1
176
     1
290
     1
176
     1
290
     0
176
     1
290
     0
176
     1
290
     0
176
     1
290
     0
176
     1
290
     0
176
     1
290
     0
176
     1
 90
       50
176
     1
 40
0.0
176
     1
 40
1.0
176
     1
 90
        0
176
     1
 62
    18
420
        0
176
     1
 90
       50
176
     1
 90
        3
176
     1
 62
     5
420
      255
176
     1
290
     0
176
     1
 90
       50
176
     1
 90
       50
176
     1
 90
       50
176
     1
290
     0
176
     1
 90
       50
176
     1
 62
   256
176
     0
 40
1.0
176
     0
 90
        2
176
     1
  1
strokes_ogs.tif
176
     1
290
     0
176
     1
 40
1.0
176
     1
 40
1.0
176
     1
  0
VISUALSTYLE
  5
3C
102
{ACAD_REACTORS
330
2A
102
}
330
2A
100
AcDbVisualStyle
  2
OverhangOff
 70
    21
177
     3
291
     1
 70
    58
 90
        2
176
     0
 90
        2
176
     0
 90
        0
176
     0
 90
        0
176
     0
 40
0.6
176
     0
 40
30.0
176
     0
 62
     7
420
 16777215
176
     0
 90
        1
176
     0
 90
        4
176
     0
 62
     7
176
     0
 62
   257
176
     0
 90
        1
176
     0
 90
        1
176
     0
 40
1.0
176
     0
 90
        9
176
     2
 62
     7
176
     0
 40
1.0
176
     0
 90
        1
176
     0
 90
        6
176
     0
 90
        2
176
     0
 62
     7
176
     0
 90
        5
176
     0
 90
        0
176
     0
 90
        0
176
     0
290
     0
176
     0
 90
        1
176
     0
 40
0.0
176
     0
 90
        0
176
     0
290
     0
176
     0
290
     1
176
     0
290
     1
176
     0
290
     0
176
     0
290
     0
176
     0
290
     0
176
     0
290
     0
176
     0
290
     0
176
     0
290
     0
176
     0
 90
       50
176
     0
 40
0.0
176
     0
 40
1.0
176
     0
 90
        0
176
     0
 62
    18
420
        0
176
     0
 90
       50
176
     0
 90
        3
176
     0
 62
     5
420
      255
176
     0
290
     0
176
     0
 90
       50
176
     0
 90
       50
176
     0
 90
       50
176
     0
290
     0
176
     0
 90
       50
176
     0
 62
   256
176
     0
 40
1.0
176
     0
 90
        2
176
     0
  1
strokes_ogs.tif
176
     0
290
     0
176
     0
 40
1.0
176
     0
 40
1.0
176
     0
  0
VISUALSTYLE
  5
33
102
{ACAD_REACTORS
330
2A
102
}
330
2A
100
AcDbVisualStyle
  2
Realistic
 70
     8
177
     3
291
     0
 70
    58
 90
        2
176
     1
 90
        3
176
     1
 90
        0
176
     1
 90
        2
176
     1
 40
0.6
176
     1
 40
30.0
176
     1
 62
     7
420
 16777215
176
     1
 90
        0
176
     1
 90
        0
176
     1
 62
     7
176
     1
 62
   257
176
     1
 90
        1
176
     1
 90
        1
176
     1
 40
1.0
176
     1
 90
        8
176
     1
 62
   257
176
     1
 40
1.0
176
     1
 90
        1
176
     1
 90
        6
176
     1
 90
        2
176
     1
 62
     7
176
     1
 90
        3
176
     1
 90
        0
176
     1
 90
        0
176
     1
290
     0
176
     1
 90
       13
176
     1
 40
0.0
176
     1
 90
        0
176
     1
290
     0
176
     1
290
     1
176
     1
290
     1
176
     1
290
     0
176
     1
290
     0
176
     1
290
     0
176
     1
290
     0
176
     1
290
     0
176
     1
290
     0
176
     1
 90
       50
176
     1
 40
0.0
176
     1
 40
1.0
176
     1
 90
        0
176
     1
 62
    18
420
        0
176
     1
 90
       50
176
     1
 90
        3
176
     1
 62
     5
420
      255
176
     1
290
     0
176
     1
 90
       50
176
     1
 90
       50
176
     1
 90
       50
176
     1
290
     0
176
     1
 90
       50
176
     1
 62
   256
176
     0
 40
1.0
176
     0
 90
        2
176
     1
  1
strokes_ogs.tif
176
     1
290
     0
176
     1
 40
1.0
176
     1
 40
1.0
176
     1
  0
VISUALSTYLE
  5
42
102
{ACAD_REACTORS
330
2A
102
}
330
2A
100
AcDbVisualStyle
  2
Shaded
 70
    27
177
     3
291
     0
 70
    58
 90
        2
176
     1
 90
        2
176
     1
 90
        1
176
     1
 90
        2
176
     1
 40
0.6
176
     1
 40
30.0
176
     1
 62
     7
420
 16777215
176
     1
 90
        0
176
     1
 90
        4
176
     1
 62
     7
176
     1
 62
   257
176
     1
 90
        1
176
     1
 90
        1
176
     1
 40
1.0
176
     1
 90
        8
176
     1
 62
   257
176
     1
 40
1.0
176
     1
 90
        1
176
     1
 90
        6
176
     1
 90
        2
176
     1
 62
     8
420
  7895160
176
     1
 90
        3
176
     1
 90
        0
176
     1
 90
        0
176
     1
290
     0
176
     1
 90
        5
176
     1
 40
0.0
176
     1
 90
        0
176
     1
290
     0
176
     1
290
     1
176
     1
290
     1
176
     1
290
     0
176
     1
290
     0
176
     1
290
     0
176
     1
290
     0
176
     1
290
     0
176
     1
290
     0
176
     1
 90
       50
176
     1
 40
0.0
176
     1
 40
1.0
176
     1
 90
        0
176
     1
 62
    18
420
        0
176
     1
 90
       50
176
     1
 90
        3
176
     1
 62
     5
420
      255
176
     1
290
     0
176
     1
 90
       50
176
     1
 90
       50
176
     1
 90
       50
176
     1
290
     0
176
     1
 90
       50
176
     1
 62
   256
176
     0
 40
1.0
176
     0
 90
        2
176
     1
  1
strokes_ogs.tif
176
     1
290
     0
176
     1
 40
1.0
176
     1
 40
1.0
176
     1
  0
VISUALSTYLE
  5
41
102
{ACAD_REACTORS
330
2A
102
}
330
2A
100
AcDbVisualStyle
  2
Shaded with edges
 70
    26
177
     3
291
     0
 70
    58
 90
        2
176
     1
 90
        2
176
     1
 90
        1
176
     1
 90
        2
176
     1
 40
0.6
176
     1
 40
30.0
176
     1
 62
     7
420
 16777215
176
     1
 90
        1
176
     1
 90
       10
176
     1
 62
     7
176
     1
 62
   257
176
     1
 90
        2
176
     1
 90
        1
176
     1
 40
1.0
176
     1
 90
        8
176
     1
 62
   257
176
     1
 40
1.0
176
     1
 90
        1
176
     1
 90
        6
176
     1
 90
        2
176
     1
 62
     7
176
     1
 90
        3
176
     1
 90
        0
176
     1
 90
        0
176
     1
290
     0
176
     1
 90
        5
176
     1
 40
0.0
176
     1
 90
        0
176
     1
290
     0
176
     1
290
     1
176
     1
290
     1
176
     1
290
     0
176
     1
290
     0
176
     1
290
     0
176
     1
290
     0
176
     1
290
     0
176
     1
290
     0
176
     1
 90
       50
176
     1
 40
0.0
176
     1
 40
1.0
176
     1
 90
        0
176
     1
 62
    18
420
        0
176
     1
 90
       50
176
     1
 90
        3
176
     1
 62
     5
420
      255
176
     1
290
     0
176
     1
 90
       50
176
     1
 90
       50
176
     1
 90
       50
176
     1
290
     0
176
     1
 90
       50
176
     1
 62
   256
176
     0
 40
1.0
176
     0
 90
        2
176
     1
  1
strokes_ogs.tif
176
     1
290
     0
176
     1
 40
1.0
176
     1
 40
1.0
176
     1
  0
VISUALSTYLE
  5
3E
102
{ACAD_REACTORS
330
2A
102
}
330
2A
100
AcDbVisualStyle
  2
Shades of Gray
 70
    23
177
     3
291
     0
 70
    58
 90
        2
176
     1
 90
        2
176
     1
 90
        3
176
     1
 90
        0
176
     1
 40
0.6
176
     1
 40
30.0
176
     1
 62
     7
420
 16777215
176
     1
 90
        2
176
     1
 90
        2
176
     1
 62
     7
176
     1
 62
     7
176
     1
 90
        1
176
     1
 90
        1
176
     1
 40
40.0
176
     1
 90
        8
176
     1
 62
     7
176
     1
 40
1.0
176
     1
 90
        1
176
     1
 90
        6
176
     1
 90
        2
176
     1
 62
     7
176
     1
 90
        3
176
     1
 90
        0
176
     1
 90
        0
176
     1
290
     0
176
     1
 90
        1
176
     1
 40
0.0
176
     1
 90
        0
176
     1
290
     0
176
     1
290
     1
176
     1
290
     1
176
     1
290
     0
176
     1
290
     0
176
     1
290
     0
176
     1
290
     0
176
     1
290
     0
176
     1
290
     0
176
     1
 90
       50
176
     1
 40
0.0
176
     1
 40
1.0
176
     1
 90
        0
176
     1
 62
    18
420
        0
176
     1
 90
       50
176
     1
 90
        3
176
     1
 62
     5
420
      255
176
     1
290
     0
176
     1
 90
       50
176
     1
 90
       50
176
     1
 90
       50
176
     1
290
     0
176
     1
 90
       50
176
     1
 62
   256
176
     0
 40
1.0
176
     0
 90
        2
176
     1
  1
strokes_ogs.tif
176
     1
290
     0
176
     1
 40
1.0
176
     1
 40
1.0
176
     1
  0
VISUALSTYLE
  5
3F
102
{ACAD_REACTORS
330
2A
102
}
330
2A
100
AcDbVisualStyle
  2
Sketchy
 70
    24
177
     3
291
     0
 70
    58
 90
        1
176
     1
 90
        2
176
     1
 90
        2
176
     1
 90
        0
176
     1
 40
0.6
176
     1
 40
30.0
176
     1
 62
     7
420
 16777215
176
     1
 90
        2
176
     1
 90
        2
176
     1
 62
     7
176
     1
 62
     7
176
     1
 90
        1
176
     1
 90
        1
176
     1
 40
40.0
176
     1
 90
       11
176
     1
 62
     7
176
     1
 40
1.0
176
     1
 90
        1
176
     1
 90
        6
176
     1
 90
        2
176
     1
 62
     7
176
     1
 90
        6
176
     1
 90
        0
176
     1
 90
        0
176
     1
290
     0
176
     1
 90
        1
176
     1
 40
0.0
176
     1
 90
        0
176
     1
290
     0
176
     1
290
     1
176
     1
290
     1
176
     1
290
     0
176
     1
290
     0
176
     1
290
     0
176
     1
290
     0
176
     1
290
     0
176
     1
290
     0
176
     1
 90
       50
176
     1
 40
0.0
176
     1
 40
1.0
176
     1
 90
        0
176
     1
 62
    18
420
        0
176
     1
 90
       50
176
     1
 90
        3
176
     1
 62
     5
420
      255
176
     1
290
     0
176
     1
 90
       50
176
     1
 90
       50
176
     1
 90
       50
176
     1
290
     0
176
     1
 90
       50
176
     1
 62
   256
176
     0
 40
1.0
176
     0
 90
        2
176
     1
  1
strokes_ogs.tif
176
     1
290
     0
176
     1
 40
1.0
176
     1
 40
1.0
176
     1
  0
VISUALSTYLE
  5
37
102
{ACAD_REACTORS
330
2A
102
}
330
2A
100
AcDbVisualStyle
  2
Thicken
 70
    13
177
     3
291
     1
 70
    58
 90
        2
176
     1
 90
        2
176
     1
 90
        0
176
     1
 90
        0
176
     1
 40
0.6
176
     1
 40
30.0
176
     1
 62
     7
420
 16777215
176
     1
 90
        1
176
     1
 90
        4
176
     1
 62
     7
176
     1
 62
   257
176
     1
 90
        1
176
     1
 90
        1
176
     1
 40
1.0
176
     1
 90
       12
176
     1
 62
     7
176
     1
 40
1.0
176
     1
 90
        1
176
     1
 90
        6
176
     1
 90
        2
176
     1
 62
     7
176
     1
 90
        5
176
     1
 90
        0
176
     1
 90
        0
176
     1
290
     0
176
     1
 90
        1
176
     1
 40
0.0
176
     1
 90
        0
176
     1
290
     0
176
     1
290
     1
176
     1
290
     1
176
     1
290
     0
176
     1
290
     0
176
     1
290
     0
176
     1
290
     0
176
     1
290
     0
176
     1
290
     0
176
     1
 90
       50
176
     1
 40
0.0
176
     1
 40
1.0
176
     1
 90
        0
176
     1
 62
    18
420
        0
176
     1
 90
       50
176
     1
 90
        3
176
     1
 62
     5
420
      255
176
     1
290
     0
176
     1
 90
       50
176
     1
 90
       50
176
     1
 90
       50
176
     1
290
     0
176
     1
 90
       50
176
     1
 62
   256
176
     0
 40
1.0
176
     0
 90
        2
176
     1
  1
strokes_ogs.tif
176
     1
290
     0
176
     1
 40
1.0
176
     1
 40
1.0
176
     1
  0
VISUALSTYLE
  5
30
102
{ACAD_REACTORS
330
2A
102
}
330
2A
100
AcDbVisualStyle
  2
Wireframe
 70
     5
177
     3
291
     0
 70
    58
 90
        0
176
     1
 90
        2
176
     1
 90
        0
176
     1
 90
        0
176
     1
 40
0.6
176
     1
 40
30.0
176
     1
 62
     7
420
 16777215
176
     1
 90
        1
176
     1
 90
        4
176
     1
 62
     7
176
     1
 62
   257
176
     1
 90
        1
176
     1
 90
        1
176
     1
 40
1.0
176
     1
 90
        0
176
     1
 62
   257
176
     1
 40
1.0
176
     1
 90
        1
176
     1
 90
        6
176
     1
 90
        2
176
     1
 62
     7
176
     1
 90
        3
176
     1
 90
        0
176
     1
 90
        0
176
     1
290
     0
176
     1
 90
        1
176
     1
 40
0.0
176
     1
 90
        0
176
     1
290
     0
176
     1
290
     1
176
     1
290
     1
176
     1
290
     0
176
     1
290
     0
176
     1
290
     0
176
     1
290
     0
176
     1
290
     0
176
     1
290
     0
176
     1
 90
       50
176
     1
 40
0.0
176
     1
 40
1.0
176
     1
 90
        0
176
     1
 62
    18
420
        0
176
     1
 90
       50
176
     1
 90
        3
176
     1
 62
     5
420
      255
176
     1
290
     0
176
     1
 90
       50
176
     1
 90
       50
176
     1
 90
       50
176
     1
290
     0
176
     1
 90
       50
176
     1
 62
   256
176
     0
 40
1.0
176
     0
 90
        2
176
     1
  1
strokes_ogs.tif
176
     1
290
     0
176
     1
 40
1.0
176
     1
 40
1.0
176
     1
  0
VISUALSTYLE
  5
40
102
{ACAD_REACTORS
330
2A
102
}
330
2A
100
AcDbVisualStyle
  2
X-Ray
 70
    25
177
     3
291
     0
 70
    58
 90
        2
176
     1
 90
        2
176
     1
 90
        1
176
     1
 90
        1
176
     1
 40
0.5
176
     1
 40
30.0
176
     1
 62
     7
420
 16777215
176
     1
 90
        1
176
     1
 90
        0
176
     1
 62
     7
176
     1
 62
   257
176
     1
 90
        1
176
     1
 90
        1
176
     1
 40
1.0
176
     1
 90
        8
176
     1
 62
     7
176
     1
 40
1.0
176
     1
 90
        1
176
     1
 90
        6
176
     1
 90
        2
176
     1
 62
     7
176
     1
 90
        3
176
     1
 90
        0
176
     1
 90
        0
176
     1
290
     0
176
     1
 90
       13
176
     1
 40
0.0
176
     1
 90
        0
176
     1
290
     0
176
     1
290
     1
176
     1
290
     1
176
     1
290
     0
176
     1
290
     0
176
     1
290
     0
176
     1
290
     0
176
     1
290
     0
176
     1
290
     0
176
     1
 90
       50
176
     1
 40
0.0
176
     1
 40
1.0
176
     1
 90
        0
176
     1
 62
    18
420
        0
176
     1
 90
       50
176
     1
 90
        3
176
     1
 62
     5
420
      255
176
     1
290
     0
176
     1
 90
       50
176
     1
 90
       50
176
     1
 90
       50
176
     1
290
     0
176
     1
 90
       50
176
     1
 62
   256
176
     0
 40
1.0
176
     0
 90
        2
176
     1
  1
strokes_ogs.tif
176
     1
290
     0
176
     1
 40
1.0
176
     1
 40
1.0
176
     1
  0
DICTIONARYVAR
  5
295
102
{ACAD_REACTORS
330
294
102
}
330
294
100
DictionaryVariables
280
     0
  1
1:1
  0
DICTIONARYVAR
  5
29A
102
{ACAD_REACTORS
330
294
102
}
330
294
100
DictionaryVariables
280
     0
  1
Standard
  0
DICTIONARYVAR
  5
299
102
{ACAD_REACTORS
330
294
102
}
330
294
100
DictionaryVariables
280
     0
  1
Standard
  0
DICTIONARY
  5
296
330
6A
100
AcDbDictionary
280
     1
281
     1
  3
ACAD_ROUNDTRIP_2008_TABLESTYLE_CELLSTYLEMAP
360
297
  0
CELLSTYLEMAP
  5
297
102
{ACAD_REACTORS
330
296
102
}
330
296
100
AcDbCellStyleMap
 90
        3
300
CELLSTYLE
  1
TABLEFORMAT_BEGIN
 90
        5
170
     1
 91
        0
 92
    32768
 62
   257
 93
        1
300
CONTENTFORMAT
  1
CONTENTFORMAT_BEGIN
 90
        0
 91
        0
 92
        4
 93
        0
300

 40
0.0
140
1.0
 94
        5
 62
     0
340
11
144
0.25
309
CONTENTFORMAT_END
171
     1
301
MARGIN
  1
CELLMARGIN_BEGIN
 40
0.06
 40
0.06
 40
0.06
 40
0.06
 40
0.06
 40
0.06
309
CELLMARGIN_END
 94
        6
 95
        1
302
GRIDFORMAT
  1
GRIDFORMAT_BEGIN
 90
        0
 91
        1
 62
     0
 92
       -2
340
14
 93
        0
 40
0.045
309
GRIDFORMAT_END
 95
        2
302
GRIDFORMAT
  1
GRIDFORMAT_BEGIN
 90
        0
 91
        1
 62
     0
 92
       -2
340
14
 93
        0
 40
0.045
309
GRIDFORMAT_END
 95
        4
302
GRIDFORMAT
  1
GRIDFORMAT_BEGIN
 90
        0
 91
        1
 62
     0
 92
       -2
340
14
 93
        0
 40
0.045
309
GRIDFORMAT_END
 95
        8
302
GRIDFORMAT
  1
GRIDFORMAT_BEGIN
 90
        0
 91
        1
 62
     0
 92
       -2
340
14
 93
        0
 40
0.045
309
GRIDFORMAT_END
 95
       16
302
GRIDFORMAT
  1
GRIDFORMAT_BEGIN
 90
        0
 91
        1
 62
     0
 92
       -2
340
14
 93
        0
 40
0.045
309
GRIDFORMAT_END
 95
       32
302
GRIDFORMAT
  1
GRIDFORMAT_BEGIN
 90
        0
 91
        1
 62
     0
 92
       -2
340
14
 93
        0
 40
0.045
309
GRIDFORMAT_END
309
TABLEFORMAT_END
  1
CELLSTYLE_BEGIN
 90
        1
 91
        1
300
_TITLE
309
CELLSTYLE_END
300
CELLSTYLE
  1
TABLEFORMAT_BEGIN
 90
        5
170
     1
 91
        0
 92
        0
 62
   257
 93
        1
300
CONTENTFORMAT
  1
CONTENTFORMAT_BEGIN
 90
        0
 91
        0
 92
        4
 93
        0
300

 40
0.0
140
1.0
 94
        5
 62
     0
340
11
144
0.18
309
CONTENTFORMAT_END
171
     1
301
MARGIN
  1
CELLMARGIN_BEGIN
 40
0.06
 40
0.06
 40
0.06
 40
0.06
 40
0.06
 40
0.06
309
CELLMARGIN_END
 94
        6
 95
        1
302
GRIDFORMAT
  1
GRIDFORMAT_BEGIN
 90
        0
 91
        1
 62
     0
 92
       -2
340
14
 93
        0
 40
0.045
309
GRIDFORMAT_END
 95
        2
302
GRIDFORMAT
  1
GRIDFORMAT_BEGIN
 90
        0
 91
        1
 62
     0
 92
       -2
340
14
 93
        0
 40
0.045
309
GRIDFORMAT_END
 95
        4
302
GRIDFORMAT
  1
GRIDFORMAT_BEGIN
 90
        0
 91
        1
 62
     0
 92
       -2
340
14
 93
        0
 40
0.045
309
GRIDFORMAT_END
 95
        8
302
GRIDFORMAT
  1
GRIDFORMAT_BEGIN
 90
        0
 91
        1
 62
     0
 92
       -2
340
14
 93
        0
 40
0.045
309
GRIDFORMAT_END
 95
       16
302
GRIDFORMAT
  1
GRIDFORMAT_BEGIN
 90
        0
 91
        1
 62
     0
 92
       -2
340
14
 93
        0
 40
0.045
309
GRIDFORMAT_END
 95
       32
302
GRIDFORMAT
  1
GRIDFORMAT_BEGIN
 90
        0
 91
        1
 62
     0
 92
       -2
340
14
 93
        0
 40
0.045
309
GRIDFORMAT_END
309
TABLEFORMAT_END
  1
CELLSTYLE_BEGIN
 90
        2
 91
        1
300
_HEADER
309
CELLSTYLE_END
300
CELLSTYLE
  1
TABLEFORMAT_BEGIN
 90
        5
170
     1
 91
        0
 92
        0
 62
   257
 93
        1
300
CONTENTFORMAT
  1
CONTENTFORMAT_BEGIN
 90
        0
 91
        0
 92
        4
 93
        0
300

 40
0.0
140
1.0
 94
        2
 62
     0
340
11
144
0.18
309
CONTENTFORMAT_END
171
     1
301
MARGIN
  1
CELLMARGIN_BEGIN
 40
0.06
 40
0.06
 40
0.06
 40
0.06
 40
0.06
 40
0.06
309
CELLMARGIN_END
 94
        6
 95
        1
302
GRIDFORMAT
  1
GRIDFORMAT_BEGIN
 90
        0
 91
        1
 62
     0
 92
       -2
340
14
 93
        0
 40
0.045
309
GRIDFORMAT_END
 95
        2
302
GRIDFORMAT
  1
GRIDFORMAT_BEGIN
 90
        0
 91
        1
 62
     0
 92
       -2
340
14
 93
        0
 40
0.045
309
GRIDFORMAT_END
 95
        4
302
GRIDFORMAT
  1
GRIDFORMAT_BEGIN
 90
        0
 91
        1
 62
     0
 92
       -2
340
14
 93
        0
 40
0.045
309
GRIDFORMAT_END
 95
        8
302
GRIDFORMAT
  1
GRIDFORMAT_BEGIN
 90
        0
 91
        1
 62
     0
 92
       -2
340
14
 93
        0
 40
0.045
309
GRIDFORMAT_END
 95
       16
302
GRIDFORMAT
  1
GRIDFORMAT_BEGIN
 90
        0
 91
        1
 62
     0
 92
       -2
340
14
 93
        0
 40
0.045
309
GRIDFORMAT_END
 95
       32
302
GRIDFORMAT
  1
GRIDFORMAT_BEGIN
 90
        0
 91
        1
 62
     0
 92
       -2
340
14
 93
        0
 40
0.045
309
GRIDFORMAT_END
309
TABLEFORMAT_END
  1
CELLSTYLE_BEGIN
 90
        3
 91
        2
300
_DATA
309
CELLSTYLE_END
  0
ENDSEC
  0
EOF