0
SECTION
  2
HEADER
  9
$ACADVER
  1
AC1027
  9
$ACADMAINTVER
 70
     8
  9
$DWGCODEPAGE
  3
ANSI_1252
  9
$REQUIREDVERSIONS
160
                 0
  9
$COMMENTS
  1
File was created by Cadenas
  9
$CUSTOMPROPERTYTAG
  1
NN
  9
$CUSTOMPROPERTY
  1
S-2000 Flange Bearing - Square with Type E Dimensions Labyrinth Seal Non-Expansion
  9
$CUSTOMPROPERTYTAG
  1
NT
  9
$CUSTOMPROPERTY
  1
S-2000 - E Type - Inch
  9
$CUSTOMPROPERTYTAG
  1
NB
  9
$CUSTOMPROPERTY
  1
071520
  9
$CUSTOMPROPERTYTAG
  1
NBSYN
  9
$CUSTOMPROPERTY
  1
$PN.
  9
$CUSTOMPROPERTYTAG
  1
LINA
  9
$CUSTOMPROPERTY
  1
071520
  9
$CUSTOMPROPERTYTAG
  1
SS
  9
$CUSTOMPROPERTY
  1
4-7/16
  9
$CUSTOMPROPERTYTAG
  1
TYPE
  9
$CUSTOMPROPERTY
  1
Expansion
  9
$CUSTOMPROPERTYTAG
  1
PN
  9
$CUSTOMPROPERTY
  1
071520
  9
$CUSTOMPROPERTYTAG
  1
DESCRIPTION
  9
$CUSTOMPROPERTY
  1
EF4B-S2-407LE
  9
$CUSTOMPROPERTYTAG
  1
A
  9
$CUSTOMPROPERTY
  1
6.53
  9
$CUSTOMPROPERTYTAG
  1
B
  9
$CUSTOMPROPERTY
  1
10.88
  9
$CUSTOMPROPERTYTAG
  1
C
  9
$CUSTOMPROPERTY
  1
7.1
  9
$CUSTOMPROPERTYTAG
  1
D
  9
$CUSTOMPROPERTY
  1
8.75
  9
$CUSTOMPROPERTYTAG
  1
DD
  9
$CUSTOMPROPERTY
  1
12.374
  9
$CUSTOMPROPERTYTAG
  1
F
  9
$CUSTOMPROPERTY
  1
7/8
  9
$CUSTOMPROPERTYTAG
  1
G
  9
$CUSTOMPROPERTY
  1
1.39
  9
$CUSTOMPROPERTYTAG
  1
H
  9
$CUSTOMPROPERTY
  1
2.43
  9
$CUSTOMPROPERTYTAG
  1
J
  9
$CUSTOMPROPERTY
  1
9.13
  9
$CUSTOMPROPERTYTAG
  1
L
  9
$CUSTOMPROPERTY
  1
6.45
  9
$CUSTOMPROPERTYTAG
  1
N
  9
$CUSTOMPROPERTY
  1
5.01
  9
$CUSTOMPROPERTYTAG
  1
P
  9
$CUSTOMPROPERTY
  1
0.56
  9
$CUSTOMPROPERTYTAG
  1
X
  9
$CUSTOMPROPERTY
  1
0.38
  9
$CUSTOMPROPERTYTAG
  1
Y
  9
$CUSTOMPROPERTY
  1
N/A
  9
$CUSTOMPROPERTYTAG
  1
Z
  9
$CUSTOMPROPERTY
  1
N/A
  9
$CUSTOMPROPERTYTAG
  1
CS
  9
$CUSTOMPROPERTY
  1
5/8-11
  9
$CUSTOMPROPERTYTAG
  1
TORQUE
  9
$CUSTOMPROPERTY
  1
1325
  9
$CUSTOMPROPERTYTAG
  1
COMPANY
  9
$CUSTOMPROPERTY
  1
baldor
  9
$INSBASE
 10
0.0
 20
0.0
 30
0.0
  9
$EXTMIN
 10
1.000000000000000E+20
 20
1.000000000000000E+20
 30
1.000000000000000E+20
  9
$EXTMAX
 10
-1.000000000000000E+20
 20
-1.000000000000000E+20
 30
-1.000000000000000E+20
  9
$LIMMIN
 10
0.0
 20
0.0
  9
$LIMMAX
 10
12.0
 20
9.0
  9
$ORTHOMODE
 70
     0
  9
$REGENMODE
 70
     1
  9
$FILLMODE
 70
     1
  9
$QTEXTMODE
 70
     0
  9
$MIRRTEXT
 70
     1
  9
$LTSCALE
 40
1.0
  9
$ATTMODE
 70
     1
  9
$TEXTSIZE
 40
0.2
  9
$TRACEWID
 40
0.05
  9
$TEXTSTYLE
  7
Standard
  9
$CLAYER
  8
0
  9
$CELTYPE
  6
ByLayer
  9
$CECOLOR
 62
   256
  9
$CELTSCALE
 40
1.0
  9
$DISPSILH
 70
     0
  9
$DIMSCALE
 40
1.0
  9
$DIMASZ
 40
0.18
  9
$DIMEXO
 40
0.0625
  9
$DIMDLI
 40
0.38
  9
$DIMRND
 40
0.0
  9
$DIMDLE
 40
0.0
  9
$DIMEXE
 40
0.18
  9
$DIMTP
 40
0.0
  9
$DIMTM
 40
0.0
  9
$DIMTXT
 40
0.18
  9
$DIMCEN
 40
0.09
  9
$DIMTSZ
 40
0.0
  9
$DIMTOL
 70
     0
  9
$DIMLIM
 70
     0
  9
$DIMTIH
 70
     1
  9
$DIMTOH
 70
     1
  9
$DIMSE1
 70
     0
  9
$DIMSE2
 70
     0
  9
$DIMTAD
 70
     0
  9
$DIMZIN
 70
     0
  9
$DIMBLK
  1

  9
$DIMASO
 70
     1
  9
$DIMSHO
 70
     1
  9
$DIMPOST
  1

  9
$DIMAPOST
  1

  9
$DIMALT
 70
     0
  9
$DIMALTD
 70
     2
  9
$DIMALTF
 40
25.4
  9
$DIMLFAC
 40
1.0
  9
$DIMTOFL
 70
     0
  9
$DIMTVP
 40
0.0
  9
$DIMTIX
 70
     0
  9
$DIMSOXD
 70
     0
  9
$DIMSAH
 70
     0
  9
$DIMBLK1
  1

  9
$DIMBLK2
  1

  9
$DIMSTYLE
  2
Standard
  9
$DIMCLRD
 70
     0
  9
$DIMCLRE
 70
     0
  9
$DIMCLRT
 70
     0
  9
$DIMTFAC
 40
1.0
  9
$DIMGAP
 40
0.09
  9
$DIMJUST
 70
     0
  9
$DIMSD1
 70
     0
  9
$DIMSD2
 70
     0
  9
$DIMTOLJ
 70
     1
  9
$DIMTZIN
 70
     0
  9
$DIMALTZ
 70
     0
  9
$DIMALTTZ
 70
     0
  9
$DIMUPT
 70
     0
  9
$DIMDEC
 70
     4
  9
$DIMTDEC
 70
     4
  9
$DIMALTU
 70
     2
  9
$DIMALTTD
 70
     2
  9
$DIMTXSTY
  7
Standard
  9
$DIMAUNIT
 70
     0
  9
$DIMADEC
 70
     0
  9
$DIMALTRND
 40
0.0
  9
$DIMAZIN
 70
     0
  9
$DIMDSEP
 70
    46
  9
$DIMATFIT
 70
     3
  9
$DIMFRAC
 70
     0
  9
$DIMLDRBLK
  1

  9
$DIMLUNIT
 70
     2
  9
$DIMLWD
 70
    -2
  9
$DIMLWE
 70
    -2
  9
$DIMTMOVE
 70
     0
  9
$DIMFXL
 40
1.0
  9
$DIMFXLON
 70
     0
  9
$DIMJOGANG
 40
0.7853981633974483
  9
$DIMTFILL
 70
     0
  9
$DIMTFILLCLR
 70
     0
  9
$DIMARCSYM
 70
     0
  9
$DIMLTYPE
  6

  9
$DIMLTEX1
  6

  9
$DIMLTEX2
  6

  9
$DIMTXTDIRECTION
 70
     0
  9
$LUNITS
 70
     2
  9
$LUPREC
 70
     4
  9
$SKETCHINC
 40
0.1
  9
$FILLETRAD
 40
0.5
  9
$AUNITS
 70
     0
  9
$AUPREC
 70
     0
  9
$MENU
  1
.
  9
$ELEVATION
 40
0.0
  9
$PELEVATION
 40
0.0
  9
$THICKNESS
 40
0.0
  9
$LIMCHECK
 70
     0
  9
$CHAMFERA
 40
0.0
  9
$CHAMFERB
 40
0.0
  9
$CHAMFERC
 40
0.0
  9
$CHAMFERD
 40
0.0
  9
$SKPOLY
 70
     0
  9
$TDCREATE
 40
2458168.981753287
  9
$TDUCREATE
 40
2458168.94008662
  9
$TDUPDATE
 40
2458168.981753461
  9
$TDUUPDATE
 40
2458168.940086794
  9
$TDINDWG
 40
0.0000000116
  9
$TDUSRTIMER
 40
0.0000000116
  9
$USRTIMER
 70
     1
  9
$ANGBASE
 50
0.0
  9
$ANGDIR
 70
     0
  9
$PDMODE
 70
     0
  9
$PDSIZE
 40
0.0
  9
$PLINEWID
 40
0.0
  9
$SPLFRAME
 70
     0
  9
$SPLINETYPE
 70
     6
  9
$SPLINESEGS
 70
     8
  9
$HANDSEED
  5
26F
  9
$SURFTAB1
 70
     6
  9
$SURFTAB2
 70
     6
  9
$SURFTYPE
 70
     6
  9
$SURFU
 70
     6
  9
$SURFV
 70
     6
  9
$UCSBASE
  2

  9
$UCSNAME
  2

  9
$UCSORG
 10
0.0
 20
0.0
 30
0.0
  9
$UCSXDIR
 10
1.0
 20
0.0
 30
0.0
  9
$UCSYDIR
 10
0.0
 20
1.0
 30
0.0
  9
$UCSORTHOREF
  2

  9
$UCSORTHOVIEW
 70
     0
  9
$UCSORGTOP
 10
0.0
 20
0.0
 30
0.0
  9
$UCSORGBOTTOM
 10
0.0
 20
0.0
 30
0.0
  9
$UCSORGLEFT
 10
0.0
 20
0.0
 30
0.0
  9
$UCSORGRIGHT
 10
0.0
 20
0.0
 30
0.0
  9
$UCSORGFRONT
 10
0.0
 20
0.0
 30
0.0
  9
$UCSORGBACK
 10
0.0
 20
0.0
 30
0.0
  9
$PUCSBASE
  2

  9
$PUCSNAME
  2

  9
$PUCSORG
 10
0.0
 20
0.0
 30
0.0
  9
$PUCSXDIR
 10
1.0
 20
0.0
 30
0.0
  9
$PUCSYDIR
 10
0.0
 20
1.0
 30
0.0
  9
$PUCSORTHOREF
  2

  9
$PUCSORTHOVIEW
 70
     0
  9
$PUCSORGTOP
 10
0.0
 20
0.0
 30
0.0
  9
$PUCSORGBOTTOM
 10
0.0
 20
0.0
 30
0.0
  9
$PUCSORGLEFT
 10
0.0
 20
0.0
 30
0.0
  9
$PUCSORGRIGHT
 10
0.0
 20
0.0
 30
0.0
  9
$PUCSORGFRONT
 10
0.0
 20
0.0
 30
0.0
  9
$PUCSORGBACK
 10
0.0
 20
0.0
 30
0.0
  9
$USERI1
 70
     0
  9
$USERI2
 70
     0
  9
$USERI3
 70
     0
  9
$USERI4
 70
     0
  9
$USERI5
 70
     0
  9
$USERR1
 40
0.0
  9
$USERR2
 40
0.0
  9
$USERR3
 40
0.0
  9
$USERR4
 40
0.0
  9
$USERR5
 40
0.0
  9
$WORLDVIEW
 70
     1
  9
$SHADEDGE
 70
     3
  9
$SHADEDIF
 70
    70
  9
$TILEMODE
 70
     1
  9
$MAXACTVP
 70
    64
  9
$PINSBASE
 10
0.0
 20
0.0
 30
0.0
  9
$PLIMCHECK
 70
     0
  9
$PEXTMIN
 10
1.000000000000000E+20
 20
1.000000000000000E+20
 30
1.000000000000000E+20
  9
$PEXTMAX
 10
-1.000000000000000E+20
 20
-1.000000000000000E+20
 30
-1.000000000000000E+20
  9
$PLIMMIN
 10
0.0
 20
0.0
  9
$PLIMMAX
 10
12.0
 20
9.0
  9
$UNITMODE
 70
     0
  9
$VISRETAIN
 70
     1
  9
$PLINEGEN
 70
     0
  9
$PSLTSCALE
 70
     1
  9
$TREEDEPTH
 70
  3020
  9
$CMLSTYLE
  2
Standard
  9
$CMLJUST
 70
     0
  9
$CMLSCALE
 40
1.0
  9
$PROXYGRAPHICS
 70
     1
  9
$MEASUREMENT
 70
     0
  9
$CELWEIGHT
370
    -1
  9
$ENDCAPS
280
     0
  9
$JOINSTYLE
280
     0
  9
$LWDISPLAY
290
     0
  9
$INSUNITS
 70
     1
  9
$HYPERLINKBASE
  1

  9
$STYLESHEET
  1

  9
$XEDIT
290
     1
  9
$CEPSNTYPE
380
     0
  9
$PSTYLEMODE
290
     1
  9
$FINGERPRINTGUID
  2
{E8E522DE-98DB-42BE-A1B8-D0EF79DC91D7}
  9
$VERSIONGUID
  2
{FAEB1C32-E019-11D5-929B-00C0DF256EC4}
  9
$EXTNAMES
290
     1
  9
$PSVPSCALE
 40
0.0
  9
$OLESTARTUP
290
     0
  9
$SORTENTS
280
   127
  9
$INDEXCTL
280
     0
  9
$HIDETEXT
280
     1
  9
$XCLIPFRAME
280
     2
  9
$HALOGAP
280
     0
  9
$OBSCOLOR
 70
   257
  9
$OBSLTYPE
280
     0
  9
$INTERSECTIONDISPLAY
280
     0
  9
$INTERSECTIONCOLOR
 70
   257
  9
$DIMASSOC
280
     2
  9
$PROJECTNAME
  1

  9
$CAMERADISPLAY
290
     0
  9
$LENSLENGTH
 40
50.0
  9
$CAMERAHEIGHT
 40
0.0
  9
$STEPSPERSEC
 40
2.0
  9
$STEPSIZE
 40
6.0
  9
$3DDWFPREC
 40
2.0
  9
$PSOLWIDTH
 40
0.25
  9
$PSOLHEIGHT
 40
4.0
  9
$LOFTANG1
 40
1.570796326794897
  9
$LOFTANG2
 40
1.570796326794897
  9
$LOFTMAG1
 40
0.0
  9
$LOFTMAG2
 40
0.0
  9
$LOFTPARAM
 70
     7
  9
$LOFTNORMALS
280
     1
  9
$LATITUDE
 40
37.795
  9
$LONGITUDE
 40
-122.394
  9
$NORTHDIRECTION
 40
0.0
  9
$TIMEZONE
 70
 -8000
  9
$LIGHTGLYPHDISPLAY
280
     1
  9
$TILEMODELIGHTSYNCH
280
     1
  9
$CMATERIAL
347
44
  9
$SOLIDHIST
280
     0
  9
$SHOWHIST
280
     1
  9
$DWFFRAME
280
     2
  9
$DGNFRAME
280
     2
  9
$REALWORLDSCALE
290
     1
  9
$INTERFERECOLOR
 62
   256
  9
$CSHADOW
280
     0
  9
$SHADOWPLANELOCATION
 40
0.0
  0
ENDSEC
  0
SECTION
  2
CLASSES
  0
CLASS
  1
ACDBDICTIONARYWDFLT
  2
AcDbDictionaryWithDefault
  3
ObjectDBX Classes
 90
        0
 91
        4
280
     0
281
     0
  0
CLASS
  1
VISUALSTYLE
  2
AcDbVisualStyle
  3
ObjectDBX Classes
 90
     4095
 91
        4
280
     0
281
     0
  0
CLASS
  1
MATERIAL
  2
AcDbMaterial
  3
ObjectDBX Classes
 90
     1153
 91
        4
280
     0
281
     0
  0
CLASS
  1
SCALE
  2
AcDbScale
  3
ObjectDBX Classes
 90
     1153
 91
        4
280
     0
281
     0
  0
CLASS
  1
TABLESTYLE
  2
AcDbTableStyle
  3
ObjectDBX Classes
 90
     4095
 91
        4
280
     0
281
     0
  0
CLASS
  1
MLEADERSTYLE
  2
AcDbMLeaderStyle
  3
ACDB_MLEADERSTYLE_CLASS
 90
     4095
 91
        4
280
     0
281
     0
  0
CLASS
  1
SUN
  2
AcDbSun
  3
SCENEOE
 90
     1153
 91
        4
280
     0
281
     0
  0
CLASS
  1
DICTIONARYVAR
  2
AcDbDictionaryVar
  3
ObjectDBX Classes
 90
        0
 91
        4
280
     0
281
     0
  0
CLASS
  1
CELLSTYLEMAP
  2
AcDbCellStyleMap
  3
ObjectDBX Classes
 90
     1152
 91
        4
280
     0
281
     0
  0
ENDSEC
  0
SECTION
  2
TABLES
  0
TABLE
  2
VPORT
  5
8
330
0
100
AcDbSymbolTable
 70
     1
  0
VPORT
  5
29
330
8
100
AcDbSymbolTableRecord
100
AcDbViewportTableRecord
  2
*Active
 70
     0
 10
0.0
 20
0.0
 11
1.0
 21
1.0
 12
-3.407249999999998
 22
0.0
 13
0.0
 23
0.0
 14
0.5
 24
0.5
 15
0.5
 25
0.5
 16
0.0
 26
0.0
 36
1.0
 17
0.0
 27
0.0
 37
0.0
 40
11.0976
 41
0.678814338235294
 42
50.0
 43
0.0
 44
0.0
 50
0.0
 51
0.0
 71
     0
 72
   100
 73
     1
 74
     3
 75
     0
 76
     0
 77
     0
 78
     0
281
     0
 65
     1
110
0.0
120
0.0
130
0.0
111
1.0
121
0.0
131
0.0
112
0.0
122
1.0
132
0.0
 79
     0
146
0.0
348
2F
 60
     3
 61
     5
292
     1
282
     1
141
0.0
142
0.0
 63
   250
361
6D
  0
ENDTAB
  0
TABLE
  2
LTYPE
  5
5
330
0
100
AcDbSymbolTable
 70
     3
  0
LTYPE
  5
14
330
5
100
AcDbSymbolTableRecord
100
AcDbLinetypeTableRecord
  2
ByBlock
 70
     0
  3

 72
    65
 73
     0
 40
0.0
  0
LTYPE
  5
15
330
5
100
AcDbSymbolTableRecord
100
AcDbLinetypeTableRecord
  2
ByLayer
 70
     0
  3

 72
    65
 73
     0
 40
0.0
  0
LTYPE
  5
16
330
5
100
AcDbSymbolTableRecord
100
AcDbLinetypeTableRecord
  2
Continuous
 70
     0
  3
Solid line
 72
    65
 73
     0
 40
0.0
  0
LTYPE
  5
A7
330
5
100
AcDbSymbolTableRecord
100
AcDbLinetypeTableRecord
  2
Dashed
 70
     0
  3

 72
    65
 73
     2
 40
2.0
 49
1.0
 74
     0
 49
-1.0
 74
     0
  0
LTYPE
  5
1A8
330
5
100
AcDbSymbolTableRecord
100
AcDbLinetypeTableRecord
  2
Center
 70
     0
  3

 72
    65
 73
     4
 40
1.5
 49
0.45
 74
     0
 49
-0.5
 74
     0
 49
0.05
 74
     0
 49
-0.5
 74
     0
  0
ENDTAB
  0
TABLE
  2
LAYER
  5
2
330
0
100
AcDbSymbolTable
 70
     7
  0
LAYER
  5
10
330
2
100
AcDbSymbolTableRecord
100
AcDbLayerTableRecord
  2
0
 70
     0
 62
     7
  6
Continuous
370
    -3
390
F
347
46
348
0
  0
LAYER
  5
72
330
2
100
AcDbSymbolTableRecord
100
AcDbLayerTableRecord
  2
AM_6
 70
     0
 62
    -2
  6
Continuous
370
    35
390
F
347
46
348
0
  0
LAYER
  5
A8
330
2
100
AcDbSymbolTableRecord
100
AcDbLayerTableRecord
  2
AM_9
 70
     0
 62
     6
  6
Dashed
370
    25
390
F
347
46
348
0
  0
LAYER
  5
C7
330
2
100
AcDbSymbolTableRecord
100
AcDbLayerTableRecord
  2
AM_5
 70
     0
 62
     3
  6
Continuous
370
    25
390
F
347
46
348
0
  0
LAYER
  5
CC
330
2
100
AcDbSymbolTableRecord
100
AcDbLayerTableRecord
  2
AM_4
 70
     0
 62
     7
  6
Continuous
370
    50
390
F
347
46
348
0
  0
LAYER
  5
1A9
330
2
100
AcDbSymbolTableRecord
100
AcDbLayerTableRecord
  2
AM_7
 70
     0
 62
     7
  6
Center
370
    25
390
F
347
46
348
0
  0
LAYER
  5
25D
330
2
100
AcDbSymbolTableRecord
100
AcDbLayerTableRecord
  2
ConnectionPoints
 70
     0
 62
     7
  6
Continuous
370
    50
390
F
347
46
348
0
  0
ENDTAB
  0
TABLE
  2
STYLE
  5
3
330
0
100
AcDbSymbolTable
 70
     1
  0
STYLE
  5
11
330
3
100
AcDbSymbolTableRecord
100
AcDbTextStyleTableRecord
  2
Standard
 70
     0
 40
0.0
 41
1.0
 50
0.0
 71
     0
 42
0.2
  3
txt
  4

  0
ENDTAB
  0
TABLE
  2
VIEW
  5
6
330
0
100
AcDbSymbolTable
 70
     0
  0
ENDTAB
  0
TABLE
  2
UCS
  5
7
330
0
100
AcDbSymbolTable
 70
     0
  0
ENDTAB
  0
TABLE
  2
APPID
  5
9
330
0
100
AcDbSymbolTable
 70
     1
  0
APPID
  5
12
330
9
100
AcDbSymbolTableRecord
100
AcDbRegAppTableRecord
  2
ACAD
 70
     0
  0
ENDTAB
  0
TABLE
  2
DIMSTYLE
  5
A
330
0
100
AcDbSymbolTable
 70
     1
100
AcDbDimStyleTable
  0
DIMSTYLE
105
27
330
A
100
AcDbSymbolTableRecord
100
AcDbDimStyleTableRecord
  2
Standard
 70
     0
178
     0
340
11
  0
ENDTAB
  0
TABLE
  2
BLOCK_RECORD
  5
1
330
0
100
AcDbSymbolTable
 70
     7
  0
BLOCK_RECORD
  5
1F
330
1
100
AcDbSymbolTableRecord
100
AcDbBlockTableRecord
  2
*Model_Space
340
22
 70
     0
280
     1
281
     0
  0
BLOCK_RECORD
  5
1B
330
1
100
AcDbSymbolTableRecord
100
AcDbBlockTableRecord
  2
*Paper_Space
340
1E
 70
     0
280
     1
281
     0
  0
BLOCK_RECORD
  5
23
330
1
100
AcDbSymbolTableRecord
100
AcDbBlockTableRecord
  2
*Paper_Space0
340
26
 70
     0
280
     1
281
     0
  0
BLOCK_RECORD
  5
6E
330
1
100
AcDbSymbolTableRecord
100
AcDbBlockTableRecord
  2
1_071520_2
340
0
102
{BLKREFS
331
6F
102
}
 70
     0
280
     1
281
     0
  0
BLOCK_RECORD
  5
8E
330
1
100
AcDbSymbolTableRecord
100
AcDbBlockTableRecord
  2
2_4_7_16CS2i_1_0_in_071520_2
340
0
102
{BLKREFS
331
8F
102
}
 70
     0
280
     1
281
     0
  0
BLOCK_RECORD
  5
E1
330
1
100
AcDbSymbolTableRecord
100
AcDbBlockTableRecord
  2
3_4_7_16CS2i_2_0_in_071520_2
340
0
102
{BLKREFS
331
E2
102
}
 70
     0
280
     1
281
     0
  0
BLOCK_RECORD
  5
134
330
1
100
AcDbSymbolTableRecord
100
AcDbBlockTableRecord
  2
4_070014i_0_in_071520_2
340
0
102
{BLKREFS
331
135
102
}
 70
     0
280
     1
281
     0
  0
BLOCK_RECORD
  5
1AE
330
1
100
AcDbSymbolTableRecord
100
AcDbBlockTableRecord
  2
5_405015E_Inch_0_in_071520_2
340
0
102
{BLKREFS
331
1AF
102
}
 70
     0
280
     1
281
     0
  0
BLOCK_RECORD
  5
1EC
330
1
100
AcDbSymbolTableRecord
100
AcDbBlockTableRecord
  2
6_B071520_0_in_071520_2
340
0
102
{BLKREFS
331
1ED
102
}
 70
     0
280
     1
281
     0
  0
ENDTAB
  0
ENDSEC
  0
SECTION
  2
BLOCKS
  0
BLOCK
  5
20
330
1F
100
AcDbEntity
  8
0
100
AcDbBlockBegin
  2
*Model_Space
 70
     0
 10
0.0
 20
0.0
 30
0.0
  3
*Model_Space
  1

  0
ENDBLK
  5
21
330
1F
100
AcDbEntity
  8
0
100
AcDbBlockEnd
  0
BLOCK
  5
1C
330
1B
100
AcDbEntity
 67
     1
  8
0
100
AcDbBlockBegin
  2
*Paper_Space
 70
     0
 10
0.0
 20
0.0
 30
0.0
  3
*Paper_Space
  1

  0
ENDBLK
  5
1D
330
1B
100
AcDbEntity
 67
     1
  8
0
100
AcDbBlockEnd
  0
BLOCK
  5
24
330
23
100
AcDbEntity
  8
0
100
AcDbBlockBegin
  2
*Paper_Space0
 70
     0
 10
0.0
 20
0.0
 30
0.0
  3
*Paper_Space0
  1

  0
ENDBLK
  5
25
330
23
100
AcDbEntity
  8
0
100
AcDbBlockEnd
  0
BLOCK
  5
70
330
6E
100
AcDbEntity
  8
0
100
AcDbBlockBegin
  2
1_071520_2
 70
     2
 10
0.0
 20
0.0
 30
0.0
  3
1_071520_2
  1

  0
ATTDEF
  5
73
330
6E
100
AcDbEntity
  8
AM_6
100
AcDbText
 10
5.2855
 20
5.44
 30
0.0
 40
0.5
  1
S-2000 Flange Bearing - Square with Type E Dimensions Labyrinth Seal Non-Expansion
100
AcDbAttributeDefinition
  3

  2
NN
 70
     8
280
     0
  0
ATTDEF
  5
74
330
6E
100
AcDbEntity
  8
AM_6
100
AcDbText
 10
5.2855
 20
4.94
 30
0.0
 40
0.5
  1
S-2000 - E Type - Inch
100
AcDbAttributeDefinition
  3

  2
NT
 70
     8
280
     0
  0
ATTDEF
  5
75
330
6E
100
AcDbEntity
  8
AM_6
100
AcDbText
 10
5.2855
 20
4.44
 30
0.0
 40
0.5
  1
071520
100
AcDbAttributeDefinition
  3

  2
NB
 70
     8
280
     0
  0
ATTDEF
  5
76
330
6E
100
AcDbEntity
  8
AM_6
100
AcDbText
 10
5.2855
 20
3.94
 30
0.0
 40
0.5
  1
$PN.
100
AcDbAttributeDefinition
  3

  2
NBSYN
 70
     8
280
     0
  0
ATTDEF
  5
77
330
6E
100
AcDbEntity
  8
AM_6
100
AcDbText
 10
5.2855
 20
3.44
 30
0.0
 40
0.5
  1
071520
100
AcDbAttributeDefinition
  3

  2
LINA
 70
     8
280
     0
  0
ATTDEF
  5
78
330
6E
100
AcDbEntity
  8
AM_6
100
AcDbText
 10
5.2855
 20
2.94
 30
0.0
 40
0.5
  1
4-7/16
100
AcDbAttributeDefinition
  3

  2
SS
 70
     8
280
     0
  0
ATTDEF
  5
79
330
6E
100
AcDbEntity
  8
AM_6
100
AcDbText
 10
5.2855
 20
2.44
 30
0.0
 40
0.5
  1
Expansion
100
AcDbAttributeDefinition
  3

  2
TYPE
 70
     8
280
     0
  0
ATTDEF
  5
7A
330
6E
100
AcDbEntity
  8
AM_6
100
AcDbText
 10
5.2855
 20
1.94
 30
0.0
 40
0.5
  1
071520
100
AcDbAttributeDefinition
  3

  2
PN
 70
     8
280
     0
  0
ATTDEF
  5
7B
330
6E
100
AcDbEntity
  8
AM_6
100
AcDbText
 10
5.2855
 20
1.44
 30
0.0
 40
0.5
  1
EF4B-S2-407LE
100
AcDbAttributeDefinition
  3

  2
DESCRIPTION
 70
     8
280
     0
  0
ATTDEF
  5
7C
330
6E
100
AcDbEntity
  8
AM_6
100
AcDbText
 10
5.2855
 20
0.9399999999999995
 30
0.0
 40
0.5
  1
6.53
100
AcDbAttributeDefinition
  3

  2
A
 70
     8
280
     0
  0
ATTDEF
  5
7D
330
6E
100
AcDbEntity
  8
AM_6
100
AcDbText
 10
5.2855
 20
0.4399999999999995
 30
0.0
 40
0.5
  1
10.88
100
AcDbAttributeDefinition
  3

  2
B
 70
     8
280
     0
  0
ATTDEF
  5
7E
330
6E
100
AcDbEntity
  8
AM_6
100
AcDbText
 10
5.2855
 20
-0.0600000000000005
 30
0.0
 40
0.5
  1
7.1
100
AcDbAttributeDefinition
  3

  2
C
 70
     8
280
     0
  0
ATTDEF
  5
7F
330
6E
100
AcDbEntity
  8
AM_6
100
AcDbText
 10
5.2855
 20
-0.5600000000000005
 30
0.0
 40
0.5
  1
8.75
100
AcDbAttributeDefinition
  3

  2
D
 70
     8
280
     0
  0
ATTDEF
  5
80
330
6E
100
AcDbEntity
  8
AM_6
100
AcDbText
 10
5.2855
 20
-1.06
 30
0.0
 40
0.5
  1
12.374
100
AcDbAttributeDefinition
  3

  2
DD
 70
     8
280
     0
  0
ATTDEF
  5
81
330
6E
100
AcDbEntity
  8
AM_6
100
AcDbText
 10
5.2855
 20
-1.56
 30
0.0
 40
0.5
  1
7/8
100
AcDbAttributeDefinition
  3

  2
F
 70
     8
280
     0
  0
ATTDEF
  5
82
330
6E
100
AcDbEntity
  8
AM_6
100
AcDbText
 10
5.2855
 20
-2.06
 30
0.0
 40
0.5
  1
1.39
100
AcDbAttributeDefinition
  3

  2
G
 70
     8
280
     0
  0
ATTDEF
  5
83
330
6E
100
AcDbEntity
  8
AM_6
100
AcDbText
 10
5.2855
 20
-2.56
 30
0.0
 40
0.5
  1
2.43
100
AcDbAttributeDefinition
  3

  2
H
 70
     8
280
     0
  0
ATTDEF
  5
84
330
6E
100
AcDbEntity
  8
AM_6
100
AcDbText
 10
5.2855
 20
-3.06
 30
0.0
 40
0.5
  1
9.13
100
AcDbAttributeDefinition
  3

  2
J
 70
     8
280
     0
  0
ATTDEF
  5
85
330
6E
100
AcDbEntity
  8
AM_6
100
AcDbText
 10
5.2855
 20
-3.56
 30
0.0
 40
0.5
  1
6.45
100
AcDbAttributeDefinition
  3

  2
L
 70
     8
280
     0
  0
ATTDEF
  5
86
330
6E
100
AcDbEntity
  8
AM_6
100
AcDbText
 10
5.2855
 20
-4.06
 30
0.0
 40
0.5
  1
5.01
100
AcDbAttributeDefinition
  3

  2
N
 70
     8
280
     0
  0
ATTDEF
  5
87
330
6E
100
AcDbEntity
  8
AM_6
100
AcDbText
 10
5.2855
 20
-4.56
 30
0.0
 40
0.5
  1
0.56
100
AcDbAttributeDefinition
  3

  2
P
 70
     8
280
     0
  0
ATTDEF
  5
88
330
6E
100
AcDbEntity
  8
AM_6
100
AcDbText
 10
5.2855
 20
-5.06
 30
0.0
 40
0.5
  1
0.38
100
AcDbAttributeDefinition
  3

  2
X
 70
     8
280
     0
  0
ATTDEF
  5
89
330
6E
100
AcDbEntity
  8
AM_6
100
AcDbText
 10
5.2855
 20
-5.56
 30
0.0
 40
0.5
  1
N/A
100
AcDbAttributeDefinition
  3

  2
Y
 70
     8
280
     0
  0
ATTDEF
  5
8A
330
6E
100
AcDbEntity
  8
AM_6
100
AcDbText
 10
5.2855
 20
-6.06
 30
0.0
 40
0.5
  1
N/A
100
AcDbAttributeDefinition
  3

  2
Z
 70
     8
280
     0
  0
ATTDEF
  5
8B
330
6E
100
AcDbEntity
  8
AM_6
100
AcDbText
 10
5.2855
 20
-6.56
 30
0.0
 40
0.5
  1
5/8-11
100
AcDbAttributeDefinition
  3

  2
CS
 70
     8
280
     0
  0
ATTDEF
  5
8C
330
6E
100
AcDbEntity
  8
AM_6
100
AcDbText
 10
5.2855
 20
-7.06
 30
0.0
 40
0.5
  1
1325
100
AcDbAttributeDefinition
  3

  2
TORQUE
 70
     8
280
     0
  0
ATTDEF
  5
8D
330
6E
100
AcDbEntity
  8
AM_6
100
AcDbText
 10
5.2855
 20
-7.56
 30
0.0
 40
0.5
  1
baldor
100
AcDbAttributeDefinition
  3

  2
COMPANY
 70
     8
280
     0
  0
INSERT
  5
8F
330
6E
100
AcDbEntity
  8
0
100
AcDbBlockReference
  2
2_4_7_16CS2i_1_0_in_071520_2
 10
0.0
 20
0.0
 30
0.0
  0
INSERT
  5
E2
330
6E
100
AcDbEntity
  8
0
100
AcDbBlockReference
  2
3_4_7_16CS2i_2_0_in_071520_2
 10
0.0
 20
0.0
 30
0.0
  0
INSERT
  5
135
330
6E
100
AcDbEntity
  8
0
100
AcDbBlockReference
  2
4_070014i_0_in_071520_2
 10
0.0
 20
0.0
 30
0.0
  0
INSERT
  5
1AF
330
6E
100
AcDbEntity
  8
0
100
AcDbBlockReference
  2
5_405015E_Inch_0_in_071520_2
 10
0.0
 20
0.0
 30
0.0
  0
INSERT
  5
1ED
330
6E
100
AcDbEntity
  8
0
100
AcDbBlockReference
  2
6_B071520_0_in_071520_2
 10
0.0
 20
0.0
 30
0.0
  0
ENDBLK
  5
71
330
6E
100
AcDbEntity
  8
0
100
AcDbBlockEnd
  0
BLOCK
  5
90
330
8E
100
AcDbEntity
  8
0
100
AcDbBlockBegin
  2
2_4_7_16CS2i_1_0_in_071520_2
 70
     2
 10
0.0
 20
0.0
 30
0.0
  3
2_4_7_16CS2i_1_0_in_071520_2
  1

  0
ATTDEF
  5
92
330
8E
100
AcDbEntity
  8
AM_6
100
AcDbText
 10
-0.4799999999999995
 20
3.22656
 30
0.0
 40
0.5
  1
S-2000 Collar -Inch
100
AcDbAttributeDefinition
  3

  2
NN
 70
     8
280
     0
  0
ATTDEF
  5
93
330
8E
100
AcDbEntity
  8
AM_6
100
AcDbText
 10
-0.4799999999999995
 20
2.72656
 30
0.0
 40
0.5
  1
S-2000 Bearings
100
AcDbAttributeDefinition
  3

  2
NT
 70
     8
280
     0
  0
ATTDEF
  5
94
330
8E
100
AcDbEntity
  8
AM_6
100
AcDbText
 10
-0.4799999999999995
 20
2.22656
 30
0.0
 40
0.5
  1
4-7/16CS2i
100
AcDbAttributeDefinition
  3

  2
NB
 70
     8
280
     0
  0
ATTDEF
  5
95
330
8E
100
AcDbEntity
  8
AM_6
100
AcDbText
 10
-0.4799999999999995
 20
1.72656
 30
0.0
 40
0.5
  1
$BORE.CS2i
100
AcDbAttributeDefinition
  3

  2
NBSYN
 70
     8
280
     0
  0
ATTDEF
  5
96
330
8E
100
AcDbEntity
  8
AM_6
100
AcDbText
 10
-0.4799999999999995
 20
1.22656
 30
0.0
 40
0.5
  1
4-7/16CS2i
100
AcDbAttributeDefinition
  3

  2
LINA
 70
     8
280
     0
  0
ATTDEF
  5
97
330
8E
100
AcDbEntity
  8
AM_6
100
AcDbText
 10
-0.4799999999999995
 20
0.7265600000000001
 30
0.0
 40
0.5
  1
4-7/16
100
AcDbAttributeDefinition
  3

  2
BORE
 70
     8
280
     0
  0
ATTDEF
  5
98
330
8E
100
AcDbEntity
  8
AM_6
100
AcDbText
 10
-0.4799999999999995
 20
0.2265600000000001
 30
0.0
 40
0.5
  1
4.437500
100
AcDbAttributeDefinition
  3

  2
BORE1
 70
     8
280
     0
  0
ATTDEF
  5
99
330
8E
100
AcDbEntity
  8
AM_6
100
AcDbText
 10
-0.4799999999999995
 20
-0.2734399999999999
 30
0.0
 40
0.5
  1
6-29/64
100
AcDbAttributeDefinition
  3

  2
L1
 70
     8
280
     0
  0
ATTDEF
  5
9A
330
8E
100
AcDbEntity
  8
AM_6
100
AcDbText
 10
-0.4799999999999995
 20
-0.7734399999999999
 30
0.0
 40
0.5
  1
6.45313
100
AcDbAttributeDefinition
  3

  2
L
 70
     8
280
     0
  0
ATTDEF
  5
9B
330
8E
100
AcDbEntity
  8
AM_6
100
AcDbText
 10
-0.4799999999999995
 20
-1.27344
 30
0.0
 40
0.5
  1
6.45312
100
AcDbAttributeDefinition
  3

  2
L2
 70
     8
280
     0
  0
ATTDEF
  5
9C
330
8E
100
AcDbEntity
  8
AM_6
100
AcDbText
 10
-0.4799999999999995
 20
-1.77344
 30
0.0
 40
0.5
  1
6.75
100
AcDbAttributeDefinition
  3

  2
A
 70
     8
280
     0
  0
ATTDEF
  5
9D
330
8E
100
AcDbEntity
  8
AM_6
100
AcDbText
 10
-0.4799999999999995
 20
-2.27344
 30
0.0
 40
0.5
  1
3.25
100
AcDbAttributeDefinition
  3

  2
B
 70
     8
280
     0
  0
ATTDEF
  5
9E
330
8E
100
AcDbEntity
  8
AM_6
100
AcDbText
 10
-0.4799999999999995
 20
-2.77344
 30
0.0
 40
0.5
  1
5.00
100
AcDbAttributeDefinition
  3

  2
C
 70
     8
280
     0
  0
ATTDEF
  5
9F
330
8E
100
AcDbEntity
  8
AM_6
100
AcDbText
 10
-0.4799999999999995
 20
-3.27344
 30
0.0
 40
0.5
  1
7.00
100
AcDbAttributeDefinition
  3

  2
D
 70
     8
280
     0
  0
ATTDEF
  5
A0
330
8E
100
AcDbEntity
  8
AM_6
100
AcDbText
 10
-0.4799999999999995
 20
-3.77344
 30
0.0
 40
0.5
  1
0.78
100
AcDbAttributeDefinition
  3

  2
E
 70
     8
280
     0
  0
ATTDEF
  5
A1
330
8E
100
AcDbEntity
  8
AM_6
100
AcDbText
 10
-0.4799999999999995
 20
-4.27344
 30
0.0
 40
0.5
  1
0.620
100
AcDbAttributeDefinition
  3

  2
F
 70
     8
280
     0
  0
ATTDEF
  5
A2
330
8E
100
AcDbEntity
  8
AM_6
100
AcDbText
 10
-0.4799999999999995
 20
-4.77344
 30
0.0
 40
0.5
  1
5/8-11
100
AcDbAttributeDefinition
  3

  2
CS
 70
     8
280
     0
  0
ATTDEF
  5
A3
330
8E
100
AcDbEntity
  8
AM_6
100
AcDbText
 10
-0.4799999999999995
 20
-5.27344
 30
0.0
 40
0.5
  1
0.6250
100
AcDbAttributeDefinition
  3

  2
NDM
 70
     8
280
     0
  0
ATTDEF
  5
A4
330
8E
100
AcDbEntity
  8
AM_6
100
AcDbText
 10
-0.4799999999999995
 20
-5.77344
 30
0.0
 40
0.5
  1
0.5270
100
AcDbAttributeDefinition
  3

  2
KDM
 70
     8
280
     0
  0
ATTDEF
  5
A5
330
8E
100
AcDbEntity
  8
AM_6
100
AcDbText
 10
-0.4799999999999995
 20
-6.27344
 30
0.0
 40
0.5
  1
2
100
AcDbAttributeDefinition
  3

  2
DD
 70
     8
280
     0
  0
ATTDEF
  5
A6
330
8E
100
AcDbEntity
  8
AM_6
100
AcDbText
 10
-0.4799999999999995
 20
-6.77344
 30
0.0
 40
0.5
  1
baldor
100
AcDbAttributeDefinition
  3

  2
COMPANY
 70
     8
280
     0
  0
LINE
  5
A9
330
8E
100
AcDbEntity
  8
AM_9
100
AcDbLine
 10
-5.8367
 20
2.507533333333335
 30
0.0
 11
-5.8367
 21
3.177365
 31
0.0
  0
LINE
  5
AA
330
8E
100
AcDbEntity
  8
AM_9
100
AcDbLine
 10
-6.363300000000001
 20
3.177365
 30
0.0
 11
-6.363300000000001
 21
2.507533333333335
 31
0.0
  0
LINE
  5
AB
330
8E
100
AcDbEntity
  8
AM_9
100
AcDbLine
 10
-6.363300000000001
 20
2.507533333333335
 30
0.0
 11
-5.8367
 21
2.507533333333335
 31
0.0
  0
LINE
  5
AC
330
8E
100
AcDbEntity
  8
AM_9
100
AcDbLine
 10
-6.363300000000001
 20
2.507533333333335
 30
0.0
 11
-6.370400636618072
 21
2.500432696715263
 31
0.0
  0
LINE
  5
AD
330
8E
100
AcDbEntity
  8
AM_9
100
AcDbLine
 10
-5.829540982907156
 20
2.500374316240491
 30
0.0
 11
-5.8367
 21
2.507533333333335
 31
0.0
  0
LINE
  5
AE
330
8E
100
AcDbEntity
  8
AM_9
100
AcDbLine
 10
-6.363300000000001
 20
3.177365
 30
0.0
 11
-5.8367
 21
3.177365
 31
0.0
  0
LINE
  5
AF
330
8E
100
AcDbEntity
  8
AM_9
100
AcDbLine
 10
-5.8367
 20
3.177365
 30
0.0
 11
-5.816306779562012
 21
3.197758220437987
 31
0.0
  0
LINE
  5
B0
330
8E
100
AcDbEntity
  8
AM_9
100
AcDbLine
 10
-6.412284171870776
 20
3.226349171870776
 30
0.0
 11
-6.363300000000001
 21
3.177365
 31
0.0
  0
LWPOLYLINE
  5
B1
330
8E
100
AcDbEntity
  8
AM_9
100
AcDbPolyline
 90
       33
 70
     0
 43
0.0
 10
-5.831935790336653
 20
1.093482218564807
 10
-5.837936690580128
 20
1.121724958276815
 10
-5.853886846836243
 20
1.163869812700173
 10
-5.878384630613271
 20
1.203766694468156
 10
-5.908819030695508
 20
1.237354656631544
 10
-5.946723027356619
 20
1.266403615936105
 10
-5.986673209141604
 20
1.287268705532796
 10
-6.031765161661825
 20
1.302033135557267
 10
-6.074845622454929
 20
1.308951792209102
 10
-6.12006226263029
 20
1.309341618737821
 10
-6.161623810947482
 20
1.303526870863969
 10
-6.202611573709104
 20
1.291541850219381
 10
-6.24009061649854
 20
1.274227810547267
 10
-6.274763357779448
 20
1.251290732745154
 10
-6.305488759461328
 20
1.223062032636301
 10
-6.331353949484823
 20
1.189880168172136
 10
-6.351515432420793
 20
1.152028132347616
 10
-6.364902687899307
 20
1.110349618095996
 10
-6.370642873974051
 20
1.066282779068711
 10
-6.368205932498213
 20
1.020289950101286
 10
-6.357557715902776
 20
0.9754786605871413
 10
-6.338272110291939
 20
0.9313398975396534
 10
-6.312163330753046
 20
0.8921557285875862
 10
-6.278093483908029
 20
0.8565160227943481
 10
-6.240554143292769
 20
0.8289054698545218
 10
-6.196990272575162
 20
0.807305047441317
 10
-6.154286390050189
 20
0.794650660633299
 10
-6.108458310322242
 20
0.789193832236339
 10
-6.066056316374696
 20
0.7912326050631485
 10
-6.023405773149242
 20
0.8002992611271947
 10
-5.984346790633993
 20
0.8153785203193633
 10
-5.947398153368127
 20
0.8367226134527721
 10
-5.898397228143253
 20
0.8796976386189219
  0
LWPOLYLINE
  5
B2
330
8E
100
AcDbEntity
  8
AM_9
100
AcDbPolyline
 90
        5
 70
     0
 43
0.0
 10
-5.898397228143253
 20
0.8796976386189219
 10
-5.874371923010357
 20
0.9105387122156395
 10
-5.854856192188113
 20
0.9447451521887855
 10
-5.838969214820763
 20
0.9867393339263199
 10
-5.832102205313148
 20
1.018225597850397
  0
LINE
  5
B3
330
8E
100
AcDbEntity
  8
AM_9
100
AcDbLine
 10
-6.720000000000001
 20
-2.5
 30
0.0
 11
-5.48
 21
-2.5
 31
0.0
  0
LINE
  5
B4
330
8E
100
AcDbEntity
  8
AM_9
100
AcDbLine
 10
-5.48
 20
2.5
 30
0.0
 11
-5.830022078063075
 21
2.5
 31
0.0
  0
LINE
  5
B5
330
8E
100
AcDbEntity
  8
AM_9
100
AcDbLine
 10
-6.36984561261472
 20
2.5
 30
0.0
 11
-6.720000000000001
 21
2.5
 31
0.0
  0
LWPOLYLINE
  5
B6
330
8E
100
AcDbEntity
  8
AM_9
100
AcDbPolyline
 90
       21
 70
     0
 43
0.0
 10
-6.370833333333176
 20
2.499999999999981
 10
-6.37024319641807
 20
2.499924663806467
 10
-6.363046082574479
 20
2.499067096784265
 10
-6.347445323439969
 20
2.497275315305671
 10
-6.323913561748869
 20
2.494781034802652
 10
-6.293445010730462
 20
2.491912625272731
 10
-6.256551847804663
 20
2.488990361644827
 10
-6.216156169484282
 20
2.486497267900843
 10
-6.171927023532753
 20
2.484601550150497
 10
-6.12816580300355
 20
2.483611754094194
 10
-6.083541870743098
 20
2.483485924378374
 10
-6.04127822891474
 20
2.484214335806315
 10
-6.000647191448044
 20
2.48566943308255
 10
-5.962491300392792
 20
2.487723783783497
 10
-5.927975868315245
 20
2.490141433594235
 10
-5.896549868077672
 20
2.492808689216079
 10
-5.870600058956834
 20
2.495341360597533
 10
-5.849706849796729
 20
2.497594371749055
 10
-5.835931137430504
 20
2.499188116207189
 10
-5.829525129861822
 20
2.499952869678728
 10
-5.829166666666988
 20
2.499999999999961
  0
LINE
  5
B7
330
8E
100
AcDbEntity
  8
AM_9
100
AcDbLine
 10
-5.900174470102006
 20
2.49247844494362
 30
0.0
 11
-5.906137936045281
 21
2.491948143689627
 31
0.0
  0
LINE
  5
B8
330
8E
100
AcDbEntity
  8
AM_9
100
AcDbLine
 10
-5.829166666666988
 20
2.499999999999961
 30
0.0
 11
-5.844115637292979
 21
2.498232492965525
 31
0.0
  0
ELLIPSE
  5
B9
330
8E
100
AcDbEntity
  8
AM_9
100
AcDbEllipse
 10
-6.099999999999999
 20
1.059729378590197
 30
0.0
 11
0.263300000000001
 21
0.0
 31
0.0
210
0.0
220
0.0
230
1.0
 40
0.9063077870366496
 41
2.506638986525552
 42
3.141592653589793
  0
LINE
  5
BA
330
8E
100
AcDbEntity
  8
AM_9
100
AcDbLine
 10
-5.8367
 20
1.059729378590196
 30
0.0
 11
-5.8367
 21
1.342812473215738
 31
0.0
  0
LINE
  5
BB
330
8E
100
AcDbEntity
  8
AM_9
100
AcDbLine
 10
-6.3633
 20
1.342812473215738
 30
0.0
 11
-6.3633
 21
1.059729378590196
 31
0.0
  0
ELLIPSE
  5
BC
330
8E
100
AcDbEntity
  8
AM_9
100
AcDbEllipse
 10
-6.1
 20
1.059729378590196
 30
0.0
 11
0.263300000000001
 21
0.0
 31
0.0
210
0.0
220
0.0
230
1.0
 40
0.9063077870366489
 41
3.141592653589793
 42
6.918138974243838
  0
LINE
  5
BD
330
8E
100
AcDbEntity
  8
AM_9
100
AcDbLine
 10
-5.608384204413472
 20
-3.072914285714285
 30
0.0
 11
-5.48
 21
-3.072914285714285
 31
0.0
  0
LINE
  5
BE
330
8E
100
AcDbEntity
  8
AM_9
100
AcDbLine
 10
-5.48
 20
3.072914285714285
 30
0.0
 11
-5.608384204413472
 21
3.072914285714285
 31
0.0
  0
LINE
  5
BF
330
8E
100
AcDbEntity
  8
AM_9
100
AcDbLine
 10
-5.48
 20
3.072914285714285
 30
0.0
 11
-5.48
 21
-3.072914285714285
 31
0.0
  0
LINE
  5
C0
330
8E
100
AcDbEntity
  8
AM_9
100
AcDbLine
 10
-5.608384204413472
 20
3.072914285714285
 30
0.0
 11
-5.683333333333334
 21
3.147863414634147
 31
0.0
  0
LINE
  5
C1
330
8E
100
AcDbEntity
  8
AM_9
100
AcDbLine
 10
-5.683333333333334
 20
-3.147863414634147
 30
0.0
 11
-5.608384204413472
 21
-3.072914285714285
 31
0.0
  0
LINE
  5
C2
330
8E
100
AcDbEntity
  8
AM_9
100
AcDbLine
 10
-5.608384204413472
 20
3.072914285714285
 30
0.0
 11
-5.608384204413472
 21
-3.072914285714285
 31
0.0
  0
LINE
  5
C3
330
8E
100
AcDbEntity
  8
AM_9
100
AcDbLine
 10
-5.71
 20
-3.147863414634147
 30
0.0
 11
-5.683333333333334
 21
-3.147863414634147
 31
0.0
  0
LINE
  5
C4
330
8E
100
AcDbEntity
  8
AM_9
100
AcDbLine
 10
-5.683333333333334
 20
3.147863414634147
 30
0.0
 11
-5.71
 21
3.147863414634147
 31
0.0
  0
LINE
  5
C5
330
8E
100
AcDbEntity
  8
AM_9
100
AcDbLine
 10
-5.683333333333334
 20
3.147863414634147
 30
0.0
 11
-5.683333333333334
 21
-3.147863414634147
 31
0.0
  0
LINE
  5
C6
330
8E
100
AcDbEntity
  8
AM_9
100
AcDbLine
 10
-5.832935494745279
 20
1.221577432609382
 30
0.0
 11
-5.832935494745279
 21
1.502481439719928
 31
0.0
  0
LINE
  5
C8
330
8E
100
AcDbEntity
  8
AM_5
100
AcDbLine
 10
-6.412500000000001
 20
3.22656
 30
0.0
 11
-6.412500000000001
 21
2.5
 31
0.0
  0
LINE
  5
C9
330
8E
100
AcDbEntity
  8
AM_5
100
AcDbLine
 10
-6.25625
 20
2.458333333333333
 30
0.0
 11
-6.412500000000001
 21
2.458333333333333
 31
0.0
  0
LINE
  5
CA
330
8E
100
AcDbEntity
  8
AM_5
100
AcDbLine
 10
-5.7875
 20
3.147863414634146
 30
0.0
 11
-5.7875
 21
2.5
 31
0.0
  0
LINE
  5
CB
330
8E
100
AcDbEntity
  8
AM_5
100
AcDbLine
 10
-5.943750000000001
 20
2.458333333333333
 30
0.0
 11
-5.7875
 21
2.458333333333333
 31
0.0
  0
ELLIPSE
  5
CD
330
8E
100
AcDbEntity
  8
AM_4
100
AcDbEllipse
 10
-6.100000000000001
 20
1.059729378590201
 30
0.0
 11
0.2632999999999965
 21
0.0
 31
0.0
210
0.0
220
0.0
230
1.0
 40
0.9063077870366438
 41
1.570796326794897
 42
2.506638986525555
  0
ELLIPSE
  5
CE
330
8E
100
AcDbEntity
  8
AM_4
100
AcDbEllipse
 10
-6.1
 20
1.059729378590197
 30
0.0
 11
0.2632999999999992
 21
0.0
 31
0.0
210
0.0
220
0.0
230
1.0
 40
0.9063077870366475
 41
0.6349536670642522
 42
1.570796326794897
  0
LINE
  5
CF
330
8E
100
AcDbEntity
  8
AM_4
100
AcDbLine
 10
-5.7875
 20
-3.147863414634147
 30
0.0
 11
-5.71
 21
-3.147863414634147
 31
0.0
  0
LINE
  5
D0
330
8E
100
AcDbEntity
  8
AM_4
100
AcDbLine
 10
-5.71
 20
3.147863414634147
 30
0.0
 11
-5.7875
 21
3.147863414634147
 31
0.0
  0
LWPOLYLINE
  5
D1
330
8E
100
AcDbEntity
  8
AM_4
100
AcDbPolyline
 90
       33
 70
     0
 43
0.0
 10
-5.832935494745271
 20
1.221577432609382
 10
-5.852283605239229
 20
1.196527395197765
 10
-5.883085387299967
 20
1.16582417066471
 10
-5.919219401432455
 20
1.13900534815023
 10
-5.9636521637208
 20
1.115368005751427
 10
-6.012880120862031
 20
1.098291694660081
 10
-6.064832979063809
 20
1.088882786573911
 10
-6.119201737815233
 20
1.087620518286083
 10
-6.172521627863358
 20
1.094804607493172
 10
-6.225287721891284
 20
1.110771513629944
 10
-6.272821543636781
 20
1.134101153266826
 10
-6.316648055151899
 20
1.165594765229252
 10
-6.351884518569951
 20
1.201456347704374
 10
-6.380690100976484
 20
1.243593349152508
 10
-6.399557080144569
 20
1.286118052148152
 10
-6.410383159691911
 20
1.332138402695378
 10
-6.412188847278148
 20
1.375559216531143
 10
-6.405659794698018
 20
1.419603493486944
 10
-6.391656343286656
 20
1.459959986721753
 10
-6.369863158718347
 20
1.498502709815464
 10
-6.341491023066943
 20
1.532941682173372
 10
-6.306305103818516
 20
1.563523540561664
 10
-6.2653561564712
 20
1.589002047163048
 10
-6.219034683201818
 20
1.608827545018115
 10
-6.168921270586169
 20
1.62202260528788
 10
-6.115555837769853
 20
1.628091673208683
 10
-6.061908994886097
 20
1.626478738670369
 10
-6.007818497585178
 20
1.616860318285507
 10
-5.957655489763925
 20
1.599876525514029
 10
-5.910202468423491
 20
1.574865749341195
 10
-5.870424580879627
 20
1.544456325385533
 10
-5.836295061246175
 20
1.507055170784908
 10
-5.832935494745279
 20
1.502481439719928
  0
LWPOLYLINE
  5
D2
330
8E
100
AcDbEntity
  8
AM_4
100
AcDbPolyline
 90
       18
 70
     0
 43
0.0
 10
-5.832935494745278
 20
3.222836208153097
 10
-5.836993445623101
 20
3.222531646011223
 10
-5.867605991497145
 20
3.220383897091899
 10
-5.903956082332781
 20
3.218173499344149
 10
-5.946964243849798
 20
3.216044335784745
 10
-5.993891840296612
 20
3.214311783870828
 10
-6.044836664070735
 20
3.213142549956771
 10
-6.098698571723149
 20
3.212709536815578
 10
-6.152300992835142
 20
3.213098759475855
 10
-6.205940707861314
 20
3.214306732308329
 10
-6.255109004559579
 20
3.216131818512597
 10
-6.301153752591528
 20
3.218461586518835
 10
-6.339124411621871
 20
3.220832730428748
 10
-6.371112201670083
 20
3.223144592617836
 10
-6.393221138294
 20
3.224909851151648
 10
-6.407486763229929
 20
3.226121266999712
 10
-6.412424413699202
 20
3.226551362034796
 10
-6.412494999999917
 20
3.226559999999993
  0
LINE
  5
D3
330
8E
100
AcDbEntity
  8
AM_4
100
AcDbLine
 10
-6.513333333333333
 20
-3.22656
 30
0.0
 11
-5.832935494745279
 21
-3.22656
 31
0.0
  0
LINE
  5
D4
330
8E
100
AcDbEntity
  8
AM_4
100
AcDbLine
 10
-6.41210866572913
 20
3.22656
 30
0.0
 11
-6.513333333333333
 21
3.22656
 31
0.0
  0
LINE
  5
D5
330
8E
100
AcDbEntity
  8
AM_4
100
AcDbLine
 10
-6.720000000000001
 20
3.019893333333334
 30
0.0
 11
-6.720000000000001
 21
-3.019893333333334
 31
0.0
  0
ARC
  5
D6
330
8E
100
AcDbEntity
  8
AM_4
100
AcDbCircle
 10
-6.513333333333335
 20
-3.019893333333334
 30
0.0
 40
0.2066666666666652
100
AcDbArc
 50
180.0
 51
270.0
  0
ARC
  5
D7
330
8E
100
AcDbEntity
  8
AM_4
100
AcDbCircle
 10
-6.513333333333335
 20
3.019893333333334
 30
0.0
 40
0.2066666666666657
100
AcDbArc
 50
90.0
 51
180.0
  0
LINE
  5
D8
330
8E
100
AcDbEntity
  8
AM_4
100
AcDbLine
 10
-6.513333333333333
 20
3.22656
 30
0.0
 11
-6.513333333333333
 21
-3.22656
 31
0.0
  0
LINE
  5
D9
330
8E
100
AcDbEntity
  8
AM_4
100
AcDbLine
 10
-5.832935494745278
 20
3.222836208153097
 30
0.0
 11
-5.832935494745279
 21
1.502481439719928
 31
0.0
  0
LWPOLYLINE
  5
DA
330
8E
100
AcDbEntity
  8
AM_4
100
AcDbPolyline
 90
        5
 70
     0
 43
0.0
 10
-5.832935494745279
 20
1.502481439719928
 10
-5.820924094510198
 20
1.428007099274373
 10
-5.816310806074765
 20
1.353603628003569
 10
-5.820375027564243
 20
1.284927065333099
 10
-5.832935494745271
 20
1.221577432609382
  0
LINE
  5
DB
330
8E
100
AcDbEntity
  8
AM_4
100
AcDbLine
 10
-5.832935494745271
 20
1.221577432609382
 30
0.0
 11
-5.832935494745279
 21
-3.22656
 31
0.0
  0
LINE
  5
DC
330
8E
100
AcDbEntity
  8
AM_4
100
AcDbLine
 10
-5.7875
 20
3.147863414634147
 30
0.0
 11
-5.816306779562012
 21
3.197758220437988
 31
0.0
  0
LINE
  5
DD
330
8E
100
AcDbEntity
  8
AM_4
100
AcDbLine
 10
-5.832935494745279
 20
-3.22656
 30
0.0
 11
-5.7875
 21
-3.147863414634147
 31
0.0
  0
LINE
  5
DE
330
8E
100
AcDbEntity
  8
AM_4
100
AcDbLine
 10
-5.816306779562017
 20
3.197758220437995
 30
0.0
 11
-5.832935494745279
 21
3.222836208153095
 31
0.0
  0
LINE
  5
DF
330
8E
100
AcDbEntity
  8
AM_4
100
AcDbLine
 10
-5.7875
 20
3.147863414634147
 30
0.0
 11
-5.7875
 21
-3.147863414634147
 31
0.0
  0
ELLIPSE
  5
E0
330
8E
100
AcDbEntity
  8
AM_4
100
AcDbEllipse
 10
-6.1
 20
1.342812473215738
 30
0.0
 11
0.2633000000000001
 21
0.0
 31
0.0
210
0.0
220
0.0
230
1.0
 40
0.906307787036651
 41
0.0
 42
6.283185307179586
  0
ENDBLK
  5
91
330
8E
100
AcDbEntity
  8
0
100
AcDbBlockEnd
  0
BLOCK
  5
E3
330
E1
100
AcDbEntity
  8
0
100
AcDbBlockBegin
  2
3_4_7_16CS2i_2_0_in_071520_2
 70
     2
 10
0.0
 20
0.0
 30
0.0
  3
3_4_7_16CS2i_2_0_in_071520_2
  1

  0
ATTDEF
  5
E5
330
E1
100
AcDbEntity
  8
AM_6
100
AcDbText
 10
4.81125
 20
3.226560000000001
 30
0.0
 40
0.5
  1
S-2000 Collar -Inch
100
AcDbAttributeDefinition
  3

  2
NN
 70
     8
280
     0
  0
ATTDEF
  5
E6
330
E1
100
AcDbEntity
  8
AM_6
100
AcDbText
 10
4.81125
 20
2.726560000000001
 30
0.0
 40
0.5
  1
S-2000 Bearings
100
AcDbAttributeDefinition
  3

  2
NT
 70
     8
280
     0
  0
ATTDEF
  5
E7
330
E1
100
AcDbEntity
  8
AM_6
100
AcDbText
 10
4.81125
 20
2.226560000000001
 30
0.0
 40
0.5
  1
4-7/16CS2i
100
AcDbAttributeDefinition
  3

  2
NB
 70
     8
280
     0
  0
ATTDEF
  5
E8
330
E1
100
AcDbEntity
  8
AM_6
100
AcDbText
 10
4.81125
 20
1.726560000000001
 30
0.0
 40
0.5
  1
$BORE.CS2i
100
AcDbAttributeDefinition
  3

  2
NBSYN
 70
     8
280
     0
  0
ATTDEF
  5
E9
330
E1
100
AcDbEntity
  8
AM_6
100
AcDbText
 10
4.81125
 20
1.226560000000001
 30
0.0
 40
0.5
  1
4-7/16CS2i
100
AcDbAttributeDefinition
  3

  2
LINA
 70
     8
280
     0
  0
ATTDEF
  5
EA
330
E1
100
AcDbEntity
  8
AM_6
100
AcDbText
 10
4.81125
 20
0.726560000000001
 30
0.0
 40
0.5
  1
4-7/16
100
AcDbAttributeDefinition
  3

  2
BORE
 70
     8
280
     0
  0
ATTDEF
  5
EB
330
E1
100
AcDbEntity
  8
AM_6
100
AcDbText
 10
4.81125
 20
0.226560000000001
 30
0.0
 40
0.5
  1
4.437500
100
AcDbAttributeDefinition
  3

  2
BORE1
 70
     8
280
     0
  0
ATTDEF
  5
EC
330
E1
100
AcDbEntity
  8
AM_6
100
AcDbText
 10
4.81125
 20
-0.273439999999999
 30
0.0
 40
0.5
  1
6-29/64
100
AcDbAttributeDefinition
  3

  2
L1
 70
     8
280
     0
  0
ATTDEF
  5
ED
330
E1
100
AcDbEntity
  8
AM_6
100
AcDbText
 10
4.81125
 20
-0.773439999999999
 30
0.0
 40
0.5
  1
6.45313
100
AcDbAttributeDefinition
  3

  2
L
 70
     8
280
     0
  0
ATTDEF
  5
EE
330
E1
100
AcDbEntity
  8
AM_6
100
AcDbText
 10
4.81125
 20
-1.273439999999999
 30
0.0
 40
0.5
  1
6.45312
100
AcDbAttributeDefinition
  3

  2
L2
 70
     8
280
     0
  0
ATTDEF
  5
EF
330
E1
100
AcDbEntity
  8
AM_6
100
AcDbText
 10
4.81125
 20
-1.773439999999999
 30
0.0
 40
0.5
  1
6.75
100
AcDbAttributeDefinition
  3

  2
A
 70
     8
280
     0
  0
ATTDEF
  5
F0
330
E1
100
AcDbEntity
  8
AM_6
100
AcDbText
 10
4.81125
 20
-2.273439999999999
 30
0.0
 40
0.5
  1
3.25
100
AcDbAttributeDefinition
  3

  2
B
 70
     8
280
     0
  0
ATTDEF
  5
F1
330
E1
100
AcDbEntity
  8
AM_6
100
AcDbText
 10
4.81125
 20
-2.773439999999999
 30
0.0
 40
0.5
  1
5.00
100
AcDbAttributeDefinition
  3

  2
C
 70
     8
280
     0
  0
ATTDEF
  5
F2
330
E1
100
AcDbEntity
  8
AM_6
100
AcDbText
 10
4.81125
 20
-3.273439999999999
 30
0.0
 40
0.5
  1
7.00
100
AcDbAttributeDefinition
  3

  2
D
 70
     8
280
     0
  0
ATTDEF
  5
F3
330
E1
100
AcDbEntity
  8
AM_6
100
AcDbText
 10
4.81125
 20
-3.773439999999999
 30
0.0
 40
0.5
  1
0.78
100
AcDbAttributeDefinition
  3

  2
E
 70
     8
280
     0
  0
ATTDEF
  5
F4
330
E1
100
AcDbEntity
  8
AM_6
100
AcDbText
 10
4.81125
 20
-4.273439999999999
 30
0.0
 40
0.5
  1
0.620
100
AcDbAttributeDefinition
  3

  2
F
 70
     8
280
     0
  0
ATTDEF
  5
F5
330
E1
100
AcDbEntity
  8
AM_6
100
AcDbText
 10
4.81125
 20
-4.773439999999999
 30
0.0
 40
0.5
  1
5/8-11
100
AcDbAttributeDefinition
  3

  2
CS
 70
     8
280
     0
  0
ATTDEF
  5
F6
330
E1
100
AcDbEntity
  8
AM_6
100
AcDbText
 10
4.81125
 20
-5.273439999999999
 30
0.0
 40
0.5
  1
0.6250
100
AcDbAttributeDefinition
  3

  2
NDM
 70
     8
280
     0
  0
ATTDEF
  5
F7
330
E1
100
AcDbEntity
  8
AM_6
100
AcDbText
 10
4.81125
 20
-5.773439999999999
 30
0.0
 40
0.5
  1
0.5270
100
AcDbAttributeDefinition
  3

  2
KDM
 70
     8
280
     0
  0
ATTDEF
  5
F8
330
E1
100
AcDbEntity
  8
AM_6
100
AcDbText
 10
4.81125
 20
-6.273439999999999
 30
0.0
 40
0.5
  1
2
100
AcDbAttributeDefinition
  3

  2
DD
 70
     8
280
     0
  0
ATTDEF
  5
F9
330
E1
100
AcDbEntity
  8
AM_6
100
AcDbText
 10
4.81125
 20
-6.773439999999999
 30
0.0
 40
0.5
  1
baldor
100
AcDbAttributeDefinition
  3

  2
COMPANY
 70
     8
280
     0
  0
LINE
  5
FA
330
E1
100
AcDbEntity
  8
AM_9
100
AcDbLine
 10
-1.07205
 20
2.507533333333335
 30
0.0
 11
-1.079142594003235
 21
2.5004407393301
 31
0.0
  0
LINE
  5
FB
330
E1
100
AcDbEntity
  8
AM_9
100
AcDbLine
 10
-0.538227500379707
 20
2.500310833713042
 30
0.0
 11
-0.5454499999999997
 21
2.507533333333335
 31
0.0
  0
LINE
  5
FC
330
E1
100
AcDbEntity
  8
AM_9
100
AcDbLine
 10
-0.5454499999999997
 20
3.177365
 30
0.0
 11
-0.4966924726574066
 21
3.226122527342593
 31
0.0
  0
LINE
  5
FD
330
E1
100
AcDbEntity
  8
AM_9
100
AcDbLine
 10
-1.092443220437987
 20
3.197758220437989
 30
0.0
 11
-1.07205
 21
3.177365
 31
0.0
  0
LINE
  5
FE
330
E1
100
AcDbEntity
  8
AM_9
100
AcDbLine
 10
-1.07205
 20
3.177365
 30
0.0
 11
-0.5454499999999997
 21
3.177365
 31
0.0
  0
LINE
  5
FF
330
E1
100
AcDbEntity
  8
AM_9
100
AcDbLine
 10
-1.07205
 20
2.507533333333335
 30
0.0
 11
-0.5454499999999997
 21
2.507533333333335
 31
0.0
  0
LINE
  5
100
330
E1
100
AcDbEntity
  8
AM_9
100
AcDbLine
 10
-0.5454499999999997
 20
2.507533333333335
 30
0.0
 11
-0.5454499999999997
 21
3.177365
 31
0.0
  0
LINE
  5
101
330
E1
100
AcDbEntity
  8
AM_9
100
AcDbLine
 10
-1.07205
 20
3.177365
 30
0.0
 11
-1.07205
 21
2.507533333333335
 31
0.0
  0
ELLIPSE
  5
102
330
E1
100
AcDbEntity
  8
AM_9
100
AcDbEllipse
 10
-0.8087499999999965
 20
1.059729378590193
 30
0.0
 11
0.263300000000003
 21
0.0
 31
0.0
210
0.0
220
0.0
230
1.0
 40
0.906307787036652
 41
2.506638986525517
 42
3.141592653589793
  0
ELLIPSE
  5
103
330
E1
100
AcDbEntity
  8
AM_9
100
AcDbEllipse
 10
-0.8087500000000004
 20
1.059729378590194
 30
0.0
 11
0.2633000000000009
 21
0.0
 31
0.0
210
0.0
220
0.0
230
1.0
 40
0.9063077870366518
 41
3.141592653589793
 42
6.918138974243866
  0
LINE
  5
104
330
E1
100
AcDbEntity
  8
AM_9
100
AcDbLine
 10
-0.5454499999999995
 20
1.059729378590196
 30
0.0
 11
-0.5454499999999995
 21
1.342812473215738
 31
0.0
  0
LINE
  5
105
330
E1
100
AcDbEntity
  8
AM_9
100
AcDbLine
 10
-1.07205
 20
1.342812473215738
 30
0.0
 11
-1.07205
 21
1.059729378590196
 31
0.0
  0
LWPOLYLINE
  5
106
330
E1
100
AcDbEntity
  8
AM_9
100
AcDbPolyline
 90
        5
 70
     0
 43
0.0
 10
-1.076395599439961
 20
1.016616113545539
 10
-1.067282385751987
 20
0.9785528390890358
 10
-1.048914515350684
 20
0.9348526719806408
 10
-1.028175897798673
 20
0.901694586169952
 10
-1.00261206395472
 20
0.8714411925917833
  0
LWPOLYLINE
  5
107
330
E1
100
AcDbEntity
  8
AM_9
100
AcDbPolyline
 90
       34
 70
     0
 43
0.0
 10
-1.00261206395472
 20
0.8714411925917833
 10
-0.9724479131418678
 20
0.8447751244550378
 10
-0.9383884951409335
 20
0.8225626441473476
 10
-0.8964090846763302
 20
0.8039104535125804
 10
-0.8516192900672171
 20
0.7925335056963374
 10
-0.807963458310595
 20
0.7890925148757026
 10
-0.7643309236827208
 20
0.7927908788247182
 10
-0.7231696502464854
 20
0.8031880394597111
 10
-0.6843326565837087
 20
0.819761007005603
 10
-0.6480310599728497
 20
0.84254047937082
 10
-0.615980020663306
 20
0.8703293707194034
 10
-0.5875304859975609
 20
0.9041956461473571
 10
-0.5651291490866215
 20
0.9416105804883027
 10
-0.5485854489174188
 20
0.9838372300644276
 10
-0.5395885518123851
 20
1.027620855336041
 10
-0.5385068035819304
 20
1.073273392147605
 10
-0.54570391742552
 20
1.118043958558644
 10
-0.5613046765600314
 20
1.161032432331966
 10
-0.5848364382511301
 20
1.200667587066356
 10
-0.6153049892695369
 20
1.235196568174819
 10
-0.6521981521953367
 20
1.264299655709331
 10
-0.6925938305157173
 20
1.286019708953716
 10
-0.7368229764672463
 20
1.301128000018057
 10
-0.7805841969964501
 20
1.30865120116257
 10
-0.8252081292569006
 20
1.309564179180463
 10
-0.8674717710852604
 20
1.304108298837959
 10
-0.9081028085519551
 20
1.292742280128255
 10
-0.9462586996072074
 20
1.275622054205542
 10
-0.9807741316847546
 20
1.253399129971431
 10
-1.012200131922327
 20
1.225211467563067
 10
-1.038149941043166
 20
1.192834056199437
 10
-1.05904315020327
 20
1.154801739218291
 10
-1.072818862569496
 20
1.113941953453929
 10
-1.076842360745392
 20
1.093295647425521
  0
LINE
  5
108
330
E1
100
AcDbEntity
  8
AM_9
100
AcDbLine
 10
-0.1887499999999997
 20
2.5
 30
0.0
 11
-0.5386249456821968
 21
2.5
 31
0.0
  0
LINE
  5
109
330
E1
100
AcDbEntity
  8
AM_9
100
AcDbLine
 10
-1.078580155813188
 20
2.5
 30
0.0
 11
-1.42875
 21
2.5
 31
0.0
  0
LINE
  5
10A
330
E1
100
AcDbEntity
  8
AM_9
100
AcDbLine
 10
-1.42875
 20
-2.5
 30
0.0
 11
-0.1887499999999997
 21
-2.5
 31
0.0
  0
LWPOLYLINE
  5
10B
330
E1
100
AcDbEntity
  8
AM_9
100
AcDbPolyline
 90
       21
 70
     0
 43
0.0
 10
-1.079583333333302
 20
2.499999999999996
 10
-1.078787910974065
 20
2.499903497635898
 10
-1.070813309419871
 20
2.498951241250801
 10
-1.054863153163756
 20
2.497129984839264
 10
-1.030365369386729
 20
2.494550268040473
 10
-0.9999309693044912
 20
2.491714881993043
 10
-0.9620269726433812
 20
2.488760482026858
 10
-0.9220767908583952
 20
2.48634452101742
 10
-0.8769848383381739
 20
2.484483842185862
 10
-0.83390437754507
 20
2.483568309691009
 10
-0.7886877373697095
 20
2.483515891196557
 10
-0.7471261890525176
 20
2.48428854580457
 10
-0.7061384262908953
 20
2.485818969123251
 10
-0.6686593835014597
 20
2.487883605008898
 10
-0.633986642220551
 20
2.490356382367662
 10
-0.6032612405386719
 20
2.492996674997758
 10
-0.577396050515177
 20
2.495544129930834
 10
-0.5572345675792063
 20
2.497734366829319
 10
-0.5438473121006929
 20
2.499287115484823
 10
-0.5381071260259492
 20
2.4999768679742
 10
-0.537916666667077
 20
2.49999999999995
  0
LINE
  5
10C
330
E1
100
AcDbEntity
  8
AM_9
100
AcDbLine
 10
-1.42875
 20
-3.072914285714285
 30
0.0
 11
-1.42875
 21
3.072914285714285
 31
0.0
  0
LINE
  5
10D
330
E1
100
AcDbEntity
  8
AM_9
100
AcDbLine
 10
-1.300365795586528
 20
3.072914285714285
 30
0.0
 11
-1.42875
 21
3.072914285714285
 31
0.0
  0
LINE
  5
10E
330
E1
100
AcDbEntity
  8
AM_9
100
AcDbLine
 10
-1.42875
 20
-3.072914285714285
 30
0.0
 11
-1.300365795586528
 21
-3.072914285714285
 31
0.0
  0
LINE
  5
10F
330
E1
100
AcDbEntity
  8
AM_9
100
AcDbLine
 10
-1.12125
 20
3.147863414634147
 30
0.0
 11
-1.225416666666666
 21
3.147863414634147
 31
0.0
  0
LINE
  5
110
330
E1
100
AcDbEntity
  8
AM_9
100
AcDbLine
 10
-1.225416666666666
 20
-3.147863414634147
 30
0.0
 11
-1.12125
 21
-3.147863414634147
 31
0.0
  0
LINE
  5
111
330
E1
100
AcDbEntity
  8
AM_9
100
AcDbLine
 10
-1.225416666666666
 20
-3.147863414634147
 30
0.0
 11
-1.225416666666666
 21
3.147863414634147
 31
0.0
  0
LINE
  5
112
330
E1
100
AcDbEntity
  8
AM_9
100
AcDbLine
 10
-1.300365795586528
 20
-3.072914285714285
 30
0.0
 11
-1.300365795586528
 21
3.072914285714285
 31
0.0
  0
LINE
  5
113
330
E1
100
AcDbEntity
  8
AM_9
100
AcDbLine
 10
-1.300365795586528
 20
-3.072914285714285
 30
0.0
 11
-1.225416666666666
 21
-3.147863414634147
 31
0.0
  0
LINE
  5
114
330
E1
100
AcDbEntity
  8
AM_9
100
AcDbLine
 10
-1.225416666666666
 20
3.147863414634147
 30
0.0
 11
-1.300365795586528
 21
3.072914285714285
 31
0.0
  0
LINE
  5
115
330
E1
100
AcDbEntity
  8
AM_9
100
AcDbLine
 10
-0.3954166666666663
 20
3.22656
 30
0.0
 11
-0.4970595902143232
 21
3.22656
 31
0.0
  0
LINE
  5
116
330
E1
100
AcDbEntity
  8
AM_9
100
AcDbLine
 10
-1.07581450525472
 20
-3.22656
 30
0.0
 11
-0.3954166666666663
 21
-3.22656
 31
0.0
  0
LWPOLYLINE
  5
117
330
E1
100
AcDbEntity
  8
AM_9
100
AcDbPolyline
 90
       18
 70
     0
 43
0.0
 10
-0.4962550000000971
 20
3.226559999999992
 10
-0.4965611527218511
 20
3.226532980058195
 10
-0.5030902053019809
 20
3.225962958155766
 10
-0.5170936567133434
 20
3.224780423781392
 10
-0.5388868412816518
 20
3.2230489418715
 10
-0.5672589769330566
 20
3.220993941714276
 10
-0.6024448961814843
 20
3.218759467686689
 10
-0.643393843528799
 20
3.216598452155592
 10
-0.6897153167981805
 20
3.214725772060353
 10
-0.7398287294138315
 20
3.213385562887231
 10
-0.7931941622301468
 20
3.212743752680266
 10
-0.846841005113902
 20
3.212915888234834
 10
-0.900931502414822
 20
3.213918872375139
 10
-0.9510945102360743
 20
3.215592135196067
 10
-0.9985475315765081
 20
3.217831342071409
 10
-1.038325419120373
 20
3.220198245832166
 10
-1.072454938753825
 20
3.222583733497722
 10
-1.07581450525472
 20
3.222836208153097
  0
LINE
  5
118
330
E1
100
AcDbEntity
  8
AM_9
100
AcDbLine
 10
-0.1887499999999997
 20
2.720000000000001
 30
0.0
 11
-0.1887499999999997
 21
3.019893333333333
 31
0.0
  0
LINE
  5
119
330
E1
100
AcDbEntity
  8
AM_9
100
AcDbLine
 10
-0.1887499999999997
 20
-3.019893333333333
 30
0.0
 11
-0.1887499999999997
 21
-2.720000000000001
 31
0.0
  0
LINE
  5
11A
330
E1
100
AcDbEntity
  8
AM_9
100
AcDbLine
 10
-0.3954166666666662
 20
2.719999999999999
 30
0.0
 11
-0.3954166666666663
 21
3.22656
 31
0.0
  0
LINE
  5
11B
330
E1
100
AcDbEntity
  8
AM_9
100
AcDbLine
 10
-0.3954166666666663
 20
-3.22656
 30
0.0
 11
-0.3954166666666662
 21
-2.72
 31
0.0
  0
ARC
  5
11C
330
E1
100
AcDbEntity
  8
AM_9
100
AcDbCircle
 10
-0.3954166666666671
 20
3.019893333333333
 30
0.0
 40
0.2066666666666672
100
AcDbArc
 50
0.0
 51
90.0
  0
ARC
  5
11D
330
E1
100
AcDbEntity
  8
AM_9
100
AcDbCircle
 10
-0.3954166666666667
 20
-3.019893333333333
 30
0.0
 40
0.2066666666666666
100
AcDbArc
 50
270.0
 51
0.0
  0
LINE
  5
11E
330
E1
100
AcDbEntity
  8
AM_9
100
AcDbLine
 10
-1.07581450525472
 20
2.719999999999999
 30
0.0
 11
-1.07581450525472
 21
3.222836208153096
 31
0.0
  0
LINE
  5
11F
330
E1
100
AcDbEntity
  8
AM_9
100
AcDbLine
 10
-1.07581450525472
 20
3.222836208153096
 30
0.0
 11
-1.092443220437983
 21
3.197758220437995
 31
0.0
  0
LINE
  5
120
330
E1
100
AcDbEntity
  8
AM_9
100
AcDbLine
 10
-1.07581450525472
 20
1.502481439719925
 30
0.0
 11
-1.07581450525472
 21
1.221577432609368
 31
0.0
  0
LINE
  5
121
330
E1
100
AcDbEntity
  8
AM_9
100
AcDbLine
 10
-1.12125
 20
2.719999999999999
 30
0.0
 11
-1.12125
 21
3.147863414634147
 31
0.0
  0
LINE
  5
122
330
E1
100
AcDbEntity
  8
AM_9
100
AcDbLine
 10
-1.12125
 20
-3.147863414634147
 30
0.0
 11
-1.12125
 21
-2.72
 31
0.0
  0
LINE
  5
123
330
E1
100
AcDbEntity
  8
AM_9
100
AcDbLine
 10
-1.12125
 20
-3.147863414634147
 30
0.0
 11
-1.07581450525472
 21
-3.226560000000001
 31
0.0
  0
LINE
  5
124
330
E1
100
AcDbEntity
  8
AM_9
100
AcDbLine
 10
-1.092443220437987
 20
3.197758220437989
 30
0.0
 11
-1.12125
 21
3.147863414634147
 31
0.0
  0
LINE
  5
125
330
E1
100
AcDbEntity
  8
AM_9
100
AcDbLine
 10
-1.07581450525472
 20
-3.226560000000001
 30
0.0
 11
-1.07581450525472
 21
-2.72
 31
0.0
  0
LINE
  5
126
330
E1
100
AcDbEntity
  8
AM_5
100
AcDbLine
 10
-0.4962499999999996
 20
3.226560000000001
 30
0.0
 11
-0.4962499999999996
 21
2.5
 31
0.0
  0
LINE
  5
127
330
E1
100
AcDbEntity
  8
AM_5
100
AcDbLine
 10
-0.6524999999999996
 20
2.458333333333333
 30
0.0
 11
-0.4962499999999996
 21
2.458333333333333
 31
0.0
  0
LINE
  5
128
330
E1
100
AcDbEntity
  8
AM_5
100
AcDbLine
 10
-1.12125
 20
3.147863414634147
 30
0.0
 11
-1.12125
 21
2.5
 31
0.0
  0
LINE
  5
129
330
E1
100
AcDbEntity
  8
AM_5
100
AcDbLine
 10
-0.9649999999999996
 20
2.458333333333333
 30
0.0
 11
-1.12125
 21
2.458333333333333
 31
0.0
  0
ELLIPSE
  5
12A
330
E1
100
AcDbEntity
  8
AM_4
100
AcDbEllipse
 10
-0.8087499999999995
 20
1.059729378590196
 30
0.0
 11
0.2632999999999998
 21
0.0
 31
0.0
210
0.0
220
0.0
230
1.0
 40
0.9063077870366513
 41
0.6349536670642735
 42
2.506638986525519
  0
ELLIPSE
  5
12B
330
E1
100
AcDbEntity
  8
AM_4
100
AcDbEllipse
 10
-0.8087499999999995
 20
1.342812473215737
 30
0.0
 11
0.2633
 21
0.0
 31
0.0
210
0.0
220
0.0
230
1.0
 40
0.9063077870366498
 41
3.141592653589793
 42
6.283185307179586
  0
ELLIPSE
  5
12C
330
E1
100
AcDbEntity
  8
AM_4
100
AcDbEllipse
 10
-0.8087499999999995
 20
1.342812473215738
 30
0.0
 11
0.2633
 21
0.0
 31
0.0
210
0.0
220
0.0
230
1.0
 40
0.9063077870366489
 41
0.0
 42
3.141592653589793
  0
LWPOLYLINE
  5
12D
330
E1
100
AcDbEntity
  8
AM_4
100
AcDbPolyline
 90
       33
 70
     0
 43
0.0
 10
-1.075814505254722
 20
1.502481439719925
 10
-1.071756554376898
 20
1.507980063050908
 10
-1.041144008502854
 20
1.541821302021923
 10
-1.004793917667219
 20
1.570760855226788
 10
-0.9617857561502012
 20
1.595068373134748
 10
-0.9148581597033878
 20
1.61298351587133
 10
-0.8639133359292641
 20
1.624338478142875
 10
-0.81005142827685
 20
1.628411019195383
 10
-0.7564490071648585
 20
1.624753443818975
 10
-0.7028092921386856
 20
1.613033769452893
 10
-0.6536409954404209
 20
1.59411262469452
 10
-0.6075962474084708
 20
1.567236666521951
 10
-0.5696255883781286
 20
1.535339991180362
 10
-0.5376377983299174
 20
1.496673576864699
 10
-0.5155288617059993
 20
1.456417636706258
 10
-0.5012632367700713
 20
1.411639845361197
 10
-0.4963255863007973
 20
1.36772814432399
 10
-0.4997071738845518
 20
1.323389265646299
 10
-0.5110765423769822
 20
1.280843925046047
 10
-0.5299022885656842
 20
1.240325771213022
 10
-0.5560787652689804
 20
1.202450898775202
 10
-0.5884667116587758
 20
1.16877013469628
 10
-0.6277973587006143
 20
1.139143443383474
 10
-0.6716950288078003
 20
1.115677950384886
 10
-0.7204448616298146
 20
1.098604890941041
 10
-0.7729048673036262
 20
1.088952970807481
 10
-0.8263993853770673
 20
1.087537517964968
 10
-0.8809088649060596
 20
1.094726561262093
 10
-0.9322839586007132
 20
1.110085143835126
 10
-0.9815475655812981
 20
1.134086858167136
 10
-1.015532165831062
 20
1.157481105654755
 10
-1.045814527081394
 20
1.184867340331588
 10
-1.07581450525472
 20
1.221577432609368
  0
LINE
  5
12E
330
E1
100
AcDbEntity
  8
AM_4
100
AcDbLine
 10
-0.1887499999999997
 20
-2.720000000000001
 30
0.0
 11
-0.1887499999999997
 21
2.720000000000001
 31
0.0
  0
LINE
  5
12F
330
E1
100
AcDbEntity
  8
AM_4
100
AcDbLine
 10
-0.3954166666666662
 20
-2.72
 30
0.0
 11
-0.3954166666666662
 21
2.719999999999999
 31
0.0
  0
LWPOLYLINE
  5
130
330
E1
100
AcDbEntity
  8
AM_4
100
AcDbPolyline
 90
        5
 70
     0
 43
0.0
 10
-1.07581450525472
 20
1.221577432609368
 10
-1.087825905489801
 20
1.280744371101927
 10
-1.092439193925234
 20
1.349263550279204
 10
-1.088374972435757
 20
1.423124214752044
 10
-1.075814505254722
 20
1.502481439719925
  0
LINE
  5
131
330
E1
100
AcDbEntity
  8
AM_4
100
AcDbLine
 10
-1.075814505254722
 20
1.502481439719925
 30
0.0
 11
-1.07581450525472
 21
2.719999999999999
 31
0.0
  0
LINE
  5
132
330
E1
100
AcDbEntity
  8
AM_4
100
AcDbLine
 10
-1.12125
 20
-2.72
 30
0.0
 11
-1.12125
 21
2.719999999999999
 31
0.0
  0
LINE
  5
133
330
E1
100
AcDbEntity
  8
AM_4
100
AcDbLine
 10
-1.07581450525472
 20
-2.72
 30
0.0
 11
-1.07581450525472
 21
1.221577432609368
 31
0.0
  0
ENDBLK
  5
E4
330
E1
100
AcDbEntity
  8
0
100
AcDbBlockEnd
  0
BLOCK
  5
136
330
134
100
AcDbEntity
  8
0
100
AcDbBlockBegin
  2
4_070014i_0_in_071520_2
 70
     2
 10
0.0
 20
0.0
 30
0.0
  3
4_070014i_0_in_071520_2
  1

  0
ATTDEF
  5
138
330
134
100
AcDbEntity
  8
AM_6
100
AcDbText
 10
4.81125
 20
3.937
 30
0.0
 40
0.5
  1
S-2000 Insert -Inch
100
AcDbAttributeDefinition
  3

  2
NN
 70
     8
280
     0
  0
ATTDEF
  5
139
330
134
100
AcDbEntity
  8
AM_6
100
AcDbText
 10
4.81125
 20
3.437
 30
0.0
 40
0.5
  1
S-2000 Bearings
100
AcDbAttributeDefinition
  3

  2
NT
 70
     8
280
     0
  0
ATTDEF
  5
13A
330
134
100
AcDbEntity
  8
AM_6
100
AcDbText
 10
4.81125
 20
2.937
 30
0.0
 40
0.5
  1
070014i
100
AcDbAttributeDefinition
  3

  2
NB
 70
     8
280
     0
  0
ATTDEF
  5
13B
330
134
100
AcDbEntity
  8
AM_6
100
AcDbText
 10
4.81125
 20
2.437
 30
0.0
 40
0.5
  1
$PN.i
100
AcDbAttributeDefinition
  3

  2
NBSYN
 70
     8
280
     0
  0
ATTDEF
  5
13C
330
134
100
AcDbEntity
  8
AM_6
100
AcDbText
 10
4.81125
 20
1.937
 30
0.0
 40
0.5
  1
070014i
100
AcDbAttributeDefinition
  3

  2
LINA
 70
     8
280
     0
  0
ATTDEF
  5
13D
330
134
100
AcDbEntity
  8
AM_6
100
AcDbText
 10
4.81125
 20
1.437
 30
0.0
 40
0.5
  1
4-7/16
100
AcDbAttributeDefinition
  3

  2
SS
 70
     8
280
     0
  0
ATTDEF
  5
13E
330
134
100
AcDbEntity
  8
AM_6
100
AcDbText
 10
4.81125
 20
0.9369999999999998
 30
0.0
 40
0.5
  1
5.00
100
AcDbAttributeDefinition
  3

  2
CC
 70
     8
280
     0
  0
ATTDEF
  5
13F
330
134
100
AcDbEntity
  8
AM_6
100
AcDbText
 10
4.81125
 20
0.4369999999999998
 30
0.0
 40
0.5
  1
4.437500
100
AcDbAttributeDefinition
  3

  2
SS1
 70
     8
280
     0
  0
ATTDEF
  5
140
330
134
100
AcDbEntity
  8
AM_6
100
AcDbText
 10
4.81125
 20
-0.0630000000000002
 30
0.0
 40
0.5
  1
070014
100
AcDbAttributeDefinition
  3

  2
PN
 70
     8
280
     0
  0
ATTDEF
  5
141
330
134
100
AcDbEntity
  8
AM_6
100
AcDbText
 10
4.81125
 20
-0.5630000000000002
 30
0.0
 40
0.5
  1
INS-S2-407R
100
AcDbAttributeDefinition
  3

  2
DESCRIPTION
 70
     8
280
     0
  0
ATTDEF
  5
142
330
134
100
AcDbEntity
  8
AM_6
100
AcDbText
 10
4.81125
 20
-1.063
 30
0.0
 40
0.5
  1
Contact Seal
100
AcDbAttributeDefinition
  3

  2
ST
 70
     8
280
     0
  0
ATTDEF
  5
143
330
134
100
AcDbEntity
  8
AM_6
100
AcDbText
 10
4.81125
 20
-1.563
 30
0.0
 40
0.5
  1
1
100
AcDbAttributeDefinition
  3

  2
ST1
 70
     8
280
     0
  0
ATTDEF
  5
144
330
134
100
AcDbEntity
  8
AM_6
100
AcDbText
 10
4.81125
 20
-2.063
 30
0.0
 40
0.5
  1
7.8740
100
AcDbAttributeDefinition
  3

  2
A
 70
     8
280
     0
  0
ATTDEF
  5
145
330
134
100
AcDbEntity
  8
AM_6
100
AcDbText
 10
4.81125
 20
-2.563
 30
0.0
 40
0.5
  1
2-5/32
100
AcDbAttributeDefinition
  3

  2
B
 70
     8
280
     0
  0
ATTDEF
  5
146
330
134
100
AcDbEntity
  8
AM_6
100
AcDbText
 10
4.81125
 20
-3.063
 30
0.0
 40
0.5
  1
6-17/32
100
AcDbAttributeDefinition
  3

  2
C
 70
     8
280
     0
  0
ATTDEF
  5
147
330
134
100
AcDbEntity
  8
AM_6
100
AcDbText
 10
4.81125
 20
-3.563
 30
0.0
 40
0.5
  1
3.266
100
AcDbAttributeDefinition
  3

  2
D
 70
     8
280
     0
  0
ATTDEF
  5
148
330
134
100
AcDbEntity
  8
AM_6
100
AcDbText
 10
4.81125
 20
-4.063000000000001
 30
0.0
 40
0.5
  1
6-29/64
100
AcDbAttributeDefinition
  3

  2
E
 70
     8
280
     0
  0
ATTDEF
  5
149
330
134
100
AcDbEntity
  8
AM_6
100
AcDbText
 10
4.81125
 20
-4.563000000000001
 30
0.0
 40
0.5
  1
0.43750
100
AcDbAttributeDefinition
  3

  2
F
 70
     8
280
     0
  0
ATTDEF
  5
14A
330
134
100
AcDbEntity
  8
AM_6
100
AcDbText
 10
4.81125
 20
-5.063000000000001
 30
0.0
 40
0.5
  1
2
100
AcDbAttributeDefinition
  3

  2
DD
 70
     8
280
     0
  0
ATTDEF
  5
14B
330
134
100
AcDbEntity
  8
AM_6
100
AcDbText
 10
4.81125
 20
-5.563000000000001
 30
0.0
 40
0.5
  1
baldor
100
AcDbAttributeDefinition
  3

  2
COMPANY
 70
     8
280
     0
  0
LINE
  5
14C
330
134
100
AcDbEntity
  8
AM_9
100
AcDbLine
 10
-1.19875
 20
2.499797774474863
 30
0.0
 11
-1.19875
 21
2.21875
 31
0.0
  0
LINE
  5
14D
330
134
100
AcDbEntity
  8
AM_9
100
AcDbLine
 10
-0.41875
 20
2.21875
 30
0.0
 11
-0.41875
 21
2.49996071117166
 31
0.0
  0
LINE
  5
14E
330
134
100
AcDbEntity
  8
AM_9
100
AcDbLine
 10
-6.49
 20
2.499797774474863
 30
0.0
 11
-6.49
 21
2.21875
 31
0.0
  0
LINE
  5
14F
330
134
100
AcDbEntity
  8
AM_9
100
AcDbLine
 10
-1.19875
 20
1.056545654351749
 30
0.0
 11
-1.19875
 21
0.9376542278498087
 31
0.0
  0
LINE
  5
150
330
134
100
AcDbEntity
  8
AM_9
100
AcDbLine
 10
-0.41875
 20
0.9375871661481381
 30
0.0
 11
-0.41875
 21
1.056545654351749
 31
0.0
  0
LWPOLYLINE
  5
151
330
134
100
AcDbEntity
  8
AM_9
100
AcDbPolyline
 90
        3
 70
     0
 43
0.0
 10
-1.19259293380028
 20
0.9997892775026006
 10
-1.198714707150293
 20
0.9424367126172766
 10
-1.198749998954779
 20
0.9377101459412017
  0
LWPOLYLINE
  5
152
330
134
100
AcDbEntity
  8
AM_9
100
AcDbPolyline
 90
        7
 70
     0
 43
0.0
 10
-1.032232154116532
 20
1.217576534544453
 10
-1.063973253926958
 20
1.196586210982685
 10
-1.10952052068554
 20
1.15680298257531
 10
-1.14701457957629
 20
1.109936470876936
 10
-1.174929049670412
 20
1.057604709320501
 10
-1.192236069317133
 20
1.00132708606545
 10
-1.19259293380028
 20
0.9997892775026006
  0
LWPOLYLINE
  5
153
330
134
100
AcDbEntity
  8
AM_9
100
AcDbPolyline
 90
        3
 70
     0
 43
0.0
 10
-0.9711156063086638
 20
1.247003790655043
 10
-1.011333299569005
 20
1.229079919867426
 10
-1.032232154116532
 20
1.217576534544453
  0
LWPOLYLINE
  5
154
330
134
100
AcDbEntity
  8
AM_9
100
AcDbPolyline
 90
        3
 70
     0
 43
0.0
 10
-0.5849865640026939
 20
1.217410224991436
 10
-0.6359307105461252
 20
1.242832315363773
 10
-0.6471936755934636
 20
1.247313331555283
  0
LWPOLYLINE
  5
155
330
134
100
AcDbEntity
  8
AM_9
100
AcDbPolyline
 90
        7
 70
     0
 43
0.0
 10
-0.423989700427511
 20
0.9950423341982617
 10
-0.4334224587408014
 20
1.032524687819025
 10
-0.4560391631607991
 20
1.085869169727892
 10
-0.4885628877763939
 20
1.134696839623254
 10
-0.5298651492152575
 20
1.177659205194924
 10
-0.5796441959507913
 20
1.214150144413549
 10
-0.5849865640026939
 20
1.217410224991436
  0
LWPOLYLINE
  5
156
330
134
100
AcDbEntity
  8
AM_9
100
AcDbPolyline
 90
        3
 70
     0
 43
0.0
 10
-0.4187500012224605
 20
0.9376562821718112
 10
-0.4210485398120683
 20
0.9758324796990245
 10
-0.423989700427511
 20
0.9950423341982617
  0
LWPOLYLINE
  5
157
330
134
100
AcDbEntity
  8
AM_9
100
AcDbPolyline
 90
       11
 70
     0
 43
0.0
 10
-1.198749998954779
 20
0.9377101459412017
 10
-1.194139268952504
 20
0.883383951224547
 10
-1.178966592378627
 20
0.8251045448647392
 10
-1.153549246504352
 20
0.7694149645073506
 10
-1.118739583710023
 20
0.7178511387713186
 10
-1.07477617195484
 20
0.6714889255327435
 10
-1.023363034908873
 20
0.6324003025284807
 10
-0.9653472443819463
 20
0.6017838922536218
 10
-0.9027989761173891
 20
0.5809116885051414
 10
-0.8561341147287931
 20
0.5724725596951313
 10
-0.80875
 20
0.5696248912265391
  0
LWPOLYLINE
  5
158
330
134
100
AcDbEntity
  8
AM_9
100
AcDbPolyline
 90
        7
 70
     0
 43
0.0
 10
-0.5497829360215427
 20
1.313621377539778
 10
-0.5066090471621987
 20
1.274887321555765
 10
-0.4694386331536864
 20
1.227599313243012
 10
-0.441869203831432
 20
1.174953630794841
 10
-0.4249003024692107
 20
1.118455936776533
 10
-0.4187635548507376
 20
1.059491668928759
 10
-0.4187500004972083
 20
1.056563502428645
  0
LWPOLYLINE
  5
159
330
134
100
AcDbEntity
  8
AM_9
100
AcDbPolyline
 90
       11
 70
     0
 43
0.0
 10
-1.068129843650685
 20
1.313306883856031
 10
-1.036741683562923
 20
1.334779859685507
 10
-0.9803449617870849
 20
1.3635355854868
 10
-0.918913043916934
 20
1.383680450545657
 10
-0.8543012285800244
 20
1.394828808621985
 10
-0.7890411455528351
 20
1.39662092234461
 10
-0.7243417218739595
 20
1.389302180850104
 10
-0.6624038460683135
 20
1.373039653997011
 10
-0.6045396728486853
 20
1.348304608047805
 10
-0.5519953634285074
 20
1.315248528208305
 10
-0.5497829360215427
 20
1.313621377539778
  0
LWPOLYLINE
  5
15A
330
134
100
AcDbEntity
  8
AM_9
100
AcDbPolyline
 90
        7
 70
     0
 43
0.0
 10
-1.19874999864546
 20
1.056516195197752
 10
-1.196384767135848
 20
1.095258922854475
 10
-1.183856300942309
 20
1.152200277626733
 10
-1.161021767002876
 20
1.205842707722542
 10
-1.12825268832005
 20
1.254944262780038
 10
-1.08667094929481
 20
1.298169913114366
 10
-1.068129843650685
 20
1.313306883856031
  0
LWPOLYLINE
  5
15B
330
134
100
AcDbEntity
  8
AM_9
100
AcDbPolyline
 90
       11
 70
     0
 43
0.0
 10
-0.4187500004972083
 20
1.056563502428645
 10
-0.4236942417838964
 20
1.000340362217186
 10
-0.4392651527665377
 20
0.9420992131841787
 10
-0.4651335442915094
 20
0.886552751656288
 10
-0.5004311909892254
 20
0.835260414700759
 10
-0.5447862672635905
 20
0.7894076433717077
 10
-0.5965485392954215
 20
0.7508978395820479
 10
-0.6547352836523406
 20
0.7209509785693236
 10
-0.7173559768001838
 20
0.7007074193566396
 10
-0.7627253508434356
 20
0.6928118967409483
 10
-0.80875
 20
0.6901503872304681
  0
LINE
  5
15C
330
134
100
AcDbEntity
  8
AM_9
100
AcDbLine
 10
-6.49
 20
1.056545654351749
 30
0.0
 11
-6.49
 21
0.9376542278498087
 31
0.0
  0
LWPOLYLINE
  5
15D
330
134
100
AcDbEntity
  8
AM_9
100
AcDbPolyline
 90
        3
 70
     0
 43
0.0
 10
-6.48384293380028
 20
0.9997892775025955
 10
-6.489964707150293
 20
0.9424367126172767
 10
-6.489999998954779
 20
0.9377101459412014
  0
LWPOLYLINE
  5
15E
330
134
100
AcDbEntity
  8
AM_9
100
AcDbPolyline
 90
        7
 70
     0
 43
0.0
 10
-6.321785204956126
 20
1.218573120771265
 10
-6.355223253926957
 20
1.196586210982685
 10
-6.40077052068554
 20
1.15680298257531
 10
-6.438264579576289
 20
1.109936470876936
 10
-6.466179049670411
 20
1.057604709320501
 10
-6.483486069317132
 20
1.00132708606545
 10
-6.48384293380028
 20
0.9997892775025955
  0
LWPOLYLINE
  5
15F
330
134
100
AcDbEntity
  8
AM_9
100
AcDbPolyline
 90
        3
 70
     0
 43
0.0
 10
-6.25966029885737
 20
1.248031137733135
 10
-6.302583299569005
 20
1.229079919867426
 10
-6.321785204956126
 20
1.218573120771265
  0
LWPOLYLINE
  5
160
330
134
100
AcDbEntity
  8
AM_9
100
AcDbPolyline
 90
        3
 70
     0
 43
0.0
 10
-5.878262960307104
 20
1.218601239216786
 10
-5.927180710546125
 20
1.242832315363773
 10
-5.940844842531286
 20
1.248220633906212
  0
LWPOLYLINE
  5
161
330
134
100
AcDbEntity
  8
AM_9
100
AcDbPolyline
 90
        7
 70
     0
 43
0.0
 10
-5.71523970042751
 20
0.9950423341982616
 10
-5.7246724587408
 20
1.032524687819024
 10
-5.747289163160799
 20
1.085869169727892
 10
-5.779812887776393
 20
1.134696839623254
 10
-5.821115149215257
 20
1.177659205194924
 10
-5.870894195950791
 20
1.214150144413549
 10
-5.878262960307104
 20
1.218601239216786
  0
LWPOLYLINE
  5
162
330
134
100
AcDbEntity
  8
AM_9
100
AcDbPolyline
 90
        3
 70
     0
 43
0.0
 10
-5.71000000122246
 20
0.9376562821718112
 10
-5.712298539812068
 20
0.9758324796990245
 10
-5.71523970042751
 20
0.9950423341982616
  0
LWPOLYLINE
  5
163
330
134
100
AcDbEntity
  8
AM_9
100
AcDbPolyline
 90
       11
 70
     0
 43
0.0
 10
-6.489999998954779
 20
0.9377101459412014
 10
-6.485389268952503
 20
0.8833839512245472
 10
-6.470216592378628
 20
0.8251045448647392
 10
-6.444799246504352
 20
0.7694149645073508
 10
-6.409989583710022
 20
0.7178511387713187
 10
-6.366026171954839
 20
0.6714889255327436
 10
-6.314613034908873
 20
0.6324003025284807
 10
-6.256597244381946
 20
0.6017838922536218
 10
-6.194048976117388
 20
0.5809116885051414
 10
-6.147384114728792
 20
0.5724725596951313
 10
-6.099999999999999
 20
0.5696248912265391
  0
LWPOLYLINE
  5
164
330
134
100
AcDbEntity
  8
AM_9
100
AcDbPolyline
 90
        7
 70
     0
 43
0.0
 10
-5.838815600252606
 20
1.311921131331703
 10
-5.797859047162197
 20
1.274887321555766
 10
-5.760688633153686
 20
1.227599313243012
 10
-5.733119203831431
 20
1.174953630794842
 10
-5.71615030246921
 20
1.118455936776534
 10
-5.710013554850737
 20
1.059491668928759
 10
-5.710000000497208
 20
1.056563502428645
  0
LWPOLYLINE
  5
165
330
134
100
AcDbEntity
  8
AM_9
100
AcDbPolyline
 90
       11
 70
     0
 43
0.0
 10
-6.361384983791178
 20
1.311765997517631
 10
-6.327991683562924
 20
1.334779859685508
 10
-6.271594961787084
 20
1.363535585486801
 10
-6.210163043916935
 20
1.383680450545657
 10
-6.145551228580024
 20
1.394828808621985
 10
-6.080291145552835
 20
1.39662092234461
 10
-6.015591721873959
 20
1.389302180850104
 10
-5.953653846068312
 20
1.373039653997011
 10
-5.895789672848684
 20
1.348304608047805
 10
-5.843245363428506
 20
1.315248528208305
 10
-5.838815600252606
 20
1.311921131331703
  0
LWPOLYLINE
  5
166
330
134
100
AcDbEntity
  8
AM_9
100
AcDbPolyline
 90
        7
 70
     0
 43
0.0
 10
-6.48999999864546
 20
1.056516195197752
 10
-6.487634767135848
 20
1.095258922854475
 10
-6.475106300942309
 20
1.152200277626733
 10
-6.452271767002876
 20
1.205842707722542
 10
-6.41950268832005
 20
1.254944262780037
 10
-6.377920949294809
 20
1.298169913114366
 10
-6.361384983791178
 20
1.311765997517631
  0
LWPOLYLINE
  5
167
330
134
100
AcDbEntity
  8
AM_9
100
AcDbPolyline
 90
       11
 70
     0
 43
0.0
 10
-5.710000000497208
 20
1.056563502428645
 10
-5.714944241783895
 20
1.000340362217186
 10
-5.730515152766537
 20
0.9420992131841788
 10
-5.756383544291509
 20
0.886552751656288
 10
-5.791681190989224
 20
0.8352604147007591
 10
-5.836036267263589
 20
0.7894076433717079
 10
-5.887798539295421
 20
0.750897839582048
 10
-5.94598528365234
 20
0.7209509785693236
 10
-6.008605976800184
 20
0.7007074193566396
 10
-6.053975350843436
 20
0.6928118967409483
 10
-6.099999999999999
 20
0.6901503872304681
  0
LWPOLYLINE
  5
168
330
134
100
AcDbEntity
  8
AM_9
100
AcDbPolyline
 90
       11
 70
     0
 43
0.0
 10
-6.099999999999999
 20
0.5696248912265391
 10
-6.035099590930385
 20
0.5750029334933051
 10
-5.972042431241275
 20
0.5907735786123415
 10
-5.912676067840064
 20
0.6164972531152603
 10
-5.858528040285472
 20
0.6511487649321618
 10
-5.810710235677227
 20
0.6941470810885306
 10
-5.770988192161694
 20
0.743711564398167
 10
-5.740418509657787
 20
0.7987502959731851
 10
-5.720061397687812
 20
0.8571774283120135
 10
-5.710731833380841
 20
0.9165996057253762
 10
-5.71000000122246
 20
0.9376562821718112
  0
LWPOLYLINE
  5
169
330
134
100
AcDbEntity
  8
AM_9
100
AcDbPolyline
 90
       11
 70
     0
 43
0.0
 10
-0.80875
 20
0.5696248912265391
 10
-0.7438495909303859
 20
0.5750029334933051
 10
-0.680792431241275
 20
0.5907735786123415
 10
-0.6214260678400652
 20
0.6164972531152599
 10
-0.5672780402854734
 20
0.6511487649321616
 10
-0.5194602356772285
 20
0.6941470810885304
 10
-0.4797381921616946
 20
0.743711564398167
 10
-0.449168509657787
 20
0.7987502959731851
 10
-0.4288113976878122
 20
0.8571774283120134
 10
-0.4194818333808409
 20
0.9165996057253762
 10
-0.4187500012224605
 20
0.9376562821718112
  0
LWPOLYLINE
  5
16A
330
134
100
AcDbEntity
  8
AM_9
100
AcDbPolyline
 90
       11
 70
     0
 43
0.0
 10
-6.099999999999999
 20
2.184205018422035
 10
-6.036021215620637
 20
2.185141836895413
 10
-5.972042431241275
 20
2.187949885601278
 10
-5.913458779638511
 20
2.192156287629591
 10
-5.858528040285472
 20
2.197512291166622
 10
-5.811305311041578
 20
2.203201349385207
 10
-5.770988192161694
 20
2.208845927672872
 10
-5.740757283651582
 20
2.21355074298047
 10
-5.720061397687812
 20
2.217003586832222
 10
-5.710749256703123
 20
2.218618422274811
 10
-5.710000000001141
 20
2.218749999999799
  0
LWPOLYLINE
  5
16B
330
134
100
AcDbEntity
  8
AM_9
100
AcDbPolyline
 90
       11
 70
     0
 43
0.0
 10
-0.80875
 20
2.184205018422035
 10
-0.7447712156206374
 20
2.185141836895413
 10
-0.680792431241275
 20
2.187949885601278
 10
-0.622208779638512
 20
2.192156287629591
 10
-0.5672780402854728
 20
2.197512291166622
 10
-0.520055311041579
 20
2.203201349385207
 10
-0.4797381921616946
 20
2.208845927672872
 10
-0.4495072836515818
 20
2.21355074298047
 10
-0.4288113976878122
 20
2.217003586832222
 10
-0.4194992567031233
 20
2.218618422274811
 10
-0.4187500000011408
 20
2.218749999999799
  0
LINE
  5
16C
330
134
100
AcDbEntity
  8
AM_9
100
AcDbLine
 10
-0.1887499999999994
 20
2.21875
 30
0.0
 11
-0.4200626595834983
 21
2.21875
 31
0.0
  0
LINE
  5
16D
330
134
100
AcDbEntity
  8
AM_9
100
AcDbLine
 10
-1.19875
 20
2.21875
 30
0.0
 11
-5.711312659583499
 21
2.21875
 31
0.0
  0
LINE
  5
16E
330
134
100
AcDbEntity
  8
AM_9
100
AcDbLine
 10
-6.49
 20
2.21875
 30
0.0
 11
-6.720000000000001
 21
2.21875
 31
0.0
  0
LINE
  5
16F
330
134
100
AcDbEntity
  8
AM_9
100
AcDbLine
 10
-6.720000000000001
 20
-2.21875
 30
0.0
 11
-0.1887499999999994
 21
-2.21875
 31
0.0
  0
LINE
  5
170
330
134
100
AcDbEntity
  8
AM_9
100
AcDbLine
 10
-6.479730563459509
 20
2.216967943684635
 30
0.0
 11
-6.489999999999106
 21
2.218749999999843
 31
0.0
  0
LINE
  5
171
330
134
100
AcDbEntity
  8
AM_9
100
AcDbLine
 10
-6.076378936103388
 20
2.18433273957051
 30
0.0
 11
-6.110591283325896
 21
2.184230697014967
 31
0.0
  0
LWPOLYLINE
  5
172
330
134
100
AcDbEntity
  8
AM_9
100
AcDbPolyline
 90
       11
 70
     0
 43
0.0
 10
-6.489999999999106
 20
2.218749999999843
 10
-6.485569471820948
 20
2.217975513864002
 10
-6.470216592378628
 20
2.215358184983287
 10
-6.445252531087242
 20
2.211323330660206
 10
-6.409989583710022
 20
2.206092723461259
 10
-6.366726696317422
 20
2.200430569917716
 10
-6.314613034908873
 20
2.194723289449674
 10
-6.257499051851194
 20
2.189876141208453
 10
-6.194048976117388
 20
2.186228892958999
 10
-6.14774658616243
 20
2.184726824797592
 10
-6.099999999999999
 20
2.184205018422035
  0
LINE
  5
173
330
134
100
AcDbEntity
  8
AM_9
100
AcDbLine
 10
-1.178042236866959
 20
2.215203900030469
 30
0.0
 11
-1.198749999999107
 21
2.218749999999843
 31
0.0
  0
LINE
  5
174
330
134
100
AcDbEntity
  8
AM_9
100
AcDbLine
 10
-0.7851289361033885
 20
2.18433273957051
 30
0.0
 11
-0.8193412833258957
 21
2.184230697014967
 31
0.0
  0
LWPOLYLINE
  5
175
330
134
100
AcDbEntity
  8
AM_9
100
AcDbPolyline
 90
       11
 70
     0
 43
0.0
 10
-1.198749999999107
 20
2.218749999999843
 10
-1.194319471820949
 20
2.217975513864002
 10
-1.178966592378628
 20
2.215358184983287
 10
-1.154002531087242
 20
2.211323330660206
 10
-1.118739583710023
 20
2.206092723461259
 10
-1.075476696317424
 20
2.200430569917716
 10
-1.023363034908873
 20
2.194723289449674
 10
-0.9662490518511944
 20
2.189876141208453
 10
-0.9027989761173891
 20
2.186228892958999
 10
-0.8564965861624311
 20
2.184726824797592
 10
-0.80875
 20
2.184205018422035
  0
LWPOLYLINE
  5
176
330
134
100
AcDbEntity
  8
AM_9
100
AcDbPolyline
 90
       11
 70
     0
 43
0.0
 10
-0.80875
 20
0.6901503872304681
 10
-0.8737715064009268
 20
0.6955005503762477
 10
-0.936949353951454
 20
0.7111980396825672
 10
-0.996436620187096
 20
0.7368246315835304
 10
-1.050682398030444
 20
0.7713765380466073
 10
-1.098463594016299
 20
0.8141953688395414
 10
-1.13812443861616
 20
0.8635832127418466
 10
-1.16856710996393
 20
0.9183807028504881
 10
-1.188806915059461
 20
0.9765938044794265
 10
-1.198052052014112
 20
1.0359856055639
 10
-1.19874999864546
 20
1.056516195197752
  0
LWPOLYLINE
  5
177
330
134
100
AcDbEntity
  8
AM_9
100
AcDbPolyline
 90
       11
 70
     0
 43
0.0
 10
-0.80875
 20
2.469392637876772
 10
-0.8728496769757269
 20
2.470224436885926
 10
-0.936949353951454
 20
2.472718155058026
 10
-0.9956490280352601
 20
2.476455379505257
 10
-1.050682398030444
 20
2.481215686960076
 10
-1.097867803488029
 20
2.486260063688781
 10
-1.138124438616161
 20
2.491262234453392
 10
-1.168231718807968
 20
2.495421228201189
 10
-1.188806915059462
 20
2.498468182443898
 10
-1.198035911111768
 20
2.499888701640559
 10
-1.198749999999213
 20
2.499999999999877
  0
LINE
  5
178
330
134
100
AcDbEntity
  8
AM_9
100
AcDbLine
 10
-0.1887499999999994
 20
2.5
 30
0.0
 11
-0.419004642322425
 21
2.5
 31
0.0
  0
LINE
  5
179
330
134
100
AcDbEntity
  8
AM_9
100
AcDbLine
 10
-1.197450008444987
 20
2.5
 30
0.0
 11
-1.86625
 21
2.5
 31
0.0
  0
LINE
  5
17A
330
134
100
AcDbEntity
  8
AM_9
100
AcDbLine
 10
-1.86625
 20
-2.5
 30
0.0
 11
-0.1887499999999994
 21
-2.5
 31
0.0
  0
LINE
  5
17B
330
134
100
AcDbEntity
  8
AM_9
100
AcDbLine
 10
-0.4398262081267887
 20
2.496798903438182
 30
0.0
 11
-0.418750000000265
 21
2.499999999999959
 31
0.0
  0
LINE
  5
17C
330
134
100
AcDbEntity
  8
AM_9
100
AcDbLine
 10
-0.831734733648084
 20
2.469499604774391
 30
0.0
 11
-0.7970468511947296
 21
2.469420369984009
 31
0.0
  0
LWPOLYLINE
  5
17D
330
134
100
AcDbEntity
  8
AM_9
100
AcDbPolyline
 90
       11
 70
     0
 43
0.0
 10
-0.418750000000265
 20
2.499999999999959
 10
-0.4235088240375084
 20
2.499262043815527
 10
-0.4392651527665377
 20
2.496881865914992
 10
-0.4646709856286883
 20
2.493248958313376
 10
-0.5004311909892248
 20
2.488565950098535
 10
-0.5440777257903533
 20
2.483536070351165
 10
-0.5965485392954215
 20
2.478493385088037
 10
-0.6538355386321345
 20
2.474247055235369
 10
-0.7173559768001838
 20
2.471083338836764
 10
-0.7623953047115676
 20
2.469827677749054
 10
-0.80875
 20
2.469392637876772
  0
LWPOLYLINE
  5
17E
330
134
100
AcDbEntity
  8
AM_9
100
AcDbPolyline
 90
       11
 70
     0
 43
0.0
 10
-6.099999999999999
 20
0.6901503872304681
 10
-6.165021506400927
 20
0.6955005503762477
 10
-6.228199353951454
 20
0.7111980396825672
 10
-6.287686620187095
 20
0.7368246315835304
 10
-6.341932398030443
 20
0.7713765380466076
 10
-6.389713594016299
 20
0.8141953688395415
 10
-6.42937443861616
 20
0.8635832127418467
 10
-6.45981710996393
 20
0.9183807028504883
 10
-6.480056915059462
 20
0.9765938044794265
 10
-6.489302052014112
 20
1.0359856055639
 10
-6.48999999864546
 20
1.056516195197752
  0
LWPOLYLINE
  5
17F
330
134
100
AcDbEntity
  8
AM_9
100
AcDbPolyline
 90
       11
 70
     0
 43
0.0
 10
-6.099999999999999
 20
2.469392637876772
 10
-6.164099676975726
 20
2.470224436885926
 10
-6.228199353951454
 20
2.472718155058026
 10
-6.28689902803526
 20
2.476455379505257
 10
-6.341932398030443
 20
2.481215686960076
 10
-6.389117803488028
 20
2.486260063688781
 10
-6.42937443861616
 20
2.491262234453393
 10
-6.459481718807968
 20
2.495421228201189
 10
-6.480056915059462
 20
2.498468182443898
 10
-6.489285911111767
 20
2.499888701640559
 10
-6.489999999999212
 20
2.499999999999877
  0
LINE
  5
180
330
134
100
AcDbEntity
  8
AM_9
100
AcDbLine
 10
-5.0425
 20
2.5
 30
0.0
 11
-5.71
 21
2.5
 31
0.0
  0
LINE
  5
181
330
134
100
AcDbEntity
  8
AM_9
100
AcDbLine
 10
-6.488700008444986
 20
2.5
 30
0.0
 11
-6.720000000000001
 21
2.5
 31
0.0
  0
LINE
  5
182
330
134
100
AcDbEntity
  8
AM_9
100
AcDbLine
 10
-6.720000000000001
 20
-2.5
 30
0.0
 11
-5.0425
 21
-2.5
 31
0.0
  0
LINE
  5
183
330
134
100
AcDbEntity
  8
AM_9
100
AcDbLine
 10
-5.731076208126865
 20
2.496798903438171
 30
0.0
 11
-5.710000000000265
 21
2.499999999999959
 31
0.0
  0
LINE
  5
184
330
134
100
AcDbEntity
  8
AM_9
100
AcDbLine
 10
-6.122984733648082
 20
2.469499604774391
 30
0.0
 11
-6.08829685119473
 21
2.469420369984009
 31
0.0
  0
LWPOLYLINE
  5
185
330
134
100
AcDbEntity
  8
AM_9
100
AcDbPolyline
 90
       11
 70
     0
 43
0.0
 10
-5.710000000000265
 20
2.499999999999959
 10
-5.714758824037508
 20
2.499262043815527
 10
-5.730515152766537
 20
2.496881865914992
 10
-5.755920985628689
 20
2.493248958313376
 10
-5.791681190989224
 20
2.488565950098535
 10
-5.835327725790353
 20
2.483536070351165
 10
-5.887798539295421
 20
2.478493385088037
 10
-5.945085538632133
 20
2.47424705523537
 10
-6.008605976800183
 20
2.471083338836764
 10
-6.053645304711567
 20
2.469827677749054
 10
-6.099999999999999
 20
2.469392637876772
  0
LINE
  5
186
330
134
100
AcDbEntity
  8
AM_9
100
AcDbLine
 10
-4.5325
 20
3.1496
 30
0.0
 11
-4.826875
 21
3.1496
 31
0.0
  0
LINE
  5
187
330
134
100
AcDbEntity
  8
AM_9
100
AcDbLine
 10
-4.826875
 20
-3.1496
 30
0.0
 11
-4.5325
 21
-3.1496
 31
0.0
  0
LINE
  5
188
330
134
100
AcDbEntity
  8
AM_9
100
AcDbLine
 10
-1.86625
 20
-2.933975
 30
0.0
 11
-1.86625
 21
2.933975
 31
0.0
  0
ARC
  5
189
330
134
100
AcDbEntity
  8
AM_9
100
AcDbCircle
 10
-2.081875000000001
 20
2.933974999999998
 30
0.0
 40
0.2156250000000008
100
AcDbArc
 50
0.0000008537736463
 51
90.0
  0
ARC
  5
18A
330
134
100
AcDbEntity
  8
AM_9
100
AcDbCircle
 10
-2.081875000000001
 20
-2.933974999999998
 30
0.0
 40
0.2156250000000011
100
AcDbArc
 50
270.0
 51
0.0000008537736463
  0
LINE
  5
18B
330
134
100
AcDbEntity
  8
AM_9
100
AcDbLine
 10
-4.826875
 20
-3.1496
 30
0.0
 11
-4.826875
 21
3.1496
 31
0.0
  0
LINE
  5
18C
330
134
100
AcDbEntity
  8
AM_9
100
AcDbLine
 10
-5.0425
 20
-2.933975000000001
 30
0.0
 11
-5.0425
 21
2.933975000000001
 31
0.0
  0
ARC
  5
18D
330
134
100
AcDbEntity
  8
AM_9
100
AcDbCircle
 10
-4.826874999999999
 20
2.933975
 30
0.0
 40
0.2156249999999997
100
AcDbArc
 50
90.0
 51
180.0
  0
ARC
  5
18E
330
134
100
AcDbEntity
  8
AM_9
100
AcDbCircle
 10
-4.826874999999999
 20
-2.933975
 30
0.0
 40
0.2156250000000002
100
AcDbArc
 50
180.0
 51
270.0
  0
LINE
  5
18F
330
134
100
AcDbEntity
  8
AM_9
100
AcDbLine
 10
-2.081875
 20
-3.1496
 30
0.0
 11
-2.081875
 21
3.1496
 31
0.0
  0
LINE
  5
190
330
134
100
AcDbEntity
  8
AM_9
100
AcDbLine
 10
-2.081875
 20
3.1496
 30
0.0
 11
-2.37625
 21
3.1496
 31
0.0
  0
LINE
  5
191
330
134
100
AcDbEntity
  8
AM_9
100
AcDbLine
 10
-2.37625
 20
-3.1496
 30
0.0
 11
-2.081875
 21
-3.1496
 31
0.0
  0
LINE
  5
192
330
134
100
AcDbEntity
  8
AM_9
100
AcDbLine
 10
-3.346562499999994
 20
3.77952
 30
0.0
 11
-3.562187500000005
 21
3.77952
 31
0.0
  0
LINE
  5
193
330
134
100
AcDbEntity
  8
AM_9
100
AcDbLine
 10
-3.562187500000005
 20
-3.77952
 30
0.0
 11
-3.346562499999994
 21
-3.77952
 31
0.0
  0
LINE
  5
194
330
134
100
AcDbEntity
  8
AM_9
100
AcDbLine
 10
-3.346562499999994
 20
-3.77952
 30
0.0
 11
-3.346562499999994
 21
3.77952
 31
0.0
  0
LINE
  5
195
330
134
100
AcDbEntity
  8
AM_9
100
AcDbLine
 10
-3.346562499999994
 20
-3.77952
 30
0.0
 11
-3.255641379608012
 21
-3.936999999999999
 31
0.0
  0
LINE
  5
196
330
134
100
AcDbEntity
  8
AM_9
100
AcDbLine
 10
-3.255641379608012
 20
3.936999999999999
 30
0.0
 11
-3.346562499999994
 21
3.77952
 31
0.0
  0
LINE
  5
197
330
134
100
AcDbEntity
  8
AM_9
100
AcDbLine
 10
-2.37625
 20
-3.721374999999999
 30
0.0
 11
-2.37625
 21
3.721374999999999
 31
0.0
  0
ARC
  5
198
330
134
100
AcDbEntity
  8
AM_9
100
AcDbCircle
 10
-2.591875000000002
 20
3.721374999999998
 30
0.0
 40
0.215625000000002
100
AcDbArc
 50
0.0000008537736463
 51
90.0
  0
ARC
  5
199
330
134
100
AcDbEntity
  8
AM_9
100
AcDbCircle
 10
-2.591875000000001
 20
-3.721374999999998
 30
0.0
 40
0.2156250000000015
100
AcDbArc
 50
270.0
 51
0.0
  0
LINE
  5
19A
330
134
100
AcDbEntity
  8
AM_9
100
AcDbLine
 10
-4.5325
 20
-3.721374999999999
 30
0.0
 11
-4.5325
 21
3.721374999999999
 31
0.0
  0
ARC
  5
19B
330
134
100
AcDbEntity
  8
AM_9
100
AcDbCircle
 10
-4.316874999999999
 20
3.721374999999998
 30
0.0
 40
0.2156250000000015
100
AcDbArc
 50
90.0
 51
180.0
  0
ARC
  5
19C
330
134
100
AcDbEntity
  8
AM_9
100
AcDbCircle
 10
-4.316874999999998
 20
-3.721374999999998
 30
0.0
 40
0.215625000000002
100
AcDbArc
 50
179.9999991462263
 51
270.0
  0
LINE
  5
19D
330
134
100
AcDbEntity
  8
AM_9
100
AcDbLine
 10
-2.591875
 20
-3.936999999999999
 30
0.0
 11
-2.591875
 21
3.936999999999999
 31
0.0
  0
LINE
  5
19E
330
134
100
AcDbEntity
  8
AM_9
100
AcDbLine
 10
-3.255641379608012
 20
-3.936999999999999
 30
0.0
 11
-3.255641379608012
 21
3.936999999999999
 31
0.0
  0
LINE
  5
19F
330
134
100
AcDbEntity
  8
AM_9
100
AcDbLine
 10
-2.591875
 20
3.936999999999999
 30
0.0
 11
-3.255641379608012
 21
3.936999999999999
 31
0.0
  0
LINE
  5
1A0
330
134
100
AcDbEntity
  8
AM_9
100
AcDbLine
 10
-3.255641379608012
 20
-3.936999999999999
 30
0.0
 11
-2.591875
 21
-3.936999999999999
 31
0.0
  0
LINE
  5
1A1
330
134
100
AcDbEntity
  8
AM_9
100
AcDbLine
 10
-3.562187500000005
 20
-3.77952
 30
0.0
 11
-3.562187500000005
 21
3.77952
 31
0.0
  0
LINE
  5
1A2
330
134
100
AcDbEntity
  8
AM_9
100
AcDbLine
 10
-3.562187500000005
 20
3.77952
 30
0.0
 11
-3.653108620391987
 21
3.936999999999999
 31
0.0
  0
LINE
  5
1A3
330
134
100
AcDbEntity
  8
AM_9
100
AcDbLine
 10
-3.653108620391987
 20
-3.936999999999999
 30
0.0
 11
-3.562187500000005
 21
-3.77952
 31
0.0
  0
LINE
  5
1A4
330
134
100
AcDbEntity
  8
AM_9
100
AcDbLine
 10
-3.653108620391987
 20
-3.936999999999999
 30
0.0
 11
-3.653108620391987
 21
3.936999999999999
 31
0.0
  0
LINE
  5
1A5
330
134
100
AcDbEntity
  8
AM_9
100
AcDbLine
 10
-4.316875
 20
-3.936999999999999
 30
0.0
 11
-4.316875
 21
3.936999999999999
 31
0.0
  0
LINE
  5
1A6
330
134
100
AcDbEntity
  8
AM_9
100
AcDbLine
 10
-3.653108620391987
 20
3.936999999999999
 30
0.0
 11
-4.316875
 21
3.936999999999999
 31
0.0
  0
LINE
  5
1A7
330
134
100
AcDbEntity
  8
AM_9
100
AcDbLine
 10
-4.316875
 20
-3.936999999999999
 30
0.0
 11
-3.653108620391987
 21
-3.936999999999999
 31
0.0
  0
LINE
  5
1AA
330
134
100
AcDbEntity
  8
AM_7
100
AcDbLine
 10
-6.099999999999999
 20
-0.1282051282051282
 30
0.0
 11
-6.1
 21
3.264976583333333
 31
0.0
  0
LINE
  5
1AB
330
134
100
AcDbEntity
  8
AM_7
100
AcDbLine
 10
-0.80875
 20
-0.1282051282051282
 30
0.0
 11
-0.8087499999999996
 21
3.264976583333333
 31
0.0
  0
LWPOLYLINE
  5
1AC
330
134
100
AcDbEntity
  8
AM_4
100
AcDbPolyline
 90
        7
 70
     0
 43
0.0
 10
-0.6471936755934636
 20
1.247313331555283
 10
-0.6973349890242613
 20
1.262981166492685
 10
-0.7619762485929583
 20
1.274205330377467
 10
-0.8271272703835246
 20
1.276154342855895
 10
-0.8917540168055563
 20
1.269113160695397
 10
-0.9535524886797795
 20
1.253273206823883
 10
-0.9711156063086638
 20
1.247003790655043
  0
LWPOLYLINE
  5
1AD
330
134
100
AcDbEntity
  8
AM_4
100
AcDbPolyline
 90
        7
 70
     0
 43
0.0
 10
-5.940844842531286
 20
1.248220633906212
 10
-5.988584989024261
 20
1.262981166492685
 10
-6.053226248592957
 20
1.274205330377467
 10
-6.118377270383523
 20
1.276154342855895
 10
-6.183004016805556
 20
1.269113160695397
 10
-6.244802488679779
 20
1.253273206823883
 10
-6.25966029885737
 20
1.248031137733135
  0
ENDBLK
  5
137
330
134
100
AcDbEntity
  8
0
100
AcDbBlockEnd
  0
BLOCK
  5
1B0
330
1AE
100
AcDbEntity
  8
0
100
AcDbBlockBegin
  2
5_405015E_Inch_0_in_071520_2
 70
     2
 10
0.0
 20
0.0
 30
0.0
  3
5_405015E_Inch_0_in_071520_2
  1

  0
ATTDEF
  5
1B2
330
1AE
100
AcDbEntity
  8
AM_6
100
AcDbText
 10
1.182590742770461
 20
5.04
 30
0.0
 40
0.5
  1
405015E -Inch
100
AcDbAttributeDefinition
  3

  2
NN
 70
     8
280
     0
  0
ATTDEF
  5
1B3
330
1AE
100
AcDbEntity
  8
AM_6
100
AcDbText
 10
1.182590742770461
 20
4.54
 30
0.0
 40
0.5
  1
Grease Fitting
100
AcDbAttributeDefinition
  3

  2
NT
 70
     8
280
     0
  0
ATTDEF
  5
1B4
330
1AE
100
AcDbEntity
  8
AM_6
100
AcDbText
 10
1.182590742770461
 20
4.04
 30
0.0
 40
0.5
  1
405015E-Inch
100
AcDbAttributeDefinition
  3

  2
NB
 70
     8
280
     0
  0
ATTDEF
  5
1B5
330
1AE
100
AcDbEntity
  8
AM_6
100
AcDbText
 10
1.182590742770461
 20
3.54
 30
0.0
 40
0.5
  1
$MN.-Inch
100
AcDbAttributeDefinition
  3

  2
NBSYN
 70
     8
280
     0
  0
ATTDEF
  5
1B6
330
1AE
100
AcDbEntity
  8
AM_6
100
AcDbText
 10
1.182590742770461
 20
3.04
 30
0.0
 40
0.5
  1
405015E
100
AcDbAttributeDefinition
  3

  2
LINA
 70
     8
280
     0
  0
ATTDEF
  5
1B7
330
1AE
100
AcDbEntity
  8
AM_6
100
AcDbText
 10
1.182590742770461
 20
2.54
 30
0.0
 40
0.5
  1
405015E
100
AcDbAttributeDefinition
  3

  2
MN
 70
     8
280
     0
  0
ATTDEF
  5
1B8
330
1AE
100
AcDbEntity
  8
AM_6
100
AcDbText
 10
1.182590742770461
 20
2.04
 30
0.0
 40
0.5
  1
1/8 x 27PTF
100
AcDbAttributeDefinition
  3

  2
T
 70
     8
280
     0
  0
ATTDEF
  5
1B9
330
1AE
100
AcDbEntity
  8
AM_6
100
AcDbText
 10
1.182590742770461
 20
1.54
 30
0.0
 40
0.5
  1
baldor
100
AcDbAttributeDefinition
  3

  2
COMPANY
 70
     8
280
     0
  0
LINE
  5
1BA
330
1AE
100
AcDbEntity
  8
AM_9
100
AcDbLine
 10
-4.231902872472269
 20
4.4
 30
0.0
 11
-3.908097127527731
 21
4.4
 31
0.0
  0
LINE
  5
1BB
330
1AE
100
AcDbEntity
  8
AM_9
100
AcDbLine
 10
-3.908097127527731
 20
4.4
 30
0.0
 11
-3.871382373218784
 21
4.436714754308946
 31
0.0
  0
LINE
  5
1BC
330
1AE
100
AcDbEntity
  8
AM_9
100
AcDbLine
 10
-4.268617626781215
 20
4.436714754308946
 30
0.0
 11
-4.231902872472269
 21
4.4
 31
0.0
  0
LINE
  5
1BD
330
1AE
100
AcDbEntity
  8
AM_9
100
AcDbLine
 10
-4.268617626781215
 20
4.436714754308946
 30
0.0
 11
-3.871382373218784
 21
4.436714754308946
 31
0.0
  0
LINE
  5
1BE
330
1AE
100
AcDbEntity
  8
AM_9
100
AcDbLine
 10
-3.871382373218784
 20
4.436714754308946
 30
0.0
 11
-3.86424810277693
 21
4.665
 31
0.0
  0
LINE
  5
1BF
330
1AE
100
AcDbEntity
  8
AM_9
100
AcDbLine
 10
-4.27575189722307
 20
4.665
 30
0.0
 11
-4.268617626781215
 21
4.436714754308946
 31
0.0
  0
LINE
  5
1C0
330
1AE
100
AcDbEntity
  8
AM_5
100
AcDbLine
 10
-3.901850875147652
 20
4.599870087748463
 30
0.0
 11
-3.908097127527731
 21
4.4
 31
0.0
  0
LINE
  5
1C1
330
1AE
100
AcDbEntity
  8
AM_5
100
AcDbLine
 10
-3.86424810277693
 20
4.665
 30
0.0
 11
-3.901850875147652
 21
4.599870087748463
 31
0.0
  0
LINE
  5
1C2
330
1AE
100
AcDbEntity
  8
AM_5
100
AcDbLine
 10
-4.273716485751557
 20
4.599870087748463
 30
0.0
 11
-3.866283514248443
 21
4.599870087748463
 31
0.0
  0
LINE
  5
1C3
330
1AE
100
AcDbEntity
  8
AM_5
100
AcDbLine
 10
-4.238149124852348
 20
4.599870087748463
 30
0.0
 11
-4.231902872472269
 21
4.4
 31
0.0
  0
LINE
  5
1C4
330
1AE
100
AcDbEntity
  8
AM_5
100
AcDbLine
 10
-4.27575189722307
 20
4.665
 30
0.0
 11
-4.238149124852348
 21
4.599870087748463
 31
0.0
  0
LINE
  5
1C5
330
1AE
100
AcDbEntity
  8
AM_4
100
AcDbLine
 10
-3.965
 20
4.87
 30
0.0
 11
-3.965
 21
4.9
 31
0.0
  0
LINE
  5
1C6
330
1AE
100
AcDbEntity
  8
AM_4
100
AcDbLine
 10
-4.175
 20
4.9
 30
0.0
 11
-4.175
 21
4.87
 31
0.0
  0
LINE
  5
1C7
330
1AE
100
AcDbEntity
  8
AM_4
100
AcDbLine
 10
-4.28875
 20
4.765
 30
0.0
 11
-3.85125
 21
4.765
 31
0.0
  0
LINE
  5
1C8
330
1AE
100
AcDbEntity
  8
AM_4
100
AcDbLine
 10
-3.817409257229539
 20
4.755932400303386
 30
0.0
 11
-3.85125
 21
4.765
 31
0.0
  0
LINE
  5
1C9
330
1AE
100
AcDbEntity
  8
AM_4
100
AcDbLine
 10
-4.28875
 20
4.765
 30
0.0
 11
-4.322590742770461
 21
4.755932400303386
 31
0.0
  0
LINE
  5
1CA
330
1AE
100
AcDbEntity
  8
AM_4
100
AcDbLine
 10
-3.85125
 20
4.665
 30
0.0
 11
-3.817409257229539
 21
4.674067599696615
 31
0.0
  0
LINE
  5
1CB
330
1AE
100
AcDbEntity
  8
AM_4
100
AcDbLine
 10
-4.322590742770461
 20
4.674067599696615
 30
0.0
 11
-4.28875
 21
4.665
 31
0.0
  0
LINE
  5
1CC
330
1AE
100
AcDbEntity
  8
AM_4
100
AcDbLine
 10
-4.175
 20
4.87
 30
0.0
 11
-3.965
 21
4.87
 31
0.0
  0
LINE
  5
1CD
330
1AE
100
AcDbEntity
  8
AM_4
100
AcDbLine
 10
-4.175
 20
4.87
 30
0.0
 11
-4.188820090734898
 21
4.837753121618572
 31
0.0
  0
LINE
  5
1CE
330
1AE
100
AcDbEntity
  8
AM_4
100
AcDbLine
 10
-3.951179909265103
 20
4.837753121618572
 30
0.0
 11
-3.965
 21
4.87
 31
0.0
  0
LINE
  5
1CF
330
1AE
100
AcDbEntity
  8
AM_4
100
AcDbLine
 10
-4.175
 20
4.9
 30
0.0
 11
-3.965
 21
4.9
 31
0.0
  0
LINE
  5
1D0
330
1AE
100
AcDbEntity
  8
AM_4
100
AcDbLine
 10
-3.965
 20
4.9
 30
0.0
 11
-3.935
 21
4.96
 31
0.0
  0
LINE
  5
1D1
330
1AE
100
AcDbEntity
  8
AM_4
100
AcDbLine
 10
-4.205
 20
4.96
 30
0.0
 11
-4.175
 21
4.9
 31
0.0
  0
LINE
  5
1D2
330
1AE
100
AcDbEntity
  8
AM_4
100
AcDbLine
 10
-4.172677901933188
 20
5.04
 30
0.0
 11
-3.967322098066813
 21
5.04
 31
0.0
  0
LINE
  5
1D3
330
1AE
100
AcDbEntity
  8
AM_4
100
AcDbLine
 10
-4.205
 20
4.96
 30
0.0
 11
-3.935
 21
4.96
 31
0.0
  0
LINE
  5
1D4
330
1AE
100
AcDbEntity
  8
AM_4
100
AcDbLine
 10
-4.172677901933188
 20
5.04
 30
0.0
 11
-4.205
 21
4.96
 31
0.0
  0
LINE
  5
1D5
330
1AE
100
AcDbEntity
  8
AM_4
100
AcDbLine
 10
-3.935
 20
4.96
 30
0.0
 11
-3.967322098066813
 21
5.04
 31
0.0
  0
LINE
  5
1D6
330
1AE
100
AcDbEntity
  8
AM_4
100
AcDbLine
 10
-4.188820090734898
 20
4.837753121618572
 30
0.0
 11
-3.951179909265103
 21
4.837753121618572
 31
0.0
  0
LINE
  5
1D7
330
1AE
100
AcDbEntity
  8
AM_4
100
AcDbLine
 10
-4.188820090734898
 20
4.837753121618572
 30
0.0
 11
-4.242534053283015
 21
4.783318198540882
 31
0.0
  0
LINE
  5
1D8
330
1AE
100
AcDbEntity
  8
AM_4
100
AcDbLine
 10
-3.897465946716985
 20
4.783318198540882
 30
0.0
 11
-3.951179909265103
 21
4.837753121618572
 31
0.0
  0
LINE
  5
1D9
330
1AE
100
AcDbEntity
  8
AM_4
100
AcDbLine
 10
-4.242534053283015
 20
4.783318198540882
 30
0.0
 11
-3.897465946716985
 21
4.783318198540882
 31
0.0
  0
LINE
  5
1DA
330
1AE
100
AcDbEntity
  8
AM_4
100
AcDbLine
 10
-4.242534053283015
 20
4.783318198540882
 30
0.0
 11
-4.28375
 21
4.765
 31
0.0
  0
LINE
  5
1DB
330
1AE
100
AcDbEntity
  8
AM_4
100
AcDbLine
 10
-3.85625
 20
4.765
 30
0.0
 11
-3.897465946716985
 21
4.783318198540882
 31
0.0
  0
LINE
  5
1DC
330
1AE
100
AcDbEntity
  8
AM_4
100
AcDbLine
 10
-3.817409257229539
 20
4.755932400303386
 30
0.0
 11
-3.817409257229539
 21
4.674067599696615
 31
0.0
  0
LWPOLYLINE
  5
1DD
330
1AE
100
AcDbEntity
  8
AM_4
100
AcDbPolyline
 90
        3
 70
     0
 43
0.0
 10
-3.880556942922154
 20
4.765
 10
-3.848983100075847
 20
4.762606619214965
 10
-3.817409257229539
 20
4.755932400303386
  0
LWPOLYLINE
  5
1DE
330
1AE
100
AcDbEntity
  8
AM_4
100
AcDbPolyline
 90
        3
 70
     0
 43
0.0
 10
-3.943704628614769
 20
4.755932400303386
 10
-3.912272750267872
 20
4.76258547505038
 10
-3.880556942922154
 20
4.765
  0
LWPOLYLINE
  5
1DF
330
1AE
100
AcDbEntity
  8
AM_4
100
AcDbPolyline
 90
        3
 70
     0
 43
0.0
 10
-3.817409257229539
 20
4.674067599696615
 10
-3.848841135576436
 20
4.667414524949621
 10
-3.880556942922154
 20
4.665
  0
LWPOLYLINE
  5
1E0
330
1AE
100
AcDbEntity
  8
AM_4
100
AcDbPolyline
 90
        3
 70
     0
 43
0.0
 10
-3.880556942922154
 20
4.665
 10
-3.912130785768462
 20
4.667393380785035
 10
-3.943704628614769
 20
4.674067599696615
  0
LWPOLYLINE
  5
1E1
330
1AE
100
AcDbEntity
  8
AM_4
100
AcDbPolyline
 90
        3
 70
     0
 43
0.0
 10
-4.259443057077847
 20
4.765
 10
-4.227869214231538
 20
4.762606619214965
 10
-4.196295371385231
 20
4.755932400303386
  0
LWPOLYLINE
  5
1E2
330
1AE
100
AcDbEntity
  8
AM_4
100
AcDbPolyline
 90
        3
 70
     0
 43
0.0
 10
-4.322590742770461
 20
4.755932400303386
 10
-4.291158864423564
 20
4.76258547505038
 10
-4.259443057077847
 20
4.765
  0
LINE
  5
1E3
330
1AE
100
AcDbEntity
  8
AM_4
100
AcDbLine
 10
-4.322590742770461
 20
4.755932400303386
 30
0.0
 11
-4.322590742770461
 21
4.674067599696615
 31
0.0
  0
LWPOLYLINE
  5
1E4
330
1AE
100
AcDbEntity
  8
AM_4
100
AcDbPolyline
 90
        3
 70
     0
 43
0.0
 10
-4.259443057077847
 20
4.665
 10
-4.291016899924153
 20
4.667393380785035
 10
-4.322590742770461
 20
4.674067599696615
  0
LWPOLYLINE
  5
1E5
330
1AE
100
AcDbEntity
  8
AM_4
100
AcDbPolyline
 90
        3
 70
     0
 43
0.0
 10
-4.196295371385231
 20
4.674067599696615
 10
-4.227727249732128
 20
4.667414524949621
 10
-4.259443057077847
 20
4.665
  0
LINE
  5
1E6
330
1AE
100
AcDbEntity
  8
AM_4
100
AcDbLine
 10
-3.943704628614769
 20
4.755932400303386
 30
0.0
 11
-3.943704628614769
 21
4.674067599696615
 31
0.0
  0
LWPOLYLINE
  5
1E7
330
1AE
100
AcDbEntity
  8
AM_4
100
AcDbPolyline
 90
        4
 70
     0
 43
0.0
 10
-4.07
 20
4.765
 10
-4.021600183944101
 20
4.763582439282863
 10
-3.973200367888202
 20
4.759517587482156
 10
-3.943704628614769
 20
4.755932400303386
  0
LWPOLYLINE
  5
1E8
330
1AE
100
AcDbEntity
  8
AM_4
100
AcDbPolyline
 90
        3
 70
     0
 43
0.0
 10
-4.196295371385231
 20
4.755932400303386
 10
-4.133431614691437
 20
4.76258547505038
 10
-4.07
 20
4.765
  0
LINE
  5
1E9
330
1AE
100
AcDbEntity
  8
AM_4
100
AcDbLine
 10
-4.196295371385231
 20
4.755932400303386
 30
0.0
 11
-4.196295371385231
 21
4.674067599696615
 31
0.0
  0
LWPOLYLINE
  5
1EA
330
1AE
100
AcDbEntity
  8
AM_4
100
AcDbPolyline
 90
        3
 70
     0
 43
0.0
 10
-4.07
 20
4.665
 10
-4.133147685692616
 20
4.667393380785035
 10
-4.196295371385231
 20
4.674067599696615
  0
LWPOLYLINE
  5
1EB
330
1AE
100
AcDbEntity
  8
AM_4
100
AcDbPolyline
 90
        4
 70
     0
 43
0.0
 10
-3.943704628614769
 20
4.674067599696615
 10
-3.973200367888202
 20
4.670482412517844
 10
-4.021457558752245
 20
4.666425828243072
 10
-4.07
 20
4.665
  0
ENDBLK
  5
1B1
330
1AE
100
AcDbEntity
  8
0
100
AcDbBlockEnd
  0
BLOCK
  5
1EE
330
1EC
100
AcDbEntity
  8
0
100
AcDbBlockBegin
  2
6_B071520_0_in_071520_2
 70
     2
 10
0.0
 20
0.0
 30
0.0
  3
6_B071520_0_in_071520_2
  1

  0
ATTDEF
  5
1F0
330
1EC
100
AcDbEntity
  8
AM_6
100
AcDbText
 10
5.2855
 20
5.44
 30
0.0
 40
0.5
  1
EF4S-S2 -(Labyrinth Seal)-Housing
100
AcDbAttributeDefinition
  3

  2
NN
 70
     8
280
     0
  0
ATTDEF
  5
1F1
330
1EC
100
AcDbEntity
  8
AM_6
100
AcDbText
 10
5.2855
 20
4.94
 30
0.0
 40
0.5
  1
S-2000 -E TYpe -Inch
100
AcDbAttributeDefinition
  3

  2
NT
 70
     8
280
     0
  0
ATTDEF
  5
1F2
330
1EC
100
AcDbEntity
  8
AM_6
100
AcDbText
 10
5.2855
 20
4.44
 30
0.0
 40
0.5
  1
B071520
100
AcDbAttributeDefinition
  3

  2
NB
 70
     8
280
     0
  0
ATTDEF
  5
1F3
330
1EC
100
AcDbEntity
  8
AM_6
100
AcDbText
 10
5.2855
 20
3.94
 30
0.0
 40
0.5
  1
$PN.
100
AcDbAttributeDefinition
  3

  2
NBSYN
 70
     8
280
     0
  0
ATTDEF
  5
1F4
330
1EC
100
AcDbEntity
  8
AM_6
100
AcDbText
 10
5.2855
 20
3.44
 30
0.0
 40
0.5
  1
B071520
100
AcDbAttributeDefinition
  3

  2
LINA
 70
     8
280
     0
  0
ATTDEF
  5
1F5
330
1EC
100
AcDbEntity
  8
AM_6
100
AcDbText
 10
5.2855
 20
2.94
 30
0.0
 40
0.5
  1
4-7/16
100
AcDbAttributeDefinition
  3

  2
SS
 70
     8
280
     0
  0
ATTDEF
  5
1F6
330
1EC
100
AcDbEntity
  8
AM_6
100
AcDbText
 10
5.2855
 20
2.44
 30
0.0
 40
0.5
  1
4.437500
100
AcDbAttributeDefinition
  3

  2
SS1
 70
     8
280
     0
  0
ATTDEF
  5
1F7
330
1EC
100
AcDbEntity
  8
AM_6
100
AcDbText
 10
5.2855
 20
1.94
 30
0.0
 40
0.5
  1
Expansion
100
AcDbAttributeDefinition
  3

  2
TYPE
 70
     8
280
     0
  0
ATTDEF
  5
1F8
330
1EC
100
AcDbEntity
  8
AM_6
100
AcDbText
 10
5.2855
 20
1.44
 30
0.0
 40
0.5
  1
071507
100
AcDbAttributeDefinition
  3

  2
PN1
 70
     8
280
     0
  0
ATTDEF
  5
1F9
330
1EC
100
AcDbEntity
  8
AM_6
100
AcDbText
 10
5.2855
 20
0.9399999999999995
 30
0.0
 40
0.5
  1
071520
100
AcDbAttributeDefinition
  3

  2
PN2
 70
     8
280
     0
  0
ATTDEF
  5
1FA
330
1EC
100
AcDbEntity
  8
AM_6
100
AcDbText
 10
5.2855
 20
0.4399999999999995
 30
0.0
 40
0.5
  1
EF4B-S2-407L
100
AcDbAttributeDefinition
  3

  2
DESC1
 70
     8
280
     0
  0
ATTDEF
  5
1FB
330
1EC
100
AcDbEntity
  8
AM_6
100
AcDbText
 10
5.2855
 20
-0.0600000000000005
 30
0.0
 40
0.5
  1
EF4B-S2-407LE
100
AcDbAttributeDefinition
  3

  2
DESC2
 70
     8
280
     0
  0
ATTDEF
  5
1FC
330
1EC
100
AcDbEntity
  8
AM_6
100
AcDbText
 10
5.2855
 20
-0.5600000000000005
 30
0.0
 40
0.5
  1
Non-Expansion Type
100
AcDbAttributeDefinition
  3

  2
EF
 70
     8
280
     0
  0
ATTDEF
  5
1FD
330
1EC
100
AcDbEntity
  8
AM_6
100
AcDbText
 10
5.2855
 20
-1.06
 30
0.0
 40
0.5
  1
1
100
AcDbAttributeDefinition
  3

  2
EF1
 70
     8
280
     0
  0
ATTDEF
  5
1FE
330
1EC
100
AcDbEntity
  8
AM_6
100
AcDbText
 10
5.2855
 20
-1.56
 30
0.0
 40
0.5
  1
6.53
100
AcDbAttributeDefinition
  3

  2
A
 70
     8
280
     0
  0
ATTDEF
  5
1FF
330
1EC
100
AcDbEntity
  8
AM_6
100
AcDbText
 10
5.2855
 20
-2.06
 30
0.0
 40
0.5
  1
6.5300000
100
AcDbAttributeDefinition
  3

  2
A1
 70
     8
280
     0
  0
ATTDEF
  5
200
330
1EC
100
AcDbEntity
  8
AM_6
100
AcDbText
 10
5.2855
 20
-2.56
 30
0.0
 40
0.5
  1
10.88
100
AcDbAttributeDefinition
  3

  2
B
 70
     8
280
     0
  0
ATTDEF
  5
201
330
1EC
100
AcDbEntity
  8
AM_6
100
AcDbText
 10
5.2855
 20
-3.06
 30
0.0
 40
0.5
  1
10.8800000
100
AcDbAttributeDefinition
  3

  2
B1
 70
     8
280
     0
  0
ATTDEF
  5
202
330
1EC
100
AcDbEntity
  8
AM_6
100
AcDbText
 10
5.2855
 20
-3.56
 30
0.0
 40
0.5
  1
7.1
100
AcDbAttributeDefinition
  3

  2
C
 70
     8
280
     0
  0
ATTDEF
  5
203
330
1EC
100
AcDbEntity
  8
AM_6
100
AcDbText
 10
5.2855
 20
-4.06
 30
0.0
 40
0.5
  1
7.1000000
100
AcDbAttributeDefinition
  3

  2
C1
 70
     8
280
     0
  0
ATTDEF
  5
204
330
1EC
100
AcDbEntity
  8
AM_6
100
AcDbText
 10
5.2855
 20
-4.56
 30
0.0
 40
0.5
  1
8.75
100
AcDbAttributeDefinition
  3

  2
D
 70
     8
280
     0
  0
ATTDEF
  5
205
330
1EC
100
AcDbEntity
  8
AM_6
100
AcDbText
 10
5.2855
 20
-5.06
 30
0.0
 40
0.5
  1
8.7500000
100
AcDbAttributeDefinition
  3

  2
D1
 70
     8
280
     0
  0
ATTDEF
  5
206
330
1EC
100
AcDbEntity
  8
AM_6
100
AcDbText
 10
5.2855
 20
-5.56
 30
0.0
 40
0.5
  1
7/8
100
AcDbAttributeDefinition
  3

  2
F
 70
     8
280
     0
  0
ATTDEF
  5
207
330
1EC
100
AcDbEntity
  8
AM_6
100
AcDbText
 10
5.2855
 20
-6.06
 30
0.0
 40
0.5
  1
0.8750000
100
AcDbAttributeDefinition
  3

  2
F1
 70
     8
280
     0
  0
ATTDEF
  5
208
330
1EC
100
AcDbEntity
  8
AM_6
100
AcDbText
 10
5.2855
 20
-6.56
 30
0.0
 40
0.5
  1
1.39
100
AcDbAttributeDefinition
  3

  2
G
 70
     8
280
     0
  0
ATTDEF
  5
209
330
1EC
100
AcDbEntity
  8
AM_6
100
AcDbText
 10
5.2855
 20
-7.06
 30
0.0
 40
0.5
  1
1.390000
100
AcDbAttributeDefinition
  3

  2
G1
 70
     8
280
     0
  0
ATTDEF
  5
20A
330
1EC
100
AcDbEntity
  8
AM_6
100
AcDbText
 10
5.2855
 20
-7.56
 30
0.0
 40
0.5
  1
2.43
100
AcDbAttributeDefinition
  3

  2
H
 70
     8
280
     0
  0
ATTDEF
  5
20B
330
1EC
100
AcDbEntity
  8
AM_6
100
AcDbText
 10
5.2855
 20
-8.06
 30
0.0
 40
0.5
  1
2.4300000
100
AcDbAttributeDefinition
  3

  2
H1
 70
     8
280
     0
  0
ATTDEF
  5
20C
330
1EC
100
AcDbEntity
  8
AM_6
100
AcDbText
 10
5.2855
 20
-8.56
 30
0.0
 40
0.5
  1
9.13
100
AcDbAttributeDefinition
  3

  2
J
 70
     8
280
     0
  0
ATTDEF
  5
20D
330
1EC
100
AcDbEntity
  8
AM_6
100
AcDbText
 10
5.2855
 20
-9.06
 30
0.0
 40
0.5
  1
9.1300000
100
AcDbAttributeDefinition
  3

  2
J1
 70
     8
280
     0
  0
ATTDEF
  5
20E
330
1EC
100
AcDbEntity
  8
AM_6
100
AcDbText
 10
5.2855
 20
-9.56
 30
0.0
 40
0.5
  1
10-3/4
100
AcDbAttributeDefinition
  3

  2
K
 70
     8
280
     0
  0
ATTDEF
  5
20F
330
1EC
100
AcDbEntity
  8
AM_6
100
AcDbText
 10
5.2855
 20
-10.06
 30
0.0
 40
0.5
  1
10.7500000
100
AcDbAttributeDefinition
  3

  2
K1
 70
     8
280
     0
  0
ATTDEF
  5
210
330
1EC
100
AcDbEntity
  8
AM_6
100
AcDbText
 10
5.2855
 20
-10.56
 30
0.0
 40
0.5
  1
6.45
100
AcDbAttributeDefinition
  3

  2
L
 70
     8
280
     0
  0
ATTDEF
  5
211
330
1EC
100
AcDbEntity
  8
AM_6
100
AcDbText
 10
5.2855
 20
-11.06
 30
0.0
 40
0.5
  1
6.4500000
100
AcDbAttributeDefinition
  3

  2
L1
 70
     8
280
     0
  0
ATTDEF
  5
212
330
1EC
100
AcDbEntity
  8
AM_6
100
AcDbText
 10
5.2855
 20
-11.56
 30
0.0
 40
0.5
  1
5.01
100
AcDbAttributeDefinition
  3

  2
N
 70
     8
280
     0
  0
ATTDEF
  5
213
330
1EC
100
AcDbEntity
  8
AM_6
100
AcDbText
 10
5.2855
 20
-12.06
 30
0.0
 40
0.5
  1
5.010000
100
AcDbAttributeDefinition
  3

  2
N1
 70
     8
280
     0
  0
ATTDEF
  5
214
330
1EC
100
AcDbEntity
  8
AM_6
100
AcDbText
 10
5.2855
 20
-12.56
 30
0.0
 40
0.5
  1
0.56
100
AcDbAttributeDefinition
  3

  2
P
 70
     8
280
     0
  0
ATTDEF
  5
215
330
1EC
100
AcDbEntity
  8
AM_6
100
AcDbText
 10
5.2855
 20
-13.06
 30
0.0
 40
0.5
  1
0.560000
100
AcDbAttributeDefinition
  3

  2
P1
 70
     8
280
     0
  0
ATTDEF
  5
216
330
1EC
100
AcDbEntity
  8
AM_6
100
AcDbText
 10
5.2855
 20
-13.56
 30
0.0
 40
0.5
  1
0.38
100
AcDbAttributeDefinition
  3

  2
X
 70
     8
280
     0
  0
ATTDEF
  5
217
330
1EC
100
AcDbEntity
  8
AM_6
100
AcDbText
 10
5.2855
 20
-14.06
 30
0.0
 40
0.5
  1
0.380000
100
AcDbAttributeDefinition
  3

  2
X1
 70
     8
280
     0
  0
ATTDEF
  5
218
330
1EC
100
AcDbEntity
  8
AM_6
100
AcDbText
 10
5.2855
 20
-14.56
 30
0.0
 40
0.5
  1
0.000
100
AcDbAttributeDefinition
  3

  2
Y
 70
     8
280
     0
  0
ATTDEF
  5
219
330
1EC
100
AcDbEntity
  8
AM_6
100
AcDbText
 10
5.2855
 20
-15.06
 30
0.0
 40
0.5
  1
0
100
AcDbAttributeDefinition
  3

  2
Z
 70
     8
280
     0
  0
ATTDEF
  5
21A
330
1EC
100
AcDbEntity
  8
AM_6
100
AcDbText
 10
5.2855
 20
-15.56
 30
0.0
 40
0.5
  1
0.000000
100
AcDbAttributeDefinition
  3

  2
Z1
 70
     8
280
     0
  0
ATTDEF
  5
21B
330
1EC
100
AcDbEntity
  8
AM_6
100
AcDbText
 10
5.2855
 20
-16.06
 30
0.0
 40
0.5
  1
5/8-11
100
AcDbAttributeDefinition
  3

  2
CS
 70
     8
280
     0
  0
ATTDEF
  5
21C
330
1EC
100
AcDbEntity
  8
AM_6
100
AcDbText
 10
5.2855
 20
-16.56
 30
0.0
 40
0.5
  1
0.6250
100
AcDbAttributeDefinition
  3

  2
NDM
 70
     8
280
     0
  0
ATTDEF
  5
21D
330
1EC
100
AcDbEntity
  8
AM_6
100
AcDbText
 10
5.2855
 20
-17.06
 30
0.0
 40
0.5
  1
0.5270
100
AcDbAttributeDefinition
  3

  2
KDM
 70
     8
280
     0
  0
ATTDEF
  5
21E
330
1EC
100
AcDbEntity
  8
AM_6
100
AcDbText
 10
5.2855
 20
-17.56
 30
0.0
 40
0.5
  1
7.0866
100
AcDbAttributeDefinition
  3

  2
BORE
 70
     8
280
     0
  0
ATTDEF
  5
21F
330
1EC
100
AcDbEntity
  8
AM_6
100
AcDbText
 10
5.2855
 20
-18.06
 30
0.0
 40
0.5
  1
1
100
AcDbAttributeDefinition
  3

  2
ST1
 70
     8
280
     0
  0
ATTDEF
  5
220
330
1EC
100
AcDbEntity
  8
AM_6
100
AcDbText
 10
5.2855
 20
-18.56
 30
0.0
 40
0.5
  1
baldor
100
AcDbAttributeDefinition
  3

  2
COMPANY
 70
     8
280
     0
  0
LINE
  5
221
330
1EC
100
AcDbEntity
  8
AM_9
100
AcDbLine
 10
-2.268
 20
-4.306818465365977
 30
0.0
 11
-2.43
 21
-4.306818465365977
 31
0.0
  0
LINE
  5
222
330
1EC
100
AcDbEntity
  8
AM_9
100
AcDbLine
 10
-2.268
 20
-4.242510659182504
 30
0.0
 11
-2.43
 21
-4.242510659182504
 31
0.0
  0
LINE
  5
223
330
1EC
100
AcDbEntity
  8
AM_9
100
AcDbLine
 10
-2.268
 20
4.306818465365977
 30
0.0
 11
-2.43
 21
4.306818465365977
 31
0.0
  0
LINE
  5
224
330
1EC
100
AcDbEntity
  8
AM_9
100
AcDbLine
 10
-2.43
 20
4.242510659182507
 30
0.0
 11
-2.268
 21
4.242510659182507
 31
0.0
  0
LINE
  5
225
330
1EC
100
AcDbEntity
  8
AM_9
100
AcDbLine
 10
-2.268
 20
4.242510659182507
 30
0.0
 11
-2.268
 21
5.44
 31
0.0
  0
LINE
  5
226
330
1EC
100
AcDbEntity
  8
AM_9
100
AcDbLine
 10
-1.215
 20
-5.44
 30
0.0
 11
-1.215
 21
-2.72
 31
0.0
  0
LWPOLYLINE
  5
227
330
1EC
100
AcDbEntity
  8
AM_9
100
AcDbPolyline
 90
       10
 70
     0
 43
0.0
 10
-0.3445341563113655
 20
-2.72
 10
-0.3399617546468004
 20
-2.752609909184205
 10
-0.3245863599440658
 20
-2.813582406807083
 10
-0.2991312164969974
 20
-2.872772075099908
 10
-0.2743608410022468
 20
-2.911770240412589
 10
-0.2430246382221219
 20
-2.947222620649789
 10
-0.2148992031946277
 20
-2.970165885380061
 10
-0.182602047603081
 20
-2.988707589960776
 10
-0.1619079427415615
 20
-2.996881850962256
 10
-0.1041428571428576
 20
-3.006282126231668
  0
LINE
  5
228
330
1EC
100
AcDbEntity
  8
AM_9
100
AcDbLine
 10
0.0000000000000002
 20
-3.006282126231668
 30
0.0
 11
-0.1041428571428576
 21
-3.006282126231668
 31
0.0
  0
LINE
  5
229
330
1EC
100
AcDbEntity
  8
AM_9
100
AcDbLine
 10
-1.215
 20
2.72
 30
0.0
 11
-1.215
 21
5.44
 31
0.0
  0
LWPOLYLINE
  5
22A
330
1EC
100
AcDbEntity
  8
AM_9
100
AcDbPolyline
 90
       11
 70
     0
 43
0.0
 10
-0.1041428571428576
 20
3.006282126231668
 10
-0.1164730572469489
 20
3.005859975446946
 10
-0.1465685664003177
 20
3.001247074195478
 10
-0.1763109264089585
 20
2.991480261373971
 10
-0.2299087958862031
 20
2.958808358806225
 10
-0.2619153699591812
 20
2.927343793616483
 10
-0.2891286999472729
 20
2.890045317853195
 10
-0.3095799574355209
 20
2.85176829124785
 10
-0.3304345859734865
 20
2.794504952656848
 10
-0.3429371381520314
 20
2.733423396465883
 10
-0.3445341563113655
 20
2.72
  0
LINE
  5
22B
330
1EC
100
AcDbEntity
  8
AM_9
100
AcDbLine
 10
-0.1041428571428576
 20
3.006282126231668
 30
0.0
 11
0.0000000000000002
 21
3.006282126231668
 31
0.0
  0
LINE
  5
22C
330
1EC
100
AcDbEntity
  8
AM_9
100
AcDbLine
 10
-0.1041428571428576
 20
3.006282126231668
 30
0.0
 11
-0.1041428571428576
 21
2.72
 31
0.0
  0
LINE
  5
22D
330
1EC
100
AcDbEntity
  8
AM_9
100
AcDbLine
 10
-0.1041428571428576
 20
-2.72
 30
0.0
 11
-0.1041428571428576
 21
-3.006282126231668
 31
0.0
  0
LINE
  5
22E
330
1EC
100
AcDbEntity
  8
AM_9
100
AcDbLine
 10
-5.71
 20
-3.5433
 30
0.0
 11
-1.215
 21
-3.5433
 31
0.0
  0
LINE
  5
22F
330
1EC
100
AcDbEntity
  8
AM_9
100
AcDbLine
 10
-1.215
 20
3.5433
 30
0.0
 11
-5.71
 21
3.5433
 31
0.0
  0
LINE
  5
230
330
1EC
100
AcDbEntity
  8
AM_9
100
AcDbLine
 10
-2.268
 20
-5.345860057926767
 30
0.0
 11
-2.43
 21
-5.345860057926767
 31
0.0
  0
LINE
  5
231
330
1EC
100
AcDbEntity
  8
AM_9
100
AcDbLine
 10
-2.268
 20
5.345860057926766
 30
0.0
 11
-2.43
 21
5.345860057926766
 31
0.0
  0
LINE
  5
232
330
1EC
100
AcDbEntity
  8
AM_9
100
AcDbLine
 10
-2.268
 20
-4.242510659182504
 30
0.0
 11
-2.268
 21
-5.44
 31
0.0
  0
LINE
  5
233
330
1EC
100
AcDbEntity
  8
AM_9
100
AcDbLine
 10
-2.268
 20
4.273193483485152
 30
0.0
 11
-2.43
 21
4.273193483485152
 31
0.0
  0
LINE
  5
234
330
1EC
100
AcDbEntity
  8
AM_9
100
AcDbLine
 10
-2.268
 20
-4.273193460765831
 30
0.0
 11
-2.43
 21
-4.273193460765831
 31
0.0
  0
LINE
  5
235
330
1EC
100
AcDbEntity
  8
AM_9
100
AcDbLine
 10
-3.57
 20
4.565
 30
0.0
 11
-3.57305546806433
 21
4.564666347918626
 31
0.0
  0
LINE
  5
236
330
1EC
100
AcDbEntity
  8
AM_9
100
AcDbLine
 10
-2.43
 20
-4.565
 30
0.0
 11
-2.268
 21
-4.565
 31
0.0
  0
LINE
  5
237
330
1EC
100
AcDbEntity
  8
AM_9
100
AcDbLine
 10
-2.268
 20
4.565
 30
0.0
 11
-2.43
 21
4.565
 31
0.0
  0
LINE
  5
238
330
1EC
100
AcDbEntity
  8
AM_9
100
AcDbLine
 10
-2.43
 20
3.937500000000001
 30
0.0
 11
0.0000000000000003
 21
3.937500000000001
 31
0.0
  0
LINE
  5
239
330
1EC
100
AcDbEntity
  8
AM_9
100
AcDbLine
 10
0.0000000000000003
 20
4.812500000000001
 30
0.0
 11
-2.43
 21
4.812500000000001
 31
0.0
  0
LINE
  5
23A
330
1EC
100
AcDbEntity
  8
AM_9
100
AcDbLine
 10
-2.43
 20
-4.8125
 30
0.0
 11
0.0000000000000003
 21
-4.8125
 31
0.0
  0
LINE
  5
23B
330
1EC
100
AcDbEntity
  8
AM_9
100
AcDbLine
 10
0.0000000000000003
 20
-3.9375
 30
0.0
 11
-2.43
 21
-3.9375
 31
0.0
  0
LINE
  5
23C
330
1EC
100
AcDbEntity
  8
AM_7
100
AcDbLine
 10
0.1214999999999997
 20
-4.375000000000001
 30
0.0
 11
-2.5515
 21
-4.375000000000001
 31
0.0
  0
LINE
  5
23D
330
1EC
100
AcDbEntity
  8
AM_7
100
AcDbLine
 10
0.1214999999999997
 20
4.375
 30
0.0
 11
-2.5515
 21
4.375
 31
0.0
  0
LINE
  5
23E
330
1EC
100
AcDbEntity
  8
AM_7
100
AcDbLine
 10
-7.0465625
 20
0.0
 30
0.0
 11
0.2855
 21
0.0
 31
0.0
  0
LINE
  5
23F
330
1EC
100
AcDbEntity
  8
AM_7
100
AcDbLine
 10
-4.07
 20
5.072
 30
0.0
 11
-4.07
 21
3.592214999999999
 31
0.0
  0
LINE
  5
240
330
1EC
100
AcDbEntity
  8
AM_4
100
AcDbLine
 10
-4.57
 20
4.565
 30
0.0
 11
-3.57
 21
4.565
 31
0.0
  0
LINE
  5
241
330
1EC
100
AcDbEntity
  8
AM_4
100
AcDbLine
 10
-4.470000000000001
 20
4.665
 30
0.0
 11
-3.670000000093598
 21
4.665
 31
0.0
  0
ARC
  5
242
330
1EC
100
AcDbEntity
  8
AM_4
100
AcDbCircle
 10
-3.669999999999999
 20
4.565
 30
0.0
 40
0.0999999999999992
100
AcDbArc
 50
0.0
 51
90.0
  0
ARC
  5
243
330
1EC
100
AcDbEntity
  8
AM_4
100
AcDbCircle
 10
-4.470000000000001
 20
4.565
 30
0.0
 40
0.0999999999999996
100
AcDbArc
 50
90.0
 51
180.0
  0
LINE
  5
244
330
1EC
100
AcDbEntity
  8
AM_4
100
AcDbLine
 10
-5.71
 20
-4.565
 30
0.0
 11
-5.71
 21
4.565
 31
0.0
  0
LINE
  5
245
330
1EC
100
AcDbEntity
  8
AM_4
100
AcDbLine
 10
-2.268
 20
1.605939801757258
 30
0.0
 11
-2.43
 21
1.605939801757258
 31
0.0
  0
LINE
  5
246
330
1EC
100
AcDbEntity
  8
AM_4
100
AcDbLine
 10
-2.268
 20
-1.605939741304148
 30
0.0
 11
-2.43
 21
-1.605939741304148
 31
0.0
  0
LWPOLYLINE
  5
247
330
1EC
100
AcDbEntity
  8
AM_4
100
AcDbPolyline
 90
       20
 70
     0
 43
0.0
 10
-4.57
 20
4.565
 10
-4.563151544695729
 20
4.564254971628533
 10
-4.542010364444609
 20
4.56201915648577
 10
-4.508371534537915
 20
4.558661492400278
 10
-4.461283884283158
 20
4.554374608889756
 10
-4.404442846772134
 20
4.549843625637815
 10
-4.33636296857735
 20
4.545346436854879
 10
-4.262528537230206
 20
4.541617799600491
 10
-4.180947163030591
 20
4.538891304380899
 10
-4.098854243771439
 20
4.537626865155797
 10
-4.013538996672735
 20
4.537886385190436
 10
-3.932559721569046
 20
4.53961615449315
 10
-3.853202447530649
 20
4.542711324611845
 10
-3.781928973621427
 20
4.546670200953529
 10
-3.716859102189767
 20
4.551256254453953
 10
-3.66312899643294
 20
4.555740226740729
 10
-3.6195638393962
 20
4.559837468022242
 10
-3.589826389284911
 20
4.56287099274428
 10
-3.573083563607418
 20
4.564663289308107
 10
-3.57
 20
4.565
  0
LINE
  5
248
330
1EC
100
AcDbEntity
  8
AM_4
100
AcDbLine
 10
-5.71
 20
-4.565
 30
0.0
 11
-2.43
 21
-4.565
 31
0.0
  0
LINE
  5
249
330
1EC
100
AcDbEntity
  8
AM_4
100
AcDbLine
 10
-2.43
 20
4.565
 30
0.0
 11
-3.570000000000002
 21
4.565
 31
0.0
  0
LINE
  5
24A
330
1EC
100
AcDbEntity
  8
AM_4
100
AcDbLine
 10
-4.57
 20
4.565
 30
0.0
 11
-5.71
 21
4.565
 31
0.0
  0
LINE
  5
24B
330
1EC
100
AcDbEntity
  8
AM_4
100
AcDbLine
 10
-2.268
 20
-2.014800854717959
 30
0.0
 11
-2.43
 21
-2.014800854717959
 31
0.0
  0
LINE
  5
24C
330
1EC
100
AcDbEntity
  8
AM_4
100
AcDbLine
 10
-2.268
 20
2.014800854717958
 30
0.0
 11
-2.43
 21
2.014800854717958
 31
0.0
  0
LINE
  5
24D
330
1EC
100
AcDbEntity
  8
AM_4
100
AcDbLine
 10
-2.268
 20
-3.814473684210527
 30
0.0
 11
-2.43
 21
-3.814473684210527
 31
0.0
  0
LINE
  5
24E
330
1EC
100
AcDbEntity
  8
AM_4
100
AcDbLine
 10
0.0000000000000003
 20
2.72
 30
0.0
 11
0.0000000000000003
 21
5.44
 31
0.0
  0
LINE
  5
24F
330
1EC
100
AcDbEntity
  8
AM_4
100
AcDbLine
 10
-2.43
 20
5.44
 30
0.0
 11
0.0000000000000003
 21
5.44
 31
0.0
  0
LINE
  5
250
330
1EC
100
AcDbEntity
  8
AM_4
100
AcDbLine
 10
-2.43
 20
-5.44
 30
0.0
 11
-2.43
 21
-1.605939741304148
 31
0.0
  0
LINE
  5
251
330
1EC
100
AcDbEntity
  8
AM_4
100
AcDbLine
 10
0.0000000000000003
 20
-5.44
 30
0.0
 11
0.0000000000000003
 21
-2.72
 31
0.0
  0
LINE
  5
252
330
1EC
100
AcDbEntity
  8
AM_4
100
AcDbLine
 10
-2.43
 20
-5.44
 30
0.0
 11
0.0000000000000003
 21
-5.44
 31
0.0
  0
LINE
  5
253
330
1EC
100
AcDbEntity
  8
AM_4
100
AcDbLine
 10
-1.215
 20
-2.72
 30
0.0
 11
0.0000000000000003
 21
-2.72
 31
0.0
  0
LINE
  5
254
330
1EC
100
AcDbEntity
  8
AM_4
100
AcDbLine
 10
-1.215
 20
-2.72
 30
0.0
 11
-1.215
 21
2.72
 31
0.0
  0
LINE
  5
255
330
1EC
100
AcDbEntity
  8
AM_4
100
AcDbLine
 10
-1.215
 20
2.72
 30
0.0
 11
0.0000000000000003
 21
2.72
 31
0.0
  0
LINE
  5
256
330
1EC
100
AcDbEntity
  8
AM_4
100
AcDbLine
 10
-2.43
 20
4.375
 30
0.0
 11
0.0000000000000003
 21
4.375
 31
0.0
  0
LINE
  5
257
330
1EC
100
AcDbEntity
  8
AM_4
100
AcDbLine
 10
-2.268
 20
-4.024951427984512
 30
0.0
 11
-2.268
 21
4.024951427984504
 31
0.0
  0
LINE
  5
258
330
1EC
100
AcDbEntity
  8
AM_4
100
AcDbLine
 10
-2.43
 20
-4.024951427984512
 30
0.0
 11
-2.268
 21
-4.024951427984512
 31
0.0
  0
LINE
  5
259
330
1EC
100
AcDbEntity
  8
AM_4
100
AcDbLine
 10
-2.43
 20
-4.374999984130269
 30
0.0
 11
0.0000000000000003
 21
-4.374999984130269
 31
0.0
  0
LINE
  5
25A
330
1EC
100
AcDbEntity
  8
AM_4
100
AcDbLine
 10
-2.268
 20
4.024951427984504
 30
0.0
 11
-2.43
 21
4.024951427984504
 31
0.0
  0
LINE
  5
25B
330
1EC
100
AcDbEntity
  8
AM_4
100
AcDbLine
 10
-2.43
 20
1.605939801757258
 30
0.0
 11
-2.43
 21
5.44
 31
0.0
  0
LINE
  5
25C
330
1EC
100
AcDbEntity
  8
AM_4
100
AcDbLine
 10
-2.268
 20
3.814473684210525
 30
0.0
 11
-2.43
 21
3.814473684210525
 31
0.0
  0
ENDBLK
  5
1EF
330
1EC
100
AcDbEntity
  8
0
100
AcDbBlockEnd
  0
ENDSEC
  0
SECTION
  2
ENTITIES
  0
INSERT
  5
6F
330
1F
100
AcDbEntity
  8
0
100
AcDbBlockReference
  2
1_071520_2
 10
0.0
 20
0.0
 30
0.0
  0
POINT
  5
25E
330
1F
100
AcDbEntity
  8
ConnectionPoints
100
AcDbPoint
 10
-0.1887499999999998
 20
0.0
 30
0.0000000000000001
  0
POINT
  5
25F
330
1F
100
AcDbEntity
  8
ConnectionPoints
100
AcDbPoint
 10
-6.72
 20
0.0
 30
0.0000000000000004
  0
POINT
  5
260
330
1F
100
AcDbEntity
  8
ConnectionPoints
100
AcDbPoint
 10
-0.1887499999999998
 20
0.0
 30
0.0
  0
POINT
  5
261
330
1F
100
AcDbEntity
  8
ConnectionPoints
100
AcDbPoint
 10
-6.72
 20
0.0
 30
0.0000000000000004
  0
POINT
  5
262
330
1F
100
AcDbEntity
  8
ConnectionPoints
100
AcDbPoint
 10
-4.07
 20
4.665
 30
0.0000000000000002
  0
POINT
  5
263
330
1F
100
AcDbEntity
  8
ConnectionPoints
100
AcDbPoint
 10
-4.07
 20
4.665
 30
0.0000000000000002
  0
POINT
  5
264
330
1F
100
AcDbEntity
  8
ConnectionPoints
100
AcDbPoint
 10
-6.72
 20
0.0
 30
0.0000000000000004
  0
POINT
  5
265
330
1F
100
AcDbEntity
  8
ConnectionPoints
100
AcDbPoint
 10
-7.1
 20
0.0
 30
0.0000000000000004
  0
ENDSEC
  0
SECTION
  2
OBJECTS
  0
DICTIONARY
  5
C
330
0
100
AcDbDictionary
281
     1
  3
ACAD_DETAILVIEWSTYLE
350
26D
  3
ACAD_GROUP
350
D
  3
ACAD_LAYOUT
350
1A
  3
ACAD_MATERIAL
350
43
  3
ACAD_MLEADERSTYLE
350
6B
  3
ACAD_MLINESTYLE
350
17
  3
ACAD_PLOTSETTINGS
350
19
  3
ACAD_PLOTSTYLENAME
350
E
  3
ACAD_SCALELIST
350
47
  3
ACAD_SECTIONVIEWSTYLE
350
26E
  3
ACAD_TABLESTYLE
350
69
  3
ACAD_VISUALSTYLE
350
2A
  3
ACDB_RECOMPOSE_DATA
350
26A
  3
AcDbVariableDictionary
350
266
  0
SUN
  5
6D
330
29
100
AcDbSun
 90
        1
290
     0
 63
     7
421
 16777215
 40
1.0
291
     1
 91
  2455826
 92
 54000000
292
     0
 70
     2
 71
   256
280
     1
  0
DICTIONARY
  5
26D
102
{ACAD_REACTORS
330
C
102
}
330
C
100
AcDbDictionary
281
     1
  0
DICTIONARY
  5
D
102
{ACAD_REACTORS
330
C
102
}
330
C
100
AcDbDictionary
281
     1
  0
DICTIONARY
  5
1A
102
{ACAD_REACTORS
330
C
102
}
330
C
100
AcDbDictionary
281
     1
  3
Layout1
350
1E
  3
Layout2
350
26
  3
Model
350
22
  0
DICTIONARY
  5
43
102
{ACAD_REACTORS
330
C
102
}
330
C
100
AcDbDictionary
281
     1
  3
ByBlock
350
45
  3
ByLayer
350
44
  3
Global
350
46
  0
DICTIONARY
  5
6B
102
{ACAD_REACTORS
330
C
102
}
330
C
100
AcDbDictionary
281
     1
  3
Standard
350
6C
  0
DICTIONARY
  5
17
102
{ACAD_REACTORS
330
C
102
}
330
C
100
AcDbDictionary
281
     1
  3
Standard
350
18
  0
DICTIONARY
  5
19
102
{ACAD_REACTORS
330
C
102
}
330
C
100
AcDbDictionary
281
     1
  0
ACDBDICTIONARYWDFLT
  5
E
102
{ACAD_REACTORS
330
C
102
}
330
C
100
AcDbDictionary
281
     1
  3
Normal
350
F
100
AcDbDictionaryWithDefault
340
F
  0
DICTIONARY
  5
47
102
{ACAD_REACTORS
330
C
102
}
330
C
100
AcDbDictionary
281
     1
  3
A0
350
48
  3
A1
350
49
  3
A2
350
4A
  3
A3
350
4B
  3
A4
350
4C
  3
A5
350
4D
  3
A6
350
4E
  3
A7
350
4F
  3
A8
350
50
  3
A9
350
51
  3
B0
350
52
  3
B1
350
53
  3
B2
350
54
  3
B3
350
55
  3
B4
350
56
  3
B5
350
57
  3
B6
350
58
  3
B7
350
59
  3
B8
350
5A
  3
B9
350
5B
  3
C0
350
5C
  3
C1
350
5D
  3
C2
350
5E
  3
C3
350
5F
  3
C4
350
60
  3
C5
350
61
  3
C6
350
62
  3
C7
350
63
  3
C8
350
64
  3
C9
350
65
  3
D0
350
66
  3
D1
350
67
  3
D2
350
68
  0
DICTIONARY
  5
26E
102
{ACAD_REACTORS
330
C
102
}
330
C
100
AcDbDictionary
281
     1
  0
DICTIONARY
  5
69
102
{ACAD_REACTORS
330
C
102
}
330
C
100
AcDbDictionary
281
     1
  3
Standard
350
6A
  0
DICTIONARY
  5
2A
102
{ACAD_REACTORS
330
C
102
}
330
C
100
AcDbDictionary
281
     1
  3
2dWireframe
350
2F
  3
Basic
350
32
  3
Brighten
350
36
  3
ColorChange
350
3A
  3
Conceptual
350
34
  3
Dim
350
35
  3
EdgeColorOff
350
3D
  3
Facepattern
350
39
  3
Flat
350
2B
  3
FlatWithEdges
350
2C
  3
Gouraud
350
2D
  3
GouraudWithEdges
350
2E
  3
Hidden
350
31
  3
JitterOff
350
3B
  3
Linepattern
350
38
  3
OverhangOff
350
3C
  3
Realistic
350
33
  3
Shaded
350
42
  3
Shaded with edges
350
41
  3
Shades of Gray
350
3E
  3
Sketchy
350
3F
  3
Thicken
350
37
  3
Wireframe
350
30
  3
X-Ray
350
40
  0
XRECORD
  5
26A
102
{ACAD_REACTORS
330
C
102
}
330
C
100
AcDbXrecord
280
     1
 90
        1
330
6A
  0
DICTIONARY
  5
266
102
{ACAD_REACTORS
330
C
102
}
330
C
100
AcDbDictionary
281
     1
  3
CANNOSCALE
350
267
  3
CMLEADERSTYLE
350
26C
  3
CTABLESTYLE
350
26B
  0
LAYOUT
  5
1E
102
{ACAD_REACTORS
330
1A
102
}
330
1A
100
AcDbPlotSettings
  1

  2
none_device
  4

  6

 40
0.0
 41
0.0
 42
0.0
 43
0.0
 44
0.0
 45
0.0
 46
0.0
 47
0.0
 48
0.0
 49
0.0
140
0.0
141
0.0
142
1.0
143
1.0
 70
   688
 72
     0
 73
     0
 74
     5
  7

 75
    16
 76
     0
 77
     2
 78
   300
147
1.0
148
0.0
149
0.0
100
AcDbLayout
  1
Layout1
 70
     1
 71
     1
 10
0.0
 20
0.0
 11
12.0
 21
9.0
 12
0.0
 22
0.0
 32
0.0
 14
1.000000000000000E+20
 24
1.000000000000000E+20
 34
1.000000000000000E+20
 15
-1.000000000000000E+20
 25
-1.000000000000000E+20
 35
-1.000000000000000E+20
146
0.0
 13
0.0
 23
0.0
 33
0.0
 16
1.0
 26
0.0
 36
0.0
 17
0.0
 27
1.0
 37
0.0
 76
     0
330
1B
  0
LAYOUT
  5
26
102
{ACAD_REACTORS
330
1A
102
}
330
1A
100
AcDbPlotSettings
  1

  2
none_device
  4

  6

 40
0.0
 41
0.0
 42
0.0
 43
0.0
 44
0.0
 45
0.0
 46
0.0
 47
0.0
 48
0.0
 49
0.0
140
0.0
141
0.0
142
1.0
143
1.0
 70
   688
 72
     0
 73
     0
 74
     5
  7

 75
    16
 76
     0
 77
     2
 78
   300
147
1.0
148
0.0
149
0.0
100
AcDbLayout
  1
Layout2
 70
     1
 71
     2
 10
0.0
 20
0.0
 11
0.0
 21
0.0
 12
0.0
 22
0.0
 32
0.0
 14
0.0
 24
0.0
 34
0.0
 15
0.0
 25
0.0
 35
0.0
146
0.0
 13
0.0
 23
0.0
 33
0.0
 16
1.0
 26
0.0
 36
0.0
 17
0.0
 27
1.0
 37
0.0
 76
     0
330
23
  0
LAYOUT
  5
22
102
{ACAD_REACTORS
330
1A
102
}
330
1A
100
AcDbPlotSettings
  1

  2
none_device
  4
Letter_(8.50_x_11.00_Inches)
  6

 40
6.35
 41
6.35
 42
6.35000508
 43
6.35000508
 44
215.9
 45
279.4
 46
0.0
 47
0.0
 48
0.0
 49
0.0
140
0.0
141
0.0
142
1.0
143
1.0
 70
  1712
 72
     0
 73
     0
 74
     0
  7

 75
     0
 76
     0
 77
     2
 78
   300
147
1.0
148
0.0
149
0.0
100
AcDbLayout
  1
Model
 70
     1
 71
     0
 10
0.0
 20
0.0
 11
12.0
 21
9.0
 12
0.0
 22
0.0
 32
0.0
 14
1.000000000000000E+20
 24
1.000000000000000E+20
 34
1.000000000000000E+20
 15
-1.000000000000000E+20
 25
-1.000000000000000E+20
 35
-1.000000000000000E+20
146
0.0
 13
0.0
 23
0.0
 33
0.0
 16
1.0
 26
0.0
 36
0.0
 17
0.0
 27
1.0
 37
0.0
 76
     0
330
1F
331
29
  0
MATERIAL
  5
45
102
{ACAD_REACTORS
330
43
102
}
330
43
100
AcDbMaterial
  1
ByBlock
 72
     1
 94
      127
  0
MATERIAL
  5
44
102
{ACAD_REACTORS
330
43
102
}
330
43
100
AcDbMaterial
  1
ByLayer
 72
     1
 94
      127
  0
MATERIAL
  5
46
102
{ACAD_REACTORS
330
43
102
}
330
43
100
AcDbMaterial
  1
Global
 72
     1
 94
      127
  0
MLEADERSTYLE
  5
6C
102
{ACAD_REACTORS
330
6B
102
}
330
6B
100
AcDbMLeaderStyle
179
     2
170
     2
171
     1
172
     0
 90
        2
 40
0.0
 41
0.0
173
     1
 91
-1056964608
340
14
 92
       -2
290
     1
 42
0.09
291
     1
 43
0.36
  3
Standard
341
0
 44
0.18
300

342
11
174
     1
178
     6
175
     1
176
     0
 93
-1056964608
 45
0.18
292
     0
297
     0
 46
0.18
343
0
 94
-1056964608
 47
1.0
 49
1.0
140
1.0
293
     1
141
0.0
294
     1
177
     0
142
1.0
295
     0
296
     0
143
0.125
271
     0
272
     9
273
     9
298
     0
  0
MLINESTYLE
  5
18
102
{ACAD_REACTORS
330
17
102
}
330
17
100
AcDbMlineStyle
  2
Standard
 70
     0
  3

 62
   256
 51
90.0
 52
90.0
 71
     2
 49
0.5
 62
   256
  6
BYLAYER
 49
-0.5
 62
   256
  6
BYLAYER
  0
ACDBPLACEHOLDER
  5
F
102
{ACAD_REACTORS
330
E
102
}
330
E
  0
SCALE
  5
48
102
{ACAD_REACTORS
330
47
102
}
330
47
100
AcDbScale
 70
     0
300
1:1
140
1.0
141
1.0
290
     1
  0
SCALE
  5
49
102
{ACAD_REACTORS
330
47
102
}
330
47
100
AcDbScale
 70
     0
300
1:2
140
1.0
141
2.0
290
     0
  0
SCALE
  5
4A
102
{ACAD_REACTORS
330
47
102
}
330
47
100
AcDbScale
 70
     0
300
1:4
140
1.0
141
4.0
290
     0
  0
SCALE
  5
4B
102
{ACAD_REACTORS
330
47
102
}
330
47
100
AcDbScale
 70
     0
300
1:5
140
1.0
141
5.0
290
     0
  0
SCALE
  5
4C
102
{ACAD_REACTORS
330
47
102
}
330
47
100
AcDbScale
 70
     0
300
1:8
140
1.0
141
8.0
290
     0
  0
SCALE
  5
4D
102
{ACAD_REACTORS
330
47
102
}
330
47
100
AcDbScale
 70
     0
300
1:10
140
1.0
141
10.0
290
     0
  0
SCALE
  5
4E
102
{ACAD_REACTORS
330
47
102
}
330
47
100
AcDbScale
 70
     0
300
1:16
140
1.0
141
16.0
290
     0
  0
SCALE
  5
4F
102
{ACAD_REACTORS
330
47
102
}
330
47
100
AcDbScale
 70
     0
300
1:20
140
1.0
141
20.0
290
     0
  0
SCALE
  5
50
102
{ACAD_REACTORS
330
47
102
}
330
47
100
AcDbScale
 70
     0
300
1:30
140
1.0
141
30.0
290
     0
  0
SCALE
  5
51
102
{ACAD_REACTORS
330
47
102
}
330
47
100
AcDbScale
 70
     0
300
1:40
140
1.0
141
40.0
290
     0
  0
SCALE
  5
52
102
{ACAD_REACTORS
330
47
102
}
330
47
100
AcDbScale
 70
     0
300
1:50
140
1.0
141
50.0
290
     0
  0
SCALE
  5
53
102
{ACAD_REACTORS
330
47
102
}
330
47
100
AcDbScale
 70
     0
300
1:100
140
1.0
141
100.0
290
     0
  0
SCALE
  5
54
102
{ACAD_REACTORS
330
47
102
}
330
47
100
AcDbScale
 70
     0
300
2:1
140
2.0
141
1.0
290
     0
  0
SCALE
  5
55
102
{ACAD_REACTORS
330
47
102
}
330
47
100
AcDbScale
 70
     0
300
4:1
140
4.0
141
1.0
290
     0
  0
SCALE
  5
56
102
{ACAD_REACTORS
330
47
102
}
330
47
100
AcDbScale
 70
     0
300
8:1
140
8.0
141
1.0
290
     0
  0
SCALE
  5
57
102
{ACAD_REACTORS
330
47
102
}
330
47
100
AcDbScale
 70
     0
300
10:1
140
10.0
141
1.0
290
     0
  0
SCALE
  5
58
102
{ACAD_REACTORS
330
47
102
}
330
47
100
AcDbScale
 70
     0
300
100:1
140
100.0
141
1.0
290
     0
  0
SCALE
  5
59
102
{ACAD_REACTORS
330
47
102
}
330
47
100
AcDbScale
 70
     0
300
1/128" = 1'-0"
140
0.0078125
141
12.0
290
     0
  0
SCALE
  5
5A
102
{ACAD_REACTORS
330
47
102
}
330
47
100
AcDbScale
 70
     0
300
1/64" = 1'-0"
140
0.015625
141
12.0
290
     0
  0
SCALE
  5
5B
102
{ACAD_REACTORS
330
47
102
}
330
47
100
AcDbScale
 70
     0
300
1/32" = 1'-0"
140
0.03125
141
12.0
290
     0
  0
SCALE
  5
5C
102
{ACAD_REACTORS
330
47
102
}
330
47
100
AcDbScale
 70
     0
300
1/16" = 1'-0"
140
0.0625
141
12.0
290
     0
  0
SCALE
  5
5D
102
{ACAD_REACTORS
330
47
102
}
330
47
100
AcDbScale
 70
     0
300
3/32" = 1'-0"
140
0.09375
141
12.0
290
     0
  0
SCALE
  5
5E
102
{ACAD_REACTORS
330
47
102
}
330
47
100
AcDbScale
 70
     0
300
1/8" = 1'-0"
140
0.125
141
12.0
290
     0
  0
SCALE
  5
5F
102
{ACAD_REACTORS
330
47
102
}
330
47
100
AcDbScale
 70
     0
300
3/16" = 1'-0"
140
0.1875
141
12.0
290
     0
  0
SCALE
  5
60
102
{ACAD_REACTORS
330
47
102
}
330
47
100
AcDbScale
 70
     0
300
1/4" = 1'-0"
140
0.25
141
12.0
290
     0
  0
SCALE
  5
61
102
{ACAD_REACTORS
330
47
102
}
330
47
100
AcDbScale
 70
     0
300
3/8" = 1'-0"
140
0.375
141
12.0
290
     0
  0
SCALE
  5
62
102
{ACAD_REACTORS
330
47
102
}
330
47
100
AcDbScale
 70
     0
300
1/2" = 1'-0"
140
0.5
141
12.0
290
     0
  0
SCALE
  5
63
102
{ACAD_REACTORS
330
47
102
}
330
47
100
AcDbScale
 70
     0
300
3/4" = 1'-0"
140
0.75
141
12.0
290
     0
  0
SCALE
  5
64
102
{ACAD_REACTORS
330
47
102
}
330
47
100
AcDbScale
 70
     0
300
1" = 1'-0"
140
1.0
141
12.0
290
     0
  0
SCALE
  5
65
102
{ACAD_REACTORS
330
47
102
}
330
47
100
AcDbScale
 70
     0
300
1-1/2" = 1'-0"
140
1.5
141
12.0
290
     0
  0
SCALE
  5
66
102
{ACAD_REACTORS
330
47
102
}
330
47
100
AcDbScale
 70
     0
300
3" = 1'-0"
140
3.0
141
12.0
290
     0
  0
SCALE
  5
67
102
{ACAD_REACTORS
330
47
102
}
330
47
100
AcDbScale
 70
     0
300
6" = 1'-0"
140
6.0
141
12.0
290
     0
  0
SCALE
  5
68
102
{ACAD_REACTORS
330
47
102
}
330
47
100
AcDbScale
 70
     0
300
1'-0" = 1'-0"
140
12.0
141
12.0
290
     0
  0
TABLESTYLE
  5
6A
102
{ACAD_REACTORS
330
69
102
}
102
{ACAD_XDICTIONARY
360
268
102
}
330
69
100
AcDbTableStyle
  3
Standard
 70
     0
 71
     0
 40
0.06
 41
0.06
280
     0
281
     0
  7
Standard
140
0.18
170
     2
 62
     0
 63
   257
283
     0
 90
        4
 91
        0
  1

274
    -2
284
     1
 64
     0
275
    -2
285
     1
 65
     0
276
    -2
286
     1
 66
     0
277
    -2
287
     1
 67
     0
278
    -2
288
     1
 68
     0
279
    -2
289
     1
 69
     0
  7
Standard
140
0.25
170
     5
 62
     0
 63
   257
283
     0
 90
        4
 91
        0
  1

274
    -2
284
     1
 64
     0
275
    -2
285
     1
 65
     0
276
    -2
286
     1
 66
     0
277
    -2
287
     1
 67
     0
278
    -2
288
     1
 68
     0
279
    -2
289
     1
 69
     0
  7
Standard
140
0.18
170
     5
 62
     0
 63
   257
283
     0
 90
        4
 91
        0
  1

274
    -2
284
     1
 64
     0
275
    -2
285
     1
 65
     0
276
    -2
286
     1
 66
     0
277
    -2
287
     1
 67
     0
278
    -2
288
     1
 68
     0
279
    -2
289
     1
 69
     0
  0
VISUALSTYLE
  5
2F
102
{ACAD_REACTORS
330
2A
102
}
330
2A
100
AcDbVisualStyle
  2
2dWireframe
 70
     4
177
     3
291
     0
 70
    58
 90
        0
176
     1
 90
        2
176
     1
 90
        0
176
     1
 90
        0
176
     1
 40
0.6
176
     1
 40
30.0
176
     1
 62
     7
420
 16777215
176
     1
 90
        1
176
     1
 90
        4
176
     1
 62
     7
176
     1
 62
   257
176
     1
 90
        1
176
     1
 90
        1
176
     1
 40
1.0
176
     1
 90
        0
176
     1
 62
   257
176
     1
 40
1.0
176
     1
 90
        1
176
     1
 90
        6
176
     1
 90
        2
176
     1
 62
     7
176
     1
 90
        5
176
     1
 90
        0
176
     1
 90
        0
176
     1
290
     0
176
     1
 90
        1
176
     1
 40
0.0
176
     1
 90
        0
176
     1
290
     1
176
     1
290
     1
176
     1
290
     0
176
     1
290
     0
176
     1
290
     0
176
     1
290
     0
176
     1
290
     0
176
     1
290
     0
176
     1
290
     0
176
     1
 90
       50
176
     1
 40
0.0
176
     1
 40
1.0
176
     1
 90
        0
176
     1
 62
    18
420
        0
176
     1
 90
       50
176
     1
 90
        3
176
     1
 62
     5
420
      255
176
     1
290
     0
176
     1
 90
       50
176
     1
 90
       50
176
     1
 90
       50
176
     1
290
     0
176
     1
 90
       50
176
     1
 62
   256
176
     0
 40
1.0
176
     0
 90
        2
176
     1
  1
strokes_ogs.tif
176
     1
290
     0
176
     1
 40
1.0
176
     1
 40
1.0
176
     1
  0
VISUALSTYLE
  5
32
102
{ACAD_REACTORS
330
2A
102
}
330
2A
100
AcDbVisualStyle
  2
Basic
 70
     7
177
     3
291
     1
 70
    58
 90
        1
176
     1
 90
        0
176
     1
 90
        1
176
     1
 90
        0
176
     1
 40
0.6
176
     1
 40
30.0
176
     1
 62
     7
420
 16777215
176
     1
 90
        0
176
     1
 90
        4
176
     1
 62
     7
176
     1
 62
   257
176
     1
 90
        1
176
     1
 90
        1
176
     1
 40
1.0
176
     1
 90
        8
176
     1
 62
     7
176
     1
 40
1.0
176
     1
 90
        1
176
     1
 90
        6
176
     1
 90
        2
176
     1
 62
     7
176
     1
 90
        5
176
     1
 90
        0
176
     1
 90
        0
176
     1
290
     0
176
     1
 90
        1
176
     1
 40
0.0
176
     1
 90
        0
176
     1
290
     0
176
     1
290
     1
176
     1
290
     1
176
     1
290
     0
176
     1
290
     0
176
     1
290
     0
176
     1
290
     0
176
     1
290
     0
176
     1
290
     0
176
     1
 90
       50
176
     1
 40
0.0
176
     1
 40
1.0
176
     1
 90
        0
176
     1
 62
    18
420
        0
176
     1
 90
       50
176
     1
 90
        3
176
     1
 62
     5
420
      255
176
     1
290
     0
176
     1
 90
       50
176
     1
 90
       50
176
     1
 90
       50
176
     1
290
     0
176
     1
 90
       50
176
     1
 62
   256
176
     0
 40
1.0
176
     0
 90
        2
176
     1
  1
strokes_ogs.tif
176
     1
290
     0
176
     1
 40
1.0
176
     1
 40
1.0
176
     1
  0
VISUALSTYLE
  5
36
102
{ACAD_REACTORS
330
2A
102
}
330
2A
100
AcDbVisualStyle
  2
Brighten
 70
    12
177
     3
291
     1
 70
    58
 90
        2
176
     1
 90
        2
176
     1
 90
        0
176
     1
 90
        0
176
     1
 40
0.6
176
     1
 40
30.0
176
     1
 62
     7
420
 16777215
176
     1
 90
        1
176
     1
 90
        4
176
     1
 62
     7
176
     1
 62
   257
176
     1
 90
        1
176
     1
 90
        1
176
     1
 40
1.0
176
     1
 90
        8
176
     1
 62
     7
176
     1
 40
1.0
176
     1
 90
        1
176
     1
 90
        6
176
     1
 90
        2
176
     1
 62
     7
176
     1
 90
        5
176
     1
 90
        0
176
     1
 90
        0
176
     1
290
     0
176
     1
 90
        1
176
     1
 40
50.0
176
     1
 90
        0
176
     1
290
     0
176
     1
290
     1
176
     1
290
     1
176
     1
290
     0
176
     1
290
     0
176
     1
290
     0
176
     1
290
     0
176
     1
290
     0
176
     1
290
     0
176
     1
 90
       50
176
     1
 40
0.0
176
     1
 40
1.0
176
     1
 90
        0
176
     1
 62
    18
420
        0
176
     1
 90
       50
176
     1
 90
        3
176
     1
 62
     5
420
      255
176
     1
290
     0
176
     1
 90
       50
176
     1
 90
       50
176
     1
 90
       50
176
     1
290
     0
176
     1
 90
       50
176
     1
 62
   256
176
     0
 40
1.0
176
     0
 90
        2
176
     1
  1
strokes_ogs.tif
176
     1
290
     0
176
     1
 40
1.0
176
     1
 40
1.0
176
     1
  0
VISUALSTYLE
  5
3A
102
{ACAD_REACTORS
330
2A
102
}
330
2A
100
AcDbVisualStyle
  2
ColorChange
 70
    16
177
     3
291
     1
 70
    58
 90
        2
176
     1
 90
        2
176
     1
 90
        3
176
     1
 90
        0
176
     1
 40
0.6
176
     1
 40
30.0
176
     1
 62
     8
420
  8421504
176
     1
 90
        1
176
     1
 90
        4
176
     1
 62
     7
176
     1
 62
   257
176
     1
 90
        1
176
     1
 90
        1
176
     1
 40
1.0
176
     1
 90
        8
176
     1
 62
     8
420
  8421504
176
     1
 40
1.0
176
     1
 90
        1
176
     1
 90
        6
176
     1
 90
        2
176
     1
 62
     7
176
     1
 90
        5
176
     1
 90
        0
176
     1
 90
        0
176
     1
290
     0
176
     1
 90
        1
176
     1
 40
0.0
176
     1
 90
        0
176
     1
290
     0
176
     1
290
     1
176
     1
290
     1
176
     1
290
     0
176
     1
290
     0
176
     1
290
     0
176
     1
290
     0
176
     1
290
     0
176
     1
290
     0
176
     1
 90
       50
176
     1
 40
0.0
176
     1
 40
1.0
176
     1
 90
        0
176
     1
 62
    18
420
        0
176
     1
 90
       50
176
     1
 90
        3
176
     1
 62
     5
420
      255
176
     1
290
     0
176
     1
 90
       50
176
     1
 90
       50
176
     1
 90
       50
176
     1
290
     0
176
     1
 90
       50
176
     1
 62
   256
176
     0
 40
1.0
176
     0
 90
        2
176
     1
  1
strokes_ogs.tif
176
     1
290
     0
176
     1
 40
1.0
176
     1
 40
1.0
176
     1
  0
VISUALSTYLE
  5
34
102
{ACAD_REACTORS
330
2A
102
}
330
2A
100
AcDbVisualStyle
  2
Conceptual
 70
     9
177
     3
291
     0
 70
    58
 90
        3
176
     1
 90
        2
176
     1
 90
        0
176
     1
 90
        0
176
     1
 40
0.6
176
     1
 40
30.0
176
     1
 62
     7
420
 16777215
176
     1
 90
        2
176
     1
 90
        2
176
     1
 62
     7
176
     1
 62
   257
176
     1
 90
        1
176
     1
 90
        1
176
     1
 40
179.0
176
     1
 90
        8
176
     1
 62
     7
176
     1
 40
1.0
176
     1
 90
        1
176
     1
 90
        6
176
     1
 90
        2
176
     1
 62
     7
176
     1
 90
        3
176
     1
 90
        0
176
     1
 90
        0
176
     1
290
     0
176
     1
 90
        1
176
     1
 40
0.0
176
     1
 90
        0
176
     1
290
     0
176
     1
290
     1
176
     1
290
     1
176
     1
290
     0
176
     1
290
     0
176
     1
290
     0
176
     1
290
     0
176
     1
290
     0
176
     1
290
     0
176
     1
 90
       50
176
     1
 40
0.0
176
     1
 40
1.0
176
     1
 90
        0
176
     1
 62
    18
420
        0
176
     1
 90
       50
176
     1
 90
        3
176
     1
 62
     5
420
      255
176
     1
290
     0
176
     1
 90
       50
176
     1
 90
       50
176
     1
 90
       50
176
     1
290
     0
176
     1
 90
       50
176
     1
 62
   256
176
     0
 40
1.0
176
     0
 90
        2
176
     1
  1
strokes_ogs.tif
176
     1
290
     0
176
     1
 40
1.0
176
     1
 40
1.0
176
     1
  0
VISUALSTYLE
  5
35
102
{ACAD_REACTORS
330
2A
102
}
330
2A
100
AcDbVisualStyle
  2
Dim
 70
    11
177
     3
291
     1
 70
    58
 90
        2
176
     1
 90
        2
176
     1
 90
        0
176
     1
 90
        0
176
     1
 40
0.6
176
     1
 40
30.0
176
     1
 62
     7
420
 16777215
176
     1
 90
        1
176
     1
 90
        4
176
     1
 62
     7
176
     1
 62
   257
176
     1
 90
        1
176
     1
 90
        1
176
     1
 40
1.0
176
     1
 90
        8
176
     1
 62
     7
176
     1
 40
1.0
176
     1
 90
        1
176
     1
 90
        6
176
     1
 90
        2
176
     1
 62
     7
176
     1
 90
        5
176
     1
 90
        0
176
     1
 90
        0
176
     1
290
     0
176
     1
 90
        1
176
     1
 40
-50.0
176
     1
 90
        0
176
     1
290
     0
176
     1
290
     1
176
     1
290
     1
176
     1
290
     0
176
     1
290
     0
176
     1
290
     0
176
     1
290
     0
176
     1
290
     0
176
     1
290
     0
176
     1
 90
       50
176
     1
 40
0.0
176
     1
 40
1.0
176
     1
 90
        0
176
     1
 62
    18
420
        0
176
     1
 90
       50
176
     1
 90
        3
176
     1
 62
     5
420
      255
176
     1
290
     0
176
     1
 90
       50
176
     1
 90
       50
176
     1
 90
       50
176
     1
290
     0
176
     1
 90
       50
176
     1
 62
   256
176
     0
 40
1.0
176
     0
 90
        2
176
     1
  1
strokes_ogs.tif
176
     1
290
     0
176
     1
 40
1.0
176
     1
 40
1.0
176
     1
  0
VISUALSTYLE
  5
3D
102
{ACAD_REACTORS
330
2A
102
}
330
2A
100
AcDbVisualStyle
  2
EdgeColorOff
 70
    22
177
     3
291
     1
 70
    58
 90
        2
176
     0
 90
        2
176
     0
 90
        0
176
     0
 90
        0
176
     0
 40
0.6
176
     0
 40
30.0
176
     0
 62
     7
420
 16777215
176
     0
 90
        1
176
     0
 90
        4
176
     0
 62
     7
176
     0
 62
   257
176
     0
 90
        1
176
     0
 90
        1
176
     0
 40
1.0
176
     0
 90
        8
176
     2
 62
     7
176
     0
 40
1.0
176
     0
 90
        1
176
     0
 90
        6
176
     0
 90
        2
176
     0
 62
     7
176
     0
 90
        5
176
     0
 90
        0
176
     0
 90
        0
176
     0
290
     0
176
     0
 90
        1
176
     0
 40
0.0
176
     0
 90
        0
176
     0
290
     0
176
     0
290
     1
176
     0
290
     1
176
     0
290
     0
176
     0
290
     0
176
     0
290
     0
176
     0
290
     0
176
     0
290
     0
176
     0
290
     0
176
     0
 90
       50
176
     0
 40
0.0
176
     0
 40
1.0
176
     0
 90
        0
176
     0
 62
    18
420
        0
176
     0
 90
       50
176
     0
 90
        3
176
     0
 62
     5
420
      255
176
     0
290
     0
176
     0
 90
       50
176
     0
 90
       50
176
     0
 90
       50
176
     0
290
     0
176
     0
 90
       50
176
     0
 62
   256
176
     0
 40
1.0
176
     0
 90
        2
176
     0
  1
strokes_ogs.tif
176
     0
290
     0
176
     0
 40
1.0
176
     0
 40
1.0
176
     0
  0
VISUALSTYLE
  5
39
102
{ACAD_REACTORS
330
2A
102
}
330
2A
100
AcDbVisualStyle
  2
Facepattern
 70
    15
177
     3
291
     1
 70
    58
 90
        2
176
     1
 90
        2
176
     1
 90
        0
176
     1
 90
        0
176
     1
 40
0.6
176
     1
 40
30.0
176
     1
 62
     7
420
 16777215
176
     1
 90
        1
176
     1
 90
        4
176
     1
 62
     7
176
     1
 62
   257
176
     1
 90
        1
176
     1
 90
        1
176
     1
 40
1.0
176
     1
 90
        8
176
     1
 62
     7
176
     1
 40
1.0
176
     1
 90
        1
176
     1
 90
        6
176
     1
 90
        2
176
     1
 62
     7
176
     1
 90
        5
176
     1
 90
        0
176
     1
 90
        0
176
     1
290
     0
176
     1
 90
        1
176
     1
 40
0.0
176
     1
 90
        0
176
     1
290
     0
176
     1
290
     1
176
     1
290
     1
176
     1
290
     0
176
     1
290
     0
176
     1
290
     0
176
     1
290
     0
176
     1
290
     0
176
     1
290
     0
176
     1
 90
       50
176
     1
 40
0.0
176
     1
 40
1.0
176
     1
 90
        0
176
     1
 62
    18
420
        0
176
     1
 90
       50
176
     1
 90
        3
176
     1
 62
     5
420
      255
176
     1
290
     0
176
     1
 90
       50
176
     1
 90
       50
176
     1
 90
       50
176
     1
290
     0
176
     1
 90
       50
176
     1
 62
   256
176
     0
 40
1.0
176
     0
 90
        2
176
     1
  1
strokes_ogs.tif
176
     1
290
     0
176
     1
 40
1.0
176
     1
 40
1.0
176
     1
  0
VISUALSTYLE
  5
2B
102
{ACAD_REACTORS
330
2A
102
}
330
2A
100
AcDbVisualStyle
  2
Flat
 70
     0
177
     3
291
     1
 70
    58
 90
        2
176
     1
 90
        1
176
     1
 90
        1
176
     1
 90
        2
176
     1
 40
0.6
176
     1
 40
30.0
176
     1
 62
     7
420
 16777215
176
     1
 90
        0
176
     1
 90
        0
176
     1
 62
     7
176
     1
 62
   257
176
     1
 90
        1
176
     1
 90
        1
176
     1
 40
1.0
176
     1
 90
        8
176
     1
 62
     7
176
     1
 40
1.0
176
     1
 90
        1
176
     1
 90
        6
176
     1
 90
        2
176
     1
 62
     7
176
     1
 90
        5
176
     1
 90
        0
176
     1
 90
        0
176
     1
290
     0
176
     1
 90
       13
176
     1
 40
0.0
176
     1
 90
        0
176
     1
290
     0
176
     1
290
     1
176
     1
290
     1
176
     1
290
     0
176
     1
290
     0
176
     1
290
     0
176
     1
290
     0
176
     1
290
     0
176
     1
290
     0
176
     1
 90
       50
176
     1
 40
0.0
176
     1
 40
1.0
176
     1
 90
        0
176
     1
 62
    18
420
        0
176
     1
 90
       50
176
     1
 90
        3
176
     1
 62
     5
420
      255
176
     1
290
     0
176
     1
 90
       50
176
     1
 90
       50
176
     1
 90
       50
176
     1
290
     0
176
     1
 90
       50
176
     1
 62
   256
176
     0
 40
1.0
176
     0
 90
        2
176
     1
  1
strokes_ogs.tif
176
     1
290
     0
176
     1
 40
1.0
176
     1
 40
1.0
176
     1
  0
VISUALSTYLE
  5
2C
102
{ACAD_REACTORS
330
2A
102
}
330
2A
100
AcDbVisualStyle
  2
FlatWithEdges
 70
     1
177
     3
291
     1
 70
    58
 90
        2
176
     1
 90
        1
176
     1
 90
        1
176
     1
 90
        2
176
     1
 40
0.6
176
     1
 40
30.0
176
     1
 62
     7
420
 16777215
176
     1
 90
        1
176
     1
 90
        0
176
     1
 62
     7
176
     1
 62
   257
176
     1
 90
        1
176
     1
 90
        1
176
     1
 40
1.0
176
     1
 90
        0
176
     1
 62
   257
176
     1
 40
1.0
176
     1
 90
        1
176
     1
 90
        6
176
     1
 90
        2
176
     1
 62
     7
176
     1
 90
        5
176
     1
 90
        0
176
     1
 90
        0
176
     1
290
     0
176
     1
 90
       13
176
     1
 40
0.0
176
     1
 90
        0
176
     1
290
     0
176
     1
290
     1
176
     1
290
     1
176
     1
290
     0
176
     1
290
     0
176
     1
290
     0
176
     1
290
     0
176
     1
290
     0
176
     1
290
     0
176
     1
 90
       50
176
     1
 40
0.0
176
     1
 40
1.0
176
     1
 90
        0
176
     1
 62
    18
420
        0
176
     1
 90
       50
176
     1
 90
        3
176
     1
 62
     5
420
      255
176
     1
290
     0
176
     1
 90
       50
176
     1
 90
       50
176
     1
 90
       50
176
     1
290
     0
176
     1
 90
       50
176
     1
 62
   256
176
     0
 40
1.0
176
     0
 90
        2
176
     1
  1
strokes_ogs.tif
176
     1
290
     0
176
     1
 40
1.0
176
     1
 40
1.0
176
     1
  0
VISUALSTYLE
  5
2D
102
{ACAD_REACTORS
330
2A
102
}
330
2A
100
AcDbVisualStyle
  2
Gouraud
 70
     2
177
     3
291
     1
 70
    58
 90
        2
176
     1
 90
        2
176
     1
 90
        1
176
     1
 90
        2
176
     1
 40
0.6
176
     1
 40
30.0
176
     1
 62
     7
420
 16777215
176
     1
 90
        0
176
     1
 90
        0
176
     1
 62
     7
176
     1
 62
   257
176
     1
 90
        1
176
     1
 90
        1
176
     1
 40
1.0
176
     1
 90
        0
176
     1
 62
     7
176
     1
 40
1.0
176
     1
 90
        1
176
     1
 90
        6
176
     1
 90
        2
176
     1
 62
     7
176
     1
 90
        5
176
     1
 90
        0
176
     1
 90
        0
176
     1
290
     0
176
     1
 90
       13
176
     1
 40
0.0
176
     1
 90
        0
176
     1
290
     0
176
     1
290
     1
176
     1
290
     1
176
     1
290
     0
176
     1
290
     0
176
     1
290
     0
176
     1
290
     0
176
     1
290
     0
176
     1
290
     0
176
     1
 90
       50
176
     1
 40
0.0
176
     1
 40
1.0
176
     1
 90
        0
176
     1
 62
    18
420
        0
176
     1
 90
       50
176
     1
 90
        3
176
     1
 62
     5
420
      255
176
     1
290
     0
176
     1
 90
       50
176
     1
 90
       50
176
     1
 90
       50
176
     1
290
     0
176
     1
 90
       50
176
     1
 62
   256
176
     0
 40
1.0
176
     0
 90
        2
176
     1
  1
strokes_ogs.tif
176
     1
290
     0
176
     1
 40
1.0
176
     1
 40
1.0
176
     1
  0
VISUALSTYLE
  5
2E
102
{ACAD_REACTORS
330
2A
102
}
330
2A
100
AcDbVisualStyle
  2
GouraudWithEdges
 70
     3
177
     3
291
     1
 70
    58
 90
        2
176
     1
 90
        2
176
     1
 90
        1
176
     1
 90
        2
176
     1
 40
0.6
176
     1
 40
30.0
176
     1
 62
     7
420
 16777215
176
     1
 90
        1
176
     1
 90
        0
176
     1
 62
     7
176
     1
 62
   257
176
     1
 90
        1
176
     1
 90
        1
176
     1
 40
1.0
176
     1
 90
        0
176
     1
 62
   257
176
     1
 40
1.0
176
     1
 90
        1
176
     1
 90
        6
176
     1
 90
        2
176
     1
 62
     7
176
     1
 90
        5
176
     1
 90
        0
176
     1
 90
        0
176
     1
290
     0
176
     1
 90
       13
176
     1
 40
0.0
176
     1
 90
        0
176
     1
290
     0
176
     1
290
     1
176
     1
290
     1
176
     1
290
     0
176
     1
290
     0
176
     1
290
     0
176
     1
290
     0
176
     1
290
     0
176
     1
290
     0
176
     1
 90
       50
176
     1
 40
0.0
176
     1
 40
1.0
176
     1
 90
        0
176
     1
 62
    18
420
        0
176
     1
 90
       50
176
     1
 90
        3
176
     1
 62
     5
420
      255
176
     1
290
     0
176
     1
 90
       50
176
     1
 90
       50
176
     1
 90
       50
176
     1
290
     0
176
     1
 90
       50
176
     1
 62
   256
176
     0
 40
1.0
176
     0
 90
        2
176
     1
  1
strokes_ogs.tif
176
     1
290
     0
176
     1
 40
1.0
176
     1
 40
1.0
176
     1
  0
VISUALSTYLE
  5
31
102
{ACAD_REACTORS
330
2A
102
}
330
2A
100
AcDbVisualStyle
  2
Hidden
 70
     6
177
     3
291
     0
 70
    58
 90
        1
176
     1
 90
        2
176
     1
 90
        2
176
     1
 90
        0
176
     1
 40
0.6
176
     1
 40
30.0
176
     1
 62
     7
420
 16777215
176
     1
 90
        2
176
     1
 90
        2
176
     1
 62
     7
176
     1
 62
   257
176
     1
 90
        2
176
     1
 90
        1
176
     1
 40
40.0
176
     1
 90
        0
176
     1
 62
   257
176
     1
 40
1.0
176
     1
 90
        1
176
     1
 90
        6
176
     1
 90
        2
176
     1
 62
     7
176
     1
 90
        3
176
     1
 90
        0
176
     1
 90
        0
176
     1
290
     0
176
     1
 90
        1
176
     1
 40
0.0
176
     1
 90
        0
176
     1
290
     0
176
     1
290
     1
176
     1
290
     1
176
     1
290
     0
176
     1
290
     0
176
     1
290
     0
176
     1
290
     0
176
     1
290
     0
176
     1
290
     0
176
     1
 90
       50
176
     1
 40
0.0
176
     1
 40
1.0
176
     1
 90
        0
176
     1
 62
    18
420
        0
176
     1
 90
       50
176
     1
 90
        3
176
     1
 62
     5
420
      255
176
     1
290
     0
176
     1
 90
       50
176
     1
 90
       50
176
     1
 90
       50
176
     1
290
     0
176
     1
 90
       50
176
     1
 62
   256
176
     0
 40
1.0
176
     0
 90
        2
176
     1
  1
strokes_ogs.tif
176
     1
290
     0
176
     1
 40
1.0
176
     1
 40
1.0
176
     1
  0
VISUALSTYLE
  5
3B
102
{ACAD_REACTORS
330
2A
102
}
330
2A
100
AcDbVisualStyle
  2
JitterOff
 70
    20
177
     3
291
     1
 70
    58
 90
        2
176
     0
 90
        2
176
     0
 90
        0
176
     0
 90
        0
176
     0
 40
0.6
176
     0
 40
30.0
176
     0
 62
     7
420
 16777215
176
     0
 90
        1
176
     0
 90
        4
176
     0
 62
     7
176
     0
 62
   257
176
     0
 90
        1
176
     0
 90
        1
176
     0
 40
1.0
176
     0
 90
       10
176
     2
 62
     7
176
     0
 40
1.0
176
     0
 90
        1
176
     0
 90
        6
176
     0
 90
        2
176
     0
 62
     7
176
     0
 90
        5
176
     0
 90
        0
176
     0
 90
        0
176
     0
290
     0
176
     0
 90
        1
176
     0
 40
0.0
176
     0
 90
        0
176
     0
290
     0
176
     0
290
     1
176
     0
290
     1
176
     0
290
     0
176
     0
290
     0
176
     0
290
     0
176
     0
290
     0
176
     0
290
     0
176
     0
290
     0
176
     0
 90
       50
176
     0
 40
0.0
176
     0
 40
1.0
176
     0
 90
        0
176
     0
 62
    18
420
        0
176
     0
 90
       50
176
     0
 90
        3
176
     0
 62
     5
420
      255
176
     0
290
     0
176
     0
 90
       50
176
     0
 90
       50
176
     0
 90
       50
176
     0
290
     0
176
     0
 90
       50
176
     0
 62
   256
176
     0
 40
1.0
176
     0
 90
        2
176
     0
  1
strokes_ogs.tif
176
     0
290
     0
176
     0
 40
1.0
176
     0
 40
1.0
176
     0
  0
VISUALSTYLE
  5
38
102
{ACAD_REACTORS
330
2A
102
}
330
2A
100
AcDbVisualStyle
  2
Linepattern
 70
    14
177
     3
291
     1
 70
    58
 90
        2
176
     1
 90
        2
176
     1
 90
        0
176
     1
 90
        0
176
     1
 40
0.6
176
     1
 40
30.0
176
     1
 62
     7
420
 16777215
176
     1
 90
        1
176
     1
 90
        4
176
     1
 62
     7
176
     1
 62
   257
176
     1
 90
        7
176
     1
 90
        7
176
     1
 40
1.0
176
     1
 90
        8
176
     1
 62
     7
176
     1
 40
1.0
176
     1
 90
        1
176
     1
 90
        6
176
     1
 90
        2
176
     1
 62
     7
176
     1
 90
        5
176
     1
 90
        0
176
     1
 90
        0
176
     1
290
     0
176
     1
 90
        1
176
     1
 40
0.0
176
     1
 90
        0
176
     1
290
     0
176
     1
290
     1
176
     1
290
     1
176
     1
290
     0
176
     1
290
     0
176
     1
290
     0
176
     1
290
     0
176
     1
290
     0
176
     1
290
     0
176
     1
 90
       50
176
     1
 40
0.0
176
     1
 40
1.0
176
     1
 90
        0
176
     1
 62
    18
420
        0
176
     1
 90
       50
176
     1
 90
        3
176
     1
 62
     5
420
      255
176
     1
290
     0
176
     1
 90
       50
176
     1
 90
       50
176
     1
 90
       50
176
     1
290
     0
176
     1
 90
       50
176
     1
 62
   256
176
     0
 40
1.0
176
     0
 90
        2
176
     1
  1
strokes_ogs.tif
176
     1
290
     0
176
     1
 40
1.0
176
     1
 40
1.0
176
     1
  0
VISUALSTYLE
  5
3C
102
{ACAD_REACTORS
330
2A
102
}
330
2A
100
AcDbVisualStyle
  2
OverhangOff
 70
    21
177
     3
291
     1
 70
    58
 90
        2
176
     0
 90
        2
176
     0
 90
        0
176
     0
 90
        0
176
     0
 40
0.6
176
     0
 40
30.0
176
     0
 62
     7
420
 16777215
176
     0
 90
        1
176
     0
 90
        4
176
     0
 62
     7
176
     0
 62
   257
176
     0
 90
        1
176
     0
 90
        1
176
     0
 40
1.0
176
     0
 90
        9
176
     2
 62
     7
176
     0
 40
1.0
176
     0
 90
        1
176
     0
 90
        6
176
     0
 90
        2
176
     0
 62
     7
176
     0
 90
        5
176
     0
 90
        0
176
     0
 90
        0
176
     0
290
     0
176
     0
 90
        1
176
     0
 40
0.0
176
     0
 90
        0
176
     0
290
     0
176
     0
290
     1
176
     0
290
     1
176
     0
290
     0
176
     0
290
     0
176
     0
290
     0
176
     0
290
     0
176
     0
290
     0
176
     0
290
     0
176
     0
 90
       50
176
     0
 40
0.0
176
     0
 40
1.0
176
     0
 90
        0
176
     0
 62
    18
420
        0
176
     0
 90
       50
176
     0
 90
        3
176
     0
 62
     5
420
      255
176
     0
290
     0
176
     0
 90
       50
176
     0
 90
       50
176
     0
 90
       50
176
     0
290
     0
176
     0
 90
       50
176
     0
 62
   256
176
     0
 40
1.0
176
     0
 90
        2
176
     0
  1
strokes_ogs.tif
176
     0
290
     0
176
     0
 40
1.0
176
     0
 40
1.0
176
     0
  0
VISUALSTYLE
  5
33
102
{ACAD_REACTORS
330
2A
102
}
330
2A
100
AcDbVisualStyle
  2
Realistic
 70
     8
177
     3
291
     0
 70
    58
 90
        2
176
     1
 90
        3
176
     1
 90
        0
176
     1
 90
        2
176
     1
 40
0.6
176
     1
 40
30.0
176
     1
 62
     7
420
 16777215
176
     1
 90
        0
176
     1
 90
        0
176
     1
 62
     7
176
     1
 62
   257
176
     1
 90
        1
176
     1
 90
        1
176
     1
 40
1.0
176
     1
 90
        8
176
     1
 62
   257
176
     1
 40
1.0
176
     1
 90
        1
176
     1
 90
        6
176
     1
 90
        2
176
     1
 62
     7
176
     1
 90
        3
176
     1
 90
        0
176
     1
 90
        0
176
     1
290
     0
176
     1
 90
       13
176
     1
 40
0.0
176
     1
 90
        0
176
     1
290
     0
176
     1
290
     1
176
     1
290
     1
176
     1
290
     0
176
     1
290
     0
176
     1
290
     0
176
     1
290
     0
176
     1
290
     0
176
     1
290
     0
176
     1
 90
       50
176
     1
 40
0.0
176
     1
 40
1.0
176
     1
 90
        0
176
     1
 62
    18
420
        0
176
     1
 90
       50
176
     1
 90
        3
176
     1
 62
     5
420
      255
176
     1
290
     0
176
     1
 90
       50
176
     1
 90
       50
176
     1
 90
       50
176
     1
290
     0
176
     1
 90
       50
176
     1
 62
   256
176
     0
 40
1.0
176
     0
 90
        2
176
     1
  1
strokes_ogs.tif
176
     1
290
     0
176
     1
 40
1.0
176
     1
 40
1.0
176
     1
  0
VISUALSTYLE
  5
42
102
{ACAD_REACTORS
330
2A
102
}
330
2A
100
AcDbVisualStyle
  2
Shaded
 70
    27
177
     3
291
     0
 70
    58
 90
        2
176
     1
 90
        2
176
     1
 90
        1
176
     1
 90
        2
176
     1
 40
0.6
176
     1
 40
30.0
176
     1
 62
     7
420
 16777215
176
     1
 90
        0
176
     1
 90
        4
176
     1
 62
     7
176
     1
 62
   257
176
     1
 90
        1
176
     1
 90
        1
176
     1
 40
1.0
176
     1
 90
        8
176
     1
 62
   257
176
     1
 40
1.0
176
     1
 90
        1
176
     1
 90
        6
176
     1
 90
        2
176
     1
 62
     8
420
  7895160
176
     1
 90
        3
176
     1
 90
        0
176
     1
 90
        0
176
     1
290
     0
176
     1
 90
        5
176
     1
 40
0.0
176
     1
 90
        0
176
     1
290
     0
176
     1
290
     1
176
     1
290
     1
176
     1
290
     0
176
     1
290
     0
176
     1
290
     0
176
     1
290
     0
176
     1
290
     0
176
     1
290
     0
176
     1
 90
       50
176
     1
 40
0.0
176
     1
 40
1.0
176
     1
 90
        0
176
     1
 62
    18
420
        0
176
     1
 90
       50
176
     1
 90
        3
176
     1
 62
     5
420
      255
176
     1
290
     0
176
     1
 90
       50
176
     1
 90
       50
176
     1
 90
       50
176
     1
290
     0
176
     1
 90
       50
176
     1
 62
   256
176
     0
 40
1.0
176
     0
 90
        2
176
     1
  1
strokes_ogs.tif
176
     1
290
     0
176
     1
 40
1.0
176
     1
 40
1.0
176
     1
  0
VISUALSTYLE
  5
41
102
{ACAD_REACTORS
330
2A
102
}
330
2A
100
AcDbVisualStyle
  2
Shaded with edges
 70
    26
177
     3
291
     0
 70
    58
 90
        2
176
     1
 90
        2
176
     1
 90
        1
176
     1
 90
        2
176
     1
 40
0.6
176
     1
 40
30.0
176
     1
 62
     7
420
 16777215
176
     1
 90
        1
176
     1
 90
       10
176
     1
 62
     7
176
     1
 62
   257
176
     1
 90
        2
176
     1
 90
        1
176
     1
 40
1.0
176
     1
 90
        8
176
     1
 62
   257
176
     1
 40
1.0
176
     1
 90
        1
176
     1
 90
        6
176
     1
 90
        2
176
     1
 62
     7
176
     1
 90
        3
176
     1
 90
        0
176
     1
 90
        0
176
     1
290
     0
176
     1
 90
        5
176
     1
 40
0.0
176
     1
 90
        0
176
     1
290
     0
176
     1
290
     1
176
     1
290
     1
176
     1
290
     0
176
     1
290
     0
176
     1
290
     0
176
     1
290
     0
176
     1
290
     0
176
     1
290
     0
176
     1
 90
       50
176
     1
 40
0.0
176
     1
 40
1.0
176
     1
 90
        0
176
     1
 62
    18
420
        0
176
     1
 90
       50
176
     1
 90
        3
176
     1
 62
     5
420
      255
176
     1
290
     0
176
     1
 90
       50
176
     1
 90
       50
176
     1
 90
       50
176
     1
290
     0
176
     1
 90
       50
176
     1
 62
   256
176
     0
 40
1.0
176
     0
 90
        2
176
     1
  1
strokes_ogs.tif
176
     1
290
     0
176
     1
 40
1.0
176
     1
 40
1.0
176
     1
  0
VISUALSTYLE
  5
3E
102
{ACAD_REACTORS
330
2A
102
}
330
2A
100
AcDbVisualStyle
  2
Shades of Gray
 70
    23
177
     3
291
     0
 70
    58
 90
        2
176
     1
 90
        2
176
     1
 90
        3
176
     1
 90
        0
176
     1
 40
0.6
176
     1
 40
30.0
176
     1
 62
     7
420
 16777215
176
     1
 90
        2
176
     1
 90
        2
176
     1
 62
     7
176
     1
 62
     7
176
     1
 90
        1
176
     1
 90
        1
176
     1
 40
40.0
176
     1
 90
        8
176
     1
 62
     7
176
     1
 40
1.0
176
     1
 90
        1
176
     1
 90
        6
176
     1
 90
        2
176
     1
 62
     7
176
     1
 90
        3
176
     1
 90
        0
176
     1
 90
        0
176
     1
290
     0
176
     1
 90
        1
176
     1
 40
0.0
176
     1
 90
        0
176
     1
290
     0
176
     1
290
     1
176
     1
290
     1
176
     1
290
     0
176
     1
290
     0
176
     1
290
     0
176
     1
290
     0
176
     1
290
     0
176
     1
290
     0
176
     1
 90
       50
176
     1
 40
0.0
176
     1
 40
1.0
176
     1
 90
        0
176
     1
 62
    18
420
        0
176
     1
 90
       50
176
     1
 90
        3
176
     1
 62
     5
420
      255
176
     1
290
     0
176
     1
 90
       50
176
     1
 90
       50
176
     1
 90
       50
176
     1
290
     0
176
     1
 90
       50
176
     1
 62
   256
176
     0
 40
1.0
176
     0
 90
        2
176
     1
  1
strokes_ogs.tif
176
     1
290
     0
176
     1
 40
1.0
176
     1
 40
1.0
176
     1
  0
VISUALSTYLE
  5
3F
102
{ACAD_REACTORS
330
2A
102
}
330
2A
100
AcDbVisualStyle
  2
Sketchy
 70
    24
177
     3
291
     0
 70
    58
 90
        1
176
     1
 90
        2
176
     1
 90
        2
176
     1
 90
        0
176
     1
 40
0.6
176
     1
 40
30.0
176
     1
 62
     7
420
 16777215
176
     1
 90
        2
176
     1
 90
        2
176
     1
 62
     7
176
     1
 62
     7
176
     1
 90
        1
176
     1
 90
        1
176
     1
 40
40.0
176
     1
 90
       11
176
     1
 62
     7
176
     1
 40
1.0
176
     1
 90
        1
176
     1
 90
        6
176
     1
 90
        2
176
     1
 62
     7
176
     1
 90
        6
176
     1
 90
        0
176
     1
 90
        0
176
     1
290
     0
176
     1
 90
        1
176
     1
 40
0.0
176
     1
 90
        0
176
     1
290
     0
176
     1
290
     1
176
     1
290
     1
176
     1
290
     0
176
     1
290
     0
176
     1
290
     0
176
     1
290
     0
176
     1
290
     0
176
     1
290
     0
176
     1
 90
       50
176
     1
 40
0.0
176
     1
 40
1.0
176
     1
 90
        0
176
     1
 62
    18
420
        0
176
     1
 90
       50
176
     1
 90
        3
176
     1
 62
     5
420
      255
176
     1
290
     0
176
     1
 90
       50
176
     1
 90
       50
176
     1
 90
       50
176
     1
290
     0
176
     1
 90
       50
176
     1
 62
   256
176
     0
 40
1.0
176
     0
 90
        2
176
     1
  1
strokes_ogs.tif
176
     1
290
     0
176
     1
 40
1.0
176
     1
 40
1.0
176
     1
  0
VISUALSTYLE
  5
37
102
{ACAD_REACTORS
330
2A
102
}
330
2A
100
AcDbVisualStyle
  2
Thicken
 70
    13
177
     3
291
     1
 70
    58
 90
        2
176
     1
 90
        2
176
     1
 90
        0
176
     1
 90
        0
176
     1
 40
0.6
176
     1
 40
30.0
176
     1
 62
     7
420
 16777215
176
     1
 90
        1
176
     1
 90
        4
176
     1
 62
     7
176
     1
 62
   257
176
     1
 90
        1
176
     1
 90
        1
176
     1
 40
1.0
176
     1
 90
       12
176
     1
 62
     7
176
     1
 40
1.0
176
     1
 90
        1
176
     1
 90
        6
176
     1
 90
        2
176
     1
 62
     7
176
     1
 90
        5
176
     1
 90
        0
176
     1
 90
        0
176
     1
290
     0
176
     1
 90
        1
176
     1
 40
0.0
176
     1
 90
        0
176
     1
290
     0
176
     1
290
     1
176
     1
290
     1
176
     1
290
     0
176
     1
290
     0
176
     1
290
     0
176
     1
290
     0
176
     1
290
     0
176
     1
290
     0
176
     1
 90
       50
176
     1
 40
0.0
176
     1
 40
1.0
176
     1
 90
        0
176
     1
 62
    18
420
        0
176
     1
 90
       50
176
     1
 90
        3
176
     1
 62
     5
420
      255
176
     1
290
     0
176
     1
 90
       50
176
     1
 90
       50
176
     1
 90
       50
176
     1
290
     0
176
     1
 90
       50
176
     1
 62
   256
176
     0
 40
1.0
176
     0
 90
        2
176
     1
  1
strokes_ogs.tif
176
     1
290
     0
176
     1
 40
1.0
176
     1
 40
1.0
176
     1
  0
VISUALSTYLE
  5
30
102
{ACAD_REACTORS
330
2A
102
}
330
2A
100
AcDbVisualStyle
  2
Wireframe
 70
     5
177
     3
291
     0
 70
    58
 90
        0
176
     1
 90
        2
176
     1
 90
        0
176
     1
 90
        0
176
     1
 40
0.6
176
     1
 40
30.0
176
     1
 62
     7
420
 16777215
176
     1
 90
        1
176
     1
 90
        4
176
     1
 62
     7
176
     1
 62
   257
176
     1
 90
        1
176
     1
 90
        1
176
     1
 40
1.0
176
     1
 90
        0
176
     1
 62
   257
176
     1
 40
1.0
176
     1
 90
        1
176
     1
 90
        6
176
     1
 90
        2
176
     1
 62
     7
176
     1
 90
        3
176
     1
 90
        0
176
     1
 90
        0
176
     1
290
     0
176
     1
 90
        1
176
     1
 40
0.0
176
     1
 90
        0
176
     1
290
     0
176
     1
290
     1
176
     1
290
     1
176
     1
290
     0
176
     1
290
     0
176
     1
290
     0
176
     1
290
     0
176
     1
290
     0
176
     1
290
     0
176
     1
 90
       50
176
     1
 40
0.0
176
     1
 40
1.0
176
     1
 90
        0
176
     1
 62
    18
420
        0
176
     1
 90
       50
176
     1
 90
        3
176
     1
 62
     5
420
      255
176
     1
290
     0
176
     1
 90
       50
176
     1
 90
       50
176
     1
 90
       50
176
     1
290
     0
176
     1
 90
       50
176
     1
 62
   256
176
     0
 40
1.0
176
     0
 90
        2
176
     1
  1
strokes_ogs.tif
176
     1
290
     0
176
     1
 40
1.0
176
     1
 40
1.0
176
     1
  0
VISUALSTYLE
  5
40
102
{ACAD_REACTORS
330
2A
102
}
330
2A
100
AcDbVisualStyle
  2
X-Ray
 70
    25
177
     3
291
     0
 70
    58
 90
        2
176
     1
 90
        2
176
     1
 90
        1
176
     1
 90
        1
176
     1
 40
0.5
176
     1
 40
30.0
176
     1
 62
     7
420
 16777215
176
     1
 90
        1
176
     1
 90
        0
176
     1
 62
     7
176
     1
 62
   257
176
     1
 90
        1
176
     1
 90
        1
176
     1
 40
1.0
176
     1
 90
        8
176
     1
 62
     7
176
     1
 40
1.0
176
     1
 90
        1
176
     1
 90
        6
176
     1
 90
        2
176
     1
 62
     7
176
     1
 90
        3
176
     1
 90
        0
176
     1
 90
        0
176
     1
290
     0
176
     1
 90
       13
176
     1
 40
0.0
176
     1
 90
        0
176
     1
290
     0
176
     1
290
     1
176
     1
290
     1
176
     1
290
     0
176
     1
290
     0
176
     1
290
     0
176
     1
290
     0
176
     1
290
     0
176
     1
290
     0
176
     1
 90
       50
176
     1
 40
0.0
176
     1
 40
1.0
176
     1
 90
        0
176
     1
 62
    18
420
        0
176
     1
 90
       50
176
     1
 90
        3
176
     1
 62
     5
420
      255
176
     1
290
     0
176
     1
 90
       50
176
     1
 90
       50
176
     1
 90
       50
176
     1
290
     0
176
     1
 90
       50
176
     1
 62
   256
176
     0
 40
1.0
176
     0
 90
        2
176
     1
  1
strokes_ogs.tif
176
     1
290
     0
176
     1
 40
1.0
176
     1
 40
1.0
176
     1
  0
DICTIONARYVAR
  5
267
102
{ACAD_REACTORS
330
266
102
}
330
266
100
DictionaryVariables
280
     0
  1
1:1
  0
DICTIONARYVAR
  5
26C
102
{ACAD_REACTORS
330
266
102
}
330
266
100
DictionaryVariables
280
     0
  1
Standard
  0
DICTIONARYVAR
  5
26B
102
{ACAD_REACTORS
330
266
102
}
330
266
100
DictionaryVariables
280
     0
  1
Standard
  0
DICTIONARY
  5
268
330
6A
100
AcDbDictionary
280
     1
281
     1
  3
ACAD_ROUNDTRIP_2008_TABLESTYLE_CELLSTYLEMAP
360
269
  0
CELLSTYLEMAP
  5
269
102
{ACAD_REACTORS
330
268
102
}
330
268
100
AcDbCellStyleMap
 90
        3
300
CELLSTYLE
  1
TABLEFORMAT_BEGIN
 90
        5
170
     1
 91
        0
 92
    32768
 62
   257
 93
        1
300
CONTENTFORMAT
  1
CONTENTFORMAT_BEGIN
 90
        0
 91
        0
 92
        4
 93
        0
300

 40
0.0
140
1.0
 94
        5
 62
     0
340
11
144
0.25
309
CONTENTFORMAT_END
171
     1
301
MARGIN
  1
CELLMARGIN_BEGIN
 40
0.06
 40
0.06
 40
0.06
 40
0.06
 40
0.06
 40
0.06
309
CELLMARGIN_END
 94
        6
 95
        1
302
GRIDFORMAT
  1
GRIDFORMAT_BEGIN
 90
        0
 91
        1
 62
     0
 92
       -2
340
14
 93
        0
 40
0.045
309
GRIDFORMAT_END
 95
        2
302
GRIDFORMAT
  1
GRIDFORMAT_BEGIN
 90
        0
 91
        1
 62
     0
 92
       -2
340
14
 93
        0
 40
0.045
309
GRIDFORMAT_END
 95
        4
302
GRIDFORMAT
  1
GRIDFORMAT_BEGIN
 90
        0
 91
        1
 62
     0
 92
       -2
340
14
 93
        0
 40
0.045
309
GRIDFORMAT_END
 95
        8
302
GRIDFORMAT
  1
GRIDFORMAT_BEGIN
 90
        0
 91
        1
 62
     0
 92
       -2
340
14
 93
        0
 40
0.045
309
GRIDFORMAT_END
 95
       16
302
GRIDFORMAT
  1
GRIDFORMAT_BEGIN
 90
        0
 91
        1
 62
     0
 92
       -2
340
14
 93
        0
 40
0.045
309
GRIDFORMAT_END
 95
       32
302
GRIDFORMAT
  1
GRIDFORMAT_BEGIN
 90
        0
 91
        1
 62
     0
 92
       -2
340
14
 93
        0
 40
0.045
309
GRIDFORMAT_END
309
TABLEFORMAT_END
  1
CELLSTYLE_BEGIN
 90
        1
 91
        1
300
_TITLE
309
CELLSTYLE_END
300
CELLSTYLE
  1
TABLEFORMAT_BEGIN
 90
        5
170
     1
 91
        0
 92
        0
 62
   257
 93
        1
300
CONTENTFORMAT
  1
CONTENTFORMAT_BEGIN
 90
        0
 91
        0
 92
        4
 93
        0
300

 40
0.0
140
1.0
 94
        5
 62
     0
340
11
144
0.18
309
CONTENTFORMAT_END
171
     1
301
MARGIN
  1
CELLMARGIN_BEGIN
 40
0.06
 40
0.06
 40
0.06
 40
0.06
 40
0.06
 40
0.06
309
CELLMARGIN_END
 94
        6
 95
        1
302
GRIDFORMAT
  1
GRIDFORMAT_BEGIN
 90
        0
 91
        1
 62
     0
 92
       -2
340
14
 93
        0
 40
0.045
309
GRIDFORMAT_END
 95
        2
302
GRIDFORMAT
  1
GRIDFORMAT_BEGIN
 90
        0
 91
        1
 62
     0
 92
       -2
340
14
 93
        0
 40
0.045
309
GRIDFORMAT_END
 95
        4
302
GRIDFORMAT
  1
GRIDFORMAT_BEGIN
 90
        0
 91
        1
 62
     0
 92
       -2
340
14
 93
        0
 40
0.045
309
GRIDFORMAT_END
 95
        8
302
GRIDFORMAT
  1
GRIDFORMAT_BEGIN
 90
        0
 91
        1
 62
     0
 92
       -2
340
14
 93
        0
 40
0.045
309
GRIDFORMAT_END
 95
       16
302
GRIDFORMAT
  1
GRIDFORMAT_BEGIN
 90
        0
 91
        1
 62
     0
 92
       -2
340
14
 93
        0
 40
0.045
309
GRIDFORMAT_END
 95
       32
302
GRIDFORMAT
  1
GRIDFORMAT_BEGIN
 90
        0
 91
        1
 62
     0
 92
       -2
340
14
 93
        0
 40
0.045
309
GRIDFORMAT_END
309
TABLEFORMAT_END
  1
CELLSTYLE_BEGIN
 90
        2
 91
        1
300
_HEADER
309
CELLSTYLE_END
300
CELLSTYLE
  1
TABLEFORMAT_BEGIN
 90
        5
170
     1
 91
        0
 92
        0
 62
   257
 93
        1
300
CONTENTFORMAT
  1
CONTENTFORMAT_BEGIN
 90
        0
 91
        0
 92
        4
 93
        0
300

 40
0.0
140
1.0
 94
        2
 62
     0
340
11
144
0.18
309
CONTENTFORMAT_END
171
     1
301
MARGIN
  1
CELLMARGIN_BEGIN
 40
0.06
 40
0.06
 40
0.06
 40
0.06
 40
0.06
 40
0.06
309
CELLMARGIN_END
 94
        6
 95
        1
302
GRIDFORMAT
  1
GRIDFORMAT_BEGIN
 90
        0
 91
        1
 62
     0
 92
       -2
340
14
 93
        0
 40
0.045
309
GRIDFORMAT_END
 95
        2
302
GRIDFORMAT
  1
GRIDFORMAT_BEGIN
 90
        0
 91
        1
 62
     0
 92
       -2
340
14
 93
        0
 40
0.045
309
GRIDFORMAT_END
 95
        4
302
GRIDFORMAT
  1
GRIDFORMAT_BEGIN
 90
        0
 91
        1
 62
     0
 92
       -2
340
14
 93
        0
 40
0.045
309
GRIDFORMAT_END
 95
        8
302
GRIDFORMAT
  1
GRIDFORMAT_BEGIN
 90
        0
 91
        1
 62
     0
 92
       -2
340
14
 93
        0
 40
0.045
309
GRIDFORMAT_END
 95
       16
302
GRIDFORMAT
  1
GRIDFORMAT_BEGIN
 90
        0
 91
        1
 62
     0
 92
       -2
340
14
 93
        0
 40
0.045
309
GRIDFORMAT_END
 95
       32
302
GRIDFORMAT
  1
GRIDFORMAT_BEGIN
 90
        0
 91
        1
 62
     0
 92
       -2
340
14
 93
        0
 40
0.045
309
GRIDFORMAT_END
309
TABLEFORMAT_END
  1
CELLSTYLE_BEGIN
 90
        3
 91
        2
300
_DATA
309
CELLSTYLE_END
  0
ENDSEC
  0
EOF