0
SECTION
  2
HEADER
  9
$ACADVER
  1
AC1027
  9
$ACADMAINTVER
 70
     8
  9
$DWGCODEPAGE
  3
ANSI_1252
  9
$REQUIREDVERSIONS
160
                 0
  9
$COMMENTS
  1
File was created by Cadenas
  9
$CUSTOMPROPERTYTAG
  1
NN
  9
$CUSTOMPROPERTY
  1
S-2000 Flange Bearing - Square with Type E Dimensions Labyrinth Seal Non-Expansion
  9
$CUSTOMPROPERTYTAG
  1
NT
  9
$CUSTOMPROPERTY
  1
S-2000 - E Type - Inch
  9
$CUSTOMPROPERTYTAG
  1
NB
  9
$CUSTOMPROPERTY
  1
071514
  9
$CUSTOMPROPERTYTAG
  1
NBSYN
  9
$CUSTOMPROPERTY
  1
$PN.
  9
$CUSTOMPROPERTYTAG
  1
LINA
  9
$CUSTOMPROPERTY
  1
071514
  9
$CUSTOMPROPERTYTAG
  1
SS
  9
$CUSTOMPROPERTY
  1
2-7/16
  9
$CUSTOMPROPERTYTAG
  1
TYPE
  9
$CUSTOMPROPERTY
  1
Expansion
  9
$CUSTOMPROPERTYTAG
  1
PN
  9
$CUSTOMPROPERTY
  1
071514
  9
$CUSTOMPROPERTYTAG
  1
DESCRIPTION
  9
$CUSTOMPROPERTY
  1
EF4B-S2-207LE
  9
$CUSTOMPROPERTYTAG
  1
A
  9
$CUSTOMPROPERTY
  1
3.2
  9
$CUSTOMPROPERTYTAG
  1
B
  9
$CUSTOMPROPERTY
  1
6.88
  9
$CUSTOMPROPERTYTAG
  1
C
  9
$CUSTOMPROPERTY
  1
4.19
  9
$CUSTOMPROPERTYTAG
  1
D
  9
$CUSTOMPROPERTY
  1
5.37
  9
$CUSTOMPROPERTYTAG
  1
DD
  9
$CUSTOMPROPERTY
  1
7.601
  9
$CUSTOMPROPERTYTAG
  1
F
  9
$CUSTOMPROPERTY
  1
5/8
  9
$CUSTOMPROPERTYTAG
  1
G
  9
$CUSTOMPROPERTY
  1
0.83
  9
$CUSTOMPROPERTYTAG
  1
H
  9
$CUSTOMPROPERTY
  1
1.5
  9
$CUSTOMPROPERTYTAG
  1
J
  9
$CUSTOMPROPERTY
  1
5.81
  9
$CUSTOMPROPERTYTAG
  1
L
  9
$CUSTOMPROPERTY
  1
3.86
  9
$CUSTOMPROPERTYTAG
  1
N
  9
$CUSTOMPROPERTY
  1
3.32
  9
$CUSTOMPROPERTYTAG
  1
P
  9
$CUSTOMPROPERTY
  1
0.98
  9
$CUSTOMPROPERTYTAG
  1
X
  9
$CUSTOMPROPERTY
  1
0.25
  9
$CUSTOMPROPERTYTAG
  1
Y
  9
$CUSTOMPROPERTY
  1
0.025
  9
$CUSTOMPROPERTYTAG
  1
Z
  9
$CUSTOMPROPERTY
  1
2.95
  9
$CUSTOMPROPERTYTAG
  1
CS
  9
$CUSTOMPROPERTY
  1
3/8-16
  9
$CUSTOMPROPERTYTAG
  1
TORQUE
  9
$CUSTOMPROPERTY
  1
290
  9
$CUSTOMPROPERTYTAG
  1
COMPANY
  9
$CUSTOMPROPERTY
  1
baldor
  9
$INSBASE
 10
0.0
 20
0.0
 30
0.0
  9
$EXTMIN
 10
1.000000000000000E+20
 20
1.000000000000000E+20
 30
1.000000000000000E+20
  9
$EXTMAX
 10
-1.000000000000000E+20
 20
-1.000000000000000E+20
 30
-1.000000000000000E+20
  9
$LIMMIN
 10
0.0
 20
0.0
  9
$LIMMAX
 10
12.0
 20
9.0
  9
$ORTHOMODE
 70
     0
  9
$REGENMODE
 70
     1
  9
$FILLMODE
 70
     1
  9
$QTEXTMODE
 70
     0
  9
$MIRRTEXT
 70
     1
  9
$LTSCALE
 40
1.0
  9
$ATTMODE
 70
     1
  9
$TEXTSIZE
 40
0.2
  9
$TRACEWID
 40
0.05
  9
$TEXTSTYLE
  7
Standard
  9
$CLAYER
  8
0
  9
$CELTYPE
  6
ByLayer
  9
$CECOLOR
 62
   256
  9
$CELTSCALE
 40
1.0
  9
$DISPSILH
 70
     0
  9
$DIMSCALE
 40
1.0
  9
$DIMASZ
 40
0.18
  9
$DIMEXO
 40
0.0625
  9
$DIMDLI
 40
0.38
  9
$DIMRND
 40
0.0
  9
$DIMDLE
 40
0.0
  9
$DIMEXE
 40
0.18
  9
$DIMTP
 40
0.0
  9
$DIMTM
 40
0.0
  9
$DIMTXT
 40
0.18
  9
$DIMCEN
 40
0.09
  9
$DIMTSZ
 40
0.0
  9
$DIMTOL
 70
     0
  9
$DIMLIM
 70
     0
  9
$DIMTIH
 70
     1
  9
$DIMTOH
 70
     1
  9
$DIMSE1
 70
     0
  9
$DIMSE2
 70
     0
  9
$DIMTAD
 70
     0
  9
$DIMZIN
 70
     0
  9
$DIMBLK
  1

  9
$DIMASO
 70
     1
  9
$DIMSHO
 70
     1
  9
$DIMPOST
  1

  9
$DIMAPOST
  1

  9
$DIMALT
 70
     0
  9
$DIMALTD
 70
     2
  9
$DIMALTF
 40
25.4
  9
$DIMLFAC
 40
1.0
  9
$DIMTOFL
 70
     0
  9
$DIMTVP
 40
0.0
  9
$DIMTIX
 70
     0
  9
$DIMSOXD
 70
     0
  9
$DIMSAH
 70
     0
  9
$DIMBLK1
  1

  9
$DIMBLK2
  1

  9
$DIMSTYLE
  2
Standard
  9
$DIMCLRD
 70
     0
  9
$DIMCLRE
 70
     0
  9
$DIMCLRT
 70
     0
  9
$DIMTFAC
 40
1.0
  9
$DIMGAP
 40
0.09
  9
$DIMJUST
 70
     0
  9
$DIMSD1
 70
     0
  9
$DIMSD2
 70
     0
  9
$DIMTOLJ
 70
     1
  9
$DIMTZIN
 70
     0
  9
$DIMALTZ
 70
     0
  9
$DIMALTTZ
 70
     0
  9
$DIMUPT
 70
     0
  9
$DIMDEC
 70
     4
  9
$DIMTDEC
 70
     4
  9
$DIMALTU
 70
     2
  9
$DIMALTTD
 70
     2
  9
$DIMTXSTY
  7
Standard
  9
$DIMAUNIT
 70
     0
  9
$DIMADEC
 70
     0
  9
$DIMALTRND
 40
0.0
  9
$DIMAZIN
 70
     0
  9
$DIMDSEP
 70
    46
  9
$DIMATFIT
 70
     3
  9
$DIMFRAC
 70
     0
  9
$DIMLDRBLK
  1

  9
$DIMLUNIT
 70
     2
  9
$DIMLWD
 70
    -2
  9
$DIMLWE
 70
    -2
  9
$DIMTMOVE
 70
     0
  9
$DIMFXL
 40
1.0
  9
$DIMFXLON
 70
     0
  9
$DIMJOGANG
 40
0.7853981633974483
  9
$DIMTFILL
 70
     0
  9
$DIMTFILLCLR
 70
     0
  9
$DIMARCSYM
 70
     0
  9
$DIMLTYPE
  6

  9
$DIMLTEX1
  6

  9
$DIMLTEX2
  6

  9
$DIMTXTDIRECTION
 70
     0
  9
$LUNITS
 70
     2
  9
$LUPREC
 70
     4
  9
$SKETCHINC
 40
0.1
  9
$FILLETRAD
 40
0.5
  9
$AUNITS
 70
     0
  9
$AUPREC
 70
     0
  9
$MENU
  1
.
  9
$ELEVATION
 40
0.0
  9
$PELEVATION
 40
0.0
  9
$THICKNESS
 40
0.0
  9
$LIMCHECK
 70
     0
  9
$CHAMFERA
 40
0.0
  9
$CHAMFERB
 40
0.0
  9
$CHAMFERC
 40
0.0
  9
$CHAMFERD
 40
0.0
  9
$SKPOLY
 70
     0
  9
$TDCREATE
 40
2458168.981882662
  9
$TDUCREATE
 40
2458168.940215996
  9
$TDUPDATE
 40
2458168.981882847
  9
$TDUUPDATE
 40
2458168.94021618
  9
$TDINDWG
 40
0.0000000116
  9
$TDUSRTIMER
 40
0.0000000116
  9
$USRTIMER
 70
     1
  9
$ANGBASE
 50
0.0
  9
$ANGDIR
 70
     0
  9
$PDMODE
 70
     0
  9
$PDSIZE
 40
0.0
  9
$PLINEWID
 40
0.0
  9
$SPLFRAME
 70
     0
  9
$SPLINETYPE
 70
     6
  9
$SPLINESEGS
 70
     8
  9
$HANDSEED
  5
1FC
  9
$SURFTAB1
 70
     6
  9
$SURFTAB2
 70
     6
  9
$SURFTYPE
 70
     6
  9
$SURFU
 70
     6
  9
$SURFV
 70
     6
  9
$UCSBASE
  2

  9
$UCSNAME
  2

  9
$UCSORG
 10
0.0
 20
0.0
 30
0.0
  9
$UCSXDIR
 10
1.0
 20
0.0
 30
0.0
  9
$UCSYDIR
 10
0.0
 20
1.0
 30
0.0
  9
$UCSORTHOREF
  2

  9
$UCSORTHOVIEW
 70
     0
  9
$UCSORGTOP
 10
0.0
 20
0.0
 30
0.0
  9
$UCSORGBOTTOM
 10
0.0
 20
0.0
 30
0.0
  9
$UCSORGLEFT
 10
0.0
 20
0.0
 30
0.0
  9
$UCSORGRIGHT
 10
0.0
 20
0.0
 30
0.0
  9
$UCSORGFRONT
 10
0.0
 20
0.0
 30
0.0
  9
$UCSORGBACK
 10
0.0
 20
0.0
 30
0.0
  9
$PUCSBASE
  2

  9
$PUCSNAME
  2

  9
$PUCSORG
 10
0.0
 20
0.0
 30
0.0
  9
$PUCSXDIR
 10
1.0
 20
0.0
 30
0.0
  9
$PUCSYDIR
 10
0.0
 20
1.0
 30
0.0
  9
$PUCSORTHOREF
  2

  9
$PUCSORTHOVIEW
 70
     0
  9
$PUCSORGTOP
 10
0.0
 20
0.0
 30
0.0
  9
$PUCSORGBOTTOM
 10
0.0
 20
0.0
 30
0.0
  9
$PUCSORGLEFT
 10
0.0
 20
0.0
 30
0.0
  9
$PUCSORGRIGHT
 10
0.0
 20
0.0
 30
0.0
  9
$PUCSORGFRONT
 10
0.0
 20
0.0
 30
0.0
  9
$PUCSORGBACK
 10
0.0
 20
0.0
 30
0.0
  9
$USERI1
 70
     0
  9
$USERI2
 70
     0
  9
$USERI3
 70
     0
  9
$USERI4
 70
     0
  9
$USERI5
 70
     0
  9
$USERR1
 40
0.0
  9
$USERR2
 40
0.0
  9
$USERR3
 40
0.0
  9
$USERR4
 40
0.0
  9
$USERR5
 40
0.0
  9
$WORLDVIEW
 70
     1
  9
$SHADEDGE
 70
     3
  9
$SHADEDIF
 70
    70
  9
$TILEMODE
 70
     1
  9
$MAXACTVP
 70
    64
  9
$PINSBASE
 10
0.0
 20
0.0
 30
0.0
  9
$PLIMCHECK
 70
     0
  9
$PEXTMIN
 10
1.000000000000000E+20
 20
1.000000000000000E+20
 30
1.000000000000000E+20
  9
$PEXTMAX
 10
-1.000000000000000E+20
 20
-1.000000000000000E+20
 30
-1.000000000000000E+20
  9
$PLIMMIN
 10
0.0
 20
0.0
  9
$PLIMMAX
 10
12.0
 20
9.0
  9
$UNITMODE
 70
     0
  9
$VISRETAIN
 70
     1
  9
$PLINEGEN
 70
     0
  9
$PSLTSCALE
 70
     1
  9
$TREEDEPTH
 70
  3020
  9
$CMLSTYLE
  2
Standard
  9
$CMLJUST
 70
     0
  9
$CMLSCALE
 40
1.0
  9
$PROXYGRAPHICS
 70
     1
  9
$MEASUREMENT
 70
     0
  9
$CELWEIGHT
370
    -1
  9
$ENDCAPS
280
     0
  9
$JOINSTYLE
280
     0
  9
$LWDISPLAY
290
     0
  9
$INSUNITS
 70
     1
  9
$HYPERLINKBASE
  1

  9
$STYLESHEET
  1

  9
$XEDIT
290
     1
  9
$CEPSNTYPE
380
     0
  9
$PSTYLEMODE
290
     1
  9
$FINGERPRINTGUID
  2
{59A28B24-D26A-4655-BA68-2E6F6998A116}
  9
$VERSIONGUID
  2
{FAEB1C32-E019-11D5-929B-00C0DF256EC4}
  9
$EXTNAMES
290
     1
  9
$PSVPSCALE
 40
0.0
  9
$OLESTARTUP
290
     0
  9
$SORTENTS
280
   127
  9
$INDEXCTL
280
     0
  9
$HIDETEXT
280
     1
  9
$XCLIPFRAME
280
     2
  9
$HALOGAP
280
     0
  9
$OBSCOLOR
 70
   257
  9
$OBSLTYPE
280
     0
  9
$INTERSECTIONDISPLAY
280
     0
  9
$INTERSECTIONCOLOR
 70
   257
  9
$DIMASSOC
280
     2
  9
$PROJECTNAME
  1

  9
$CAMERADISPLAY
290
     0
  9
$LENSLENGTH
 40
50.0
  9
$CAMERAHEIGHT
 40
0.0
  9
$STEPSPERSEC
 40
2.0
  9
$STEPSIZE
 40
6.0
  9
$3DDWFPREC
 40
2.0
  9
$PSOLWIDTH
 40
0.25
  9
$PSOLHEIGHT
 40
4.0
  9
$LOFTANG1
 40
1.570796326794897
  9
$LOFTANG2
 40
1.570796326794897
  9
$LOFTMAG1
 40
0.0
  9
$LOFTMAG2
 40
0.0
  9
$LOFTPARAM
 70
     7
  9
$LOFTNORMALS
280
     1
  9
$LATITUDE
 40
37.795
  9
$LONGITUDE
 40
-122.394
  9
$NORTHDIRECTION
 40
0.0
  9
$TIMEZONE
 70
 -8000
  9
$LIGHTGLYPHDISPLAY
280
     1
  9
$TILEMODELIGHTSYNCH
280
     1
  9
$CMATERIAL
347
44
  9
$SOLIDHIST
280
     0
  9
$SHOWHIST
280
     1
  9
$DWFFRAME
280
     2
  9
$DGNFRAME
280
     2
  9
$REALWORLDSCALE
290
     1
  9
$INTERFERECOLOR
 62
   256
  9
$CSHADOW
280
     0
  9
$SHADOWPLANELOCATION
 40
0.0
  0
ENDSEC
  0
SECTION
  2
CLASSES
  0
CLASS
  1
ACDBDICTIONARYWDFLT
  2
AcDbDictionaryWithDefault
  3
ObjectDBX Classes
 90
        0
 91
        4
280
     0
281
     0
  0
CLASS
  1
VISUALSTYLE
  2
AcDbVisualStyle
  3
ObjectDBX Classes
 90
     4095
 91
        4
280
     0
281
     0
  0
CLASS
  1
MATERIAL
  2
AcDbMaterial
  3
ObjectDBX Classes
 90
     1153
 91
        4
280
     0
281
     0
  0
CLASS
  1
SCALE
  2
AcDbScale
  3
ObjectDBX Classes
 90
     1153
 91
        4
280
     0
281
     0
  0
CLASS
  1
TABLESTYLE
  2
AcDbTableStyle
  3
ObjectDBX Classes
 90
     4095
 91
        4
280
     0
281
     0
  0
CLASS
  1
MLEADERSTYLE
  2
AcDbMLeaderStyle
  3
ACDB_MLEADERSTYLE_CLASS
 90
     4095
 91
        4
280
     0
281
     0
  0
CLASS
  1
SUN
  2
AcDbSun
  3
SCENEOE
 90
     1153
 91
        4
280
     0
281
     0
  0
CLASS
  1
DICTIONARYVAR
  2
AcDbDictionaryVar
  3
ObjectDBX Classes
 90
        0
 91
        4
280
     0
281
     0
  0
CLASS
  1
CELLSTYLEMAP
  2
AcDbCellStyleMap
  3
ObjectDBX Classes
 90
     1152
 91
        4
280
     0
281
     0
  0
ENDSEC
  0
SECTION
  2
TABLES
  0
TABLE
  2
VPORT
  5
8
330
0
100
AcDbSymbolTable
 70
     1
  0
VPORT
  5
29
330
8
100
AcDbSymbolTableRecord
100
AcDbViewportTableRecord
  2
*Active
 70
     0
 10
0.0
 20
0.0
 11
1.0
 21
1.0
 12
-2.011000000000001
 22
0.0
 13
0.0
 23
0.0
 14
0.5
 24
0.5
 15
0.5
 25
0.5
 16
0.0
 26
0.0
 36
1.0
 17
0.0
 27
0.0
 37
0.0
 40
7.017599999999999
 41
0.6334302325581397
 42
50.0
 43
0.0
 44
0.0
 50
0.0
 51
0.0
 71
     0
 72
   100
 73
     1
 74
     3
 75
     0
 76
     0
 77
     0
 78
     0
281
     0
 65
     1
110
0.0
120
0.0
130
0.0
111
1.0
121
0.0
131
0.0
112
0.0
122
1.0
132
0.0
 79
     0
146
0.0
348
2F
 60
     3
 61
     5
292
     1
282
     1
141
0.0
142
0.0
 63
   250
361
6D
  0
ENDTAB
  0
TABLE
  2
LTYPE
  5
5
330
0
100
AcDbSymbolTable
 70
     3
  0
LTYPE
  5
14
330
5
100
AcDbSymbolTableRecord
100
AcDbLinetypeTableRecord
  2
ByBlock
 70
     0
  3

 72
    65
 73
     0
 40
0.0
  0
LTYPE
  5
15
330
5
100
AcDbSymbolTableRecord
100
AcDbLinetypeTableRecord
  2
ByLayer
 70
     0
  3

 72
    65
 73
     0
 40
0.0
  0
LTYPE
  5
16
330
5
100
AcDbSymbolTableRecord
100
AcDbLinetypeTableRecord
  2
Continuous
 70
     0
  3
Solid line
 72
    65
 73
     0
 40
0.0
  0
LTYPE
  5
A7
330
5
100
AcDbSymbolTableRecord
100
AcDbLinetypeTableRecord
  2
Dashed
 70
     0
  3

 72
    65
 73
     2
 40
2.0
 49
1.0
 74
     0
 49
-1.0
 74
     0
  0
LTYPE
  5
135
330
5
100
AcDbSymbolTableRecord
100
AcDbLinetypeTableRecord
  2
Center
 70
     0
  3

 72
    65
 73
     4
 40
1.5
 49
0.45
 74
     0
 49
-0.5
 74
     0
 49
0.05
 74
     0
 49
-0.5
 74
     0
  0
ENDTAB
  0
TABLE
  2
LAYER
  5
2
330
0
100
AcDbSymbolTable
 70
     7
  0
LAYER
  5
10
330
2
100
AcDbSymbolTableRecord
100
AcDbLayerTableRecord
  2
0
 70
     0
 62
     7
  6
Continuous
370
    -3
390
F
347
46
348
0
  0
LAYER
  5
72
330
2
100
AcDbSymbolTableRecord
100
AcDbLayerTableRecord
  2
AM_6
 70
     0
 62
    -2
  6
Continuous
370
    35
390
F
347
46
348
0
  0
LAYER
  5
A8
330
2
100
AcDbSymbolTableRecord
100
AcDbLayerTableRecord
  2
AM_9
 70
     0
 62
     6
  6
Dashed
370
    25
390
F
347
46
348
0
  0
LAYER
  5
BF
330
2
100
AcDbSymbolTableRecord
100
AcDbLayerTableRecord
  2
AM_5
 70
     0
 62
     3
  6
Continuous
370
    25
390
F
347
46
348
0
  0
LAYER
  5
C4
330
2
100
AcDbSymbolTableRecord
100
AcDbLayerTableRecord
  2
AM_4
 70
     0
 62
     7
  6
Continuous
370
    50
390
F
347
46
348
0
  0
LAYER
  5
136
330
2
100
AcDbSymbolTableRecord
100
AcDbLayerTableRecord
  2
AM_7
 70
     0
 62
     7
  6
Center
370
    25
390
F
347
46
348
0
  0
LAYER
  5
1EB
330
2
100
AcDbSymbolTableRecord
100
AcDbLayerTableRecord
  2
ConnectionPoints
 70
     0
 62
     7
  6
Continuous
370
    50
390
F
347
46
348
0
  0
ENDTAB
  0
TABLE
  2
STYLE
  5
3
330
0
100
AcDbSymbolTable
 70
     1
  0
STYLE
  5
11
330
3
100
AcDbSymbolTableRecord
100
AcDbTextStyleTableRecord
  2
Standard
 70
     0
 40
0.0
 41
1.0
 50
0.0
 71
     0
 42
0.2
  3
txt
  4

  0
ENDTAB
  0
TABLE
  2
VIEW
  5
6
330
0
100
AcDbSymbolTable
 70
     0
  0
ENDTAB
  0
TABLE
  2
UCS
  5
7
330
0
100
AcDbSymbolTable
 70
     0
  0
ENDTAB
  0
TABLE
  2
APPID
  5
9
330
0
100
AcDbSymbolTable
 70
     1
  0
APPID
  5
12
330
9
100
AcDbSymbolTableRecord
100
AcDbRegAppTableRecord
  2
ACAD
 70
     0
  0
ENDTAB
  0
TABLE
  2
DIMSTYLE
  5
A
330
0
100
AcDbSymbolTable
 70
     1
100
AcDbDimStyleTable
  0
DIMSTYLE
105
27
330
A
100
AcDbSymbolTableRecord
100
AcDbDimStyleTableRecord
  2
Standard
 70
     0
178
     0
340
11
  0
ENDTAB
  0
TABLE
  2
BLOCK_RECORD
  5
1
330
0
100
AcDbSymbolTable
 70
     6
  0
BLOCK_RECORD
  5
1F
330
1
100
AcDbSymbolTableRecord
100
AcDbBlockTableRecord
  2
*Model_Space
340
22
 70
     0
280
     1
281
     0
  0
BLOCK_RECORD
  5
1B
330
1
100
AcDbSymbolTableRecord
100
AcDbBlockTableRecord
  2
*Paper_Space
340
1E
 70
     0
280
     1
281
     0
  0
BLOCK_RECORD
  5
23
330
1
100
AcDbSymbolTableRecord
100
AcDbBlockTableRecord
  2
*Paper_Space0
340
26
 70
     0
280
     1
281
     0
  0
BLOCK_RECORD
  5
6E
330
1
100
AcDbSymbolTableRecord
100
AcDbBlockTableRecord
  2
1_071514_2
340
0
102
{BLKREFS
331
6F
102
}
 70
     0
280
     1
281
     0
  0
BLOCK_RECORD
  5
8E
330
1
100
AcDbSymbolTableRecord
100
AcDbBlockTableRecord
  2
2_2_7_16CS2i_0_in_071514_2
340
0
102
{BLKREFS
331
8F
102
}
 70
     0
280
     1
281
     0
  0
BLOCK_RECORD
  5
DB
330
1
100
AcDbSymbolTableRecord
100
AcDbBlockTableRecord
  2
3_070008i_0_in_071514_2
340
0
102
{BLKREFS
331
DC
102
}
 70
     0
280
     1
281
     0
  0
BLOCK_RECORD
  5
13B
330
1
100
AcDbSymbolTableRecord
100
AcDbBlockTableRecord
  2
4_405015E_Inch_0_in_071514_2
340
0
102
{BLKREFS
331
13C
102
}
 70
     0
280
     1
281
     0
  0
BLOCK_RECORD
  5
179
330
1
100
AcDbSymbolTableRecord
100
AcDbBlockTableRecord
  2
5_B071514_0_in_071514_2
340
0
102
{BLKREFS
331
17A
102
}
 70
     0
280
     1
281
     0
  0
ENDTAB
  0
ENDSEC
  0
SECTION
  2
BLOCKS
  0
BLOCK
  5
20
330
1F
100
AcDbEntity
  8
0
100
AcDbBlockBegin
  2
*Model_Space
 70
     0
 10
0.0
 20
0.0
 30
0.0
  3
*Model_Space
  1

  0
ENDBLK
  5
21
330
1F
100
AcDbEntity
  8
0
100
AcDbBlockEnd
  0
BLOCK
  5
1C
330
1B
100
AcDbEntity
 67
     1
  8
0
100
AcDbBlockBegin
  2
*Paper_Space
 70
     0
 10
0.0
 20
0.0
 30
0.0
  3
*Paper_Space
  1

  0
ENDBLK
  5
1D
330
1B
100
AcDbEntity
 67
     1
  8
0
100
AcDbBlockEnd
  0
BLOCK
  5
24
330
23
100
AcDbEntity
  8
0
100
AcDbBlockBegin
  2
*Paper_Space0
 70
     0
 10
0.0
 20
0.0
 30
0.0
  3
*Paper_Space0
  1

  0
ENDBLK
  5
25
330
23
100
AcDbEntity
  8
0
100
AcDbBlockEnd
  0
BLOCK
  5
70
330
6E
100
AcDbEntity
  8
0
100
AcDbBlockBegin
  2
1_071514_2
 70
     2
 10
0.0
 20
0.0
 30
0.0
  3
1_071514_2
  1

  0
ATTDEF
  5
73
330
6E
100
AcDbEntity
  8
AM_6
100
AcDbText
 10
5.168
 20
3.44
 30
0.0
 40
0.5
  1
S-2000 Flange Bearing - Square with Type E Dimensions Labyrinth Seal Non-Expansion
100
AcDbAttributeDefinition
  3

  2
NN
 70
     8
280
     0
  0
ATTDEF
  5
74
330
6E
100
AcDbEntity
  8
AM_6
100
AcDbText
 10
5.168
 20
2.94
 30
0.0
 40
0.5
  1
S-2000 - E Type - Inch
100
AcDbAttributeDefinition
  3

  2
NT
 70
     8
280
     0
  0
ATTDEF
  5
75
330
6E
100
AcDbEntity
  8
AM_6
100
AcDbText
 10
5.168
 20
2.44
 30
0.0
 40
0.5
  1
071514
100
AcDbAttributeDefinition
  3

  2
NB
 70
     8
280
     0
  0
ATTDEF
  5
76
330
6E
100
AcDbEntity
  8
AM_6
100
AcDbText
 10
5.168
 20
1.94
 30
0.0
 40
0.5
  1
$PN.
100
AcDbAttributeDefinition
  3

  2
NBSYN
 70
     8
280
     0
  0
ATTDEF
  5
77
330
6E
100
AcDbEntity
  8
AM_6
100
AcDbText
 10
5.168
 20
1.44
 30
0.0
 40
0.5
  1
071514
100
AcDbAttributeDefinition
  3

  2
LINA
 70
     8
280
     0
  0
ATTDEF
  5
78
330
6E
100
AcDbEntity
  8
AM_6
100
AcDbText
 10
5.168
 20
0.94
 30
0.0
 40
0.5
  1
2-7/16
100
AcDbAttributeDefinition
  3

  2
SS
 70
     8
280
     0
  0
ATTDEF
  5
79
330
6E
100
AcDbEntity
  8
AM_6
100
AcDbText
 10
5.168
 20
0.4399999999999999
 30
0.0
 40
0.5
  1
Expansion
100
AcDbAttributeDefinition
  3

  2
TYPE
 70
     8
280
     0
  0
ATTDEF
  5
7A
330
6E
100
AcDbEntity
  8
AM_6
100
AcDbText
 10
5.168
 20
-0.0600000000000001
 30
0.0
 40
0.5
  1
071514
100
AcDbAttributeDefinition
  3

  2
PN
 70
     8
280
     0
  0
ATTDEF
  5
7B
330
6E
100
AcDbEntity
  8
AM_6
100
AcDbText
 10
5.168
 20
-0.56
 30
0.0
 40
0.5
  1
EF4B-S2-207LE
100
AcDbAttributeDefinition
  3

  2
DESCRIPTION
 70
     8
280
     0
  0
ATTDEF
  5
7C
330
6E
100
AcDbEntity
  8
AM_6
100
AcDbText
 10
5.168
 20
-1.06
 30
0.0
 40
0.5
  1
3.2
100
AcDbAttributeDefinition
  3

  2
A
 70
     8
280
     0
  0
ATTDEF
  5
7D
330
6E
100
AcDbEntity
  8
AM_6
100
AcDbText
 10
5.168
 20
-1.56
 30
0.0
 40
0.5
  1
6.88
100
AcDbAttributeDefinition
  3

  2
B
 70
     8
280
     0
  0
ATTDEF
  5
7E
330
6E
100
AcDbEntity
  8
AM_6
100
AcDbText
 10
5.168
 20
-2.06
 30
0.0
 40
0.5
  1
4.19
100
AcDbAttributeDefinition
  3

  2
C
 70
     8
280
     0
  0
ATTDEF
  5
7F
330
6E
100
AcDbEntity
  8
AM_6
100
AcDbText
 10
5.168
 20
-2.56
 30
0.0
 40
0.5
  1
5.37
100
AcDbAttributeDefinition
  3

  2
D
 70
     8
280
     0
  0
ATTDEF
  5
80
330
6E
100
AcDbEntity
  8
AM_6
100
AcDbText
 10
5.168
 20
-3.06
 30
0.0
 40
0.5
  1
7.601
100
AcDbAttributeDefinition
  3

  2
DD
 70
     8
280
     0
  0
ATTDEF
  5
81
330
6E
100
AcDbEntity
  8
AM_6
100
AcDbText
 10
5.168
 20
-3.56
 30
0.0
 40
0.5
  1
5/8
100
AcDbAttributeDefinition
  3

  2
F
 70
     8
280
     0
  0
ATTDEF
  5
82
330
6E
100
AcDbEntity
  8
AM_6
100
AcDbText
 10
5.168
 20
-4.06
 30
0.0
 40
0.5
  1
0.83
100
AcDbAttributeDefinition
  3

  2
G
 70
     8
280
     0
  0
ATTDEF
  5
83
330
6E
100
AcDbEntity
  8
AM_6
100
AcDbText
 10
5.168
 20
-4.56
 30
0.0
 40
0.5
  1
1.5
100
AcDbAttributeDefinition
  3

  2
H
 70
     8
280
     0
  0
ATTDEF
  5
84
330
6E
100
AcDbEntity
  8
AM_6
100
AcDbText
 10
5.168
 20
-5.06
 30
0.0
 40
0.5
  1
5.81
100
AcDbAttributeDefinition
  3

  2
J
 70
     8
280
     0
  0
ATTDEF
  5
85
330
6E
100
AcDbEntity
  8
AM_6
100
AcDbText
 10
5.168
 20
-5.56
 30
0.0
 40
0.5
  1
3.86
100
AcDbAttributeDefinition
  3

  2
L
 70
     8
280
     0
  0
ATTDEF
  5
86
330
6E
100
AcDbEntity
  8
AM_6
100
AcDbText
 10
5.168
 20
-6.06
 30
0.0
 40
0.5
  1
3.32
100
AcDbAttributeDefinition
  3

  2
N
 70
     8
280
     0
  0
ATTDEF
  5
87
330
6E
100
AcDbEntity
  8
AM_6
100
AcDbText
 10
5.168
 20
-6.56
 30
0.0
 40
0.5
  1
0.98
100
AcDbAttributeDefinition
  3

  2
P
 70
     8
280
     0
  0
ATTDEF
  5
88
330
6E
100
AcDbEntity
  8
AM_6
100
AcDbText
 10
5.168
 20
-7.06
 30
0.0
 40
0.5
  1
0.25
100
AcDbAttributeDefinition
  3

  2
X
 70
     8
280
     0
  0
ATTDEF
  5
89
330
6E
100
AcDbEntity
  8
AM_6
100
AcDbText
 10
5.168
 20
-7.56
 30
0.0
 40
0.5
  1
0.025
100
AcDbAttributeDefinition
  3

  2
Y
 70
     8
280
     0
  0
ATTDEF
  5
8A
330
6E
100
AcDbEntity
  8
AM_6
100
AcDbText
 10
5.168
 20
-8.06
 30
0.0
 40
0.5
  1
2.95
100
AcDbAttributeDefinition
  3

  2
Z
 70
     8
280
     0
  0
ATTDEF
  5
8B
330
6E
100
AcDbEntity
  8
AM_6
100
AcDbText
 10
5.168
 20
-8.56
 30
0.0
 40
0.5
  1
3/8-16
100
AcDbAttributeDefinition
  3

  2
CS
 70
     8
280
     0
  0
ATTDEF
  5
8C
330
6E
100
AcDbEntity
  8
AM_6
100
AcDbText
 10
5.168
 20
-9.06
 30
0.0
 40
0.5
  1
290
100
AcDbAttributeDefinition
  3

  2
TORQUE
 70
     8
280
     0
  0
ATTDEF
  5
8D
330
6E
100
AcDbEntity
  8
AM_6
100
AcDbText
 10
5.168
 20
-9.56
 30
0.0
 40
0.5
  1
baldor
100
AcDbAttributeDefinition
  3

  2
COMPANY
 70
     8
280
     0
  0
INSERT
  5
8F
330
6E
100
AcDbEntity
  8
0
100
AcDbBlockReference
  2
2_2_7_16CS2i_0_in_071514_2
 10
0.0
 20
0.0
 30
0.0
  0
INSERT
  5
DC
330
6E
100
AcDbEntity
  8
0
100
AcDbBlockReference
  2
3_070008i_0_in_071514_2
 10
0.0
 20
0.0
 30
0.0
  0
INSERT
  5
13C
330
6E
100
AcDbEntity
  8
0
100
AcDbBlockReference
  2
4_405015E_Inch_0_in_071514_2
 10
0.0
 20
0.0
 30
0.0
  0
INSERT
  5
17A
330
6E
100
AcDbEntity
  8
0
100
AcDbBlockReference
  2
5_B071514_0_in_071514_2
 10
0.0
 20
0.0
 30
0.0
  0
ENDBLK
  5
71
330
6E
100
AcDbEntity
  8
0
100
AcDbBlockEnd
  0
BLOCK
  5
90
330
8E
100
AcDbEntity
  8
0
100
AcDbBlockBegin
  2
2_2_7_16CS2i_0_in_071514_2
 70
     2
 10
0.0
 20
0.0
 30
0.0
  3
2_2_7_16CS2i_0_in_071514_2
  1

  0
ATTDEF
  5
92
330
8E
100
AcDbEntity
  8
AM_6
100
AcDbText
 10
1.694
 20
1.984375
 30
0.0
 40
0.5
  1
S-2000 Collar -Inch
100
AcDbAttributeDefinition
  3

  2
NN
 70
     8
280
     0
  0
ATTDEF
  5
93
330
8E
100
AcDbEntity
  8
AM_6
100
AcDbText
 10
1.694
 20
1.484375
 30
0.0
 40
0.5
  1
S-2000 Bearings
100
AcDbAttributeDefinition
  3

  2
NT
 70
     8
280
     0
  0
ATTDEF
  5
94
330
8E
100
AcDbEntity
  8
AM_6
100
AcDbText
 10
1.694
 20
0.984375
 30
0.0
 40
0.5
  1
2-7/16CS2i
100
AcDbAttributeDefinition
  3

  2
NB
 70
     8
280
     0
  0
ATTDEF
  5
95
330
8E
100
AcDbEntity
  8
AM_6
100
AcDbText
 10
1.694
 20
0.484375
 30
0.0
 40
0.5
  1
$BORE.CS2i
100
AcDbAttributeDefinition
  3

  2
NBSYN
 70
     8
280
     0
  0
ATTDEF
  5
96
330
8E
100
AcDbEntity
  8
AM_6
100
AcDbText
 10
1.694
 20
-0.015625
 30
0.0
 40
0.5
  1
2-7/16CS2i
100
AcDbAttributeDefinition
  3

  2
LINA
 70
     8
280
     0
  0
ATTDEF
  5
97
330
8E
100
AcDbEntity
  8
AM_6
100
AcDbText
 10
1.694
 20
-0.515625
 30
0.0
 40
0.5
  1
2-7/16
100
AcDbAttributeDefinition
  3

  2
BORE
 70
     8
280
     0
  0
ATTDEF
  5
98
330
8E
100
AcDbEntity
  8
AM_6
100
AcDbText
 10
1.694
 20
-1.015625
 30
0.0
 40
0.5
  1
2.437500
100
AcDbAttributeDefinition
  3

  2
BORE1
 70
     8
280
     0
  0
ATTDEF
  5
99
330
8E
100
AcDbEntity
  8
AM_6
100
AcDbText
 10
1.694
 20
-1.515625
 30
0.0
 40
0.5
  1
4-1/16
100
AcDbAttributeDefinition
  3

  2
L1
 70
     8
280
     0
  0
ATTDEF
  5
9A
330
8E
100
AcDbEntity
  8
AM_6
100
AcDbText
 10
1.694
 20
-2.015625
 30
0.0
 40
0.5
  1
4.06250
100
AcDbAttributeDefinition
  3

  2
L
 70
     8
280
     0
  0
ATTDEF
  5
9B
330
8E
100
AcDbEntity
  8
AM_6
100
AcDbText
 10
1.694
 20
-2.515625
 30
0.0
 40
0.5
  1
3.96875
100
AcDbAttributeDefinition
  3

  2
L2
 70
     8
280
     0
  0
ATTDEF
  5
9C
330
8E
100
AcDbEntity
  8
AM_6
100
AcDbText
 10
1.694
 20
-3.015625
 30
0.0
 40
0.5
  1
4.00
100
AcDbAttributeDefinition
  3

  2
A
 70
     8
280
     0
  0
ATTDEF
  5
9D
330
8E
100
AcDbEntity
  8
AM_6
100
AcDbText
 10
1.694
 20
-3.515625
 30
0.0
 40
0.5
  1
1.70
100
AcDbAttributeDefinition
  3

  2
B
 70
     8
280
     0
  0
ATTDEF
  5
9E
330
8E
100
AcDbEntity
  8
AM_6
100
AcDbText
 10
1.694
 20
-4.015625
 30
0.0
 40
0.5
  1
2.94
100
AcDbAttributeDefinition
  3

  2
C
 70
     8
280
     0
  0
ATTDEF
  5
9F
330
8E
100
AcDbEntity
  8
AM_6
100
AcDbText
 10
1.694
 20
-4.515625
 30
0.0
 40
0.5
  1
4.12
100
AcDbAttributeDefinition
  3

  2
D
 70
     8
280
     0
  0
ATTDEF
  5
A0
330
8E
100
AcDbEntity
  8
AM_6
100
AcDbText
 10
1.694
 20
-5.015625
 30
0.0
 40
0.5
  1
0.41
100
AcDbAttributeDefinition
  3

  2
E
 70
     8
280
     0
  0
ATTDEF
  5
A1
330
8E
100
AcDbEntity
  8
AM_6
100
AcDbText
 10
1.694
 20
-5.515625
 30
0.0
 40
0.5
  1
0.317
100
AcDbAttributeDefinition
  3

  2
F
 70
     8
280
     0
  0
ATTDEF
  5
A2
330
8E
100
AcDbEntity
  8
AM_6
100
AcDbText
 10
1.694
 20
-6.015625
 30
0.0
 40
0.5
  1
3/8-16
100
AcDbAttributeDefinition
  3

  2
CS
 70
     8
280
     0
  0
ATTDEF
  5
A3
330
8E
100
AcDbEntity
  8
AM_6
100
AcDbText
 10
1.694
 20
-6.515625
 30
0.0
 40
0.5
  1
0.3750
100
AcDbAttributeDefinition
  3

  2
NDM
 70
     8
280
     0
  0
ATTDEF
  5
A4
330
8E
100
AcDbEntity
  8
AM_6
100
AcDbText
 10
1.694
 20
-7.015625
 30
0.0
 40
0.5
  1
0.3070
100
AcDbAttributeDefinition
  3

  2
KDM
 70
     8
280
     0
  0
ATTDEF
  5
A5
330
8E
100
AcDbEntity
  8
AM_6
100
AcDbText
 10
1.694
 20
-7.515625
 30
0.0
 40
0.5
  1
2
100
AcDbAttributeDefinition
  3

  2
DD
 70
     8
280
     0
  0
ATTDEF
  5
A6
330
8E
100
AcDbEntity
  8
AM_6
100
AcDbText
 10
1.694
 20
-8.015625
 30
0.0
 40
0.5
  1
baldor
100
AcDbAttributeDefinition
  3

  2
COMPANY
 70
     8
280
     0
  0
LINE
  5
A9
330
8E
100
AcDbEntity
  8
AM_9
100
AcDbLine
 10
-3.46935
 20
1.478849999999998
 30
0.0
 11
-3.46935
 21
1.984375
 31
0.0
  0
LINE
  5
AA
330
8E
100
AcDbEntity
  8
AM_9
100
AcDbLine
 10
-3.77665
 20
1.984375
 30
0.0
 11
-3.77665
 21
1.478849999999998
 31
0.0
  0
LINE
  5
AB
330
8E
100
AcDbEntity
  8
AM_9
100
AcDbLine
 10
-3.77665
 20
1.478849999999998
 30
0.0
 11
-3.46935
 21
1.478849999999998
 31
0.0
  0
LINE
  5
AC
330
8E
100
AcDbEntity
  8
AM_9
100
AcDbLine
 10
-3.77665
 20
1.478849999999998
 30
0.0
 11
-3.785257593413383
 21
1.470242406586615
 31
0.0
  0
LINE
  5
AD
330
8E
100
AcDbEntity
  8
AM_9
100
AcDbLine
 10
-3.460735870667619
 20
1.470235870667618
 30
0.0
 11
-3.46935
 21
1.478849999999998
 31
0.0
  0
LWPOLYLINE
  5
AE
330
8E
100
AcDbEntity
  8
AM_9
100
AcDbPolyline
 90
       33
 70
     0
 43
0.0
 10
-3.462814686588544
 20
0.6473929965419603
 10
-3.465679019343004
 20
0.6600965568428371
 10
-3.475402011676166
 20
0.6858111942120627
 10
-3.489874026234258
 20
0.709455503950751
 10
-3.508461621957356
 20
0.7299599228603233
 10
-3.530869816854496
 20
0.7471624406600663
 10
-3.555275405848488
 20
0.7598840809393805
 10
-3.581921743985311
 20
0.7686191919518967
 10
-3.608172826139212
 20
0.7728099352040103
 10
-3.634877379624312
 20
0.7730491941003067
 10
-3.660120896206091
 20
0.769503100876826
 10
-3.684336015025139
 20
0.7624416362604646
 10
-3.707074159602231
 20
0.7519380922144724
 10
-3.727591196266355
 20
0.7384022811345639
 10
-3.746255087034342
 20
0.7212715702002606
 10
-3.761599152053086
 20
0.7016531834582258
 10
-3.773878021810583
 20
0.6786357754527867
 10
-3.781854740441029
 20
0.6539530659921327
 10
-3.785370073700269
 20
0.6271002309954924
 10
-3.783976259825301
 20
0.5998334414846991
 10
-3.777498321371627
 20
0.5724815177461756
 10
-3.766120512588063
 20
0.5462978730967164
 10
-3.750188425922101
 20
0.52234422534567
 10
-3.730053118707598
 20
0.5011961950238545
 10
-3.707118876585749
 20
0.484311239815799
 10
-3.681372362384886
 20
0.4714948147030084
 10
-3.655323361674165
 20
0.4637829448334976
 10
-3.628253692110982
 20
0.4605357747473251
 10
-3.602475178627995
 20
0.4617948268101653
 10
-3.577282242319745
 20
0.4671394148390476
 10
-3.553582022152446
 20
0.476309313538854
 10
-3.531729825610209
 20
0.4889197175227195
 10
-3.502289438370364
 20
0.5146837495902004
  0
LWPOLYLINE
  5
AF
330
8E
100
AcDbEntity
  8
AM_9
100
AcDbPolyline
 90
        5
 70
     0
 43
0.0
 10
-3.502289438370364
 20
0.5146837495902004
 10
-3.487705728926734
 20
0.5333956653873272
 10
-3.476077262917383
 20
0.5537257927356818
 10
-3.466395802571751
 20
0.5793069639454869
 10
-3.462866297483092
 20
0.5945714310732072
  0
LINE
  5
B0
330
8E
100
AcDbEntity
  8
AM_9
100
AcDbLine
 10
-3.94
 20
-1.47
 30
0.0
 11
-3.306
 21
-1.47
 31
0.0
  0
LINE
  5
B1
330
8E
100
AcDbEntity
  8
AM_9
100
AcDbLine
 10
-3.306
 20
1.47
 30
0.0
 11
-3.461038830069029
 21
1.47
 31
0.0
  0
LINE
  5
B2
330
8E
100
AcDbEntity
  8
AM_9
100
AcDbLine
 10
-3.78494635283678
 20
1.47
 30
0.0
 11
-3.94
 21
1.47
 31
0.0
  0
LWPOLYLINE
  5
B3
330
8E
100
AcDbEntity
  8
AM_9
100
AcDbPolyline
 90
       21
 70
     0
 43
0.0
 10
-3.785499999999875
 20
1.469999999999985
 10
-3.78520469498716
 20
1.469963330931792
 10
-3.780890339424633
 20
1.469434979268364
 10
-3.771753413306857
 20
1.468361743863903
 10
-3.75746461965297
 20
1.466808455843292
 10
-3.739523936179177
 20
1.465075748064413
 10
-3.717040770599332
 20
1.463249050051434
 10
-3.693222462372668
 20
1.461735503021439
 10
-3.666231656816433
 20
1.460548397930297
 10
-3.640407858850861
 20
1.459940495715826
 10
-3.613221677539698
 20
1.459859932564025
 10
-3.58825111656945
 20
1.460291675631193
 10
-3.563561129721634
 20
1.461193739523057
 10
-3.540971313926028
 20
1.462431313695708
 10
-3.520005878699985
 20
1.463930347093519
 10
-3.501346267382888
 20
1.465546352084191
 10
-3.485543745800936
 20
1.467120992139932
 10
-3.473081910056276
 20
1.468495087636686
 10
-3.464636785972306
 20
1.469492214862596
 10
-3.460737211153409
 20
1.469970539544335
 10
-3.460500000000199
 20
1.469999999999975
  0
ELLIPSE
  5
B4
330
8E
100
AcDbEntity
  8
AM_9
100
AcDbEllipse
 10
-3.623000000000001
 20
0.6249890163752324
 30
0.0
 11
0.1536499999999994
 21
0.0
 31
0.0
210
0.0
220
0.0
230
1.0
 40
0.906307787036651
 41
2.271256624997293
 42
3.141592653589793
  0
LINE
  5
B5
330
8E
100
AcDbEntity
  8
AM_9
100
AcDbLine
 10
-3.46935
 20
0.6249890163752324
 30
0.0
 11
-3.46935
 21
0.838616939185004
 31
0.0
  0
LINE
  5
B6
330
8E
100
AcDbEntity
  8
AM_9
100
AcDbLine
 10
-3.77665
 20
0.8386306319884669
 30
0.0
 11
-3.77665
 21
0.6249890163752324
 31
0.0
  0
ELLIPSE
  5
B7
330
8E
100
AcDbEntity
  8
AM_9
100
AcDbEllipse
 10
-3.623
 20
0.6249890163752326
 30
0.0
 11
0.1536500000000003
 21
0.0
 31
0.0
210
0.0
220
0.0
230
1.0
 40
0.9063077870366502
 41
3.141592653589793
 42
6.283185307179586
  0
ELLIPSE
  5
B8
330
8E
100
AcDbEntity
  8
AM_9
100
AcDbEllipse
 10
-3.623000000000001
 20
0.6249890163752321
 30
0.0
 11
0.1536500000000007
 21
0.0
 31
0.0
210
0.0
220
0.0
230
1.0
 40
0.9063077870366495
 41
0.0
 42
0.8715180748614304
  0
LINE
  5
B9
330
8E
100
AcDbEntity
  8
AM_9
100
AcDbLine
 10
-3.326905342624855
 20
-1.889880952380952
 30
0.0
 11
-3.306
 21
-1.889880952380952
 31
0.0
  0
LINE
  5
BA
330
8E
100
AcDbEntity
  8
AM_9
100
AcDbLine
 10
-3.306
 20
1.889880952380952
 30
0.0
 11
-3.326905342624855
 21
1.889880952380952
 31
0.0
  0
LINE
  5
BB
330
8E
100
AcDbEntity
  8
AM_9
100
AcDbLine
 10
-3.306
 20
1.889880952380952
 30
0.0
 11
-3.306
 21
-1.889880952380952
 31
0.0
  0
LINE
  5
BC
330
8E
100
AcDbEntity
  8
AM_9
100
AcDbLine
 10
-3.326905342624855
 20
1.889880952380952
 30
0.0
 11
-3.36
 21
1.922975609756097
 31
0.0
  0
LINE
  5
BD
330
8E
100
AcDbEntity
  8
AM_9
100
AcDbLine
 10
-3.36
 20
-1.922975609756097
 30
0.0
 11
-3.326905342624855
 21
-1.889880952380952
 31
0.0
  0
LINE
  5
BE
330
8E
100
AcDbEntity
  8
AM_9
100
AcDbLine
 10
-3.326905342624855
 20
1.889880952380952
 30
0.0
 11
-3.326905342624855
 21
-1.889880952380952
 31
0.0
  0
LINE
  5
C0
330
8E
100
AcDbEntity
  8
AM_5
100
AcDbLine
 10
-3.8105
 20
1.984375
 30
0.0
 11
-3.8105
 21
1.47
 31
0.0
  0
LINE
  5
C1
330
8E
100
AcDbEntity
  8
AM_5
100
AcDbLine
 10
-3.71675
 20
1.445
 30
0.0
 11
-3.8105
 21
1.445
 31
0.0
  0
LINE
  5
C2
330
8E
100
AcDbEntity
  8
AM_5
100
AcDbLine
 10
-3.4355
 20
1.935975609756097
 30
0.0
 11
-3.4355
 21
1.47
 31
0.0
  0
LINE
  5
C3
330
8E
100
AcDbEntity
  8
AM_5
100
AcDbLine
 10
-3.52925
 20
1.445
 30
0.0
 11
-3.4355
 21
1.445
 31
0.0
  0
ELLIPSE
  5
C5
330
8E
100
AcDbEntity
  8
AM_4
100
AcDbEllipse
 10
-3.622999999999999
 20
0.6249890163752301
 30
0.0
 11
0.1536500000000021
 21
0.0
 31
0.0
210
0.0
220
0.0
230
1.0
 40
0.9063077870366546
 41
1.570796326794897
 42
2.27125662499729
  0
LWPOLYLINE
  5
C6
330
8E
100
AcDbEntity
  8
AM_4
100
AcDbPolyline
 90
       20
 70
     0
 43
0.0
 10
-3.469350000681053
 20
0.8386462244777726
 10
-3.470357813251
 20
0.8226769187490399
 10
-3.475467611782737
 20
0.7995835785740776
 10
-3.484709574499235
 20
0.7774661420366233
 10
-3.497892339881111
 20
0.7569678090677469
 10
-3.514583186685994
 20
0.7386941352146686
 10
-3.534413744745505
 20
0.7231909882725822
 10
-3.556745851109963
 20
0.7109412118526285
 10
-3.580981781430097
 20
0.7023735220235127
 10
-3.606409015791484
 20
0.6977047700878758
 10
-3.632246550930557
 20
0.6971378159490652
 10
-3.657822908379543
 20
0.7006142030252533
 10
-3.682372747165491
 20
0.7080699997093868
 10
-3.705254263081642
 20
0.7192180731850051
 10
-3.725836169796078
 20
0.733796815862982
 10
-3.743526833304738
 20
0.7512966610001536
 10
-3.757810824437439
 20
0.7712720091426525
 10
-3.768290838997033
 20
0.7930616024436966
 10
-3.77460600638957
 20
0.8160150293284719
 10
-3.776649999882942
 20
0.8386385489146527
  0
LWPOLYLINE
  5
C7
330
8E
100
AcDbEntity
  8
AM_4
100
AcDbPolyline
 90
       11
 70
     0
 43
0.0
 10
-3.776649999882942
 20
0.8386385489146527
 10
-3.77664719110597
 20
0.8394750417635257
 10
-3.774306042296196
 20
0.8627067512576565
 10
-3.767721711665556
 20
0.8851270662176519
 10
-3.757025397453845
 20
0.9061002490155579
 10
-3.742575728112164
 20
0.925089124237791
 10
-3.724680556472106
 20
0.9416008881451348
 10
-3.703921029897144
 20
0.9551912759681608
 10
-3.680816596584467
 20
0.9654773006187863
 10
-3.656073663061274
 20
0.9722220219119294
 10
-3.623
 20
0.9753695578015028
  0
ELLIPSE
  5
C8
330
8E
100
AcDbEntity
  8
AM_4
100
AcDbEllipse
 10
-3.623000000000001
 20
0.6249890163752303
 30
0.0
 11
0.1536500000000025
 21
0.0
 31
0.0
210
0.0
220
0.0
230
1.0
 40
0.9063077870366498
 41
0.8715180748614362
 42
1.570796326794897
  0
LINE
  5
C9
330
8E
100
AcDbEntity
  8
AM_4
100
AcDbLine
 10
-3.36
 20
1.922975609756097
 30
0.0
 11
-3.373
 21
1.935975609756098
 31
0.0
  0
LINE
  5
CA
330
8E
100
AcDbEntity
  8
AM_4
100
AcDbLine
 10
-3.373
 20
-1.935975609756098
 30
0.0
 11
-3.36
 21
-1.922975609756097
 31
0.0
  0
LINE
  5
CB
330
8E
100
AcDbEntity
  8
AM_4
100
AcDbLine
 10
-3.4355
 20
-1.935975609756098
 30
0.0
 11
-3.373
 21
-1.935975609756098
 31
0.0
  0
LINE
  5
CC
330
8E
100
AcDbEntity
  8
AM_4
100
AcDbLine
 10
-3.373
 20
1.935975609756098
 30
0.0
 11
-3.4355
 21
1.935975609756098
 31
0.0
  0
LINE
  5
CD
330
8E
100
AcDbEntity
  8
AM_4
100
AcDbLine
 10
-3.373
 20
1.935975609756098
 30
0.0
 11
-3.373
 21
-1.935975609756098
 31
0.0
  0
LWPOLYLINE
  5
CE
330
8E
100
AcDbEntity
  8
AM_4
100
AcDbPolyline
 90
       11
 70
     0
 43
0.0
 10
-3.623
 20
0.9753695578015028
 10
-3.597250271415994
 20
0.9734576494068864
 10
-3.572227417019945
 20
0.9678223688306211
 10
-3.548658416855346
 20
0.9585596782521038
 10
-3.527180157735216
 20
0.9459538304011171
 10
-3.508397082769836
 20
0.9302523517884194
 10
-3.492840038706733
 20
0.9119228428324236
 10
-3.480985044534593
 20
0.8913863693698734
 10
-3.47313904543096
 20
0.8692452597714933
 10
-3.469589352109346
 20
0.8461367348659078
 10
-3.469350000681053
 20
0.8386462244777726
  0
LINE
  5
CF
330
8E
100
AcDbEntity
  8
AM_4
100
AcDbLine
 10
-3.834333333333333
 20
-1.984375
 30
0.0
 11
-3.463443400985931
 21
-1.984375
 31
0.0
  0
LINE
  5
D0
330
8E
100
AcDbEntity
  8
AM_4
100
AcDbLine
 10
-3.463443400985931
 20
1.984375
 30
0.0
 11
-3.46935
 21
1.984375
 31
0.0
  0
LINE
  5
D1
330
8E
100
AcDbEntity
  8
AM_4
100
AcDbLine
 10
-3.77665
 20
1.984375
 30
0.0
 11
-3.834333333333333
 21
1.984375
 31
0.0
  0
LWPOLYLINE
  5
D2
330
8E
100
AcDbEntity
  8
AM_4
100
AcDbPolyline
 90
       20
 70
     0
 43
0.0
 10
-3.469350000000017
 20
1.984374999999999
 10
-3.469606591303652
 20
1.984355148645646
 10
-3.473348035815362
 20
1.984069436413282
 10
-3.481145310878882
 20
1.983496551786932
 10
-3.493221419296486
 20
1.982669487870941
 10
-3.508600435384713
 20
1.981722250596478
 10
-3.527702905067931
 20
1.980711325364575
 10
-3.548980331625647
 20
1.979801689420243
 10
-3.573011277323574
 20
1.979048935857783
 10
-3.59774694173216
 20
1.97857866537494
 10
-3.623929631197834
 20
1.978417721902825
 10
-3.64928491114908
 20
1.978592104168799
 10
-3.674613410030879
 20
1.979090640223437
 10
-3.697791172761555
 20
1.979830684085902
 10
-3.7194876119204
 20
1.980768961130778
 10
-3.737938136493261
 20
1.981753413859944
 10
-3.753614168624398
 20
1.982724357839597
 10
-3.765213719143155
 20
1.983522261039066
 10
-3.773048087643084
 20
1.984099354047157
 10
-3.77665
 20
1.984375
  0
LINE
  5
D3
330
8E
100
AcDbEntity
  8
AM_4
100
AcDbLine
 10
-3.4355
 20
1.935975609756098
 30
0.0
 11
-3.463443400985931
 21
1.984375
 31
0.0
  0
LINE
  5
D4
330
8E
100
AcDbEntity
  8
AM_4
100
AcDbLine
 10
-3.463443400985931
 20
-1.984375
 30
0.0
 11
-3.4355
 21
-1.935975609756098
 31
0.0
  0
LINE
  5
D5
330
8E
100
AcDbEntity
  8
AM_4
100
AcDbLine
 10
-3.463443400985931
 20
1.984375
 30
0.0
 11
-3.463443400985931
 21
-1.984375
 31
0.0
  0
LINE
  5
D6
330
8E
100
AcDbEntity
  8
AM_4
100
AcDbLine
 10
-3.4355
 20
1.935975609756098
 30
0.0
 11
-3.4355
 21
-1.935975609756098
 31
0.0
  0
LINE
  5
D7
330
8E
100
AcDbEntity
  8
AM_4
100
AcDbLine
 10
-3.94
 20
1.878708333333334
 30
0.0
 11
-3.94
 21
-1.878708333333334
 31
0.0
  0
ARC
  5
D8
330
8E
100
AcDbEntity
  8
AM_4
100
AcDbCircle
 10
-3.834333333333335
 20
-1.878708333333335
 30
0.0
 40
0.1056666666666652
100
AcDbArc
 50
180.0
 51
270.0
  0
ARC
  5
D9
330
8E
100
AcDbEntity
  8
AM_4
100
AcDbCircle
 10
-3.834333333333335
 20
1.878708333333335
 30
0.0
 40
0.1056666666666655
100
AcDbArc
 50
90.0
 51
180.0
  0
LINE
  5
DA
330
8E
100
AcDbEntity
  8
AM_4
100
AcDbLine
 10
-3.834333333333333
 20
1.984375
 30
0.0
 11
-3.834333333333333
 21
-1.984375
 31
0.0
  0
ENDBLK
  5
91
330
8E
100
AcDbEntity
  8
0
100
AcDbBlockEnd
  0
BLOCK
  5
DD
330
DB
100
AcDbEntity
  8
0
100
AcDbBlockBegin
  2
3_070008i_0_in_071514_2
 70
     2
 10
0.0
 20
0.0
 30
0.0
  3
3_070008i_0_in_071514_2
  1

  0
ATTDEF
  5
DF
330
DB
100
AcDbEntity
  8
AM_6
100
AcDbText
 10
4.263125
 20
2.36205
 30
0.0
 40
0.5
  1
S-2000 Insert -Inch
100
AcDbAttributeDefinition
  3

  2
NN
 70
     8
280
     0
  0
ATTDEF
  5
E0
330
DB
100
AcDbEntity
  8
AM_6
100
AcDbText
 10
4.263125
 20
1.86205
 30
0.0
 40
0.5
  1
S-2000 Bearings
100
AcDbAttributeDefinition
  3

  2
NT
 70
     8
280
     0
  0
ATTDEF
  5
E1
330
DB
100
AcDbEntity
  8
AM_6
100
AcDbText
 10
4.263125
 20
1.36205
 30
0.0
 40
0.5
  1
070008i
100
AcDbAttributeDefinition
  3

  2
NB
 70
     8
280
     0
  0
ATTDEF
  5
E2
330
DB
100
AcDbEntity
  8
AM_6
100
AcDbText
 10
4.263125
 20
0.86205
 30
0.0
 40
0.5
  1
$PN.i
100
AcDbAttributeDefinition
  3

  2
NBSYN
 70
     8
280
     0
  0
ATTDEF
  5
E3
330
DB
100
AcDbEntity
  8
AM_6
100
AcDbText
 10
4.263125
 20
0.36205
 30
0.0
 40
0.5
  1
070008i
100
AcDbAttributeDefinition
  3

  2
LINA
 70
     8
280
     0
  0
ATTDEF
  5
E4
330
DB
100
AcDbEntity
  8
AM_6
100
AcDbText
 10
4.263125
 20
-0.13795
 30
0.0
 40
0.5
  1
2-7/16
100
AcDbAttributeDefinition
  3

  2
SS
 70
     8
280
     0
  0
ATTDEF
  5
E5
330
DB
100
AcDbEntity
  8
AM_6
100
AcDbText
 10
4.263125
 20
-0.63795
 30
0.0
 40
0.5
  1
2.94
100
AcDbAttributeDefinition
  3

  2
CC
 70
     8
280
     0
  0
ATTDEF
  5
E6
330
DB
100
AcDbEntity
  8
AM_6
100
AcDbText
 10
4.263125
 20
-1.13795
 30
0.0
 40
0.5
  1
2.437500
100
AcDbAttributeDefinition
  3

  2
SS1
 70
     8
280
     0
  0
ATTDEF
  5
E7
330
DB
100
AcDbEntity
  8
AM_6
100
AcDbText
 10
4.263125
 20
-1.63795
 30
0.0
 40
0.5
  1
070008
100
AcDbAttributeDefinition
  3

  2
PN
 70
     8
280
     0
  0
ATTDEF
  5
E8
330
DB
100
AcDbEntity
  8
AM_6
100
AcDbText
 10
4.263125
 20
-2.13795
 30
0.0
 40
0.5
  1
INS-S2-207R
100
AcDbAttributeDefinition
  3

  2
DESCRIPTION
 70
     8
280
     0
  0
ATTDEF
  5
E9
330
DB
100
AcDbEntity
  8
AM_6
100
AcDbText
 10
4.263125
 20
-2.63795
 30
0.0
 40
0.5
  1
Contact Seal
100
AcDbAttributeDefinition
  3

  2
ST
 70
     8
280
     0
  0
ATTDEF
  5
EA
330
DB
100
AcDbEntity
  8
AM_6
100
AcDbText
 10
4.263125
 20
-3.13795
 30
0.0
 40
0.5
  1
1
100
AcDbAttributeDefinition
  3

  2
ST1
 70
     8
280
     0
  0
ATTDEF
  5
EB
330
DB
100
AcDbEntity
  8
AM_6
100
AcDbText
 10
4.263125
 20
-3.63795
 30
0.0
 40
0.5
  1
4.7241
100
AcDbAttributeDefinition
  3

  2
A
 70
     8
280
     0
  0
ATTDEF
  5
EC
330
DB
100
AcDbEntity
  8
AM_6
100
AcDbText
 10
4.263125
 20
-4.13795
 30
0.0
 40
0.5
  1
1-9/32
100
AcDbAttributeDefinition
  3

  2
B
 70
     8
280
     0
  0
ATTDEF
  5
ED
330
DB
100
AcDbEntity
  8
AM_6
100
AcDbText
 10
4.263125
 20
-4.63795
 30
0.0
 40
0.5
  1
3-13/64
100
AcDbAttributeDefinition
  3

  2
C
 70
     8
280
     0
  0
ATTDEF
  5
EE
330
DB
100
AcDbEntity
  8
AM_6
100
AcDbText
 10
4.263125
 20
-5.13795
 30
0.0
 40
0.5
  1
1.208
100
AcDbAttributeDefinition
  3

  2
D
 70
     8
280
     0
  0
ATTDEF
  5
EF
330
DB
100
AcDbEntity
  8
AM_6
100
AcDbText
 10
4.263125
 20
-5.63795
 30
0.0
 40
0.5
  1
3-31/32
100
AcDbAttributeDefinition
  3

  2
E
 70
     8
280
     0
  0
ATTDEF
  5
F0
330
DB
100
AcDbEntity
  8
AM_6
100
AcDbText
 10
4.263125
 20
-6.13795
 30
0.0
 40
0.5
  1
0.34375
100
AcDbAttributeDefinition
  3

  2
F
 70
     8
280
     0
  0
ATTDEF
  5
F1
330
DB
100
AcDbEntity
  8
AM_6
100
AcDbText
 10
4.263125
 20
-6.63795
 30
0.0
 40
0.5
  1
2
100
AcDbAttributeDefinition
  3

  2
DD
 70
     8
280
     0
  0
ATTDEF
  5
F2
330
DB
100
AcDbEntity
  8
AM_6
100
AcDbText
 10
4.263125
 20
-7.13795
 30
0.0
 40
0.5
  1
baldor
100
AcDbAttributeDefinition
  3

  2
COMPANY
 70
     8
280
     0
  0
LINE
  5
F3
330
DB
100
AcDbEntity
  8
AM_9
100
AcDbLine
 10
-3.828
 20
1.469905716213927
 30
0.0
 11
-3.828
 21
1.21875
 31
0.0
  0
LINE
  5
F4
330
DB
100
AcDbEntity
  8
AM_9
100
AcDbLine
 10
-3.418000000000001
 20
1.21875
 30
0.0
 11
-3.418000000000001
 21
1.46998974520131
 31
0.0
  0
LINE
  5
F5
330
DB
100
AcDbEntity
  8
AM_9
100
AcDbLine
 10
-3.828
 20
0.621248844758828
 30
0.0
 11
-3.828
 21
0.5150529997513623
 31
0.0
  0
LINE
  5
F6
330
DB
100
AcDbEntity
  8
AM_9
100
AcDbLine
 10
-3.418000000000001
 20
0.5150173476379242
 30
0.0
 11
-3.418000000000001
 21
0.621248844758828
 31
0.0
  0
LWPOLYLINE
  5
F7
330
DB
100
AcDbEntity
  8
AM_9
100
AcDbPolyline
 90
        4
 70
     0
 43
0.0
 10
-3.81935453751929
 20
0.5678508409126878
 10
-3.824652513744124
 20
0.5481580329638884
 10
-3.827986621459821
 20
0.5171876396463833
 10
-3.827999999568045
 20
0.5150780675601636
  0
LWPOLYLINE
  5
F8
330
DB
100
AcDbEntity
  8
AM_9
100
AcDbPolyline
 90
        5
 70
     0
 43
0.0
 10
-3.775562398156691
 20
0.6359051825085431
 10
-3.781383753634779
 20
0.6300784902633648
 10
-3.801024774507441
 20
0.6053571086175877
 10
-3.815625841356009
 20
0.577784939243013
 10
-3.81935453751929
 20
0.5678508409126878
  0
LWPOLYLINE
  5
F9
330
DB
100
AcDbEntity
  8
AM_9
100
AcDbPolyline
 90
       12
 70
     0
 43
0.0
 10
-3.470717001632447
 20
0.6361718746283241
 10
-3.476607300099846
 20
0.641544140511094
 10
-3.502804719063555
 20
0.6607483500736281
 10
-3.532414457501145
 20
0.6758387225739645
 10
-3.564696751471268
 20
0.6864277744918272
 10
-3.598668585790521
 20
0.692311267320155
 10
-3.632937183116765
 20
0.6933031933169543
 10
-3.666922614838396
 20
0.689545059789669
 10
-3.699435670341082
 20
0.6811323234983913
 10
-3.729825237305716
 20
0.668304310886423
 10
-3.757475420978763
 20
0.6511089233504802
 10
-3.775562398156691
 20
0.6359051825085431
  0
LWPOLYLINE
  5
FA
330
DB
100
AcDbEntity
  8
AM_9
100
AcDbPolyline
 90
        4
 70
     0
 43
0.0
 10
-3.426727180200227
 20
0.568091525792359
 10
-3.437691953348353
 20
0.5931871591003276
 10
-3.454838867244258
 20
0.6189083519656525
 10
-3.470717001632447
 20
0.6361718746283241
  0
LWPOLYLINE
  5
FB
330
DB
100
AcDbEntity
  8
AM_9
100
AcDbPolyline
 90
        4
 70
     0
 43
0.0
 10
-3.418000000669994
 20
0.5150509853094741
 10
-3.419222044956707
 20
0.5352358231779858
 10
-3.425758415961445
 20
0.5650865329598239
 10
-3.426727180200227
 20
0.568091525792359
  0
LWPOLYLINE
  5
FC
330
DB
100
AcDbEntity
  8
AM_9
100
AcDbPolyline
 90
       10
 70
     0
 43
0.0
 10
-3.827999999568045
 20
0.5150780675601636
 10
-3.825507684036892
 20
0.4861260934247272
 10
-3.817449551522779
 20
0.4554989271131977
 10
-3.803995308349226
 20
0.4262539637797453
 10
-3.785596315116116
 20
0.3992040782146465
 10
-3.762405325639816
 20
0.3749377863764634
 10
-3.735307114121199
 20
0.3545095613281251
 10
-3.704775705588854
 20
0.3385545694129091
 10
-3.67188239127923
 20
0.3277136406684418
 10
-3.623
 20
0.3219342573590258
  0
LWPOLYLINE
  5
FD
330
DB
100
AcDbEntity
  8
AM_9
100
AcDbPolyline
 90
        8
 70
     0
 43
0.0
 10
-3.494386059163718
 20
0.7622535795450102
 10
-3.48744030108056
 20
0.7571898815993625
 10
-3.463648575512462
 20
0.7357359157311505
 10
-3.444237670881197
 20
0.7107041953710063
 10
-3.429881463371869
 20
0.6829013471162917
 10
-3.421093948853534
 20
0.6531121954173468
 10
-3.418002090498296
 20
0.6220877785074757
 10
-3.418000000089267
 20
0.621254327694649
  0
LWPOLYLINE
  5
FE
330
DB
100
AcDbEntity
  8
AM_9
100
AcDbPolyline
 90
       10
 70
     0
 43
0.0
 10
-3.751503550936209
 20
0.7623300235934127
 10
-3.742403889476539
 20
0.7682468701889982
 10
-3.712717634597044
 20
0.7834008414422267
 10
-3.680415224658343
 20
0.7939960158291796
 10
-3.64646346083227
 20
0.7998302260511795
 10
-3.612116274228122
 20
0.8007098519685408
 10
-3.578078073454837
 20
0.7967485233376097
 10
-3.545467286314386
 20
0.7880250306204448
 10
-3.515020023359241
 20
0.7747984707120202
 10
-3.494386059163718
 20
0.7622535795450102
  0
LWPOLYLINE
  5
FF
330
DB
100
AcDbEntity
  8
AM_9
100
AcDbPolyline
 90
        7
 70
     0
 43
0.0
 10
-3.8279999992357
 20
0.6212328011891839
 10
-3.826730209059696
 20
0.6418213887152444
 10
-3.820083612012716
 20
0.6718560866748599
 10
-3.807994593424448
 20
0.7001795107222514
 10
-3.790673337945753
 20
0.7261081083661717
 10
-3.768706653008369
 20
0.7489449561134582
 10
-3.751503550936209
 20
0.7623300235934127
  0
LWPOLYLINE
  5
100
330
DB
100
AcDbEntity
  8
AM_9
100
AcDbPolyline
 90
       10
 70
     0
 43
0.0
 10
-3.418000000089267
 20
0.621254327694649
 10
-3.420734149912957
 20
0.5909597109987307
 10
-3.429076611128521
 20
0.5603679356711233
 10
-3.442852085301833
 20
0.5312396340616075
 10
-3.461598098465075
 20
0.5044000780484864
 10
-3.485064603808705
 20
0.4805142153216054
 10
-3.512406823356912
 20
0.4605135164447421
 10
-3.543057727275544
 20
0.4450437609826081
 10
-3.576000707716885
 20
0.4346544396545982
 10
-3.623
 20
0.4293850906592017
  0
LWPOLYLINE
  5
101
330
DB
100
AcDbEntity
  8
AM_9
100
AcDbPolyline
 90
       11
 70
     0
 43
0.0
 10
-3.623
 20
0.3219342573590258
 10
-3.588860406487391
 20
0.3247557068273556
 10
-3.555689783775385
 20
0.3330311277344002
 10
-3.524459147180744
 20
0.3465338269090653
 10
-3.49597630500495
 20
0.364729200316716
 10
-3.47084890663448
 20
0.3872954697040967
 10
-3.449982110081896
 20
0.4133137018684512
 10
-3.433939964585988
 20
0.4421955486185594
 10
-3.423263940349556
 20
0.4728636628959968
 10
-3.418377561660186
 20
0.5040924520844332
 10
-3.418000000669994
 20
0.5150509853094741
  0
LWPOLYLINE
  5
102
330
DB
100
AcDbEntity
  8
AM_9
100
AcDbPolyline
 90
       11
 70
     0
 43
0.0
 10
-3.623
 20
1.20138526813841
 10
-3.589344891887692
 20
1.201856575803474
 10
-3.555689783775385
 20
1.203269391162347
 10
-3.524871589300356
 20
1.205386140407479
 10
-3.49597630500495
 20
1.208081777691475
 10
-3.47116185362922
 20
1.210942354199123
 10
-3.449982110081896
 20
1.213779944113311
 10
-3.434117330851088
 20
1.216142765141008
 10
-3.423263940349556
 20
1.217875632412722
 10
-3.418386451729568
 20
1.218685056376674
 10
-3.418000000000526
 20
1.218749999999912
  0
LINE
  5
103
330
DB
100
AcDbEntity
  8
AM_9
100
AcDbLine
 10
-0.7368750000000003
 20
1.21875
 30
0.0
 11
-3.418000000000001
 21
1.21875
 31
0.0
  0
LINE
  5
104
330
DB
100
AcDbEntity
  8
AM_9
100
AcDbLine
 10
-3.828
 20
1.21875
 30
0.0
 11
-3.94
 21
1.21875
 31
0.0
  0
LINE
  5
105
330
DB
100
AcDbEntity
  8
AM_9
100
AcDbLine
 10
-3.94
 20
-1.21875
 30
0.0
 11
-0.7368750000000003
 21
-1.21875
 31
0.0
  0
LINE
  5
106
330
DB
100
AcDbEntity
  8
AM_9
100
AcDbLine
 10
-3.817041658344847
 20
1.216954694174445
 30
0.0
 11
-3.82799999999969
 21
1.218749999999948
 31
0.0
  0
LINE
  5
107
330
DB
100
AcDbEntity
  8
AM_9
100
AcDbLine
 10
-3.610716775865497
 20
1.201448059674294
 30
0.0
 11
-3.628794289143054
 21
1.201399241004702
 31
0.0
  0
LWPOLYLINE
  5
108
330
DB
100
AcDbEntity
  8
AM_9
100
AcDbPolyline
 90
       11
 70
     0
 43
0.0
 10
-3.82799999999969
 20
1.218749999999948
 10
-3.825603487381553
 20
1.218349184593303
 10
-3.817449551522779
 20
1.217019798765579
 10
-3.804235494040423
 20
1.214978545818845
 10
-3.785596315116116
 20
1.212338287850936
 10
-3.762775238629165
 20
1.2094890160038
 10
-3.735307114121199
 20
1.206623160055463
 10
-3.705249322107603
 20
1.204197456186966
 10
-3.67188239127923
 20
1.202379328946225
 10
-3.647807054992535
 20
1.201641357675992
 10
-3.623
 20
1.20138526813841
  0
LINE
  5
109
330
DB
100
AcDbEntity
  8
AM_9
100
AcDbLine
 10
-0.7499999999999997
 20
1.47
 30
0.0
 11
-0.9275000000000007
 21
1.47
 31
0.0
  0
LINE
  5
10A
330
DB
100
AcDbEntity
  8
AM_9
100
AcDbLine
 10
-0.9275000000000007
 20
-1.47
 30
0.0
 11
-0.7499999999999997
 21
-1.47
 31
0.0
  0
LWPOLYLINE
  5
10B
330
DB
100
AcDbEntity
  8
AM_9
100
AcDbPolyline
 90
       11
 70
     0
 43
0.0
 10
-3.623
 20
0.4293850906592017
 10
-3.657225322904128
 20
0.4321841896295309
 10
-3.690481371322097
 20
0.440400388635345
 10
-3.721797566945058
 20
0.4538227968313307
 10
-3.750349516563767
 20
0.4719333732350003
 10
-3.775450744071456
 20
0.4943572124568417
 10
-3.796273994117107
 20
0.5202356198555214
 10
-3.812226374366816
 20
0.548934758688957
 10
-3.822819507838594
 20
0.5794431194347718
 10
-3.827646122837449
 20
0.6106473025315612
 10
-3.8279999992357
 20
0.6212328011891839
  0
LWPOLYLINE
  5
10C
330
DB
100
AcDbEntity
  8
AM_9
100
AcDbPolyline
 90
       11
 70
     0
 43
0.0
 10
-3.623
 20
1.455635600004342
 10
-3.656740685661049
 20
1.456026591058308
 10
-3.690481371322097
 20
1.457198934763373
 10
-3.721381657214717
 20
1.458956459417591
 10
-3.750349516563767
 20
1.461195708784085
 10
-3.775137301717213
 20
1.463564401922168
 10
-3.796273994117107
 20
1.465912301959873
 10
-3.812051395460705
 20
1.467860834727066
 10
-3.822819507838594
 20
1.469286505659416
 10
-3.827638136351467
 20
1.469949579696325
 10
-3.827999999999716
 20
1.46999999999996
  0
LINE
  5
10D
330
DB
100
AcDbEntity
  8
AM_9
100
AcDbLine
 10
-2.96225
 20
1.47
 30
0.0
 11
-3.418074431034401
 21
1.47
 31
0.0
  0
LINE
  5
10E
330
DB
100
AcDbEntity
  8
AM_9
100
AcDbLine
 10
-3.827321922451716
 20
1.47
 30
0.0
 11
-3.94
 21
1.47
 31
0.0
  0
LINE
  5
10F
330
DB
100
AcDbEntity
  8
AM_9
100
AcDbLine
 10
-3.94
 20
-1.47
 30
0.0
 11
-2.96225
 21
-1.47
 31
0.0
  0
LINE
  5
110
330
DB
100
AcDbEntity
  8
AM_9
100
AcDbLine
 10
-3.423654723766907
 20
1.469222086396896
 30
0.0
 11
-3.418000000000031
 21
1.469999999999996
 31
0.0
  0
LINE
  5
111
330
DB
100
AcDbEntity
  8
AM_9
100
AcDbLine
 10
-3.634833548451655
 20
1.455683699458419
 30
0.0
 11
-3.618933235317564
 21
1.455641280870731
 31
0.0
  0
LWPOLYLINE
  5
112
330
DB
100
AcDbEntity
  8
AM_9
100
AcDbPolyline
 90
       10
 70
     0
 43
0.0
 10
-3.418000000000031
 20
1.469999999999996
 10
-3.420634607627422
 20
1.469634904331721
 10
-3.42907661112852
 20
1.468496265147242
 10
-3.442605237695534
 20
1.46677103539267
 10
-3.461598098465075
 20
1.464556442688055
 10
-3.484689116997087
 20
1.462191813804552
 10
-3.512406823356912
 20
1.459830760985673
 10
-3.542585695599556
 20
1.457855088941355
 10
-3.576000707716885
 20
1.456394154573244
 10
-3.623
 20
1.455635600004342
  0
LINE
  5
113
330
DB
100
AcDbEntity
  8
AM_9
100
AcDbLine
 10
-1.055625000000001
 20
1.88964
 30
0.0
 11
-1.30425
 21
1.88964
 31
0.0
  0
LINE
  5
114
330
DB
100
AcDbEntity
  8
AM_9
100
AcDbLine
 10
-1.30425
 20
-1.88964
 30
0.0
 11
-1.055625000000001
 21
-1.88964
 31
0.0
  0
LINE
  5
115
330
DB
100
AcDbEntity
  8
AM_9
100
AcDbLine
 10
-0.9275000000000007
 20
-1.761515
 30
0.0
 11
-0.9275000000000007
 21
1.761515
 31
0.0
  0
LINE
  5
116
330
DB
100
AcDbEntity
  8
AM_9
100
AcDbLine
 10
-1.055625000000001
 20
-1.88964
 30
0.0
 11
-1.055625000000001
 21
1.88964
 31
0.0
  0
ARC
  5
117
330
DB
100
AcDbEntity
  8
AM_9
100
AcDbCircle
 10
-1.055625
 20
1.761515
 30
0.0
 40
0.1281249999999994
100
AcDbArc
 50
0.0
 51
90.0
  0
ARC
  5
118
330
DB
100
AcDbEntity
  8
AM_9
100
AcDbCircle
 10
-1.055625
 20
-1.761515
 30
0.0
 40
0.1281249999999996
100
AcDbArc
 50
270.0
 51
0.0
  0
LINE
  5
119
330
DB
100
AcDbEntity
  8
AM_9
100
AcDbLine
 10
-2.96225
 20
-1.761515
 30
0.0
 11
-2.96225
 21
1.761515
 31
0.0
  0
ARC
  5
11A
330
DB
100
AcDbEntity
  8
AM_9
100
AcDbCircle
 10
-2.834125
 20
1.761515
 30
0.0
 40
0.1281250000000003
100
AcDbArc
 50
90.0
 51
180.0
  0
ARC
  5
11B
330
DB
100
AcDbEntity
  8
AM_9
100
AcDbCircle
 10
-2.834125
 20
-1.761515
 30
0.0
 40
0.1281250000000003
100
AcDbArc
 50
180.0
 51
270.0
  0
LINE
  5
11C
330
DB
100
AcDbEntity
  8
AM_9
100
AcDbLine
 10
-2.834125
 20
-1.88964
 30
0.0
 11
-2.834125
 21
1.88964
 31
0.0
  0
LINE
  5
11D
330
DB
100
AcDbEntity
  8
AM_9
100
AcDbLine
 10
-2.5855
 20
1.88964
 30
0.0
 11
-2.834125
 21
1.88964
 31
0.0
  0
LINE
  5
11E
330
DB
100
AcDbEntity
  8
AM_9
100
AcDbLine
 10
-2.834125
 20
-1.88964
 30
0.0
 11
-2.5855
 21
-1.88964
 31
0.0
  0
LINE
  5
11F
330
DB
100
AcDbEntity
  8
AM_9
100
AcDbLine
 10
-1.880812499999999
 20
2.267568
 30
0.0
 11
-2.008937500000002
 21
2.267568
 31
0.0
  0
LINE
  5
120
330
DB
100
AcDbEntity
  8
AM_9
100
AcDbLine
 10
-2.008937500000002
 20
-2.267568
 30
0.0
 11
-1.880812499999999
 21
-2.267568
 31
0.0
  0
LINE
  5
121
330
DB
100
AcDbEntity
  8
AM_9
100
AcDbLine
 10
-2.585500000000001
 20
-2.233925
 30
0.0
 11
-2.585500000000001
 21
2.233925
 31
0.0
  0
ARC
  5
122
330
DB
100
AcDbEntity
  8
AM_9
100
AcDbCircle
 10
-2.457375000000002
 20
2.233925000000001
 30
0.0
 40
0.1281249999999989
100
AcDbArc
 50
90.0
 51
180.0
  0
ARC
  5
123
330
DB
100
AcDbEntity
  8
AM_9
100
AcDbCircle
 10
-2.457375000000002
 20
-2.233925000000001
 30
0.0
 40
0.1281249999999989
100
AcDbArc
 50
180.0
 51
270.0
  0
LINE
  5
124
330
DB
100
AcDbEntity
  8
AM_9
100
AcDbLine
 10
-1.432375000000001
 20
2.36205
 30
0.0
 11
-1.826263291866425
 21
2.36205
 31
0.0
  0
LINE
  5
125
330
DB
100
AcDbEntity
  8
AM_9
100
AcDbLine
 10
-1.826263291866425
 20
-2.36205
 30
0.0
 11
-1.432375000000001
 21
-2.36205
 31
0.0
  0
LINE
  5
126
330
DB
100
AcDbEntity
  8
AM_9
100
AcDbLine
 10
-1.826263291866425
 20
-2.36205
 30
0.0
 11
-1.826263291866425
 21
2.36205
 31
0.0
  0
LINE
  5
127
330
DB
100
AcDbEntity
  8
AM_9
100
AcDbLine
 10
-1.880812499999999
 20
-2.267568
 30
0.0
 11
-1.880812499999999
 21
2.267568
 31
0.0
  0
LINE
  5
128
330
DB
100
AcDbEntity
  8
AM_9
100
AcDbLine
 10
-1.880812499999999
 20
-2.267568
 30
0.0
 11
-1.826263291866425
 21
-2.36205
 31
0.0
  0
LINE
  5
129
330
DB
100
AcDbEntity
  8
AM_9
100
AcDbLine
 10
-1.826263291866425
 20
2.36205
 30
0.0
 11
-1.880812499999999
 21
2.267568
 31
0.0
  0
LINE
  5
12A
330
DB
100
AcDbEntity
  8
AM_9
100
AcDbLine
 10
-2.457375000000001
 20
-2.36205
 30
0.0
 11
-2.457375000000001
 21
2.36205
 31
0.0
  0
LINE
  5
12B
330
DB
100
AcDbEntity
  8
AM_9
100
AcDbLine
 10
-2.063486708133576
 20
2.36205
 30
0.0
 11
-2.457375000000001
 21
2.36205
 31
0.0
  0
LINE
  5
12C
330
DB
100
AcDbEntity
  8
AM_9
100
AcDbLine
 10
-2.457375000000001
 20
-2.36205
 30
0.0
 11
-2.063486708133576
 21
-2.36205
 31
0.0
  0
LINE
  5
12D
330
DB
100
AcDbEntity
  8
AM_9
100
AcDbLine
 10
-1.30425
 20
-2.233925001909211
 30
0.0
 11
-1.30425
 21
2.233925001909211
 31
0.0
  0
LINE
  5
12E
330
DB
100
AcDbEntity
  8
AM_9
100
AcDbLine
 10
-1.432375000000001
 20
-2.36205
 30
0.0
 11
-1.432375000000001
 21
2.36205
 31
0.0
  0
ARC
  5
12F
330
DB
100
AcDbEntity
  8
AM_9
100
AcDbCircle
 10
-1.432375000000012
 20
2.233924999999988
 30
0.0
 40
0.1281250000000111
100
AcDbArc
 50
0.0
 51
90.0
  0
ARC
  5
130
330
DB
100
AcDbEntity
  8
AM_9
100
AcDbCircle
 10
-1.432375
 20
-2.233925
 30
0.0
 40
0.1281249999999998
100
AcDbArc
 50
270.0
 51
0.0
  0
LINE
  5
131
330
DB
100
AcDbEntity
  8
AM_9
100
AcDbLine
 10
-2.008937500000002
 20
-2.267568
 30
0.0
 11
-2.008937500000002
 21
2.267568
 31
0.0
  0
LINE
  5
132
330
DB
100
AcDbEntity
  8
AM_9
100
AcDbLine
 10
-2.063486708133576
 20
-2.36205
 30
0.0
 11
-2.063486708133576
 21
2.36205
 31
0.0
  0
LINE
  5
133
330
DB
100
AcDbEntity
  8
AM_9
100
AcDbLine
 10
-2.008937500000002
 20
2.267568
 30
0.0
 11
-2.063486708133576
 21
2.36205
 31
0.0
  0
LINE
  5
134
330
DB
100
AcDbEntity
  8
AM_9
100
AcDbLine
 10
-2.063486708133576
 20
-2.36205
 30
0.0
 11
-2.008937500000002
 21
-2.267568
 31
0.0
  0
LINE
  5
137
330
DB
100
AcDbEntity
  8
AM_7
100
AcDbLine
 10
-3.623
 20
-0.0753846153846154
 30
0.0
 11
-3.623
 21
2.0605625
 31
0.0
  0
LINE
  5
138
330
DB
100
AcDbEntity
  8
AM_4
100
AcDbLine
 10
-0.7368750000000003
 20
-1.47
 30
0.0
 11
-0.7368750000000003
 21
1.47
 31
0.0
  0
LINE
  5
139
330
DB
100
AcDbEntity
  8
AM_4
100
AcDbLine
 10
-0.7368750000000003
 20
1.47
 30
0.0
 11
-0.7499999999999997
 21
1.47
 31
0.0
  0
LINE
  5
13A
330
DB
100
AcDbEntity
  8
AM_4
100
AcDbLine
 10
-0.7499999999999997
 20
-1.47
 30
0.0
 11
-0.7368750000000003
 21
-1.47
 31
0.0
  0
ENDBLK
  5
DE
330
DB
100
AcDbEntity
  8
0
100
AcDbBlockEnd
  0
BLOCK
  5
13D
330
13B
100
AcDbEntity
  8
0
100
AcDbBlockBegin
  2
4_405015E_Inch_0_in_071514_2
 70
     2
 10
0.0
 20
0.0
 30
0.0
  3
4_405015E_Inch_0_in_071514_2
  1

  0
ATTDEF
  5
13F
330
13B
100
AcDbEntity
  8
AM_6
100
AcDbText
 10
2.822590742770461
 20
3.379999999999999
 30
0.0
 40
0.5
  1
405015E -Inch
100
AcDbAttributeDefinition
  3

  2
NN
 70
     8
280
     0
  0
ATTDEF
  5
140
330
13B
100
AcDbEntity
  8
AM_6
100
AcDbText
 10
2.822590742770461
 20
2.879999999999999
 30
0.0
 40
0.5
  1
Grease Fitting
100
AcDbAttributeDefinition
  3

  2
NT
 70
     8
280
     0
  0
ATTDEF
  5
141
330
13B
100
AcDbEntity
  8
AM_6
100
AcDbText
 10
2.822590742770461
 20
2.379999999999999
 30
0.0
 40
0.5
  1
405015E-Inch
100
AcDbAttributeDefinition
  3

  2
NB
 70
     8
280
     0
  0
ATTDEF
  5
142
330
13B
100
AcDbEntity
  8
AM_6
100
AcDbText
 10
2.822590742770461
 20
1.879999999999999
 30
0.0
 40
0.5
  1
$MN.-Inch
100
AcDbAttributeDefinition
  3

  2
NBSYN
 70
     8
280
     0
  0
ATTDEF
  5
143
330
13B
100
AcDbEntity
  8
AM_6
100
AcDbText
 10
2.822590742770461
 20
1.379999999999999
 30
0.0
 40
0.5
  1
405015E
100
AcDbAttributeDefinition
  3

  2
LINA
 70
     8
280
     0
  0
ATTDEF
  5
144
330
13B
100
AcDbEntity
  8
AM_6
100
AcDbText
 10
2.822590742770461
 20
0.8799999999999994
 30
0.0
 40
0.5
  1
405015E
100
AcDbAttributeDefinition
  3

  2
MN
 70
     8
280
     0
  0
ATTDEF
  5
145
330
13B
100
AcDbEntity
  8
AM_6
100
AcDbText
 10
2.822590742770461
 20
0.3799999999999994
 30
0.0
 40
0.5
  1
1/8 x 27PTF
100
AcDbAttributeDefinition
  3

  2
T
 70
     8
280
     0
  0
ATTDEF
  5
146
330
13B
100
AcDbEntity
  8
AM_6
100
AcDbText
 10
2.822590742770461
 20
-0.1200000000000006
 30
0.0
 40
0.5
  1
baldor
100
AcDbAttributeDefinition
  3

  2
COMPANY
 70
     8
280
     0
  0
LINE
  5
147
330
13B
100
AcDbEntity
  8
AM_9
100
AcDbLine
 10
-2.591902872472269
 20
2.74
 30
0.0
 11
-2.268097127527731
 21
2.74
 31
0.0
  0
LINE
  5
148
330
13B
100
AcDbEntity
  8
AM_9
100
AcDbLine
 10
-2.268097127527731
 20
2.74
 30
0.0
 11
-2.231382373218785
 21
2.776714754308946
 31
0.0
  0
LINE
  5
149
330
13B
100
AcDbEntity
  8
AM_9
100
AcDbLine
 10
-2.628617626781216
 20
2.776714754308946
 30
0.0
 11
-2.591902872472269
 21
2.74
 31
0.0
  0
LINE
  5
14A
330
13B
100
AcDbEntity
  8
AM_9
100
AcDbLine
 10
-2.628617626781216
 20
2.776714754308946
 30
0.0
 11
-2.231382373218785
 21
2.776714754308946
 31
0.0
  0
LINE
  5
14B
330
13B
100
AcDbEntity
  8
AM_9
100
AcDbLine
 10
-2.231382373218785
 20
2.776714754308946
 30
0.0
 11
-2.22424810277693
 21
3.005
 31
0.0
  0
LINE
  5
14C
330
13B
100
AcDbEntity
  8
AM_9
100
AcDbLine
 10
-2.63575189722307
 20
3.005
 30
0.0
 11
-2.628617626781216
 21
2.776714754308946
 31
0.0
  0
LINE
  5
14D
330
13B
100
AcDbEntity
  8
AM_5
100
AcDbLine
 10
-2.261850875147652
 20
2.939870087748463
 30
0.0
 11
-2.268097127527731
 21
2.74
 31
0.0
  0
LINE
  5
14E
330
13B
100
AcDbEntity
  8
AM_5
100
AcDbLine
 10
-2.22424810277693
 20
3.005
 30
0.0
 11
-2.261850875147652
 21
2.939870087748463
 31
0.0
  0
LINE
  5
14F
330
13B
100
AcDbEntity
  8
AM_5
100
AcDbLine
 10
-2.633716485751557
 20
2.939870087748463
 30
0.0
 11
-2.226283514248443
 21
2.939870087748463
 31
0.0
  0
LINE
  5
150
330
13B
100
AcDbEntity
  8
AM_5
100
AcDbLine
 10
-2.598149124852348
 20
2.939870087748463
 30
0.0
 11
-2.591902872472269
 21
2.74
 31
0.0
  0
LINE
  5
151
330
13B
100
AcDbEntity
  8
AM_5
100
AcDbLine
 10
-2.63575189722307
 20
3.005
 30
0.0
 11
-2.598149124852348
 21
2.939870087748463
 31
0.0
  0
LINE
  5
152
330
13B
100
AcDbEntity
  8
AM_4
100
AcDbLine
 10
-2.325
 20
3.21
 30
0.0
 11
-2.325
 21
3.24
 31
0.0
  0
LINE
  5
153
330
13B
100
AcDbEntity
  8
AM_4
100
AcDbLine
 10
-2.535
 20
3.24
 30
0.0
 11
-2.535
 21
3.21
 31
0.0
  0
LINE
  5
154
330
13B
100
AcDbEntity
  8
AM_4
100
AcDbLine
 10
-2.64875
 20
3.105
 30
0.0
 11
-2.21125
 21
3.105
 31
0.0
  0
LINE
  5
155
330
13B
100
AcDbEntity
  8
AM_4
100
AcDbLine
 10
-2.177409257229539
 20
3.095932400303385
 30
0.0
 11
-2.21125
 21
3.105
 31
0.0
  0
LINE
  5
156
330
13B
100
AcDbEntity
  8
AM_4
100
AcDbLine
 10
-2.64875
 20
3.105
 30
0.0
 11
-2.682590742770461
 21
3.095932400303385
 31
0.0
  0
LINE
  5
157
330
13B
100
AcDbEntity
  8
AM_4
100
AcDbLine
 10
-2.21125
 20
3.005
 30
0.0
 11
-2.177409257229539
 21
3.014067599696614
 31
0.0
  0
LINE
  5
158
330
13B
100
AcDbEntity
  8
AM_4
100
AcDbLine
 10
-2.682590742770461
 20
3.014067599696614
 30
0.0
 11
-2.64875
 21
3.005
 31
0.0
  0
LINE
  5
159
330
13B
100
AcDbEntity
  8
AM_4
100
AcDbLine
 10
-2.535
 20
3.21
 30
0.0
 11
-2.325
 21
3.21
 31
0.0
  0
LINE
  5
15A
330
13B
100
AcDbEntity
  8
AM_4
100
AcDbLine
 10
-2.535
 20
3.21
 30
0.0
 11
-2.548820090734897
 21
3.177753121618572
 31
0.0
  0
LINE
  5
15B
330
13B
100
AcDbEntity
  8
AM_4
100
AcDbLine
 10
-2.311179909265102
 20
3.177753121618572
 30
0.0
 11
-2.325
 21
3.21
 31
0.0
  0
LINE
  5
15C
330
13B
100
AcDbEntity
  8
AM_4
100
AcDbLine
 10
-2.532677901933187
 20
3.379999999999999
 30
0.0
 11
-2.327322098066813
 21
3.379999999999999
 31
0.0
  0
LINE
  5
15D
330
13B
100
AcDbEntity
  8
AM_4
100
AcDbLine
 10
-2.532677901933187
 20
3.379999999999999
 30
0.0
 11
-2.565
 21
3.3
 31
0.0
  0
LINE
  5
15E
330
13B
100
AcDbEntity
  8
AM_4
100
AcDbLine
 10
-2.295
 20
3.3
 30
0.0
 11
-2.327322098066813
 21
3.379999999999999
 31
0.0
  0
LINE
  5
15F
330
13B
100
AcDbEntity
  8
AM_4
100
AcDbLine
 10
-2.565
 20
3.3
 30
0.0
 11
-2.295
 21
3.3
 31
0.0
  0
LINE
  5
160
330
13B
100
AcDbEntity
  8
AM_4
100
AcDbLine
 10
-2.535
 20
3.24
 30
0.0
 11
-2.325
 21
3.24
 31
0.0
  0
LINE
  5
161
330
13B
100
AcDbEntity
  8
AM_4
100
AcDbLine
 10
-2.325
 20
3.24
 30
0.0
 11
-2.295
 21
3.3
 31
0.0
  0
LINE
  5
162
330
13B
100
AcDbEntity
  8
AM_4
100
AcDbLine
 10
-2.565
 20
3.3
 30
0.0
 11
-2.535
 21
3.24
 31
0.0
  0
LINE
  5
163
330
13B
100
AcDbEntity
  8
AM_4
100
AcDbLine
 10
-2.548820090734897
 20
3.177753121618572
 30
0.0
 11
-2.311179909265102
 21
3.177753121618572
 31
0.0
  0
LINE
  5
164
330
13B
100
AcDbEntity
  8
AM_4
100
AcDbLine
 10
-2.548820090734897
 20
3.177753121618572
 30
0.0
 11
-2.602534053283015
 21
3.123318198540882
 31
0.0
  0
LINE
  5
165
330
13B
100
AcDbEntity
  8
AM_4
100
AcDbLine
 10
-2.257465946716985
 20
3.123318198540882
 30
0.0
 11
-2.311179909265102
 21
3.177753121618572
 31
0.0
  0
LINE
  5
166
330
13B
100
AcDbEntity
  8
AM_4
100
AcDbLine
 10
-2.602534053283015
 20
3.123318198540882
 30
0.0
 11
-2.257465946716985
 21
3.123318198540882
 31
0.0
  0
LINE
  5
167
330
13B
100
AcDbEntity
  8
AM_4
100
AcDbLine
 10
-2.602534053283015
 20
3.123318198540882
 30
0.0
 11
-2.64375
 21
3.105
 31
0.0
  0
LINE
  5
168
330
13B
100
AcDbEntity
  8
AM_4
100
AcDbLine
 10
-2.21625
 20
3.105
 30
0.0
 11
-2.257465946716985
 21
3.123318198540882
 31
0.0
  0
LWPOLYLINE
  5
169
330
13B
100
AcDbEntity
  8
AM_4
100
AcDbPolyline
 90
        4
 70
     0
 43
0.0
 10
-2.43
 20
3.105
 10
-2.381600183944101
 20
3.103582439282862
 10
-2.333200367888202
 20
3.099517587482156
 10
-2.303704628614769
 20
3.095932400303385
  0
LWPOLYLINE
  5
16A
330
13B
100
AcDbEntity
  8
AM_4
100
AcDbPolyline
 90
        3
 70
     0
 43
0.0
 10
-2.556295371385231
 20
3.095932400303385
 10
-2.493431614691437
 20
3.10258547505038
 10
-2.43
 20
3.105
  0
LINE
  5
16B
330
13B
100
AcDbEntity
  8
AM_4
100
AcDbLine
 10
-2.556295371385231
 20
3.095932400303385
 30
0.0
 11
-2.556295371385231
 21
3.014067599696614
 31
0.0
  0
LWPOLYLINE
  5
16C
330
13B
100
AcDbEntity
  8
AM_4
100
AcDbPolyline
 90
        3
 70
     0
 43
0.0
 10
-2.619443057077846
 20
3.105
 10
-2.587869214231539
 20
3.102606619214965
 10
-2.556295371385231
 20
3.095932400303385
  0
LWPOLYLINE
  5
16D
330
13B
100
AcDbEntity
  8
AM_4
100
AcDbPolyline
 90
        3
 70
     0
 43
0.0
 10
-2.682590742770461
 20
3.095932400303385
 10
-2.651158864423564
 20
3.10258547505038
 10
-2.619443057077846
 20
3.105
  0
LINE
  5
16E
330
13B
100
AcDbEntity
  8
AM_4
100
AcDbLine
 10
-2.682590742770461
 20
3.095932400303385
 30
0.0
 11
-2.682590742770461
 21
3.014067599696614
 31
0.0
  0
LWPOLYLINE
  5
16F
330
13B
100
AcDbEntity
  8
AM_4
100
AcDbPolyline
 90
        3
 70
     0
 43
0.0
 10
-2.619443057077846
 20
3.005
 10
-2.651016899924153
 20
3.007393380785035
 10
-2.682590742770461
 20
3.014067599696614
  0
LWPOLYLINE
  5
170
330
13B
100
AcDbEntity
  8
AM_4
100
AcDbPolyline
 90
        4
 70
     0
 43
0.0
 10
-2.303704628614769
 20
3.014067599696614
 10
-2.333200367888202
 20
3.010482412517844
 10
-2.381457558752246
 20
3.006425828243072
 10
-2.43
 20
3.005
  0
LWPOLYLINE
  5
171
330
13B
100
AcDbEntity
  8
AM_4
100
AcDbPolyline
 90
        3
 70
     0
 43
0.0
 10
-2.43
 20
3.005
 10
-2.493147685692616
 20
3.007393380785035
 10
-2.556295371385231
 20
3.014067599696614
  0
LWPOLYLINE
  5
172
330
13B
100
AcDbEntity
  8
AM_4
100
AcDbPolyline
 90
        3
 70
     0
 43
0.0
 10
-2.556295371385231
 20
3.014067599696614
 10
-2.587727249732128
 20
3.00741452494962
 10
-2.619443057077846
 20
3.005
  0
LINE
  5
173
330
13B
100
AcDbEntity
  8
AM_4
100
AcDbLine
 10
-2.177409257229539
 20
3.095932400303385
 30
0.0
 11
-2.177409257229539
 21
3.014067599696614
 31
0.0
  0
LWPOLYLINE
  5
174
330
13B
100
AcDbEntity
  8
AM_4
100
AcDbPolyline
 90
        3
 70
     0
 43
0.0
 10
-2.240556942922154
 20
3.105
 10
-2.208983100075847
 20
3.102606619214965
 10
-2.177409257229539
 20
3.095932400303385
  0
LWPOLYLINE
  5
175
330
13B
100
AcDbEntity
  8
AM_4
100
AcDbPolyline
 90
        3
 70
     0
 43
0.0
 10
-2.303704628614769
 20
3.095932400303385
 10
-2.272272750267872
 20
3.10258547505038
 10
-2.240556942922154
 20
3.105
  0
LINE
  5
176
330
13B
100
AcDbEntity
  8
AM_4
100
AcDbLine
 10
-2.303704628614769
 20
3.095932400303385
 30
0.0
 11
-2.303704628614769
 21
3.014067599696614
 31
0.0
  0
LWPOLYLINE
  5
177
330
13B
100
AcDbEntity
  8
AM_4
100
AcDbPolyline
 90
        3
 70
     0
 43
0.0
 10
-2.240556942922154
 20
3.005
 10
-2.272130785768462
 20
3.007393380785035
 10
-2.303704628614769
 20
3.014067599696614
  0
LWPOLYLINE
  5
178
330
13B
100
AcDbEntity
  8
AM_4
100
AcDbPolyline
 90
        3
 70
     0
 43
0.0
 10
-2.177409257229539
 20
3.014067599696614
 10
-2.208841135576435
 20
3.00741452494962
 10
-2.240556942922154
 20
3.005
  0
ENDBLK
  5
13E
330
13B
100
AcDbEntity
  8
0
100
AcDbBlockEnd
  0
BLOCK
  5
17B
330
179
100
AcDbEntity
  8
0
100
AcDbBlockBegin
  2
5_B071514_0_in_071514_2
 70
     2
 10
0.0
 20
0.0
 30
0.0
  3
5_B071514_0_in_071514_2
  1

  0
ATTDEF
  5
17D
330
179
100
AcDbEntity
  8
AM_6
100
AcDbText
 10
5.168
 20
3.44
 30
0.0
 40
0.5
  1
EF4S-S2 -(Labyrinth Seal)-Housing
100
AcDbAttributeDefinition
  3

  2
NN
 70
     8
280
     0
  0
ATTDEF
  5
17E
330
179
100
AcDbEntity
  8
AM_6
100
AcDbText
 10
5.168
 20
2.94
 30
0.0
 40
0.5
  1
S-2000 -E TYpe -Inch
100
AcDbAttributeDefinition
  3

  2
NT
 70
     8
280
     0
  0
ATTDEF
  5
17F
330
179
100
AcDbEntity
  8
AM_6
100
AcDbText
 10
5.168
 20
2.44
 30
0.0
 40
0.5
  1
B071514
100
AcDbAttributeDefinition
  3

  2
NB
 70
     8
280
     0
  0
ATTDEF
  5
180
330
179
100
AcDbEntity
  8
AM_6
100
AcDbText
 10
5.168
 20
1.94
 30
0.0
 40
0.5
  1
$PN.
100
AcDbAttributeDefinition
  3

  2
NBSYN
 70
     8
280
     0
  0
ATTDEF
  5
181
330
179
100
AcDbEntity
  8
AM_6
100
AcDbText
 10
5.168
 20
1.44
 30
0.0
 40
0.5
  1
B071514
100
AcDbAttributeDefinition
  3

  2
LINA
 70
     8
280
     0
  0
ATTDEF
  5
182
330
179
100
AcDbEntity
  8
AM_6
100
AcDbText
 10
5.168
 20
0.94
 30
0.0
 40
0.5
  1
2-7/16
100
AcDbAttributeDefinition
  3

  2
SS
 70
     8
280
     0
  0
ATTDEF
  5
183
330
179
100
AcDbEntity
  8
AM_6
100
AcDbText
 10
5.168
 20
0.4399999999999999
 30
0.0
 40
0.5
  1
2.437500
100
AcDbAttributeDefinition
  3

  2
SS1
 70
     8
280
     0
  0
ATTDEF
  5
184
330
179
100
AcDbEntity
  8
AM_6
100
AcDbText
 10
5.168
 20
-0.0600000000000001
 30
0.0
 40
0.5
  1
Expansion
100
AcDbAttributeDefinition
  3

  2
TYPE
 70
     8
280
     0
  0
ATTDEF
  5
185
330
179
100
AcDbEntity
  8
AM_6
100
AcDbText
 10
5.168
 20
-0.56
 30
0.0
 40
0.5
  1
071501
100
AcDbAttributeDefinition
  3

  2
PN1
 70
     8
280
     0
  0
ATTDEF
  5
186
330
179
100
AcDbEntity
  8
AM_6
100
AcDbText
 10
5.168
 20
-1.06
 30
0.0
 40
0.5
  1
071514
100
AcDbAttributeDefinition
  3

  2
PN2
 70
     8
280
     0
  0
ATTDEF
  5
187
330
179
100
AcDbEntity
  8
AM_6
100
AcDbText
 10
5.168
 20
-1.56
 30
0.0
 40
0.5
  1
EF4B-S2-207L
100
AcDbAttributeDefinition
  3

  2
DESC1
 70
     8
280
     0
  0
ATTDEF
  5
188
330
179
100
AcDbEntity
  8
AM_6
100
AcDbText
 10
5.168
 20
-2.06
 30
0.0
 40
0.5
  1
EF4B-S2-207LE
100
AcDbAttributeDefinition
  3

  2
DESC2
 70
     8
280
     0
  0
ATTDEF
  5
189
330
179
100
AcDbEntity
  8
AM_6
100
AcDbText
 10
5.168
 20
-2.56
 30
0.0
 40
0.5
  1
Non-Expansion Type
100
AcDbAttributeDefinition
  3

  2
EF
 70
     8
280
     0
  0
ATTDEF
  5
18A
330
179
100
AcDbEntity
  8
AM_6
100
AcDbText
 10
5.168
 20
-3.06
 30
0.0
 40
0.5
  1
1
100
AcDbAttributeDefinition
  3

  2
EF1
 70
     8
280
     0
  0
ATTDEF
  5
18B
330
179
100
AcDbEntity
  8
AM_6
100
AcDbText
 10
5.168
 20
-3.56
 30
0.0
 40
0.5
  1
3.2
100
AcDbAttributeDefinition
  3

  2
A
 70
     8
280
     0
  0
ATTDEF
  5
18C
330
179
100
AcDbEntity
  8
AM_6
100
AcDbText
 10
5.168
 20
-4.06
 30
0.0
 40
0.5
  1
3.2000000
100
AcDbAttributeDefinition
  3

  2
A1
 70
     8
280
     0
  0
ATTDEF
  5
18D
330
179
100
AcDbEntity
  8
AM_6
100
AcDbText
 10
5.168
 20
-4.56
 30
0.0
 40
0.5
  1
6.88
100
AcDbAttributeDefinition
  3

  2
B
 70
     8
280
     0
  0
ATTDEF
  5
18E
330
179
100
AcDbEntity
  8
AM_6
100
AcDbText
 10
5.168
 20
-5.06
 30
0.0
 40
0.5
  1
6.8800000
100
AcDbAttributeDefinition
  3

  2
B1
 70
     8
280
     0
  0
ATTDEF
  5
18F
330
179
100
AcDbEntity
  8
AM_6
100
AcDbText
 10
5.168
 20
-5.56
 30
0.0
 40
0.5
  1
4.19
100
AcDbAttributeDefinition
  3

  2
C
 70
     8
280
     0
  0
ATTDEF
  5
190
330
179
100
AcDbEntity
  8
AM_6
100
AcDbText
 10
5.168
 20
-6.06
 30
0.0
 40
0.5
  1
4.1900000
100
AcDbAttributeDefinition
  3

  2
C1
 70
     8
280
     0
  0
ATTDEF
  5
191
330
179
100
AcDbEntity
  8
AM_6
100
AcDbText
 10
5.168
 20
-6.56
 30
0.0
 40
0.5
  1
5.37
100
AcDbAttributeDefinition
  3

  2
D
 70
     8
280
     0
  0
ATTDEF
  5
192
330
179
100
AcDbEntity
  8
AM_6
100
AcDbText
 10
5.168
 20
-7.06
 30
0.0
 40
0.5
  1
5.3700000
100
AcDbAttributeDefinition
  3

  2
D1
 70
     8
280
     0
  0
ATTDEF
  5
193
330
179
100
AcDbEntity
  8
AM_6
100
AcDbText
 10
5.168
 20
-7.56
 30
0.0
 40
0.5
  1
5/8
100
AcDbAttributeDefinition
  3

  2
F
 70
     8
280
     0
  0
ATTDEF
  5
194
330
179
100
AcDbEntity
  8
AM_6
100
AcDbText
 10
5.168
 20
-8.06
 30
0.0
 40
0.5
  1
0.6250000
100
AcDbAttributeDefinition
  3

  2
F1
 70
     8
280
     0
  0
ATTDEF
  5
195
330
179
100
AcDbEntity
  8
AM_6
100
AcDbText
 10
5.168
 20
-8.56
 30
0.0
 40
0.5
  1
0.83
100
AcDbAttributeDefinition
  3

  2
G
 70
     8
280
     0
  0
ATTDEF
  5
196
330
179
100
AcDbEntity
  8
AM_6
100
AcDbText
 10
5.168
 20
-9.06
 30
0.0
 40
0.5
  1
0.830000
100
AcDbAttributeDefinition
  3

  2
G1
 70
     8
280
     0
  0
ATTDEF
  5
197
330
179
100
AcDbEntity
  8
AM_6
100
AcDbText
 10
5.168
 20
-9.56
 30
0.0
 40
0.5
  1
1.5
100
AcDbAttributeDefinition
  3

  2
H
 70
     8
280
     0
  0
ATTDEF
  5
198
330
179
100
AcDbEntity
  8
AM_6
100
AcDbText
 10
5.168
 20
-10.06
 30
0.0
 40
0.5
  1
1.5000000
100
AcDbAttributeDefinition
  3

  2
H1
 70
     8
280
     0
  0
ATTDEF
  5
199
330
179
100
AcDbEntity
  8
AM_6
100
AcDbText
 10
5.168
 20
-10.56
 30
0.0
 40
0.5
  1
5.81
100
AcDbAttributeDefinition
  3

  2
J
 70
     8
280
     0
  0
ATTDEF
  5
19A
330
179
100
AcDbEntity
  8
AM_6
100
AcDbText
 10
5.168
 20
-11.06
 30
0.0
 40
0.5
  1
5.8100000
100
AcDbAttributeDefinition
  3

  2
J1
 70
     8
280
     0
  0
ATTDEF
  5
19B
330
179
100
AcDbEntity
  8
AM_6
100
AcDbText
 10
5.168
 20
-11.56
 30
0.0
 40
0.5
  1
6-3/4
100
AcDbAttributeDefinition
  3

  2
K
 70
     8
280
     0
  0
ATTDEF
  5
19C
330
179
100
AcDbEntity
  8
AM_6
100
AcDbText
 10
5.168
 20
-12.06
 30
0.0
 40
0.5
  1
6.7500000
100
AcDbAttributeDefinition
  3

  2
K1
 70
     8
280
     0
  0
ATTDEF
  5
19D
330
179
100
AcDbEntity
  8
AM_6
100
AcDbText
 10
5.168
 20
-12.56
 30
0.0
 40
0.5
  1
3.86
100
AcDbAttributeDefinition
  3

  2
L
 70
     8
280
     0
  0
ATTDEF
  5
19E
330
179
100
AcDbEntity
  8
AM_6
100
AcDbText
 10
5.168
 20
-13.06
 30
0.0
 40
0.5
  1
3.8600000
100
AcDbAttributeDefinition
  3

  2
L1
 70
     8
280
     0
  0
ATTDEF
  5
19F
330
179
100
AcDbEntity
  8
AM_6
100
AcDbText
 10
5.168
 20
-13.56
 30
0.0
 40
0.5
  1
3.32
100
AcDbAttributeDefinition
  3

  2
N
 70
     8
280
     0
  0
ATTDEF
  5
1A0
330
179
100
AcDbEntity
  8
AM_6
100
AcDbText
 10
5.168
 20
-14.06
 30
0.0
 40
0.5
  1
3.320000
100
AcDbAttributeDefinition
  3

  2
N1
 70
     8
280
     0
  0
ATTDEF
  5
1A1
330
179
100
AcDbEntity
  8
AM_6
100
AcDbText
 10
5.168
 20
-14.56
 30
0.0
 40
0.5
  1
0.98
100
AcDbAttributeDefinition
  3

  2
P
 70
     8
280
     0
  0
ATTDEF
  5
1A2
330
179
100
AcDbEntity
  8
AM_6
100
AcDbText
 10
5.168
 20
-15.06
 30
0.0
 40
0.5
  1
0.980000
100
AcDbAttributeDefinition
  3

  2
P1
 70
     8
280
     0
  0
ATTDEF
  5
1A3
330
179
100
AcDbEntity
  8
AM_6
100
AcDbText
 10
5.168
 20
-15.56
 30
0.0
 40
0.5
  1
0.25
100
AcDbAttributeDefinition
  3

  2
X
 70
     8
280
     0
  0
ATTDEF
  5
1A4
330
179
100
AcDbEntity
  8
AM_6
100
AcDbText
 10
5.168
 20
-16.06
 30
0.0
 40
0.5
  1
0.250000
100
AcDbAttributeDefinition
  3

  2
X1
 70
     8
280
     0
  0
ATTDEF
  5
1A5
330
179
100
AcDbEntity
  8
AM_6
100
AcDbText
 10
5.168
 20
-16.56
 30
0.0
 40
0.5
  1
0.025
100
AcDbAttributeDefinition
  3

  2
Y
 70
     8
280
     0
  0
ATTDEF
  5
1A6
330
179
100
AcDbEntity
  8
AM_6
100
AcDbText
 10
5.168
 20
-17.06
 30
0.0
 40
0.5
  1
2.95
100
AcDbAttributeDefinition
  3

  2
Z
 70
     8
280
     0
  0
ATTDEF
  5
1A7
330
179
100
AcDbEntity
  8
AM_6
100
AcDbText
 10
5.168
 20
-17.56
 30
0.0
 40
0.5
  1
2.950000
100
AcDbAttributeDefinition
  3

  2
Z1
 70
     8
280
     0
  0
ATTDEF
  5
1A8
330
179
100
AcDbEntity
  8
AM_6
100
AcDbText
 10
5.168
 20
-18.06
 30
0.0
 40
0.5
  1
3/8-16
100
AcDbAttributeDefinition
  3

  2
CS
 70
     8
280
     0
  0
ATTDEF
  5
1A9
330
179
100
AcDbEntity
  8
AM_6
100
AcDbText
 10
5.168
 20
-18.56
 30
0.0
 40
0.5
  1
0.3750
100
AcDbAttributeDefinition
  3

  2
NDM
 70
     8
280
     0
  0
ATTDEF
  5
1AA
330
179
100
AcDbEntity
  8
AM_6
100
AcDbText
 10
5.168
 20
-19.06
 30
0.0
 40
0.5
  1
0.3070
100
AcDbAttributeDefinition
  3

  2
KDM
 70
     8
280
     0
  0
ATTDEF
  5
1AB
330
179
100
AcDbEntity
  8
AM_6
100
AcDbText
 10
5.168
 20
-19.56
 30
0.0
 40
0.5
  1
4.7241
100
AcDbAttributeDefinition
  3

  2
BORE
 70
     8
280
     0
  0
ATTDEF
  5
1AC
330
179
100
AcDbEntity
  8
AM_6
100
AcDbText
 10
5.168
 20
-20.06
 30
0.0
 40
0.5
  1
1
100
AcDbAttributeDefinition
  3

  2
ST1
 70
     8
280
     0
  0
ATTDEF
  5
1AD
330
179
100
AcDbEntity
  8
AM_6
100
AcDbText
 10
5.168
 20
-20.56
 30
0.0
 40
0.5
  1
baldor
100
AcDbAttributeDefinition
  3

  2
COMPANY
 70
     8
280
     0
  0
LINE
  5
1AE
330
179
100
AcDbEntity
  8
AM_9
100
AcDbLine
 10
-1.4
 20
-2.771110246629115
 30
0.0
 11
-1.5
 21
-2.771110246629115
 31
0.0
  0
LINE
  5
1AF
330
179
100
AcDbEntity
  8
AM_9
100
AcDbLine
 10
-1.4
 20
-2.724219137953669
 30
0.0
 11
-1.5
 21
-2.724219137953669
 31
0.0
  0
LINE
  5
1B0
330
179
100
AcDbEntity
  8
AM_9
100
AcDbLine
 10
-1.4
 20
2.771110246629116
 30
0.0
 11
-1.5
 21
2.771110246629116
 31
0.0
  0
LINE
  5
1B1
330
179
100
AcDbEntity
  8
AM_9
100
AcDbLine
 10
-1.5
 20
2.724219137953669
 30
0.0
 11
-1.4
 21
2.724219137953669
 31
0.0
  0
LINE
  5
1B2
330
179
100
AcDbEntity
  8
AM_9
100
AcDbLine
 10
-0.7499999999999998
 20
1.72
 30
0.0
 11
-0.7499999999999998
 21
3.44
 31
0.0
  0
LINE
  5
1B3
330
179
100
AcDbEntity
  8
AM_9
100
AcDbLine
 10
-0.0642857142857137
 20
1.994255230812996
 30
0.0
 11
0.0000000000000001
 21
1.994255230812996
 31
0.0
  0
LINE
  5
1B4
330
179
100
AcDbEntity
  8
AM_9
100
AcDbLine
 10
-0.7499999999999998
 20
-3.44
 30
0.0
 11
-0.7499999999999998
 21
-1.72
 31
0.0
  0
LINE
  5
1B5
330
179
100
AcDbEntity
  8
AM_9
100
AcDbLine
 10
0.0000000000000001
 20
-1.994255230812996
 30
0.0
 11
-0.0642857142857137
 21
-1.994255230812996
 31
0.0
  0
LINE
  5
1B6
330
179
100
AcDbEntity
  8
AM_9
100
AcDbLine
 10
-0.2142857142857761
 20
1.791506747300993
 30
0.0
 11
-0.2142857142857761
 21
1.72
 31
0.0
  0
LWPOLYLINE
  5
1B7
330
179
100
AcDbEntity
  8
AM_9
100
AcDbPolyline
 90
       12
 70
     0
 43
0.0
 10
-0.0642857142857137
 20
1.994255230812996
 10
-0.0647444237996935
 20
1.994254304597581
 10
-0.0841024119285396
 20
1.992518685080772
 10
-0.1034466590680018
 20
1.987380451498282
 10
-0.1210690728417569
 20
1.979490156794247
 10
-0.1377033139761301
 20
1.96883709604327
 10
-0.1575784230148637
 20
1.951080349756497
 10
-0.1747601516074978
 20
1.92970975336803
 10
-0.1920163654860114
 20
1.899028712257557
 10
-0.2044073991860185
 20
1.865011935463213
 10
-0.2118091789089546
 20
1.828950973220774
 10
-0.2142857142857761
 20
1.791506747300993
  0
LINE
  5
1B8
330
179
100
AcDbEntity
  8
AM_9
100
AcDbLine
 10
-0.0642857142857137
 20
1.994255230812996
 30
0.0
 11
-0.0642857142857136
 21
1.72
 31
0.0
  0
LWPOLYLINE
  5
1B9
330
179
100
AcDbEntity
  8
AM_9
100
AcDbPolyline
 90
       11
 70
     0
 43
0.0
 10
-0.2142857142857153
 20
-1.791506747300997
 10
-0.2115626559599115
 20
-1.830744991929577
 10
-0.2029551070724298
 20
-1.869983236558157
 10
-0.1908432168704123
 20
-1.901556758271098
 10
-0.1734897932356485
 20
-1.931539220871643
 10
-0.1570441442801383
 20
-1.95164339213815
 10
-0.1370979354285092
 20
-1.969285818998138
 10
-0.1226360882605329
 20
-1.978627295186878
 10
-0.1047666648621478
 20
-1.986899732920578
 10
-0.0852918519265107
 20
-1.992302853619227
 10
-0.0642857142857137
 20
-1.994255230812996
  0
LINE
  5
1BA
330
179
100
AcDbEntity
  8
AM_9
100
AcDbLine
 10
-0.2142857142857761
 20
-1.72
 30
0.0
 11
-0.2142857142857153
 21
-1.791506747300997
 31
0.0
  0
LINE
  5
1BB
330
179
100
AcDbEntity
  8
AM_9
100
AcDbLine
 10
-0.0642857142857136
 20
-1.72
 30
0.0
 11
-0.0642857142857137
 21
-1.994255230812996
 31
0.0
  0
LINE
  5
1BC
330
179
100
AcDbEntity
  8
AM_9
100
AcDbLine
 10
-1.399999999999999
 20
3.37326229458658
 30
0.0
 11
-1.5
 21
3.37326229458658
 31
0.0
  0
LINE
  5
1BD
330
179
100
AcDbEntity
  8
AM_9
100
AcDbLine
 10
-1.399999999999999
 20
-3.37326229458658
 30
0.0
 11
-1.5
 21
-3.37326229458658
 31
0.0
  0
LINE
  5
1BE
330
179
100
AcDbEntity
  8
AM_9
100
AcDbLine
 10
-3.36
 20
-2.36205
 30
0.0
 11
-0.7499999999999999
 21
-2.36205
 31
0.0
  0
LINE
  5
1BF
330
179
100
AcDbEntity
  8
AM_9
100
AcDbLine
 10
-0.7499999999999999
 20
2.36205
 30
0.0
 11
-3.36
 21
2.36205
 31
0.0
  0
LINE
  5
1C0
330
179
100
AcDbEntity
  8
AM_9
100
AcDbLine
 10
-1.4
 20
-2.724219137953669
 30
0.0
 11
-1.399999999999999
 21
-3.44
 31
0.0
  0
LINE
  5
1C1
330
179
100
AcDbEntity
  8
AM_9
100
AcDbLine
 10
-1.399999999999999
 20
3.44
 30
0.0
 11
-1.4
 21
2.724219137953669
 31
0.0
  0
LINE
  5
1C2
330
179
100
AcDbEntity
  8
AM_9
100
AcDbLine
 10
-1.4
 20
2.743657940324242
 30
0.0
 11
-1.5
 21
2.743657940324242
 31
0.0
  0
LINE
  5
1C3
330
179
100
AcDbEntity
  8
AM_9
100
AcDbLine
 10
-1.4
 20
-2.743657940324243
 30
0.0
 11
-1.5
 21
-2.743657940324243
 31
0.0
  0
LINE
  5
1C4
330
179
100
AcDbEntity
  8
AM_9
100
AcDbLine
 10
-1.5
 20
-2.905
 30
0.0
 11
-1.4
 21
-2.905
 31
0.0
  0
LINE
  5
1C5
330
179
100
AcDbEntity
  8
AM_9
100
AcDbLine
 10
-1.4
 20
2.905
 30
0.0
 11
-1.5
 21
2.905
 31
0.0
  0
LINE
  5
1C6
330
179
100
AcDbEntity
  8
AM_9
100
AcDbLine
 10
-1.5
 20
-2.9975
 30
0.0
 11
0.0000000000000002
 21
-2.9975
 31
0.0
  0
LINE
  5
1C7
330
179
100
AcDbEntity
  8
AM_9
100
AcDbLine
 10
0.0000000000000002
 20
-2.3725
 30
0.0
 11
-1.5
 21
-2.3725
 31
0.0
  0
LINE
  5
1C8
330
179
100
AcDbEntity
  8
AM_9
100
AcDbLine
 10
-1.5
 20
2.3725
 30
0.0
 11
0.0000000000000002
 21
2.3725
 31
0.0
  0
LINE
  5
1C9
330
179
100
AcDbEntity
  8
AM_9
100
AcDbLine
 10
0.0000000000000002
 20
2.9975
 30
0.0
 11
-1.5
 21
2.9975
 31
0.0
  0
LINE
  5
1CA
330
179
100
AcDbEntity
  8
AM_7
100
AcDbLine
 10
0.0749999999999998
 20
2.685
 30
0.0
 11
-1.575
 21
2.685
 31
0.0
  0
LINE
  5
1CB
330
179
100
AcDbEntity
  8
AM_7
100
AcDbLine
 10
0.0749999999999998
 20
-2.685
 30
0.0
 11
-1.575
 21
-2.685
 31
0.0
  0
LINE
  5
1CC
330
179
100
AcDbEntity
  8
AM_7
100
AcDbLine
 10
-4.10015625
 20
0.0
 30
0.0
 11
0.168
 21
0.0
 31
0.0
  0
LINE
  5
1CD
330
179
100
AcDbEntity
  8
AM_7
100
AcDbLine
 10
-2.43
 20
3.411999999999999
 30
0.0
 11
-2.43
 21
2.4349025
 31
0.0
  0
LINE
  5
1CE
330
179
100
AcDbEntity
  8
AM_4
100
AcDbLine
 10
-2.83
 20
3.005
 30
0.0
 11
-2.030000000287285
 21
3.005
 31
0.0
  0
ARC
  5
1CF
330
179
100
AcDbEntity
  8
AM_4
100
AcDbCircle
 10
-2.029999999999999
 20
2.905000000000001
 30
0.0
 40
0.0999999999999994
100
AcDbArc
 50
0.0
 51
90.0
  0
ARC
  5
1D0
330
179
100
AcDbEntity
  8
AM_4
100
AcDbCircle
 10
-2.830000000000001
 20
2.905000000000001
 30
0.0
 40
0.0999999999999992
100
AcDbArc
 50
90.0
 51
180.0
  0
LINE
  5
1D1
330
179
100
AcDbEntity
  8
AM_4
100
AcDbLine
 10
-2.93
 20
2.905
 30
0.0
 11
-1.93
 21
2.905
 31
0.0
  0
LINE
  5
1D2
330
179
100
AcDbEntity
  8
AM_4
100
AcDbLine
 10
-3.36
 20
-2.905
 30
0.0
 11
-3.36
 21
2.905
 31
0.0
  0
LINE
  5
1D3
330
179
100
AcDbEntity
  8
AM_4
100
AcDbLine
 10
-1.399999999999999
 20
0.9546549672503342
 30
0.0
 11
-1.5
 21
0.9546549672503342
 31
0.0
  0
LINE
  5
1D4
330
179
100
AcDbEntity
  8
AM_4
100
AcDbLine
 10
-1.399999999999999
 20
-0.9546549672503362
 30
0.0
 11
-1.5
 21
-0.9546549672503362
 31
0.0
  0
LWPOLYLINE
  5
1D5
330
179
100
AcDbEntity
  8
AM_4
100
AcDbPolyline
 90
       38
 70
     0
 43
0.0
 10
-2.93
 20
2.905
 10
-2.928298599934066
 20
2.904707173445282
 10
-2.923219382052193
 20
2.90384062214715
 10
-2.914491309504034
 20
2.902370458622012
 10
-2.902293801915491
 20
2.900359707920345
 10
-2.887200415469601
 20
2.897939921476581
 10
-2.869029178719088
 20
2.895128947001628
 10
-2.847251627420507
 20
2.891906560810689
 10
-2.822510007810956
 20
2.888440601125762
 10
-2.795518252946176
 20
2.884896806302683
 10
-2.766023919408273
 20
2.881308222737459
 10
-2.733271254167659
 20
2.877672873079197
 10
-2.698307993111563
 20
2.874198006256276
 10
-2.662200483257636
 20
2.871053119766112
 10
-2.624457324449005
 20
2.868246616145806
 10
-2.584153620438379
 20
2.865797313517878
 10
-2.542686357645294
 20
2.863865083274588
 10
-2.501998633541695
 20
2.862553876866124
 10
-2.460804249283956
 20
2.861813044518098
 10
-2.418160276153276
 20
2.861672950656184
 10
-2.375604838558649
 20
2.862164187042425
 10
-2.335097390135321
 20
2.863221434333843
 10
-2.295242579382851
 20
2.864818417005061
 10
-2.255210185532589
 20
2.866981266486942
 10
-2.216438464348691
 20
2.869605117347986
 10
-2.180032582099005
 20
2.872544534550753
 10
-2.145330213162595
 20
2.875771529092333
 10
-2.111667635034681
 20
2.879299002693508
 10
-2.080277765176699
 20
2.882937849057764
 10
-2.051797035247632
 20
2.88653133886894
 10
-2.025923256514865
 20
2.890035123424203
 10
-2.002215969752635
 20
2.893444912704636
 10
-1.981629393533895
 20
2.896560235994201
 10
-1.964762615742255
 20
2.89921869861914
 10
-1.951114862500809
 20
2.901440327650668
 10
-1.940543636677755
 20
2.903203342331835
 10
-1.933577451482194
 20
2.904386397619454
 10
-1.93
 20
2.905
  0
LINE
  5
1D6
330
179
100
AcDbEntity
  8
AM_4
100
AcDbLine
 10
-3.36
 20
-2.905
 30
0.0
 11
-1.5
 21
-2.905
 31
0.0
  0
LINE
  5
1D7
330
179
100
AcDbEntity
  8
AM_4
100
AcDbLine
 10
-1.5
 20
2.905
 30
0.0
 11
-1.93
 21
2.905
 31
0.0
  0
LINE
  5
1D8
330
179
100
AcDbEntity
  8
AM_4
100
AcDbLine
 10
-2.93
 20
2.905
 30
0.0
 11
-3.36
 21
2.905
 31
0.0
  0
LINE
  5
1D9
330
179
100
AcDbEntity
  8
AM_4
100
AcDbLine
 10
-1.399999999999999
 20
-1.244673638003389
 30
0.0
 11
-1.5
 21
-1.244673638003389
 31
0.0
  0
LINE
  5
1DA
330
179
100
AcDbEntity
  8
AM_4
100
AcDbLine
 10
-1.399999999999999
 20
1.244673638003387
 30
0.0
 11
-1.5
 21
1.244673638003387
 31
0.0
  0
LINE
  5
1DB
330
179
100
AcDbEntity
  8
AM_4
100
AcDbLine
 10
-1.399999999999999
 20
-2.287631578947368
 30
0.0
 11
-1.5
 21
-2.287631578947368
 31
0.0
  0
LINE
  5
1DC
330
179
100
AcDbEntity
  8
AM_4
100
AcDbLine
 10
0.0000000000000002
 20
-3.44
 30
0.0
 11
0.0000000000000002
 21
-1.72
 31
0.0
  0
LINE
  5
1DD
330
179
100
AcDbEntity
  8
AM_4
100
AcDbLine
 10
-1.5
 20
-3.44
 30
0.0
 11
-1.5
 21
-0.9546549672503362
 31
0.0
  0
LINE
  5
1DE
330
179
100
AcDbEntity
  8
AM_4
100
AcDbLine
 10
-1.5
 20
-3.44
 30
0.0
 11
0.0000000000000002
 21
-3.44
 31
0.0
  0
LINE
  5
1DF
330
179
100
AcDbEntity
  8
AM_4
100
AcDbLine
 10
-1.399999999999999
 20
2.287631578947368
 30
0.0
 11
-1.5
 21
2.287631578947368
 31
0.0
  0
LINE
  5
1E0
330
179
100
AcDbEntity
  8
AM_4
100
AcDbLine
 10
0.0000000000000002
 20
1.72
 30
0.0
 11
0.0000000000000002
 21
3.44
 31
0.0
  0
LINE
  5
1E1
330
179
100
AcDbEntity
  8
AM_4
100
AcDbLine
 10
-1.5
 20
3.44
 30
0.0
 11
0.0000000000000002
 21
3.44
 31
0.0
  0
LINE
  5
1E2
330
179
100
AcDbEntity
  8
AM_4
100
AcDbLine
 10
-1.5
 20
0.9546549672503342
 30
0.0
 11
-1.5
 21
3.44
 31
0.0
  0
LINE
  5
1E3
330
179
100
AcDbEntity
  8
AM_4
100
AcDbLine
 10
-0.7499999999999997
 20
-1.72
 30
0.0
 11
0.0000000000000002
 21
-1.72
 31
0.0
  0
LINE
  5
1E4
330
179
100
AcDbEntity
  8
AM_4
100
AcDbLine
 10
-0.7499999999999997
 20
-1.72
 30
0.0
 11
-0.7499999999999997
 21
1.72
 31
0.0
  0
LINE
  5
1E5
330
179
100
AcDbEntity
  8
AM_4
100
AcDbLine
 10
-0.7499999999999997
 20
1.72
 30
0.0
 11
0.0000000000000002
 21
1.72
 31
0.0
  0
LINE
  5
1E6
330
179
100
AcDbEntity
  8
AM_4
100
AcDbLine
 10
-1.5
 20
2.685
 30
0.0
 11
0.0000000000000002
 21
2.685
 31
0.0
  0
LINE
  5
1E7
330
179
100
AcDbEntity
  8
AM_4
100
AcDbLine
 10
-1.399999999999999
 20
2.436843500589956
 30
0.0
 11
-1.5
 21
2.436843500589956
 31
0.0
  0
LINE
  5
1E8
330
179
100
AcDbEntity
  8
AM_4
100
AcDbLine
 10
-1.399999999999999
 20
-2.436843500589958
 30
0.0
 11
-1.399999999999999
 21
2.436843500589956
 31
0.0
  0
LINE
  5
1E9
330
179
100
AcDbEntity
  8
AM_4
100
AcDbLine
 10
-1.5
 20
-2.436843500589958
 30
0.0
 11
-1.399999999999999
 21
-2.436843500589958
 31
0.0
  0
LINE
  5
1EA
330
179
100
AcDbEntity
  8
AM_4
100
AcDbLine
 10
-1.5
 20
-2.684999988749623
 30
0.0
 11
0.0000000000000002
 21
-2.684999988749623
 31
0.0
  0
ENDBLK
  5
17C
330
179
100
AcDbEntity
  8
0
100
AcDbBlockEnd
  0
ENDSEC
  0
SECTION
  2
ENTITIES
  0
INSERT
  5
6F
330
1F
100
AcDbEntity
  8
0
100
AcDbBlockReference
  2
1_071514_2
 10
0.0
 20
0.0
 30
0.0
  0
POINT
  5
1EC
330
1F
100
AcDbEntity
  8
ConnectionPoints
100
AcDbPoint
 10
-3.94
 20
0.0
 30
0.0000000000000002
  0
POINT
  5
1ED
330
1F
100
AcDbEntity
  8
ConnectionPoints
100
AcDbPoint
 10
0.0502499999999997
 20
0.0
 30
0.0
  0
POINT
  5
1EE
330
1F
100
AcDbEntity
  8
ConnectionPoints
100
AcDbPoint
 10
-3.94
 20
0.0
 30
0.0000000000000002
  0
POINT
  5
1EF
330
1F
100
AcDbEntity
  8
ConnectionPoints
100
AcDbPoint
 10
-2.43
 20
3.005
 30
0.0000000000000001
  0
POINT
  5
1F0
330
1F
100
AcDbEntity
  8
ConnectionPoints
100
AcDbPoint
 10
-2.43
 20
3.005
 30
0.0000000000000001
  0
POINT
  5
1F1
330
1F
100
AcDbEntity
  8
ConnectionPoints
100
AcDbPoint
 10
-3.94
 20
0.0
 30
0.0000000000000002
  0
POINT
  5
1F2
330
1F
100
AcDbEntity
  8
ConnectionPoints
100
AcDbPoint
 10
-4.19
 20
0.0
 30
0.0000000000000003
  0
ENDSEC
  0
SECTION
  2
OBJECTS
  0
DICTIONARY
  5
C
330
0
100
AcDbDictionary
281
     1
  3
ACAD_DETAILVIEWSTYLE
350
1FA
  3
ACAD_GROUP
350
D
  3
ACAD_LAYOUT
350
1A
  3
ACAD_MATERIAL
350
43
  3
ACAD_MLEADERSTYLE
350
6B
  3
ACAD_MLINESTYLE
350
17
  3
ACAD_PLOTSETTINGS
350
19
  3
ACAD_PLOTSTYLENAME
350
E
  3
ACAD_SCALELIST
350
47
  3
ACAD_SECTIONVIEWSTYLE
350
1FB
  3
ACAD_TABLESTYLE
350
69
  3
ACAD_VISUALSTYLE
350
2A
  3
ACDB_RECOMPOSE_DATA
350
1F7
  3
AcDbVariableDictionary
350
1F3
  0
SUN
  5
6D
330
29
100
AcDbSun
 90
        1
290
     0
 63
     7
421
 16777215
 40
1.0
291
     1
 91
  2455826
 92
 54000000
292
     0
 70
     2
 71
   256
280
     1
  0
DICTIONARY
  5
1FA
102
{ACAD_REACTORS
330
C
102
}
330
C
100
AcDbDictionary
281
     1
  0
DICTIONARY
  5
D
102
{ACAD_REACTORS
330
C
102
}
330
C
100
AcDbDictionary
281
     1
  0
DICTIONARY
  5
1A
102
{ACAD_REACTORS
330
C
102
}
330
C
100
AcDbDictionary
281
     1
  3
Layout1
350
1E
  3
Layout2
350
26
  3
Model
350
22
  0
DICTIONARY
  5
43
102
{ACAD_REACTORS
330
C
102
}
330
C
100
AcDbDictionary
281
     1
  3
ByBlock
350
45
  3
ByLayer
350
44
  3
Global
350
46
  0
DICTIONARY
  5
6B
102
{ACAD_REACTORS
330
C
102
}
330
C
100
AcDbDictionary
281
     1
  3
Standard
350
6C
  0
DICTIONARY
  5
17
102
{ACAD_REACTORS
330
C
102
}
330
C
100
AcDbDictionary
281
     1
  3
Standard
350
18
  0
DICTIONARY
  5
19
102
{ACAD_REACTORS
330
C
102
}
330
C
100
AcDbDictionary
281
     1
  0
ACDBDICTIONARYWDFLT
  5
E
102
{ACAD_REACTORS
330
C
102
}
330
C
100
AcDbDictionary
281
     1
  3
Normal
350
F
100
AcDbDictionaryWithDefault
340
F
  0
DICTIONARY
  5
47
102
{ACAD_REACTORS
330
C
102
}
330
C
100
AcDbDictionary
281
     1
  3
A0
350
48
  3
A1
350
49
  3
A2
350
4A
  3
A3
350
4B
  3
A4
350
4C
  3
A5
350
4D
  3
A6
350
4E
  3
A7
350
4F
  3
A8
350
50
  3
A9
350
51
  3
B0
350
52
  3
B1
350
53
  3
B2
350
54
  3
B3
350
55
  3
B4
350
56
  3
B5
350
57
  3
B6
350
58
  3
B7
350
59
  3
B8
350
5A
  3
B9
350
5B
  3
C0
350
5C
  3
C1
350
5D
  3
C2
350
5E
  3
C3
350
5F
  3
C4
350
60
  3
C5
350
61
  3
C6
350
62
  3
C7
350
63
  3
C8
350
64
  3
C9
350
65
  3
D0
350
66
  3
D1
350
67
  3
D2
350
68
  0
DICTIONARY
  5
1FB
102
{ACAD_REACTORS
330
C
102
}
330
C
100
AcDbDictionary
281
     1
  0
DICTIONARY
  5
69
102
{ACAD_REACTORS
330
C
102
}
330
C
100
AcDbDictionary
281
     1
  3
Standard
350
6A
  0
DICTIONARY
  5
2A
102
{ACAD_REACTORS
330
C
102
}
330
C
100
AcDbDictionary
281
     1
  3
2dWireframe
350
2F
  3
Basic
350
32
  3
Brighten
350
36
  3
ColorChange
350
3A
  3
Conceptual
350
34
  3
Dim
350
35
  3
EdgeColorOff
350
3D
  3
Facepattern
350
39
  3
Flat
350
2B
  3
FlatWithEdges
350
2C
  3
Gouraud
350
2D
  3
GouraudWithEdges
350
2E
  3
Hidden
350
31
  3
JitterOff
350
3B
  3
Linepattern
350
38
  3
OverhangOff
350
3C
  3
Realistic
350
33
  3
Shaded
350
42
  3
Shaded with edges
350
41
  3
Shades of Gray
350
3E
  3
Sketchy
350
3F
  3
Thicken
350
37
  3
Wireframe
350
30
  3
X-Ray
350
40
  0
XRECORD
  5
1F7
102
{ACAD_REACTORS
330
C
102
}
330
C
100
AcDbXrecord
280
     1
 90
        1
330
6A
  0
DICTIONARY
  5
1F3
102
{ACAD_REACTORS
330
C
102
}
330
C
100
AcDbDictionary
281
     1
  3
CANNOSCALE
350
1F4
  3
CMLEADERSTYLE
350
1F9
  3
CTABLESTYLE
350
1F8
  0
LAYOUT
  5
1E
102
{ACAD_REACTORS
330
1A
102
}
330
1A
100
AcDbPlotSettings
  1

  2
none_device
  4

  6

 40
0.0
 41
0.0
 42
0.0
 43
0.0
 44
0.0
 45
0.0
 46
0.0
 47
0.0
 48
0.0
 49
0.0
140
0.0
141
0.0
142
1.0
143
1.0
 70
   688
 72
     0
 73
     0
 74
     5
  7

 75
    16
 76
     0
 77
     2
 78
   300
147
1.0
148
0.0
149
0.0
100
AcDbLayout
  1
Layout1
 70
     1
 71
     1
 10
0.0
 20
0.0
 11
12.0
 21
9.0
 12
0.0
 22
0.0
 32
0.0
 14
1.000000000000000E+20
 24
1.000000000000000E+20
 34
1.000000000000000E+20
 15
-1.000000000000000E+20
 25
-1.000000000000000E+20
 35
-1.000000000000000E+20
146
0.0
 13
0.0
 23
0.0
 33
0.0
 16
1.0
 26
0.0
 36
0.0
 17
0.0
 27
1.0
 37
0.0
 76
     0
330
1B
  0
LAYOUT
  5
26
102
{ACAD_REACTORS
330
1A
102
}
330
1A
100
AcDbPlotSettings
  1

  2
none_device
  4

  6

 40
0.0
 41
0.0
 42
0.0
 43
0.0
 44
0.0
 45
0.0
 46
0.0
 47
0.0
 48
0.0
 49
0.0
140
0.0
141
0.0
142
1.0
143
1.0
 70
   688
 72
     0
 73
     0
 74
     5
  7

 75
    16
 76
     0
 77
     2
 78
   300
147
1.0
148
0.0
149
0.0
100
AcDbLayout
  1
Layout2
 70
     1
 71
     2
 10
0.0
 20
0.0
 11
0.0
 21
0.0
 12
0.0
 22
0.0
 32
0.0
 14
0.0
 24
0.0
 34
0.0
 15
0.0
 25
0.0
 35
0.0
146
0.0
 13
0.0
 23
0.0
 33
0.0
 16
1.0
 26
0.0
 36
0.0
 17
0.0
 27
1.0
 37
0.0
 76
     0
330
23
  0
LAYOUT
  5
22
102
{ACAD_REACTORS
330
1A
102
}
330
1A
100
AcDbPlotSettings
  1

  2
none_device
  4
Letter_(8.50_x_11.00_Inches)
  6

 40
6.35
 41
6.35
 42
6.35000508
 43
6.35000508
 44
215.9
 45
279.4
 46
0.0
 47
0.0
 48
0.0
 49
0.0
140
0.0
141
0.0
142
1.0
143
1.0
 70
  1712
 72
     0
 73
     0
 74
     0
  7

 75
     0
 76
     0
 77
     2
 78
   300
147
1.0
148
0.0
149
0.0
100
AcDbLayout
  1
Model
 70
     1
 71
     0
 10
0.0
 20
0.0
 11
12.0
 21
9.0
 12
0.0
 22
0.0
 32
0.0
 14
1.000000000000000E+20
 24
1.000000000000000E+20
 34
1.000000000000000E+20
 15
-1.000000000000000E+20
 25
-1.000000000000000E+20
 35
-1.000000000000000E+20
146
0.0
 13
0.0
 23
0.0
 33
0.0
 16
1.0
 26
0.0
 36
0.0
 17
0.0
 27
1.0
 37
0.0
 76
     0
330
1F
331
29
  0
MATERIAL
  5
45
102
{ACAD_REACTORS
330
43
102
}
330
43
100
AcDbMaterial
  1
ByBlock
 72
     1
 94
      127
  0
MATERIAL
  5
44
102
{ACAD_REACTORS
330
43
102
}
330
43
100
AcDbMaterial
  1
ByLayer
 72
     1
 94
      127
  0
MATERIAL
  5
46
102
{ACAD_REACTORS
330
43
102
}
330
43
100
AcDbMaterial
  1
Global
 72
     1
 94
      127
  0
MLEADERSTYLE
  5
6C
102
{ACAD_REACTORS
330
6B
102
}
330
6B
100
AcDbMLeaderStyle
179
     2
170
     2
171
     1
172
     0
 90
        2
 40
0.0
 41
0.0
173
     1
 91
-1056964608
340
14
 92
       -2
290
     1
 42
0.09
291
     1
 43
0.36
  3
Standard
341
0
 44
0.18
300

342
11
174
     1
178
     6
175
     1
176
     0
 93
-1056964608
 45
0.18
292
     0
297
     0
 46
0.18
343
0
 94
-1056964608
 47
1.0
 49
1.0
140
1.0
293
     1
141
0.0
294
     1
177
     0
142
1.0
295
     0
296
     0
143
0.125
271
     0
272
     9
273
     9
298
     0
  0
MLINESTYLE
  5
18
102
{ACAD_REACTORS
330
17
102
}
330
17
100
AcDbMlineStyle
  2
Standard
 70
     0
  3

 62
   256
 51
90.0
 52
90.0
 71
     2
 49
0.5
 62
   256
  6
BYLAYER
 49
-0.5
 62
   256
  6
BYLAYER
  0
ACDBPLACEHOLDER
  5
F
102
{ACAD_REACTORS
330
E
102
}
330
E
  0
SCALE
  5
48
102
{ACAD_REACTORS
330
47
102
}
330
47
100
AcDbScale
 70
     0
300
1:1
140
1.0
141
1.0
290
     1
  0
SCALE
  5
49
102
{ACAD_REACTORS
330
47
102
}
330
47
100
AcDbScale
 70
     0
300
1:2
140
1.0
141
2.0
290
     0
  0
SCALE
  5
4A
102
{ACAD_REACTORS
330
47
102
}
330
47
100
AcDbScale
 70
     0
300
1:4
140
1.0
141
4.0
290
     0
  0
SCALE
  5
4B
102
{ACAD_REACTORS
330
47
102
}
330
47
100
AcDbScale
 70
     0
300
1:5
140
1.0
141
5.0
290
     0
  0
SCALE
  5
4C
102
{ACAD_REACTORS
330
47
102
}
330
47
100
AcDbScale
 70
     0
300
1:8
140
1.0
141
8.0
290
     0
  0
SCALE
  5
4D
102
{ACAD_REACTORS
330
47
102
}
330
47
100
AcDbScale
 70
     0
300
1:10
140
1.0
141
10.0
290
     0
  0
SCALE
  5
4E
102
{ACAD_REACTORS
330
47
102
}
330
47
100
AcDbScale
 70
     0
300
1:16
140
1.0
141
16.0
290
     0
  0
SCALE
  5
4F
102
{ACAD_REACTORS
330
47
102
}
330
47
100
AcDbScale
 70
     0
300
1:20
140
1.0
141
20.0
290
     0
  0
SCALE
  5
50
102
{ACAD_REACTORS
330
47
102
}
330
47
100
AcDbScale
 70
     0
300
1:30
140
1.0
141
30.0
290
     0
  0
SCALE
  5
51
102
{ACAD_REACTORS
330
47
102
}
330
47
100
AcDbScale
 70
     0
300
1:40
140
1.0
141
40.0
290
     0
  0
SCALE
  5
52
102
{ACAD_REACTORS
330
47
102
}
330
47
100
AcDbScale
 70
     0
300
1:50
140
1.0
141
50.0
290
     0
  0
SCALE
  5
53
102
{ACAD_REACTORS
330
47
102
}
330
47
100
AcDbScale
 70
     0
300
1:100
140
1.0
141
100.0
290
     0
  0
SCALE
  5
54
102
{ACAD_REACTORS
330
47
102
}
330
47
100
AcDbScale
 70
     0
300
2:1
140
2.0
141
1.0
290
     0
  0
SCALE
  5
55
102
{ACAD_REACTORS
330
47
102
}
330
47
100
AcDbScale
 70
     0
300
4:1
140
4.0
141
1.0
290
     0
  0
SCALE
  5
56
102
{ACAD_REACTORS
330
47
102
}
330
47
100
AcDbScale
 70
     0
300
8:1
140
8.0
141
1.0
290
     0
  0
SCALE
  5
57
102
{ACAD_REACTORS
330
47
102
}
330
47
100
AcDbScale
 70
     0
300
10:1
140
10.0
141
1.0
290
     0
  0
SCALE
  5
58
102
{ACAD_REACTORS
330
47
102
}
330
47
100
AcDbScale
 70
     0
300
100:1
140
100.0
141
1.0
290
     0
  0
SCALE
  5
59
102
{ACAD_REACTORS
330
47
102
}
330
47
100
AcDbScale
 70
     0
300
1/128" = 1'-0"
140
0.0078125
141
12.0
290
     0
  0
SCALE
  5
5A
102
{ACAD_REACTORS
330
47
102
}
330
47
100
AcDbScale
 70
     0
300
1/64" = 1'-0"
140
0.015625
141
12.0
290
     0
  0
SCALE
  5
5B
102
{ACAD_REACTORS
330
47
102
}
330
47
100
AcDbScale
 70
     0
300
1/32" = 1'-0"
140
0.03125
141
12.0
290
     0
  0
SCALE
  5
5C
102
{ACAD_REACTORS
330
47
102
}
330
47
100
AcDbScale
 70
     0
300
1/16" = 1'-0"
140
0.0625
141
12.0
290
     0
  0
SCALE
  5
5D
102
{ACAD_REACTORS
330
47
102
}
330
47
100
AcDbScale
 70
     0
300
3/32" = 1'-0"
140
0.09375
141
12.0
290
     0
  0
SCALE
  5
5E
102
{ACAD_REACTORS
330
47
102
}
330
47
100
AcDbScale
 70
     0
300
1/8" = 1'-0"
140
0.125
141
12.0
290
     0
  0
SCALE
  5
5F
102
{ACAD_REACTORS
330
47
102
}
330
47
100
AcDbScale
 70
     0
300
3/16" = 1'-0"
140
0.1875
141
12.0
290
     0
  0
SCALE
  5
60
102
{ACAD_REACTORS
330
47
102
}
330
47
100
AcDbScale
 70
     0
300
1/4" = 1'-0"
140
0.25
141
12.0
290
     0
  0
SCALE
  5
61
102
{ACAD_REACTORS
330
47
102
}
330
47
100
AcDbScale
 70
     0
300
3/8" = 1'-0"
140
0.375
141
12.0
290
     0
  0
SCALE
  5
62
102
{ACAD_REACTORS
330
47
102
}
330
47
100
AcDbScale
 70
     0
300
1/2" = 1'-0"
140
0.5
141
12.0
290
     0
  0
SCALE
  5
63
102
{ACAD_REACTORS
330
47
102
}
330
47
100
AcDbScale
 70
     0
300
3/4" = 1'-0"
140
0.75
141
12.0
290
     0
  0
SCALE
  5
64
102
{ACAD_REACTORS
330
47
102
}
330
47
100
AcDbScale
 70
     0
300
1" = 1'-0"
140
1.0
141
12.0
290
     0
  0
SCALE
  5
65
102
{ACAD_REACTORS
330
47
102
}
330
47
100
AcDbScale
 70
     0
300
1-1/2" = 1'-0"
140
1.5
141
12.0
290
     0
  0
SCALE
  5
66
102
{ACAD_REACTORS
330
47
102
}
330
47
100
AcDbScale
 70
     0
300
3" = 1'-0"
140
3.0
141
12.0
290
     0
  0
SCALE
  5
67
102
{ACAD_REACTORS
330
47
102
}
330
47
100
AcDbScale
 70
     0
300
6" = 1'-0"
140
6.0
141
12.0
290
     0
  0
SCALE
  5
68
102
{ACAD_REACTORS
330
47
102
}
330
47
100
AcDbScale
 70
     0
300
1'-0" = 1'-0"
140
12.0
141
12.0
290
     0
  0
TABLESTYLE
  5
6A
102
{ACAD_REACTORS
330
69
102
}
102
{ACAD_XDICTIONARY
360
1F5
102
}
330
69
100
AcDbTableStyle
  3
Standard
 70
     0
 71
     0
 40
0.06
 41
0.06
280
     0
281
     0
  7
Standard
140
0.18
170
     2
 62
     0
 63
   257
283
     0
 90
        4
 91
        0
  1

274
    -2
284
     1
 64
     0
275
    -2
285
     1
 65
     0
276
    -2
286
     1
 66
     0
277
    -2
287
     1
 67
     0
278
    -2
288
     1
 68
     0
279
    -2
289
     1
 69
     0
  7
Standard
140
0.25
170
     5
 62
     0
 63
   257
283
     0
 90
        4
 91
        0
  1

274
    -2
284
     1
 64
     0
275
    -2
285
     1
 65
     0
276
    -2
286
     1
 66
     0
277
    -2
287
     1
 67
     0
278
    -2
288
     1
 68
     0
279
    -2
289
     1
 69
     0
  7
Standard
140
0.18
170
     5
 62
     0
 63
   257
283
     0
 90
        4
 91
        0
  1

274
    -2
284
     1
 64
     0
275
    -2
285
     1
 65
     0
276
    -2
286
     1
 66
     0
277
    -2
287
     1
 67
     0
278
    -2
288
     1
 68
     0
279
    -2
289
     1
 69
     0
  0
VISUALSTYLE
  5
2F
102
{ACAD_REACTORS
330
2A
102
}
330
2A
100
AcDbVisualStyle
  2
2dWireframe
 70
     4
177
     3
291
     0
 70
    58
 90
        0
176
     1
 90
        2
176
     1
 90
        0
176
     1
 90
        0
176
     1
 40
0.6
176
     1
 40
30.0
176
     1
 62
     7
420
 16777215
176
     1
 90
        1
176
     1
 90
        4
176
     1
 62
     7
176
     1
 62
   257
176
     1
 90
        1
176
     1
 90
        1
176
     1
 40
1.0
176
     1
 90
        0
176
     1
 62
   257
176
     1
 40
1.0
176
     1
 90
        1
176
     1
 90
        6
176
     1
 90
        2
176
     1
 62
     7
176
     1
 90
        5
176
     1
 90
        0
176
     1
 90
        0
176
     1
290
     0
176
     1
 90
        1
176
     1
 40
0.0
176
     1
 90
        0
176
     1
290
     1
176
     1
290
     1
176
     1
290
     0
176
     1
290
     0
176
     1
290
     0
176
     1
290
     0
176
     1
290
     0
176
     1
290
     0
176
     1
290
     0
176
     1
 90
       50
176
     1
 40
0.0
176
     1
 40
1.0
176
     1
 90
        0
176
     1
 62
    18
420
        0
176
     1
 90
       50
176
     1
 90
        3
176
     1
 62
     5
420
      255
176
     1
290
     0
176
     1
 90
       50
176
     1
 90
       50
176
     1
 90
       50
176
     1
290
     0
176
     1
 90
       50
176
     1
 62
   256
176
     0
 40
1.0
176
     0
 90
        2
176
     1
  1
strokes_ogs.tif
176
     1
290
     0
176
     1
 40
1.0
176
     1
 40
1.0
176
     1
  0
VISUALSTYLE
  5
32
102
{ACAD_REACTORS
330
2A
102
}
330
2A
100
AcDbVisualStyle
  2
Basic
 70
     7
177
     3
291
     1
 70
    58
 90
        1
176
     1
 90
        0
176
     1
 90
        1
176
     1
 90
        0
176
     1
 40
0.6
176
     1
 40
30.0
176
     1
 62
     7
420
 16777215
176
     1
 90
        0
176
     1
 90
        4
176
     1
 62
     7
176
     1
 62
   257
176
     1
 90
        1
176
     1
 90
        1
176
     1
 40
1.0
176
     1
 90
        8
176
     1
 62
     7
176
     1
 40
1.0
176
     1
 90
        1
176
     1
 90
        6
176
     1
 90
        2
176
     1
 62
     7
176
     1
 90
        5
176
     1
 90
        0
176
     1
 90
        0
176
     1
290
     0
176
     1
 90
        1
176
     1
 40
0.0
176
     1
 90
        0
176
     1
290
     0
176
     1
290
     1
176
     1
290
     1
176
     1
290
     0
176
     1
290
     0
176
     1
290
     0
176
     1
290
     0
176
     1
290
     0
176
     1
290
     0
176
     1
 90
       50
176
     1
 40
0.0
176
     1
 40
1.0
176
     1
 90
        0
176
     1
 62
    18
420
        0
176
     1
 90
       50
176
     1
 90
        3
176
     1
 62
     5
420
      255
176
     1
290
     0
176
     1
 90
       50
176
     1
 90
       50
176
     1
 90
       50
176
     1
290
     0
176
     1
 90
       50
176
     1
 62
   256
176
     0
 40
1.0
176
     0
 90
        2
176
     1
  1
strokes_ogs.tif
176
     1
290
     0
176
     1
 40
1.0
176
     1
 40
1.0
176
     1
  0
VISUALSTYLE
  5
36
102
{ACAD_REACTORS
330
2A
102
}
330
2A
100
AcDbVisualStyle
  2
Brighten
 70
    12
177
     3
291
     1
 70
    58
 90
        2
176
     1
 90
        2
176
     1
 90
        0
176
     1
 90
        0
176
     1
 40
0.6
176
     1
 40
30.0
176
     1
 62
     7
420
 16777215
176
     1
 90
        1
176
     1
 90
        4
176
     1
 62
     7
176
     1
 62
   257
176
     1
 90
        1
176
     1
 90
        1
176
     1
 40
1.0
176
     1
 90
        8
176
     1
 62
     7
176
     1
 40
1.0
176
     1
 90
        1
176
     1
 90
        6
176
     1
 90
        2
176
     1
 62
     7
176
     1
 90
        5
176
     1
 90
        0
176
     1
 90
        0
176
     1
290
     0
176
     1
 90
        1
176
     1
 40
50.0
176
     1
 90
        0
176
     1
290
     0
176
     1
290
     1
176
     1
290
     1
176
     1
290
     0
176
     1
290
     0
176
     1
290
     0
176
     1
290
     0
176
     1
290
     0
176
     1
290
     0
176
     1
 90
       50
176
     1
 40
0.0
176
     1
 40
1.0
176
     1
 90
        0
176
     1
 62
    18
420
        0
176
     1
 90
       50
176
     1
 90
        3
176
     1
 62
     5
420
      255
176
     1
290
     0
176
     1
 90
       50
176
     1
 90
       50
176
     1
 90
       50
176
     1
290
     0
176
     1
 90
       50
176
     1
 62
   256
176
     0
 40
1.0
176
     0
 90
        2
176
     1
  1
strokes_ogs.tif
176
     1
290
     0
176
     1
 40
1.0
176
     1
 40
1.0
176
     1
  0
VISUALSTYLE
  5
3A
102
{ACAD_REACTORS
330
2A
102
}
330
2A
100
AcDbVisualStyle
  2
ColorChange
 70
    16
177
     3
291
     1
 70
    58
 90
        2
176
     1
 90
        2
176
     1
 90
        3
176
     1
 90
        0
176
     1
 40
0.6
176
     1
 40
30.0
176
     1
 62
     8
420
  8421504
176
     1
 90
        1
176
     1
 90
        4
176
     1
 62
     7
176
     1
 62
   257
176
     1
 90
        1
176
     1
 90
        1
176
     1
 40
1.0
176
     1
 90
        8
176
     1
 62
     8
420
  8421504
176
     1
 40
1.0
176
     1
 90
        1
176
     1
 90
        6
176
     1
 90
        2
176
     1
 62
     7
176
     1
 90
        5
176
     1
 90
        0
176
     1
 90
        0
176
     1
290
     0
176
     1
 90
        1
176
     1
 40
0.0
176
     1
 90
        0
176
     1
290
     0
176
     1
290
     1
176
     1
290
     1
176
     1
290
     0
176
     1
290
     0
176
     1
290
     0
176
     1
290
     0
176
     1
290
     0
176
     1
290
     0
176
     1
 90
       50
176
     1
 40
0.0
176
     1
 40
1.0
176
     1
 90
        0
176
     1
 62
    18
420
        0
176
     1
 90
       50
176
     1
 90
        3
176
     1
 62
     5
420
      255
176
     1
290
     0
176
     1
 90
       50
176
     1
 90
       50
176
     1
 90
       50
176
     1
290
     0
176
     1
 90
       50
176
     1
 62
   256
176
     0
 40
1.0
176
     0
 90
        2
176
     1
  1
strokes_ogs.tif
176
     1
290
     0
176
     1
 40
1.0
176
     1
 40
1.0
176
     1
  0
VISUALSTYLE
  5
34
102
{ACAD_REACTORS
330
2A
102
}
330
2A
100
AcDbVisualStyle
  2
Conceptual
 70
     9
177
     3
291
     0
 70
    58
 90
        3
176
     1
 90
        2
176
     1
 90
        0
176
     1
 90
        0
176
     1
 40
0.6
176
     1
 40
30.0
176
     1
 62
     7
420
 16777215
176
     1
 90
        2
176
     1
 90
        2
176
     1
 62
     7
176
     1
 62
   257
176
     1
 90
        1
176
     1
 90
        1
176
     1
 40
179.0
176
     1
 90
        8
176
     1
 62
     7
176
     1
 40
1.0
176
     1
 90
        1
176
     1
 90
        6
176
     1
 90
        2
176
     1
 62
     7
176
     1
 90
        3
176
     1
 90
        0
176
     1
 90
        0
176
     1
290
     0
176
     1
 90
        1
176
     1
 40
0.0
176
     1
 90
        0
176
     1
290
     0
176
     1
290
     1
176
     1
290
     1
176
     1
290
     0
176
     1
290
     0
176
     1
290
     0
176
     1
290
     0
176
     1
290
     0
176
     1
290
     0
176
     1
 90
       50
176
     1
 40
0.0
176
     1
 40
1.0
176
     1
 90
        0
176
     1
 62
    18
420
        0
176
     1
 90
       50
176
     1
 90
        3
176
     1
 62
     5
420
      255
176
     1
290
     0
176
     1
 90
       50
176
     1
 90
       50
176
     1
 90
       50
176
     1
290
     0
176
     1
 90
       50
176
     1
 62
   256
176
     0
 40
1.0
176
     0
 90
        2
176
     1
  1
strokes_ogs.tif
176
     1
290
     0
176
     1
 40
1.0
176
     1
 40
1.0
176
     1
  0
VISUALSTYLE
  5
35
102
{ACAD_REACTORS
330
2A
102
}
330
2A
100
AcDbVisualStyle
  2
Dim
 70
    11
177
     3
291
     1
 70
    58
 90
        2
176
     1
 90
        2
176
     1
 90
        0
176
     1
 90
        0
176
     1
 40
0.6
176
     1
 40
30.0
176
     1
 62
     7
420
 16777215
176
     1
 90
        1
176
     1
 90
        4
176
     1
 62
     7
176
     1
 62
   257
176
     1
 90
        1
176
     1
 90
        1
176
     1
 40
1.0
176
     1
 90
        8
176
     1
 62
     7
176
     1
 40
1.0
176
     1
 90
        1
176
     1
 90
        6
176
     1
 90
        2
176
     1
 62
     7
176
     1
 90
        5
176
     1
 90
        0
176
     1
 90
        0
176
     1
290
     0
176
     1
 90
        1
176
     1
 40
-50.0
176
     1
 90
        0
176
     1
290
     0
176
     1
290
     1
176
     1
290
     1
176
     1
290
     0
176
     1
290
     0
176
     1
290
     0
176
     1
290
     0
176
     1
290
     0
176
     1
290
     0
176
     1
 90
       50
176
     1
 40
0.0
176
     1
 40
1.0
176
     1
 90
        0
176
     1
 62
    18
420
        0
176
     1
 90
       50
176
     1
 90
        3
176
     1
 62
     5
420
      255
176
     1
290
     0
176
     1
 90
       50
176
     1
 90
       50
176
     1
 90
       50
176
     1
290
     0
176
     1
 90
       50
176
     1
 62
   256
176
     0
 40
1.0
176
     0
 90
        2
176
     1
  1
strokes_ogs.tif
176
     1
290
     0
176
     1
 40
1.0
176
     1
 40
1.0
176
     1
  0
VISUALSTYLE
  5
3D
102
{ACAD_REACTORS
330
2A
102
}
330
2A
100
AcDbVisualStyle
  2
EdgeColorOff
 70
    22
177
     3
291
     1
 70
    58
 90
        2
176
     0
 90
        2
176
     0
 90
        0
176
     0
 90
        0
176
     0
 40
0.6
176
     0
 40
30.0
176
     0
 62
     7
420
 16777215
176
     0
 90
        1
176
     0
 90
        4
176
     0
 62
     7
176
     0
 62
   257
176
     0
 90
        1
176
     0
 90
        1
176
     0
 40
1.0
176
     0
 90
        8
176
     2
 62
     7
176
     0
 40
1.0
176
     0
 90
        1
176
     0
 90
        6
176
     0
 90
        2
176
     0
 62
     7
176
     0
 90
        5
176
     0
 90
        0
176
     0
 90
        0
176
     0
290
     0
176
     0
 90
        1
176
     0
 40
0.0
176
     0
 90
        0
176
     0
290
     0
176
     0
290
     1
176
     0
290
     1
176
     0
290
     0
176
     0
290
     0
176
     0
290
     0
176
     0
290
     0
176
     0
290
     0
176
     0
290
     0
176
     0
 90
       50
176
     0
 40
0.0
176
     0
 40
1.0
176
     0
 90
        0
176
     0
 62
    18
420
        0
176
     0
 90
       50
176
     0
 90
        3
176
     0
 62
     5
420
      255
176
     0
290
     0
176
     0
 90
       50
176
     0
 90
       50
176
     0
 90
       50
176
     0
290
     0
176
     0
 90
       50
176
     0
 62
   256
176
     0
 40
1.0
176
     0
 90
        2
176
     0
  1
strokes_ogs.tif
176
     0
290
     0
176
     0
 40
1.0
176
     0
 40
1.0
176
     0
  0
VISUALSTYLE
  5
39
102
{ACAD_REACTORS
330
2A
102
}
330
2A
100
AcDbVisualStyle
  2
Facepattern
 70
    15
177
     3
291
     1
 70
    58
 90
        2
176
     1
 90
        2
176
     1
 90
        0
176
     1
 90
        0
176
     1
 40
0.6
176
     1
 40
30.0
176
     1
 62
     7
420
 16777215
176
     1
 90
        1
176
     1
 90
        4
176
     1
 62
     7
176
     1
 62
   257
176
     1
 90
        1
176
     1
 90
        1
176
     1
 40
1.0
176
     1
 90
        8
176
     1
 62
     7
176
     1
 40
1.0
176
     1
 90
        1
176
     1
 90
        6
176
     1
 90
        2
176
     1
 62
     7
176
     1
 90
        5
176
     1
 90
        0
176
     1
 90
        0
176
     1
290
     0
176
     1
 90
        1
176
     1
 40
0.0
176
     1
 90
        0
176
     1
290
     0
176
     1
290
     1
176
     1
290
     1
176
     1
290
     0
176
     1
290
     0
176
     1
290
     0
176
     1
290
     0
176
     1
290
     0
176
     1
290
     0
176
     1
 90
       50
176
     1
 40
0.0
176
     1
 40
1.0
176
     1
 90
        0
176
     1
 62
    18
420
        0
176
     1
 90
       50
176
     1
 90
        3
176
     1
 62
     5
420
      255
176
     1
290
     0
176
     1
 90
       50
176
     1
 90
       50
176
     1
 90
       50
176
     1
290
     0
176
     1
 90
       50
176
     1
 62
   256
176
     0
 40
1.0
176
     0
 90
        2
176
     1
  1
strokes_ogs.tif
176
     1
290
     0
176
     1
 40
1.0
176
     1
 40
1.0
176
     1
  0
VISUALSTYLE
  5
2B
102
{ACAD_REACTORS
330
2A
102
}
330
2A
100
AcDbVisualStyle
  2
Flat
 70
     0
177
     3
291
     1
 70
    58
 90
        2
176
     1
 90
        1
176
     1
 90
        1
176
     1
 90
        2
176
     1
 40
0.6
176
     1
 40
30.0
176
     1
 62
     7
420
 16777215
176
     1
 90
        0
176
     1
 90
        0
176
     1
 62
     7
176
     1
 62
   257
176
     1
 90
        1
176
     1
 90
        1
176
     1
 40
1.0
176
     1
 90
        8
176
     1
 62
     7
176
     1
 40
1.0
176
     1
 90
        1
176
     1
 90
        6
176
     1
 90
        2
176
     1
 62
     7
176
     1
 90
        5
176
     1
 90
        0
176
     1
 90
        0
176
     1
290
     0
176
     1
 90
       13
176
     1
 40
0.0
176
     1
 90
        0
176
     1
290
     0
176
     1
290
     1
176
     1
290
     1
176
     1
290
     0
176
     1
290
     0
176
     1
290
     0
176
     1
290
     0
176
     1
290
     0
176
     1
290
     0
176
     1
 90
       50
176
     1
 40
0.0
176
     1
 40
1.0
176
     1
 90
        0
176
     1
 62
    18
420
        0
176
     1
 90
       50
176
     1
 90
        3
176
     1
 62
     5
420
      255
176
     1
290
     0
176
     1
 90
       50
176
     1
 90
       50
176
     1
 90
       50
176
     1
290
     0
176
     1
 90
       50
176
     1
 62
   256
176
     0
 40
1.0
176
     0
 90
        2
176
     1
  1
strokes_ogs.tif
176
     1
290
     0
176
     1
 40
1.0
176
     1
 40
1.0
176
     1
  0
VISUALSTYLE
  5
2C
102
{ACAD_REACTORS
330
2A
102
}
330
2A
100
AcDbVisualStyle
  2
FlatWithEdges
 70
     1
177
     3
291
     1
 70
    58
 90
        2
176
     1
 90
        1
176
     1
 90
        1
176
     1
 90
        2
176
     1
 40
0.6
176
     1
 40
30.0
176
     1
 62
     7
420
 16777215
176
     1
 90
        1
176
     1
 90
        0
176
     1
 62
     7
176
     1
 62
   257
176
     1
 90
        1
176
     1
 90
        1
176
     1
 40
1.0
176
     1
 90
        0
176
     1
 62
   257
176
     1
 40
1.0
176
     1
 90
        1
176
     1
 90
        6
176
     1
 90
        2
176
     1
 62
     7
176
     1
 90
        5
176
     1
 90
        0
176
     1
 90
        0
176
     1
290
     0
176
     1
 90
       13
176
     1
 40
0.0
176
     1
 90
        0
176
     1
290
     0
176
     1
290
     1
176
     1
290
     1
176
     1
290
     0
176
     1
290
     0
176
     1
290
     0
176
     1
290
     0
176
     1
290
     0
176
     1
290
     0
176
     1
 90
       50
176
     1
 40
0.0
176
     1
 40
1.0
176
     1
 90
        0
176
     1
 62
    18
420
        0
176
     1
 90
       50
176
     1
 90
        3
176
     1
 62
     5
420
      255
176
     1
290
     0
176
     1
 90
       50
176
     1
 90
       50
176
     1
 90
       50
176
     1
290
     0
176
     1
 90
       50
176
     1
 62
   256
176
     0
 40
1.0
176
     0
 90
        2
176
     1
  1
strokes_ogs.tif
176
     1
290
     0
176
     1
 40
1.0
176
     1
 40
1.0
176
     1
  0
VISUALSTYLE
  5
2D
102
{ACAD_REACTORS
330
2A
102
}
330
2A
100
AcDbVisualStyle
  2
Gouraud
 70
     2
177
     3
291
     1
 70
    58
 90
        2
176
     1
 90
        2
176
     1
 90
        1
176
     1
 90
        2
176
     1
 40
0.6
176
     1
 40
30.0
176
     1
 62
     7
420
 16777215
176
     1
 90
        0
176
     1
 90
        0
176
     1
 62
     7
176
     1
 62
   257
176
     1
 90
        1
176
     1
 90
        1
176
     1
 40
1.0
176
     1
 90
        0
176
     1
 62
     7
176
     1
 40
1.0
176
     1
 90
        1
176
     1
 90
        6
176
     1
 90
        2
176
     1
 62
     7
176
     1
 90
        5
176
     1
 90
        0
176
     1
 90
        0
176
     1
290
     0
176
     1
 90
       13
176
     1
 40
0.0
176
     1
 90
        0
176
     1
290
     0
176
     1
290
     1
176
     1
290
     1
176
     1
290
     0
176
     1
290
     0
176
     1
290
     0
176
     1
290
     0
176
     1
290
     0
176
     1
290
     0
176
     1
 90
       50
176
     1
 40
0.0
176
     1
 40
1.0
176
     1
 90
        0
176
     1
 62
    18
420
        0
176
     1
 90
       50
176
     1
 90
        3
176
     1
 62
     5
420
      255
176
     1
290
     0
176
     1
 90
       50
176
     1
 90
       50
176
     1
 90
       50
176
     1
290
     0
176
     1
 90
       50
176
     1
 62
   256
176
     0
 40
1.0
176
     0
 90
        2
176
     1
  1
strokes_ogs.tif
176
     1
290
     0
176
     1
 40
1.0
176
     1
 40
1.0
176
     1
  0
VISUALSTYLE
  5
2E
102
{ACAD_REACTORS
330
2A
102
}
330
2A
100
AcDbVisualStyle
  2
GouraudWithEdges
 70
     3
177
     3
291
     1
 70
    58
 90
        2
176
     1
 90
        2
176
     1
 90
        1
176
     1
 90
        2
176
     1
 40
0.6
176
     1
 40
30.0
176
     1
 62
     7
420
 16777215
176
     1
 90
        1
176
     1
 90
        0
176
     1
 62
     7
176
     1
 62
   257
176
     1
 90
        1
176
     1
 90
        1
176
     1
 40
1.0
176
     1
 90
        0
176
     1
 62
   257
176
     1
 40
1.0
176
     1
 90
        1
176
     1
 90
        6
176
     1
 90
        2
176
     1
 62
     7
176
     1
 90
        5
176
     1
 90
        0
176
     1
 90
        0
176
     1
290
     0
176
     1
 90
       13
176
     1
 40
0.0
176
     1
 90
        0
176
     1
290
     0
176
     1
290
     1
176
     1
290
     1
176
     1
290
     0
176
     1
290
     0
176
     1
290
     0
176
     1
290
     0
176
     1
290
     0
176
     1
290
     0
176
     1
 90
       50
176
     1
 40
0.0
176
     1
 40
1.0
176
     1
 90
        0
176
     1
 62
    18
420
        0
176
     1
 90
       50
176
     1
 90
        3
176
     1
 62
     5
420
      255
176
     1
290
     0
176
     1
 90
       50
176
     1
 90
       50
176
     1
 90
       50
176
     1
290
     0
176
     1
 90
       50
176
     1
 62
   256
176
     0
 40
1.0
176
     0
 90
        2
176
     1
  1
strokes_ogs.tif
176
     1
290
     0
176
     1
 40
1.0
176
     1
 40
1.0
176
     1
  0
VISUALSTYLE
  5
31
102
{ACAD_REACTORS
330
2A
102
}
330
2A
100
AcDbVisualStyle
  2
Hidden
 70
     6
177
     3
291
     0
 70
    58
 90
        1
176
     1
 90
        2
176
     1
 90
        2
176
     1
 90
        0
176
     1
 40
0.6
176
     1
 40
30.0
176
     1
 62
     7
420
 16777215
176
     1
 90
        2
176
     1
 90
        2
176
     1
 62
     7
176
     1
 62
   257
176
     1
 90
        2
176
     1
 90
        1
176
     1
 40
40.0
176
     1
 90
        0
176
     1
 62
   257
176
     1
 40
1.0
176
     1
 90
        1
176
     1
 90
        6
176
     1
 90
        2
176
     1
 62
     7
176
     1
 90
        3
176
     1
 90
        0
176
     1
 90
        0
176
     1
290
     0
176
     1
 90
        1
176
     1
 40
0.0
176
     1
 90
        0
176
     1
290
     0
176
     1
290
     1
176
     1
290
     1
176
     1
290
     0
176
     1
290
     0
176
     1
290
     0
176
     1
290
     0
176
     1
290
     0
176
     1
290
     0
176
     1
 90
       50
176
     1
 40
0.0
176
     1
 40
1.0
176
     1
 90
        0
176
     1
 62
    18
420
        0
176
     1
 90
       50
176
     1
 90
        3
176
     1
 62
     5
420
      255
176
     1
290
     0
176
     1
 90
       50
176
     1
 90
       50
176
     1
 90
       50
176
     1
290
     0
176
     1
 90
       50
176
     1
 62
   256
176
     0
 40
1.0
176
     0
 90
        2
176
     1
  1
strokes_ogs.tif
176
     1
290
     0
176
     1
 40
1.0
176
     1
 40
1.0
176
     1
  0
VISUALSTYLE
  5
3B
102
{ACAD_REACTORS
330
2A
102
}
330
2A
100
AcDbVisualStyle
  2
JitterOff
 70
    20
177
     3
291
     1
 70
    58
 90
        2
176
     0
 90
        2
176
     0
 90
        0
176
     0
 90
        0
176
     0
 40
0.6
176
     0
 40
30.0
176
     0
 62
     7
420
 16777215
176
     0
 90
        1
176
     0
 90
        4
176
     0
 62
     7
176
     0
 62
   257
176
     0
 90
        1
176
     0
 90
        1
176
     0
 40
1.0
176
     0
 90
       10
176
     2
 62
     7
176
     0
 40
1.0
176
     0
 90
        1
176
     0
 90
        6
176
     0
 90
        2
176
     0
 62
     7
176
     0
 90
        5
176
     0
 90
        0
176
     0
 90
        0
176
     0
290
     0
176
     0
 90
        1
176
     0
 40
0.0
176
     0
 90
        0
176
     0
290
     0
176
     0
290
     1
176
     0
290
     1
176
     0
290
     0
176
     0
290
     0
176
     0
290
     0
176
     0
290
     0
176
     0
290
     0
176
     0
290
     0
176
     0
 90
       50
176
     0
 40
0.0
176
     0
 40
1.0
176
     0
 90
        0
176
     0
 62
    18
420
        0
176
     0
 90
       50
176
     0
 90
        3
176
     0
 62
     5
420
      255
176
     0
290
     0
176
     0
 90
       50
176
     0
 90
       50
176
     0
 90
       50
176
     0
290
     0
176
     0
 90
       50
176
     0
 62
   256
176
     0
 40
1.0
176
     0
 90
        2
176
     0
  1
strokes_ogs.tif
176
     0
290
     0
176
     0
 40
1.0
176
     0
 40
1.0
176
     0
  0
VISUALSTYLE
  5
38
102
{ACAD_REACTORS
330
2A
102
}
330
2A
100
AcDbVisualStyle
  2
Linepattern
 70
    14
177
     3
291
     1
 70
    58
 90
        2
176
     1
 90
        2
176
     1
 90
        0
176
     1
 90
        0
176
     1
 40
0.6
176
     1
 40
30.0
176
     1
 62
     7
420
 16777215
176
     1
 90
        1
176
     1
 90
        4
176
     1
 62
     7
176
     1
 62
   257
176
     1
 90
        7
176
     1
 90
        7
176
     1
 40
1.0
176
     1
 90
        8
176
     1
 62
     7
176
     1
 40
1.0
176
     1
 90
        1
176
     1
 90
        6
176
     1
 90
        2
176
     1
 62
     7
176
     1
 90
        5
176
     1
 90
        0
176
     1
 90
        0
176
     1
290
     0
176
     1
 90
        1
176
     1
 40
0.0
176
     1
 90
        0
176
     1
290
     0
176
     1
290
     1
176
     1
290
     1
176
     1
290
     0
176
     1
290
     0
176
     1
290
     0
176
     1
290
     0
176
     1
290
     0
176
     1
290
     0
176
     1
 90
       50
176
     1
 40
0.0
176
     1
 40
1.0
176
     1
 90
        0
176
     1
 62
    18
420
        0
176
     1
 90
       50
176
     1
 90
        3
176
     1
 62
     5
420
      255
176
     1
290
     0
176
     1
 90
       50
176
     1
 90
       50
176
     1
 90
       50
176
     1
290
     0
176
     1
 90
       50
176
     1
 62
   256
176
     0
 40
1.0
176
     0
 90
        2
176
     1
  1
strokes_ogs.tif
176
     1
290
     0
176
     1
 40
1.0
176
     1
 40
1.0
176
     1
  0
VISUALSTYLE
  5
3C
102
{ACAD_REACTORS
330
2A
102
}
330
2A
100
AcDbVisualStyle
  2
OverhangOff
 70
    21
177
     3
291
     1
 70
    58
 90
        2
176
     0
 90
        2
176
     0
 90
        0
176
     0
 90
        0
176
     0
 40
0.6
176
     0
 40
30.0
176
     0
 62
     7
420
 16777215
176
     0
 90
        1
176
     0
 90
        4
176
     0
 62
     7
176
     0
 62
   257
176
     0
 90
        1
176
     0
 90
        1
176
     0
 40
1.0
176
     0
 90
        9
176
     2
 62
     7
176
     0
 40
1.0
176
     0
 90
        1
176
     0
 90
        6
176
     0
 90
        2
176
     0
 62
     7
176
     0
 90
        5
176
     0
 90
        0
176
     0
 90
        0
176
     0
290
     0
176
     0
 90
        1
176
     0
 40
0.0
176
     0
 90
        0
176
     0
290
     0
176
     0
290
     1
176
     0
290
     1
176
     0
290
     0
176
     0
290
     0
176
     0
290
     0
176
     0
290
     0
176
     0
290
     0
176
     0
290
     0
176
     0
 90
       50
176
     0
 40
0.0
176
     0
 40
1.0
176
     0
 90
        0
176
     0
 62
    18
420
        0
176
     0
 90
       50
176
     0
 90
        3
176
     0
 62
     5
420
      255
176
     0
290
     0
176
     0
 90
       50
176
     0
 90
       50
176
     0
 90
       50
176
     0
290
     0
176
     0
 90
       50
176
     0
 62
   256
176
     0
 40
1.0
176
     0
 90
        2
176
     0
  1
strokes_ogs.tif
176
     0
290
     0
176
     0
 40
1.0
176
     0
 40
1.0
176
     0
  0
VISUALSTYLE
  5
33
102
{ACAD_REACTORS
330
2A
102
}
330
2A
100
AcDbVisualStyle
  2
Realistic
 70
     8
177
     3
291
     0
 70
    58
 90
        2
176
     1
 90
        3
176
     1
 90
        0
176
     1
 90
        2
176
     1
 40
0.6
176
     1
 40
30.0
176
     1
 62
     7
420
 16777215
176
     1
 90
        0
176
     1
 90
        0
176
     1
 62
     7
176
     1
 62
   257
176
     1
 90
        1
176
     1
 90
        1
176
     1
 40
1.0
176
     1
 90
        8
176
     1
 62
   257
176
     1
 40
1.0
176
     1
 90
        1
176
     1
 90
        6
176
     1
 90
        2
176
     1
 62
     7
176
     1
 90
        3
176
     1
 90
        0
176
     1
 90
        0
176
     1
290
     0
176
     1
 90
       13
176
     1
 40
0.0
176
     1
 90
        0
176
     1
290
     0
176
     1
290
     1
176
     1
290
     1
176
     1
290
     0
176
     1
290
     0
176
     1
290
     0
176
     1
290
     0
176
     1
290
     0
176
     1
290
     0
176
     1
 90
       50
176
     1
 40
0.0
176
     1
 40
1.0
176
     1
 90
        0
176
     1
 62
    18
420
        0
176
     1
 90
       50
176
     1
 90
        3
176
     1
 62
     5
420
      255
176
     1
290
     0
176
     1
 90
       50
176
     1
 90
       50
176
     1
 90
       50
176
     1
290
     0
176
     1
 90
       50
176
     1
 62
   256
176
     0
 40
1.0
176
     0
 90
        2
176
     1
  1
strokes_ogs.tif
176
     1
290
     0
176
     1
 40
1.0
176
     1
 40
1.0
176
     1
  0
VISUALSTYLE
  5
42
102
{ACAD_REACTORS
330
2A
102
}
330
2A
100
AcDbVisualStyle
  2
Shaded
 70
    27
177
     3
291
     0
 70
    58
 90
        2
176
     1
 90
        2
176
     1
 90
        1
176
     1
 90
        2
176
     1
 40
0.6
176
     1
 40
30.0
176
     1
 62
     7
420
 16777215
176
     1
 90
        0
176
     1
 90
        4
176
     1
 62
     7
176
     1
 62
   257
176
     1
 90
        1
176
     1
 90
        1
176
     1
 40
1.0
176
     1
 90
        8
176
     1
 62
   257
176
     1
 40
1.0
176
     1
 90
        1
176
     1
 90
        6
176
     1
 90
        2
176
     1
 62
     8
420
  7895160
176
     1
 90
        3
176
     1
 90
        0
176
     1
 90
        0
176
     1
290
     0
176
     1
 90
        5
176
     1
 40
0.0
176
     1
 90
        0
176
     1
290
     0
176
     1
290
     1
176
     1
290
     1
176
     1
290
     0
176
     1
290
     0
176
     1
290
     0
176
     1
290
     0
176
     1
290
     0
176
     1
290
     0
176
     1
 90
       50
176
     1
 40
0.0
176
     1
 40
1.0
176
     1
 90
        0
176
     1
 62
    18
420
        0
176
     1
 90
       50
176
     1
 90
        3
176
     1
 62
     5
420
      255
176
     1
290
     0
176
     1
 90
       50
176
     1
 90
       50
176
     1
 90
       50
176
     1
290
     0
176
     1
 90
       50
176
     1
 62
   256
176
     0
 40
1.0
176
     0
 90
        2
176
     1
  1
strokes_ogs.tif
176
     1
290
     0
176
     1
 40
1.0
176
     1
 40
1.0
176
     1
  0
VISUALSTYLE
  5
41
102
{ACAD_REACTORS
330
2A
102
}
330
2A
100
AcDbVisualStyle
  2
Shaded with edges
 70
    26
177
     3
291
     0
 70
    58
 90
        2
176
     1
 90
        2
176
     1
 90
        1
176
     1
 90
        2
176
     1
 40
0.6
176
     1
 40
30.0
176
     1
 62
     7
420
 16777215
176
     1
 90
        1
176
     1
 90
       10
176
     1
 62
     7
176
     1
 62
   257
176
     1
 90
        2
176
     1
 90
        1
176
     1
 40
1.0
176
     1
 90
        8
176
     1
 62
   257
176
     1
 40
1.0
176
     1
 90
        1
176
     1
 90
        6
176
     1
 90
        2
176
     1
 62
     7
176
     1
 90
        3
176
     1
 90
        0
176
     1
 90
        0
176
     1
290
     0
176
     1
 90
        5
176
     1
 40
0.0
176
     1
 90
        0
176
     1
290
     0
176
     1
290
     1
176
     1
290
     1
176
     1
290
     0
176
     1
290
     0
176
     1
290
     0
176
     1
290
     0
176
     1
290
     0
176
     1
290
     0
176
     1
 90
       50
176
     1
 40
0.0
176
     1
 40
1.0
176
     1
 90
        0
176
     1
 62
    18
420
        0
176
     1
 90
       50
176
     1
 90
        3
176
     1
 62
     5
420
      255
176
     1
290
     0
176
     1
 90
       50
176
     1
 90
       50
176
     1
 90
       50
176
     1
290
     0
176
     1
 90
       50
176
     1
 62
   256
176
     0
 40
1.0
176
     0
 90
        2
176
     1
  1
strokes_ogs.tif
176
     1
290
     0
176
     1
 40
1.0
176
     1
 40
1.0
176
     1
  0
VISUALSTYLE
  5
3E
102
{ACAD_REACTORS
330
2A
102
}
330
2A
100
AcDbVisualStyle
  2
Shades of Gray
 70
    23
177
     3
291
     0
 70
    58
 90
        2
176
     1
 90
        2
176
     1
 90
        3
176
     1
 90
        0
176
     1
 40
0.6
176
     1
 40
30.0
176
     1
 62
     7
420
 16777215
176
     1
 90
        2
176
     1
 90
        2
176
     1
 62
     7
176
     1
 62
     7
176
     1
 90
        1
176
     1
 90
        1
176
     1
 40
40.0
176
     1
 90
        8
176
     1
 62
     7
176
     1
 40
1.0
176
     1
 90
        1
176
     1
 90
        6
176
     1
 90
        2
176
     1
 62
     7
176
     1
 90
        3
176
     1
 90
        0
176
     1
 90
        0
176
     1
290
     0
176
     1
 90
        1
176
     1
 40
0.0
176
     1
 90
        0
176
     1
290
     0
176
     1
290
     1
176
     1
290
     1
176
     1
290
     0
176
     1
290
     0
176
     1
290
     0
176
     1
290
     0
176
     1
290
     0
176
     1
290
     0
176
     1
 90
       50
176
     1
 40
0.0
176
     1
 40
1.0
176
     1
 90
        0
176
     1
 62
    18
420
        0
176
     1
 90
       50
176
     1
 90
        3
176
     1
 62
     5
420
      255
176
     1
290
     0
176
     1
 90
       50
176
     1
 90
       50
176
     1
 90
       50
176
     1
290
     0
176
     1
 90
       50
176
     1
 62
   256
176
     0
 40
1.0
176
     0
 90
        2
176
     1
  1
strokes_ogs.tif
176
     1
290
     0
176
     1
 40
1.0
176
     1
 40
1.0
176
     1
  0
VISUALSTYLE
  5
3F
102
{ACAD_REACTORS
330
2A
102
}
330
2A
100
AcDbVisualStyle
  2
Sketchy
 70
    24
177
     3
291
     0
 70
    58
 90
        1
176
     1
 90
        2
176
     1
 90
        2
176
     1
 90
        0
176
     1
 40
0.6
176
     1
 40
30.0
176
     1
 62
     7
420
 16777215
176
     1
 90
        2
176
     1
 90
        2
176
     1
 62
     7
176
     1
 62
     7
176
     1
 90
        1
176
     1
 90
        1
176
     1
 40
40.0
176
     1
 90
       11
176
     1
 62
     7
176
     1
 40
1.0
176
     1
 90
        1
176
     1
 90
        6
176
     1
 90
        2
176
     1
 62
     7
176
     1
 90
        6
176
     1
 90
        0
176
     1
 90
        0
176
     1
290
     0
176
     1
 90
        1
176
     1
 40
0.0
176
     1
 90
        0
176
     1
290
     0
176
     1
290
     1
176
     1
290
     1
176
     1
290
     0
176
     1
290
     0
176
     1
290
     0
176
     1
290
     0
176
     1
290
     0
176
     1
290
     0
176
     1
 90
       50
176
     1
 40
0.0
176
     1
 40
1.0
176
     1
 90
        0
176
     1
 62
    18
420
        0
176
     1
 90
       50
176
     1
 90
        3
176
     1
 62
     5
420
      255
176
     1
290
     0
176
     1
 90
       50
176
     1
 90
       50
176
     1
 90
       50
176
     1
290
     0
176
     1
 90
       50
176
     1
 62
   256
176
     0
 40
1.0
176
     0
 90
        2
176
     1
  1
strokes_ogs.tif
176
     1
290
     0
176
     1
 40
1.0
176
     1
 40
1.0
176
     1
  0
VISUALSTYLE
  5
37
102
{ACAD_REACTORS
330
2A
102
}
330
2A
100
AcDbVisualStyle
  2
Thicken
 70
    13
177
     3
291
     1
 70
    58
 90
        2
176
     1
 90
        2
176
     1
 90
        0
176
     1
 90
        0
176
     1
 40
0.6
176
     1
 40
30.0
176
     1
 62
     7
420
 16777215
176
     1
 90
        1
176
     1
 90
        4
176
     1
 62
     7
176
     1
 62
   257
176
     1
 90
        1
176
     1
 90
        1
176
     1
 40
1.0
176
     1
 90
       12
176
     1
 62
     7
176
     1
 40
1.0
176
     1
 90
        1
176
     1
 90
        6
176
     1
 90
        2
176
     1
 62
     7
176
     1
 90
        5
176
     1
 90
        0
176
     1
 90
        0
176
     1
290
     0
176
     1
 90
        1
176
     1
 40
0.0
176
     1
 90
        0
176
     1
290
     0
176
     1
290
     1
176
     1
290
     1
176
     1
290
     0
176
     1
290
     0
176
     1
290
     0
176
     1
290
     0
176
     1
290
     0
176
     1
290
     0
176
     1
 90
       50
176
     1
 40
0.0
176
     1
 40
1.0
176
     1
 90
        0
176
     1
 62
    18
420
        0
176
     1
 90
       50
176
     1
 90
        3
176
     1
 62
     5
420
      255
176
     1
290
     0
176
     1
 90
       50
176
     1
 90
       50
176
     1
 90
       50
176
     1
290
     0
176
     1
 90
       50
176
     1
 62
   256
176
     0
 40
1.0
176
     0
 90
        2
176
     1
  1
strokes_ogs.tif
176
     1
290
     0
176
     1
 40
1.0
176
     1
 40
1.0
176
     1
  0
VISUALSTYLE
  5
30
102
{ACAD_REACTORS
330
2A
102
}
330
2A
100
AcDbVisualStyle
  2
Wireframe
 70
     5
177
     3
291
     0
 70
    58
 90
        0
176
     1
 90
        2
176
     1
 90
        0
176
     1
 90
        0
176
     1
 40
0.6
176
     1
 40
30.0
176
     1
 62
     7
420
 16777215
176
     1
 90
        1
176
     1
 90
        4
176
     1
 62
     7
176
     1
 62
   257
176
     1
 90
        1
176
     1
 90
        1
176
     1
 40
1.0
176
     1
 90
        0
176
     1
 62
   257
176
     1
 40
1.0
176
     1
 90
        1
176
     1
 90
        6
176
     1
 90
        2
176
     1
 62
     7
176
     1
 90
        3
176
     1
 90
        0
176
     1
 90
        0
176
     1
290
     0
176
     1
 90
        1
176
     1
 40
0.0
176
     1
 90
        0
176
     1
290
     0
176
     1
290
     1
176
     1
290
     1
176
     1
290
     0
176
     1
290
     0
176
     1
290
     0
176
     1
290
     0
176
     1
290
     0
176
     1
290
     0
176
     1
 90
       50
176
     1
 40
0.0
176
     1
 40
1.0
176
     1
 90
        0
176
     1
 62
    18
420
        0
176
     1
 90
       50
176
     1
 90
        3
176
     1
 62
     5
420
      255
176
     1
290
     0
176
     1
 90
       50
176
     1
 90
       50
176
     1
 90
       50
176
     1
290
     0
176
     1
 90
       50
176
     1
 62
   256
176
     0
 40
1.0
176
     0
 90
        2
176
     1
  1
strokes_ogs.tif
176
     1
290
     0
176
     1
 40
1.0
176
     1
 40
1.0
176
     1
  0
VISUALSTYLE
  5
40
102
{ACAD_REACTORS
330
2A
102
}
330
2A
100
AcDbVisualStyle
  2
X-Ray
 70
    25
177
     3
291
     0
 70
    58
 90
        2
176
     1
 90
        2
176
     1
 90
        1
176
     1
 90
        1
176
     1
 40
0.5
176
     1
 40
30.0
176
     1
 62
     7
420
 16777215
176
     1
 90
        1
176
     1
 90
        0
176
     1
 62
     7
176
     1
 62
   257
176
     1
 90
        1
176
     1
 90
        1
176
     1
 40
1.0
176
     1
 90
        8
176
     1
 62
     7
176
     1
 40
1.0
176
     1
 90
        1
176
     1
 90
        6
176
     1
 90
        2
176
     1
 62
     7
176
     1
 90
        3
176
     1
 90
        0
176
     1
 90
        0
176
     1
290
     0
176
     1
 90
       13
176
     1
 40
0.0
176
     1
 90
        0
176
     1
290
     0
176
     1
290
     1
176
     1
290
     1
176
     1
290
     0
176
     1
290
     0
176
     1
290
     0
176
     1
290
     0
176
     1
290
     0
176
     1
290
     0
176
     1
 90
       50
176
     1
 40
0.0
176
     1
 40
1.0
176
     1
 90
        0
176
     1
 62
    18
420
        0
176
     1
 90
       50
176
     1
 90
        3
176
     1
 62
     5
420
      255
176
     1
290
     0
176
     1
 90
       50
176
     1
 90
       50
176
     1
 90
       50
176
     1
290
     0
176
     1
 90
       50
176
     1
 62
   256
176
     0
 40
1.0
176
     0
 90
        2
176
     1
  1
strokes_ogs.tif
176
     1
290
     0
176
     1
 40
1.0
176
     1
 40
1.0
176
     1
  0
DICTIONARYVAR
  5
1F4
102
{ACAD_REACTORS
330
1F3
102
}
330
1F3
100
DictionaryVariables
280
     0
  1
1:1
  0
DICTIONARYVAR
  5
1F9
102
{ACAD_REACTORS
330
1F3
102
}
330
1F3
100
DictionaryVariables
280
     0
  1
Standard
  0
DICTIONARYVAR
  5
1F8
102
{ACAD_REACTORS
330
1F3
102
}
330
1F3
100
DictionaryVariables
280
     0
  1
Standard
  0
DICTIONARY
  5
1F5
330
6A
100
AcDbDictionary
280
     1
281
     1
  3
ACAD_ROUNDTRIP_2008_TABLESTYLE_CELLSTYLEMAP
360
1F6
  0
CELLSTYLEMAP
  5
1F6
102
{ACAD_REACTORS
330
1F5
102
}
330
1F5
100
AcDbCellStyleMap
 90
        3
300
CELLSTYLE
  1
TABLEFORMAT_BEGIN
 90
        5
170
     1
 91
        0
 92
    32768
 62
   257
 93
        1
300
CONTENTFORMAT
  1
CONTENTFORMAT_BEGIN
 90
        0
 91
        0
 92
        4
 93
        0
300

 40
0.0
140
1.0
 94
        5
 62
     0
340
11
144
0.25
309
CONTENTFORMAT_END
171
     1
301
MARGIN
  1
CELLMARGIN_BEGIN
 40
0.06
 40
0.06
 40
0.06
 40
0.06
 40
0.06
 40
0.06
309
CELLMARGIN_END
 94
        6
 95
        1
302
GRIDFORMAT
  1
GRIDFORMAT_BEGIN
 90
        0
 91
        1
 62
     0
 92
       -2
340
14
 93
        0
 40
0.045
309
GRIDFORMAT_END
 95
        2
302
GRIDFORMAT
  1
GRIDFORMAT_BEGIN
 90
        0
 91
        1
 62
     0
 92
       -2
340
14
 93
        0
 40
0.045
309
GRIDFORMAT_END
 95
        4
302
GRIDFORMAT
  1
GRIDFORMAT_BEGIN
 90
        0
 91
        1
 62
     0
 92
       -2
340
14
 93
        0
 40
0.045
309
GRIDFORMAT_END
 95
        8
302
GRIDFORMAT
  1
GRIDFORMAT_BEGIN
 90
        0
 91
        1
 62
     0
 92
       -2
340
14
 93
        0
 40
0.045
309
GRIDFORMAT_END
 95
       16
302
GRIDFORMAT
  1
GRIDFORMAT_BEGIN
 90
        0
 91
        1
 62
     0
 92
       -2
340
14
 93
        0
 40
0.045
309
GRIDFORMAT_END
 95
       32
302
GRIDFORMAT
  1
GRIDFORMAT_BEGIN
 90
        0
 91
        1
 62
     0
 92
       -2
340
14
 93
        0
 40
0.045
309
GRIDFORMAT_END
309
TABLEFORMAT_END
  1
CELLSTYLE_BEGIN
 90
        1
 91
        1
300
_TITLE
309
CELLSTYLE_END
300
CELLSTYLE
  1
TABLEFORMAT_BEGIN
 90
        5
170
     1
 91
        0
 92
        0
 62
   257
 93
        1
300
CONTENTFORMAT
  1
CONTENTFORMAT_BEGIN
 90
        0
 91
        0
 92
        4
 93
        0
300

 40
0.0
140
1.0
 94
        5
 62
     0
340
11
144
0.18
309
CONTENTFORMAT_END
171
     1
301
MARGIN
  1
CELLMARGIN_BEGIN
 40
0.06
 40
0.06
 40
0.06
 40
0.06
 40
0.06
 40
0.06
309
CELLMARGIN_END
 94
        6
 95
        1
302
GRIDFORMAT
  1
GRIDFORMAT_BEGIN
 90
        0
 91
        1
 62
     0
 92
       -2
340
14
 93
        0
 40
0.045
309
GRIDFORMAT_END
 95
        2
302
GRIDFORMAT
  1
GRIDFORMAT_BEGIN
 90
        0
 91
        1
 62
     0
 92
       -2
340
14
 93
        0
 40
0.045
309
GRIDFORMAT_END
 95
        4
302
GRIDFORMAT
  1
GRIDFORMAT_BEGIN
 90
        0
 91
        1
 62
     0
 92
       -2
340
14
 93
        0
 40
0.045
309
GRIDFORMAT_END
 95
        8
302
GRIDFORMAT
  1
GRIDFORMAT_BEGIN
 90
        0
 91
        1
 62
     0
 92
       -2
340
14
 93
        0
 40
0.045
309
GRIDFORMAT_END
 95
       16
302
GRIDFORMAT
  1
GRIDFORMAT_BEGIN
 90
        0
 91
        1
 62
     0
 92
       -2
340
14
 93
        0
 40
0.045
309
GRIDFORMAT_END
 95
       32
302
GRIDFORMAT
  1
GRIDFORMAT_BEGIN
 90
        0
 91
        1
 62
     0
 92
       -2
340
14
 93
        0
 40
0.045
309
GRIDFORMAT_END
309
TABLEFORMAT_END
  1
CELLSTYLE_BEGIN
 90
        2
 91
        1
300
_HEADER
309
CELLSTYLE_END
300
CELLSTYLE
  1
TABLEFORMAT_BEGIN
 90
        5
170
     1
 91
        0
 92
        0
 62
   257
 93
        1
300
CONTENTFORMAT
  1
CONTENTFORMAT_BEGIN
 90
        0
 91
        0
 92
        4
 93
        0
300

 40
0.0
140
1.0
 94
        2
 62
     0
340
11
144
0.18
309
CONTENTFORMAT_END
171
     1
301
MARGIN
  1
CELLMARGIN_BEGIN
 40
0.06
 40
0.06
 40
0.06
 40
0.06
 40
0.06
 40
0.06
309
CELLMARGIN_END
 94
        6
 95
        1
302
GRIDFORMAT
  1
GRIDFORMAT_BEGIN
 90
        0
 91
        1
 62
     0
 92
       -2
340
14
 93
        0
 40
0.045
309
GRIDFORMAT_END
 95
        2
302
GRIDFORMAT
  1
GRIDFORMAT_BEGIN
 90
        0
 91
        1
 62
     0
 92
       -2
340
14
 93
        0
 40
0.045
309
GRIDFORMAT_END
 95
        4
302
GRIDFORMAT
  1
GRIDFORMAT_BEGIN
 90
        0
 91
        1
 62
     0
 92
       -2
340
14
 93
        0
 40
0.045
309
GRIDFORMAT_END
 95
        8
302
GRIDFORMAT
  1
GRIDFORMAT_BEGIN
 90
        0
 91
        1
 62
     0
 92
       -2
340
14
 93
        0
 40
0.045
309
GRIDFORMAT_END
 95
       16
302
GRIDFORMAT
  1
GRIDFORMAT_BEGIN
 90
        0
 91
        1
 62
     0
 92
       -2
340
14
 93
        0
 40
0.045
309
GRIDFORMAT_END
 95
       32
302
GRIDFORMAT
  1
GRIDFORMAT_BEGIN
 90
        0
 91
        1
 62
     0
 92
       -2
340
14
 93
        0
 40
0.045
309
GRIDFORMAT_END
309
TABLEFORMAT_END
  1
CELLSTYLE_BEGIN
 90
        3
 91
        2
300
_DATA
309
CELLSTYLE_END
  0
ENDSEC
  0
EOF