0
SECTION
  2
HEADER
  9
$ACADVER
  1
AC1027
  9
$ACADMAINTVER
 70
     8
  9
$DWGCODEPAGE
  3
ANSI_1252
  9
$REQUIREDVERSIONS
160
                 0
  9
$COMMENTS
  1
File was created by Cadenas
  9
$CUSTOMPROPERTYTAG
  1
NN
  9
$CUSTOMPROPERTY
  1
S-2000 Flange Bearing - Square with Type E Dimensions Trident Seal Non-Expansion
  9
$CUSTOMPROPERTYTAG
  1
NT
  9
$CUSTOMPROPERTY
  1
S-2000 - E Type - Inch
  9
$CUSTOMPROPERTYTAG
  1
NB
  9
$CUSTOMPROPERTY
  1
071494
  9
$CUSTOMPROPERTYTAG
  1
NBSYN
  9
$CUSTOMPROPERTY
  1
$PN.
  9
$CUSTOMPROPERTYTAG
  1
LINA
  9
$CUSTOMPROPERTY
  1
071494
  9
$CUSTOMPROPERTYTAG
  1
SS
  9
$CUSTOMPROPERTY
  1
4-7/16
  9
$CUSTOMPROPERTYTAG
  1
TYPE
  9
$CUSTOMPROPERTY
  1
Expansion
  9
$CUSTOMPROPERTYTAG
  1
PN
  9
$CUSTOMPROPERTY
  1
071494
  9
$CUSTOMPROPERTYTAG
  1
DESCRIPTION
  9
$CUSTOMPROPERTY
  1
EF4B-S2-407RE
  9
$CUSTOMPROPERTYTAG
  1
A
  9
$CUSTOMPROPERTY
  1
6.53
  9
$CUSTOMPROPERTYTAG
  1
B
  9
$CUSTOMPROPERTY
  1
10.88
  9
$CUSTOMPROPERTYTAG
  1
C
  9
$CUSTOMPROPERTY
  1
7.1
  9
$CUSTOMPROPERTYTAG
  1
D
  9
$CUSTOMPROPERTY
  1
8.75
  9
$CUSTOMPROPERTYTAG
  1
DD
  9
$CUSTOMPROPERTY
  1
12.374
  9
$CUSTOMPROPERTYTAG
  1
F
  9
$CUSTOMPROPERTY
  1
7/8
  9
$CUSTOMPROPERTYTAG
  1
G
  9
$CUSTOMPROPERTY
  1
1.39
  9
$CUSTOMPROPERTYTAG
  1
H
  9
$CUSTOMPROPERTY
  1
2.43
  9
$CUSTOMPROPERTYTAG
  1
J
  9
$CUSTOMPROPERTY
  1
9.13
  9
$CUSTOMPROPERTYTAG
  1
L
  9
$CUSTOMPROPERTY
  1
6.45
  9
$CUSTOMPROPERTYTAG
  1
N
  9
$CUSTOMPROPERTY
  1
5.01
  9
$CUSTOMPROPERTYTAG
  1
P
  9
$CUSTOMPROPERTY
  1
0.56
  9
$CUSTOMPROPERTYTAG
  1
X
  9
$CUSTOMPROPERTY
  1
0.38
  9
$CUSTOMPROPERTYTAG
  1
Y
  9
$CUSTOMPROPERTY
  1
N/A
  9
$CUSTOMPROPERTYTAG
  1
Z
  9
$CUSTOMPROPERTY
  1
N/A
  9
$CUSTOMPROPERTYTAG
  1
CS
  9
$CUSTOMPROPERTY
  1
5/8-11
  9
$CUSTOMPROPERTYTAG
  1
TORQUE
  9
$CUSTOMPROPERTY
  1
1325
  9
$CUSTOMPROPERTYTAG
  1
COMPANY
  9
$CUSTOMPROPERTY
  1
baldor
  9
$INSBASE
 10
0.0
 20
0.0
 30
0.0
  9
$EXTMIN
 10
1.000000000000000E+20
 20
1.000000000000000E+20
 30
1.000000000000000E+20
  9
$EXTMAX
 10
-1.000000000000000E+20
 20
-1.000000000000000E+20
 30
-1.000000000000000E+20
  9
$LIMMIN
 10
0.0
 20
0.0
  9
$LIMMAX
 10
12.0
 20
9.0
  9
$ORTHOMODE
 70
     0
  9
$REGENMODE
 70
     1
  9
$FILLMODE
 70
     1
  9
$QTEXTMODE
 70
     0
  9
$MIRRTEXT
 70
     1
  9
$LTSCALE
 40
1.0
  9
$ATTMODE
 70
     1
  9
$TEXTSIZE
 40
0.2
  9
$TRACEWID
 40
0.05
  9
$TEXTSTYLE
  7
Standard
  9
$CLAYER
  8
0
  9
$CELTYPE
  6
ByLayer
  9
$CECOLOR
 62
   256
  9
$CELTSCALE
 40
1.0
  9
$DISPSILH
 70
     0
  9
$DIMSCALE
 40
1.0
  9
$DIMASZ
 40
0.18
  9
$DIMEXO
 40
0.0625
  9
$DIMDLI
 40
0.38
  9
$DIMRND
 40
0.0
  9
$DIMDLE
 40
0.0
  9
$DIMEXE
 40
0.18
  9
$DIMTP
 40
0.0
  9
$DIMTM
 40
0.0
  9
$DIMTXT
 40
0.18
  9
$DIMCEN
 40
0.09
  9
$DIMTSZ
 40
0.0
  9
$DIMTOL
 70
     0
  9
$DIMLIM
 70
     0
  9
$DIMTIH
 70
     1
  9
$DIMTOH
 70
     1
  9
$DIMSE1
 70
     0
  9
$DIMSE2
 70
     0
  9
$DIMTAD
 70
     0
  9
$DIMZIN
 70
     0
  9
$DIMBLK
  1

  9
$DIMASO
 70
     1
  9
$DIMSHO
 70
     1
  9
$DIMPOST
  1

  9
$DIMAPOST
  1

  9
$DIMALT
 70
     0
  9
$DIMALTD
 70
     2
  9
$DIMALTF
 40
25.4
  9
$DIMLFAC
 40
1.0
  9
$DIMTOFL
 70
     0
  9
$DIMTVP
 40
0.0
  9
$DIMTIX
 70
     0
  9
$DIMSOXD
 70
     0
  9
$DIMSAH
 70
     0
  9
$DIMBLK1
  1

  9
$DIMBLK2
  1

  9
$DIMSTYLE
  2
Standard
  9
$DIMCLRD
 70
     0
  9
$DIMCLRE
 70
     0
  9
$DIMCLRT
 70
     0
  9
$DIMTFAC
 40
1.0
  9
$DIMGAP
 40
0.09
  9
$DIMJUST
 70
     0
  9
$DIMSD1
 70
     0
  9
$DIMSD2
 70
     0
  9
$DIMTOLJ
 70
     1
  9
$DIMTZIN
 70
     0
  9
$DIMALTZ
 70
     0
  9
$DIMALTTZ
 70
     0
  9
$DIMUPT
 70
     0
  9
$DIMDEC
 70
     4
  9
$DIMTDEC
 70
     4
  9
$DIMALTU
 70
     2
  9
$DIMALTTD
 70
     2
  9
$DIMTXSTY
  7
Standard
  9
$DIMAUNIT
 70
     0
  9
$DIMADEC
 70
     0
  9
$DIMALTRND
 40
0.0
  9
$DIMAZIN
 70
     0
  9
$DIMDSEP
 70
    46
  9
$DIMATFIT
 70
     3
  9
$DIMFRAC
 70
     0
  9
$DIMLDRBLK
  1

  9
$DIMLUNIT
 70
     2
  9
$DIMLWD
 70
    -2
  9
$DIMLWE
 70
    -2
  9
$DIMTMOVE
 70
     0
  9
$DIMFXL
 40
1.0
  9
$DIMFXLON
 70
     0
  9
$DIMJOGANG
 40
0.7853981633974483
  9
$DIMTFILL
 70
     0
  9
$DIMTFILLCLR
 70
     0
  9
$DIMARCSYM
 70
     0
  9
$DIMLTYPE
  6

  9
$DIMLTEX1
  6

  9
$DIMLTEX2
  6

  9
$DIMTXTDIRECTION
 70
     0
  9
$LUNITS
 70
     2
  9
$LUPREC
 70
     4
  9
$SKETCHINC
 40
0.1
  9
$FILLETRAD
 40
0.5
  9
$AUNITS
 70
     0
  9
$AUPREC
 70
     0
  9
$MENU
  1
.
  9
$ELEVATION
 40
0.0
  9
$PELEVATION
 40
0.0
  9
$THICKNESS
 40
0.0
  9
$LIMCHECK
 70
     0
  9
$CHAMFERA
 40
0.0
  9
$CHAMFERB
 40
0.0
  9
$CHAMFERC
 40
0.0
  9
$CHAMFERD
 40
0.0
  9
$SKPOLY
 70
     0
  9
$TDCREATE
 40
2458168.981744965
  9
$TDUCREATE
 40
2458168.940078299
  9
$TDUPDATE
 40
2458168.98174515
  9
$TDUUPDATE
 40
2458168.940078484
  9
$TDINDWG
 40
0.0000000116
  9
$TDUSRTIMER
 40
0.0000000116
  9
$USRTIMER
 70
     1
  9
$ANGBASE
 50
0.0
  9
$ANGDIR
 70
     0
  9
$PDMODE
 70
     0
  9
$PDSIZE
 40
0.0
  9
$PLINEWID
 40
0.0
  9
$SPLFRAME
 70
     0
  9
$SPLINETYPE
 70
     6
  9
$SPLINESEGS
 70
     8
  9
$HANDSEED
  5
225
  9
$SURFTAB1
 70
     6
  9
$SURFTAB2
 70
     6
  9
$SURFTYPE
 70
     6
  9
$SURFU
 70
     6
  9
$SURFV
 70
     6
  9
$UCSBASE
  2

  9
$UCSNAME
  2

  9
$UCSORG
 10
0.0
 20
0.0
 30
0.0
  9
$UCSXDIR
 10
1.0
 20
0.0
 30
0.0
  9
$UCSYDIR
 10
0.0
 20
1.0
 30
0.0
  9
$UCSORTHOREF
  2

  9
$UCSORTHOVIEW
 70
     0
  9
$UCSORGTOP
 10
0.0
 20
0.0
 30
0.0
  9
$UCSORGBOTTOM
 10
0.0
 20
0.0
 30
0.0
  9
$UCSORGLEFT
 10
0.0
 20
0.0
 30
0.0
  9
$UCSORGRIGHT
 10
0.0
 20
0.0
 30
0.0
  9
$UCSORGFRONT
 10
0.0
 20
0.0
 30
0.0
  9
$UCSORGBACK
 10
0.0
 20
0.0
 30
0.0
  9
$PUCSBASE
  2

  9
$PUCSNAME
  2

  9
$PUCSORG
 10
0.0
 20
0.0
 30
0.0
  9
$PUCSXDIR
 10
1.0
 20
0.0
 30
0.0
  9
$PUCSYDIR
 10
0.0
 20
1.0
 30
0.0
  9
$PUCSORTHOREF
  2

  9
$PUCSORTHOVIEW
 70
     0
  9
$PUCSORGTOP
 10
0.0
 20
0.0
 30
0.0
  9
$PUCSORGBOTTOM
 10
0.0
 20
0.0
 30
0.0
  9
$PUCSORGLEFT
 10
0.0
 20
0.0
 30
0.0
  9
$PUCSORGRIGHT
 10
0.0
 20
0.0
 30
0.0
  9
$PUCSORGFRONT
 10
0.0
 20
0.0
 30
0.0
  9
$PUCSORGBACK
 10
0.0
 20
0.0
 30
0.0
  9
$USERI1
 70
     0
  9
$USERI2
 70
     0
  9
$USERI3
 70
     0
  9
$USERI4
 70
     0
  9
$USERI5
 70
     0
  9
$USERR1
 40
0.0
  9
$USERR2
 40
0.0
  9
$USERR3
 40
0.0
  9
$USERR4
 40
0.0
  9
$USERR5
 40
0.0
  9
$WORLDVIEW
 70
     1
  9
$SHADEDGE
 70
     3
  9
$SHADEDIF
 70
    70
  9
$TILEMODE
 70
     1
  9
$MAXACTVP
 70
    64
  9
$PINSBASE
 10
0.0
 20
0.0
 30
0.0
  9
$PLIMCHECK
 70
     0
  9
$PEXTMIN
 10
1.000000000000000E+20
 20
1.000000000000000E+20
 30
1.000000000000000E+20
  9
$PEXTMAX
 10
-1.000000000000000E+20
 20
-1.000000000000000E+20
 30
-1.000000000000000E+20
  9
$PLIMMIN
 10
0.0
 20
0.0
  9
$PLIMMAX
 10
12.0
 20
9.0
  9
$UNITMODE
 70
     0
  9
$VISRETAIN
 70
     1
  9
$PLINEGEN
 70
     0
  9
$PSLTSCALE
 70
     1
  9
$TREEDEPTH
 70
  3020
  9
$CMLSTYLE
  2
Standard
  9
$CMLJUST
 70
     0
  9
$CMLSCALE
 40
1.0
  9
$PROXYGRAPHICS
 70
     1
  9
$MEASUREMENT
 70
     0
  9
$CELWEIGHT
370
    -1
  9
$ENDCAPS
280
     0
  9
$JOINSTYLE
280
     0
  9
$LWDISPLAY
290
     0
  9
$INSUNITS
 70
     1
  9
$HYPERLINKBASE
  1

  9
$STYLESHEET
  1

  9
$XEDIT
290
     1
  9
$CEPSNTYPE
380
     0
  9
$PSTYLEMODE
290
     1
  9
$FINGERPRINTGUID
  2
{1746A2F8-15D6-4DDD-997A-4A7BD0F6793D}
  9
$VERSIONGUID
  2
{FAEB1C32-E019-11D5-929B-00C0DF256EC4}
  9
$EXTNAMES
290
     1
  9
$PSVPSCALE
 40
0.0
  9
$OLESTARTUP
290
     0
  9
$SORTENTS
280
   127
  9
$INDEXCTL
280
     0
  9
$HIDETEXT
280
     1
  9
$XCLIPFRAME
280
     2
  9
$HALOGAP
280
     0
  9
$OBSCOLOR
 70
   257
  9
$OBSLTYPE
280
     0
  9
$INTERSECTIONDISPLAY
280
     0
  9
$INTERSECTIONCOLOR
 70
   257
  9
$DIMASSOC
280
     2
  9
$PROJECTNAME
  1

  9
$CAMERADISPLAY
290
     0
  9
$LENSLENGTH
 40
50.0
  9
$CAMERAHEIGHT
 40
0.0
  9
$STEPSPERSEC
 40
2.0
  9
$STEPSIZE
 40
6.0
  9
$3DDWFPREC
 40
2.0
  9
$PSOLWIDTH
 40
0.25
  9
$PSOLHEIGHT
 40
4.0
  9
$LOFTANG1
 40
1.570796326794897
  9
$LOFTANG2
 40
1.570796326794897
  9
$LOFTMAG1
 40
0.0
  9
$LOFTMAG2
 40
0.0
  9
$LOFTPARAM
 70
     7
  9
$LOFTNORMALS
280
     1
  9
$LATITUDE
 40
37.795
  9
$LONGITUDE
 40
-122.394
  9
$NORTHDIRECTION
 40
0.0
  9
$TIMEZONE
 70
 -8000
  9
$LIGHTGLYPHDISPLAY
280
     1
  9
$TILEMODELIGHTSYNCH
280
     1
  9
$CMATERIAL
347
44
  9
$SOLIDHIST
280
     0
  9
$SHOWHIST
280
     1
  9
$DWFFRAME
280
     2
  9
$DGNFRAME
280
     2
  9
$REALWORLDSCALE
290
     1
  9
$INTERFERECOLOR
 62
   256
  9
$CSHADOW
280
     0
  9
$SHADOWPLANELOCATION
 40
0.0
  0
ENDSEC
  0
SECTION
  2
CLASSES
  0
CLASS
  1
ACDBDICTIONARYWDFLT
  2
AcDbDictionaryWithDefault
  3
ObjectDBX Classes
 90
        0
 91
        4
280
     0
281
     0
  0
CLASS
  1
VISUALSTYLE
  2
AcDbVisualStyle
  3
ObjectDBX Classes
 90
     4095
 91
        4
280
     0
281
     0
  0
CLASS
  1
MATERIAL
  2
AcDbMaterial
  3
ObjectDBX Classes
 90
     1153
 91
        4
280
     0
281
     0
  0
CLASS
  1
SCALE
  2
AcDbScale
  3
ObjectDBX Classes
 90
     1153
 91
        4
280
     0
281
     0
  0
CLASS
  1
TABLESTYLE
  2
AcDbTableStyle
  3
ObjectDBX Classes
 90
     4095
 91
        4
280
     0
281
     0
  0
CLASS
  1
MLEADERSTYLE
  2
AcDbMLeaderStyle
  3
ACDB_MLEADERSTYLE_CLASS
 90
     4095
 91
        4
280
     0
281
     0
  0
CLASS
  1
SUN
  2
AcDbSun
  3
SCENEOE
 90
     1153
 91
        4
280
     0
281
     0
  0
CLASS
  1
DICTIONARYVAR
  2
AcDbDictionaryVar
  3
ObjectDBX Classes
 90
        0
 91
        4
280
     0
281
     0
  0
CLASS
  1
CELLSTYLEMAP
  2
AcDbCellStyleMap
  3
ObjectDBX Classes
 90
     1152
 91
        4
280
     0
281
     0
  0
ENDSEC
  0
SECTION
  2
TABLES
  0
TABLE
  2
VPORT
  5
8
330
0
100
AcDbSymbolTable
 70
     1
  0
VPORT
  5
29
330
8
100
AcDbSymbolTableRecord
100
AcDbViewportTableRecord
  2
*Active
 70
     0
 10
0.0
 20
0.0
 11
1.0
 21
1.0
 12
0.0
 22
-3.40725
 13
0.0
 23
0.0
 14
0.5
 24
0.5
 15
0.5
 25
0.5
 16
0.0
 26
0.0
 36
1.0
 17
0.0
 27
0.0
 37
0.0
 40
7.533209999999999
 41
1.473156861417643
 42
50.0
 43
0.0
 44
0.0
 50
0.0
 51
0.0
 71
     0
 72
   100
 73
     1
 74
     3
 75
     0
 76
     0
 77
     0
 78
     0
281
     0
 65
     1
110
0.0
120
0.0
130
0.0
111
1.0
121
0.0
131
0.0
112
0.0
122
1.0
132
0.0
 79
     0
146
0.0
348
2F
 60
     3
 61
     5
292
     1
282
     1
141
0.0
142
0.0
 63
   250
361
6D
  0
ENDTAB
  0
TABLE
  2
LTYPE
  5
5
330
0
100
AcDbSymbolTable
 70
     3
  0
LTYPE
  5
14
330
5
100
AcDbSymbolTableRecord
100
AcDbLinetypeTableRecord
  2
ByBlock
 70
     0
  3

 72
    65
 73
     0
 40
0.0
  0
LTYPE
  5
15
330
5
100
AcDbSymbolTableRecord
100
AcDbLinetypeTableRecord
  2
ByLayer
 70
     0
  3

 72
    65
 73
     0
 40
0.0
  0
LTYPE
  5
16
330
5
100
AcDbSymbolTableRecord
100
AcDbLinetypeTableRecord
  2
Continuous
 70
     0
  3
Solid line
 72
    65
 73
     0
 40
0.0
  0
LTYPE
  5
A7
330
5
100
AcDbSymbolTableRecord
100
AcDbLinetypeTableRecord
  2
Dashed
 70
     0
  3

 72
    65
 73
     2
 40
2.0
 49
1.0
 74
     0
 49
-1.0
 74
     0
  0
LTYPE
  5
C6
330
5
100
AcDbSymbolTableRecord
100
AcDbLinetypeTableRecord
  2
Center
 70
     0
  3

 72
    65
 73
     4
 40
1.5
 49
0.45
 74
     0
 49
-0.5
 74
     0
 49
0.05
 74
     0
 49
-0.5
 74
     0
  0
ENDTAB
  0
TABLE
  2
LAYER
  5
2
330
0
100
AcDbSymbolTable
 70
     7
  0
LAYER
  5
10
330
2
100
AcDbSymbolTableRecord
100
AcDbLayerTableRecord
  2
0
 70
     0
 62
     7
  6
Continuous
370
    -3
390
F
347
46
348
0
  0
LAYER
  5
72
330
2
100
AcDbSymbolTableRecord
100
AcDbLayerTableRecord
  2
AM_6
 70
     0
 62
    -2
  6
Continuous
370
    35
390
F
347
46
348
0
  0
LAYER
  5
A8
330
2
100
AcDbSymbolTableRecord
100
AcDbLayerTableRecord
  2
AM_9
 70
     0
 62
     6
  6
Dashed
370
    25
390
F
347
46
348
0
  0
LAYER
  5
C7
330
2
100
AcDbSymbolTableRecord
100
AcDbLayerTableRecord
  2
AM_7
 70
     0
 62
     7
  6
Center
370
    25
390
F
347
46
348
0
  0
LAYER
  5
C9
330
2
100
AcDbSymbolTableRecord
100
AcDbLayerTableRecord
  2
AM_4
 70
     0
 62
     7
  6
Continuous
370
    50
390
F
347
46
348
0
  0
LAYER
  5
E0
330
2
100
AcDbSymbolTableRecord
100
AcDbLayerTableRecord
  2
AM_5
 70
     0
 62
     3
  6
Continuous
370
    25
390
F
347
46
348
0
  0
LAYER
  5
213
330
2
100
AcDbSymbolTableRecord
100
AcDbLayerTableRecord
  2
ConnectionPoints
 70
     0
 62
     7
  6
Continuous
370
    50
390
F
347
46
348
0
  0
ENDTAB
  0
TABLE
  2
STYLE
  5
3
330
0
100
AcDbSymbolTable
 70
     1
  0
STYLE
  5
11
330
3
100
AcDbSymbolTableRecord
100
AcDbTextStyleTableRecord
  2
Standard
 70
     0
 40
0.0
 41
1.0
 50
0.0
 71
     0
 42
0.2
  3
txt
  4

  0
ENDTAB
  0
TABLE
  2
VIEW
  5
6
330
0
100
AcDbSymbolTable
 70
     0
  0
ENDTAB
  0
TABLE
  2
UCS
  5
7
330
0
100
AcDbSymbolTable
 70
     0
  0
ENDTAB
  0
TABLE
  2
APPID
  5
9
330
0
100
AcDbSymbolTable
 70
     1
  0
APPID
  5
12
330
9
100
AcDbSymbolTableRecord
100
AcDbRegAppTableRecord
  2
ACAD
 70
     0
  0
ENDTAB
  0
TABLE
  2
DIMSTYLE
  5
A
330
0
100
AcDbSymbolTable
 70
     1
100
AcDbDimStyleTable
  0
DIMSTYLE
105
27
330
A
100
AcDbSymbolTableRecord
100
AcDbDimStyleTableRecord
  2
Standard
 70
     0
178
     0
340
11
  0
ENDTAB
  0
TABLE
  2
BLOCK_RECORD
  5
1
330
0
100
AcDbSymbolTable
 70
     7
  0
BLOCK_RECORD
  5
1F
330
1
100
AcDbSymbolTableRecord
100
AcDbBlockTableRecord
  2
*Model_Space
340
22
 70
     0
280
     1
281
     0
  0
BLOCK_RECORD
  5
1B
330
1
100
AcDbSymbolTableRecord
100
AcDbBlockTableRecord
  2
*Paper_Space
340
1E
 70
     0
280
     1
281
     0
  0
BLOCK_RECORD
  5
23
330
1
100
AcDbSymbolTableRecord
100
AcDbBlockTableRecord
  2
*Paper_Space0
340
26
 70
     0
280
     1
281
     0
  0
BLOCK_RECORD
  5
6E
330
1
100
AcDbSymbolTableRecord
100
AcDbBlockTableRecord
  2
1_071494_4
340
0
102
{BLKREFS
331
6F
102
}
 70
     0
280
     1
281
     0
  0
BLOCK_RECORD
  5
8E
330
1
100
AcDbSymbolTableRecord
100
AcDbBlockTableRecord
  2
2_4_7_16CS2i_1_0_in_071494_4
340
0
102
{BLKREFS
331
8F
102
}
 70
     0
280
     1
281
     0
  0
BLOCK_RECORD
  5
E2
330
1
100
AcDbSymbolTableRecord
100
AcDbBlockTableRecord
  2
3_4_7_16CS2i_2_0_in_071494_4
340
0
102
{BLKREFS
331
E3
102
}
 70
     0
280
     1
281
     0
  0
BLOCK_RECORD
  5
133
330
1
100
AcDbSymbolTableRecord
100
AcDbBlockTableRecord
  2
4_070014i_0_in_071494_4
340
0
102
{BLKREFS
331
134
102
}
 70
     0
280
     1
281
     0
  0
BLOCK_RECORD
  5
18A
330
1
100
AcDbSymbolTableRecord
100
AcDbBlockTableRecord
  2
5_405015E_Inch_0_in_071494_4
340
0
102
{BLKREFS
331
18B
102
}
 70
     0
280
     1
281
     0
  0
BLOCK_RECORD
  5
1A7
330
1
100
AcDbSymbolTableRecord
100
AcDbBlockTableRecord
  2
6_B071494_0_in_071494_4
340
0
102
{BLKREFS
331
1A8
102
}
 70
     0
280
     1
281
     0
  0
ENDTAB
  0
ENDSEC
  0
SECTION
  2
BLOCKS
  0
BLOCK
  5
20
330
1F
100
AcDbEntity
  8
0
100
AcDbBlockBegin
  2
*Model_Space
 70
     0
 10
0.0
 20
0.0
 30
0.0
  3
*Model_Space
  1

  0
ENDBLK
  5
21
330
1F
100
AcDbEntity
  8
0
100
AcDbBlockEnd
  0
BLOCK
  5
1C
330
1B
100
AcDbEntity
 67
     1
  8
0
100
AcDbBlockBegin
  2
*Paper_Space
 70
     0
 10
0.0
 20
0.0
 30
0.0
  3
*Paper_Space
  1

  0
ENDBLK
  5
1D
330
1B
100
AcDbEntity
 67
     1
  8
0
100
AcDbBlockEnd
  0
BLOCK
  5
24
330
23
100
AcDbEntity
  8
0
100
AcDbBlockBegin
  2
*Paper_Space0
 70
     0
 10
0.0
 20
0.0
 30
0.0
  3
*Paper_Space0
  1

  0
ENDBLK
  5
25
330
23
100
AcDbEntity
  8
0
100
AcDbBlockEnd
  0
BLOCK
  5
70
330
6E
100
AcDbEntity
  8
0
100
AcDbBlockBegin
  2
1_071494_4
 70
     2
 10
0.0
 20
0.0
 30
0.0
  3
1_071494_4
  1

  0
ATTDEF
  5
73
330
6E
100
AcDbEntity
  8
AM_6
100
AcDbText
 10
10.44
 20
0.2855
 30
0.0
 40
0.5
  1
S-2000 Flange Bearing - Square with Type E Dimensions Trident Seal Non-Expansion
100
AcDbAttributeDefinition
  3

  2
NN
 70
     8
280
     0
  0
ATTDEF
  5
74
330
6E
100
AcDbEntity
  8
AM_6
100
AcDbText
 10
10.44
 20
-0.2145
 30
0.0
 40
0.5
  1
S-2000 - E Type - Inch
100
AcDbAttributeDefinition
  3

  2
NT
 70
     8
280
     0
  0
ATTDEF
  5
75
330
6E
100
AcDbEntity
  8
AM_6
100
AcDbText
 10
10.44
 20
-0.7144999999999999
 30
0.0
 40
0.5
  1
071494
100
AcDbAttributeDefinition
  3

  2
NB
 70
     8
280
     0
  0
ATTDEF
  5
76
330
6E
100
AcDbEntity
  8
AM_6
100
AcDbText
 10
10.44
 20
-1.2145
 30
0.0
 40
0.5
  1
$PN.
100
AcDbAttributeDefinition
  3

  2
NBSYN
 70
     8
280
     0
  0
ATTDEF
  5
77
330
6E
100
AcDbEntity
  8
AM_6
100
AcDbText
 10
10.44
 20
-1.7145
 30
0.0
 40
0.5
  1
071494
100
AcDbAttributeDefinition
  3

  2
LINA
 70
     8
280
     0
  0
ATTDEF
  5
78
330
6E
100
AcDbEntity
  8
AM_6
100
AcDbText
 10
10.44
 20
-2.2145
 30
0.0
 40
0.5
  1
4-7/16
100
AcDbAttributeDefinition
  3

  2
SS
 70
     8
280
     0
  0
ATTDEF
  5
79
330
6E
100
AcDbEntity
  8
AM_6
100
AcDbText
 10
10.44
 20
-2.7145
 30
0.0
 40
0.5
  1
Expansion
100
AcDbAttributeDefinition
  3

  2
TYPE
 70
     8
280
     0
  0
ATTDEF
  5
7A
330
6E
100
AcDbEntity
  8
AM_6
100
AcDbText
 10
10.44
 20
-3.2145
 30
0.0
 40
0.5
  1
071494
100
AcDbAttributeDefinition
  3

  2
PN
 70
     8
280
     0
  0
ATTDEF
  5
7B
330
6E
100
AcDbEntity
  8
AM_6
100
AcDbText
 10
10.44
 20
-3.7145
 30
0.0
 40
0.5
  1
EF4B-S2-407RE
100
AcDbAttributeDefinition
  3

  2
DESCRIPTION
 70
     8
280
     0
  0
ATTDEF
  5
7C
330
6E
100
AcDbEntity
  8
AM_6
100
AcDbText
 10
10.44
 20
-4.2145
 30
0.0
 40
0.5
  1
6.53
100
AcDbAttributeDefinition
  3

  2
A
 70
     8
280
     0
  0
ATTDEF
  5
7D
330
6E
100
AcDbEntity
  8
AM_6
100
AcDbText
 10
10.44
 20
-4.7145
 30
0.0
 40
0.5
  1
10.88
100
AcDbAttributeDefinition
  3

  2
B
 70
     8
280
     0
  0
ATTDEF
  5
7E
330
6E
100
AcDbEntity
  8
AM_6
100
AcDbText
 10
10.44
 20
-5.2145
 30
0.0
 40
0.5
  1
7.1
100
AcDbAttributeDefinition
  3

  2
C
 70
     8
280
     0
  0
ATTDEF
  5
7F
330
6E
100
AcDbEntity
  8
AM_6
100
AcDbText
 10
10.44
 20
-5.7145
 30
0.0
 40
0.5
  1
8.75
100
AcDbAttributeDefinition
  3

  2
D
 70
     8
280
     0
  0
ATTDEF
  5
80
330
6E
100
AcDbEntity
  8
AM_6
100
AcDbText
 10
10.44
 20
-6.2145
 30
0.0
 40
0.5
  1
12.374
100
AcDbAttributeDefinition
  3

  2
DD
 70
     8
280
     0
  0
ATTDEF
  5
81
330
6E
100
AcDbEntity
  8
AM_6
100
AcDbText
 10
10.44
 20
-6.7145
 30
0.0
 40
0.5
  1
7/8
100
AcDbAttributeDefinition
  3

  2
F
 70
     8
280
     0
  0
ATTDEF
  5
82
330
6E
100
AcDbEntity
  8
AM_6
100
AcDbText
 10
10.44
 20
-7.2145
 30
0.0
 40
0.5
  1
1.39
100
AcDbAttributeDefinition
  3

  2
G
 70
     8
280
     0
  0
ATTDEF
  5
83
330
6E
100
AcDbEntity
  8
AM_6
100
AcDbText
 10
10.44
 20
-7.7145
 30
0.0
 40
0.5
  1
2.43
100
AcDbAttributeDefinition
  3

  2
H
 70
     8
280
     0
  0
ATTDEF
  5
84
330
6E
100
AcDbEntity
  8
AM_6
100
AcDbText
 10
10.44
 20
-8.214500000000001
 30
0.0
 40
0.5
  1
9.13
100
AcDbAttributeDefinition
  3

  2
J
 70
     8
280
     0
  0
ATTDEF
  5
85
330
6E
100
AcDbEntity
  8
AM_6
100
AcDbText
 10
10.44
 20
-8.714500000000001
 30
0.0
 40
0.5
  1
6.45
100
AcDbAttributeDefinition
  3

  2
L
 70
     8
280
     0
  0
ATTDEF
  5
86
330
6E
100
AcDbEntity
  8
AM_6
100
AcDbText
 10
10.44
 20
-9.214500000000001
 30
0.0
 40
0.5
  1
5.01
100
AcDbAttributeDefinition
  3

  2
N
 70
     8
280
     0
  0
ATTDEF
  5
87
330
6E
100
AcDbEntity
  8
AM_6
100
AcDbText
 10
10.44
 20
-9.714500000000001
 30
0.0
 40
0.5
  1
0.56
100
AcDbAttributeDefinition
  3

  2
P
 70
     8
280
     0
  0
ATTDEF
  5
88
330
6E
100
AcDbEntity
  8
AM_6
100
AcDbText
 10
10.44
 20
-10.2145
 30
0.0
 40
0.5
  1
0.38
100
AcDbAttributeDefinition
  3

  2
X
 70
     8
280
     0
  0
ATTDEF
  5
89
330
6E
100
AcDbEntity
  8
AM_6
100
AcDbText
 10
10.44
 20
-10.7145
 30
0.0
 40
0.5
  1
N/A
100
AcDbAttributeDefinition
  3

  2
Y
 70
     8
280
     0
  0
ATTDEF
  5
8A
330
6E
100
AcDbEntity
  8
AM_6
100
AcDbText
 10
10.44
 20
-11.2145
 30
0.0
 40
0.5
  1
N/A
100
AcDbAttributeDefinition
  3

  2
Z
 70
     8
280
     0
  0
ATTDEF
  5
8B
330
6E
100
AcDbEntity
  8
AM_6
100
AcDbText
 10
10.44
 20
-11.7145
 30
0.0
 40
0.5
  1
5/8-11
100
AcDbAttributeDefinition
  3

  2
CS
 70
     8
280
     0
  0
ATTDEF
  5
8C
330
6E
100
AcDbEntity
  8
AM_6
100
AcDbText
 10
10.44
 20
-12.2145
 30
0.0
 40
0.5
  1
1325
100
AcDbAttributeDefinition
  3

  2
TORQUE
 70
     8
280
     0
  0
ATTDEF
  5
8D
330
6E
100
AcDbEntity
  8
AM_6
100
AcDbText
 10
10.44
 20
-12.7145
 30
0.0
 40
0.5
  1
baldor
100
AcDbAttributeDefinition
  3

  2
COMPANY
 70
     8
280
     0
  0
INSERT
  5
8F
330
6E
100
AcDbEntity
  8
0
100
AcDbBlockReference
  2
2_4_7_16CS2i_1_0_in_071494_4
 10
0.0
 20
0.0
 30
0.0
  0
INSERT
  5
E3
330
6E
100
AcDbEntity
  8
0
100
AcDbBlockReference
  2
3_4_7_16CS2i_2_0_in_071494_4
 10
0.0
 20
0.0
 30
0.0
  0
INSERT
  5
134
330
6E
100
AcDbEntity
  8
0
100
AcDbBlockReference
  2
4_070014i_0_in_071494_4
 10
0.0
 20
0.0
 30
0.0
  0
INSERT
  5
18B
330
6E
100
AcDbEntity
  8
0
100
AcDbBlockReference
  2
5_405015E_Inch_0_in_071494_4
 10
0.0
 20
0.0
 30
0.0
  0
INSERT
  5
1A8
330
6E
100
AcDbEntity
  8
0
100
AcDbBlockReference
  2
6_B071494_0_in_071494_4
 10
0.0
 20
0.0
 30
0.0
  0
ENDBLK
  5
71
330
6E
100
AcDbEntity
  8
0
100
AcDbBlockEnd
  0
BLOCK
  5
90
330
8E
100
AcDbEntity
  8
0
100
AcDbBlockBegin
  2
2_4_7_16CS2i_1_0_in_071494_4
 70
     2
 10
0.0
 20
0.0
 30
0.0
  3
2_4_7_16CS2i_1_0_in_071494_4
  1

  0
ATTDEF
  5
92
330
8E
100
AcDbEntity
  8
AM_6
100
AcDbText
 10
8.22656
 20
-5.48
 30
0.0
 40
0.5
  1
S-2000 Collar -Inch
100
AcDbAttributeDefinition
  3

  2
NN
 70
     8
280
     0
  0
ATTDEF
  5
93
330
8E
100
AcDbEntity
  8
AM_6
100
AcDbText
 10
8.22656
 20
-5.98
 30
0.0
 40
0.5
  1
S-2000 Bearings
100
AcDbAttributeDefinition
  3

  2
NT
 70
     8
280
     0
  0
ATTDEF
  5
94
330
8E
100
AcDbEntity
  8
AM_6
100
AcDbText
 10
8.22656
 20
-6.48
 30
0.0
 40
0.5
  1
4-7/16CS2i
100
AcDbAttributeDefinition
  3

  2
NB
 70
     8
280
     0
  0
ATTDEF
  5
95
330
8E
100
AcDbEntity
  8
AM_6
100
AcDbText
 10
8.22656
 20
-6.98
 30
0.0
 40
0.5
  1
$BORE.CS2i
100
AcDbAttributeDefinition
  3

  2
NBSYN
 70
     8
280
     0
  0
ATTDEF
  5
96
330
8E
100
AcDbEntity
  8
AM_6
100
AcDbText
 10
8.22656
 20
-7.48
 30
0.0
 40
0.5
  1
4-7/16CS2i
100
AcDbAttributeDefinition
  3

  2
LINA
 70
     8
280
     0
  0
ATTDEF
  5
97
330
8E
100
AcDbEntity
  8
AM_6
100
AcDbText
 10
8.22656
 20
-7.98
 30
0.0
 40
0.5
  1
4-7/16
100
AcDbAttributeDefinition
  3

  2
BORE
 70
     8
280
     0
  0
ATTDEF
  5
98
330
8E
100
AcDbEntity
  8
AM_6
100
AcDbText
 10
8.22656
 20
-8.48
 30
0.0
 40
0.5
  1
4.437500
100
AcDbAttributeDefinition
  3

  2
BORE1
 70
     8
280
     0
  0
ATTDEF
  5
99
330
8E
100
AcDbEntity
  8
AM_6
100
AcDbText
 10
8.22656
 20
-8.98
 30
0.0
 40
0.5
  1
6-29/64
100
AcDbAttributeDefinition
  3

  2
L1
 70
     8
280
     0
  0
ATTDEF
  5
9A
330
8E
100
AcDbEntity
  8
AM_6
100
AcDbText
 10
8.22656
 20
-9.48
 30
0.0
 40
0.5
  1
6.45313
100
AcDbAttributeDefinition
  3

  2
L
 70
     8
280
     0
  0
ATTDEF
  5
9B
330
8E
100
AcDbEntity
  8
AM_6
100
AcDbText
 10
8.22656
 20
-9.98
 30
0.0
 40
0.5
  1
6.45312
100
AcDbAttributeDefinition
  3

  2
L2
 70
     8
280
     0
  0
ATTDEF
  5
9C
330
8E
100
AcDbEntity
  8
AM_6
100
AcDbText
 10
8.22656
 20
-10.48
 30
0.0
 40
0.5
  1
6.75
100
AcDbAttributeDefinition
  3

  2
A
 70
     8
280
     0
  0
ATTDEF
  5
9D
330
8E
100
AcDbEntity
  8
AM_6
100
AcDbText
 10
8.22656
 20
-10.98
 30
0.0
 40
0.5
  1
3.25
100
AcDbAttributeDefinition
  3

  2
B
 70
     8
280
     0
  0
ATTDEF
  5
9E
330
8E
100
AcDbEntity
  8
AM_6
100
AcDbText
 10
8.22656
 20
-11.48
 30
0.0
 40
0.5
  1
5.00
100
AcDbAttributeDefinition
  3

  2
C
 70
     8
280
     0
  0
ATTDEF
  5
9F
330
8E
100
AcDbEntity
  8
AM_6
100
AcDbText
 10
8.22656
 20
-11.98
 30
0.0
 40
0.5
  1
7.00
100
AcDbAttributeDefinition
  3

  2
D
 70
     8
280
     0
  0
ATTDEF
  5
A0
330
8E
100
AcDbEntity
  8
AM_6
100
AcDbText
 10
8.22656
 20
-12.48
 30
0.0
 40
0.5
  1
0.78
100
AcDbAttributeDefinition
  3

  2
E
 70
     8
280
     0
  0
ATTDEF
  5
A1
330
8E
100
AcDbEntity
  8
AM_6
100
AcDbText
 10
8.22656
 20
-12.98
 30
0.0
 40
0.5
  1
0.620
100
AcDbAttributeDefinition
  3

  2
F
 70
     8
280
     0
  0
ATTDEF
  5
A2
330
8E
100
AcDbEntity
  8
AM_6
100
AcDbText
 10
8.22656
 20
-13.48
 30
0.0
 40
0.5
  1
5/8-11
100
AcDbAttributeDefinition
  3

  2
CS
 70
     8
280
     0
  0
ATTDEF
  5
A3
330
8E
100
AcDbEntity
  8
AM_6
100
AcDbText
 10
8.22656
 20
-13.98
 30
0.0
 40
0.5
  1
0.6250
100
AcDbAttributeDefinition
  3

  2
NDM
 70
     8
280
     0
  0
ATTDEF
  5
A4
330
8E
100
AcDbEntity
  8
AM_6
100
AcDbText
 10
8.22656
 20
-14.48
 30
0.0
 40
0.5
  1
0.5270
100
AcDbAttributeDefinition
  3

  2
KDM
 70
     8
280
     0
  0
ATTDEF
  5
A5
330
8E
100
AcDbEntity
  8
AM_6
100
AcDbText
 10
8.22656
 20
-14.98
 30
0.0
 40
0.5
  1
2
100
AcDbAttributeDefinition
  3

  2
DD
 70
     8
280
     0
  0
ATTDEF
  5
A6
330
8E
100
AcDbEntity
  8
AM_6
100
AcDbText
 10
8.22656
 20
-15.48
 30
0.0
 40
0.5
  1
baldor
100
AcDbAttributeDefinition
  3

  2
COMPANY
 70
     8
280
     0
  0
LINE
  5
A9
330
8E
100
AcDbEntity
  8
AM_9
100
AcDbLine
 10
2.324485551990041
 20
-5.867078865920448
 30
0.0
 11
2.316951214773503
 21
-5.85768138817814
 31
0.0
  0
LINE
  5
AA
330
8E
100
AcDbEntity
  8
AM_9
100
AcDbLine
 10
2.317044978683475
 20
-6.342201661354729
 30
0.0
 11
2.324485551990041
 21
-6.332921134079553
 31
0.0
  0
LWPOLYLINE
  5
AB
330
8E
100
AcDbEntity
  8
AM_9
100
AcDbPolyline
 90
       22
 70
     0
 43
0.0
 10
2.248176291504413
 20
-5.831935790336656
 10
2.23421868177197
 20
-5.837936690580128
 10
2.212556679293271
 20
-5.853886846836243
 10
2.191106055235394
 20
-5.878384630613271
 10
2.172315228900317
 20
-5.908819030695508
 10
2.155509657028694
 20
-5.946723027356619
 10
2.14311438793078
 20
-5.986673209141604
 10
2.134176589205053
 20
-6.031765161661825
 10
2.129940188285243
 20
-6.074845622454929
 10
2.129700571780227
 20
-6.12006226263029
 10
2.133264563277511
 20
-6.161623810947482
 10
2.140541905483726
 20
-6.202611573709104
 10
2.150893648423353
 20
-6.24009061649854
 10
2.164317791394345
 20
-6.274763357779449
 10
2.180394291022512
 20
-6.305488759461328
 10
2.198678054056721
 20
-6.331353949484823
 10
2.218745407269537
 20
-6.351515432420793
 10
2.239893686225772
 20
-6.364902687899307
 10
2.261203448401206
 20
-6.370642873974051
 10
2.282325221725054
 20
-6.368205932498213
 10
2.301834351715848
 20
-6.357557715902777
 10
2.316821277264145
 20
-6.34248068102589
  0
LWPOLYLINE
  5
AC
330
8E
100
AcDbEntity
  8
AM_9
100
AcDbPolyline
 90
        4
 70
     0
 43
0.0
 10
2.316814419962599
 20
-5.85751076738921
 10
2.314618024084274
 20
-5.854856192188113
 10
2.297029709621241
 20
-5.838969214820763
 10
2.283246949386382
 20
-5.832102205313149
  0
LWPOLYLINE
  5
AD
330
8E
100
AcDbEntity
  8
AM_9
100
AcDbPolyline
 90
       12
 70
     0
 43
0.0
 10
2.323173066732983
 20
-6.333807867786017
 10
2.335392505757513
 20
-6.312163330753046
 10
2.348697575827198
 20
-6.278093483908029
 10
2.358583414264854
 20
-6.240554143292769
 10
2.366063938353267
 20
-6.196990272575162
 10
2.370343926006321
 20
-6.154286390050189
 10
2.372166329573059
 20
-6.108458310322243
 10
2.371487078751428
 20
-6.066056316374696
 10
2.36844275688463
 20
-6.023405773149242
 10
2.363293859976327
 20
-5.984346790633993
 10
2.355821569673044
 20
-5.947398153368127
 10
2.340113686257207
 20
-5.898397228143253
  0
LWPOLYLINE
  5
AE
330
8E
100
AcDbEntity
  8
AM_9
100
AcDbPolyline
 90
        3
 70
     0
 43
0.0
 10
2.316821277264145
 20
-6.34248068102589
 10
2.320044395103427
 20
-6.338272110291939
 10
2.323173066732983
 20
-6.333807867786017
  0
LINE
  5
AF
330
8E
100
AcDbEntity
  8
AM_9
100
AcDbLine
 10
2.272596986253969
 20
-6.3633
 30
0.0
 11
2.879670641757706
 21
-6.3633
 31
0.0
  0
LINE
  5
B0
330
8E
100
AcDbEntity
  8
AM_9
100
AcDbLine
 10
2.879670641757706
 20
-5.8367
 30
0.0
 11
2.272596986253969
 21
-5.8367
 31
0.0
  0
ELLIPSE
  5
B1
330
8E
100
AcDbEntity
  8
AM_9
100
AcDbEllipse
 10
2.879670641757704
 20
-6.1
 30
0.0
 11
-4.836742533232505E-17
 21
-0.2633000000000019
 31
0.0
210
0.0
220
0.0
230
1.0
 40
0.4226182617406916
 41
3.487111844822884
 42
5.930553426072963
  0
LINE
  5
B2
330
8E
100
AcDbEntity
  8
AM_9
100
AcDbLine
 10
2.827782076021631
 20
-6.332921134079551
 30
0.0
 11
2.860195094815556
 21
-6.373349457623167
 31
0.0
  0
LINE
  5
B3
330
8E
100
AcDbEntity
  8
AM_9
100
AcDbLine
 10
2.857319577635255
 20
-5.830237136382764
 30
0.0
 11
2.827782076021631
 21
-5.867078865920449
 31
0.0
  0
LWPOLYLINE
  5
B4
330
8E
100
AcDbEntity
  8
AM_9
100
AcDbPolyline
 90
       39
 70
     0
 43
0.0
 10
-0.2004855335474919
 20
-5.906137936045279
 10
-0.2287714115339829
 20
-5.936302086858132
 10
-0.2522235207574053
 20
-5.970361504859066
 10
-0.2718407512406077
 20
-6.012340915323669
 10
-0.283770859357038
 20
-6.057130709932782
 10
-0.2873756260006186
 20
-6.100786541689404
 10
-0.2835012365354689
 20
-6.144419076317278
 10
-0.2725988802545992
 20
-6.185580349753514
 10
-0.2551744219456224
 20
-6.224417343416291
 10
-0.2311352296960708
 20
-6.260718940027149
 10
-0.2016678074271643
 20
-6.292769979336693
 10
-0.1655396803963745
 20
-6.321219514002438
 10
-0.1253505053837697
 20
-6.343620850913378
 10
-0.0796307171673742
 20
-6.360164551082581
 10
-0.0318205490037119
 20
-6.369161448187614
 10
0.0184921463621229
 20
-6.370243196418069
 10
0.068290890829341
 20
-6.363046082574479
 10
0.1165589449859317
 20
-6.347445323439969
 10
0.1614546016346637
 20
-6.323913561748869
 10
0.2008906782845414
 20
-6.293445010730462
 10
0.2343650563525936
 20
-6.256551847804663
 10
0.2594930322064563
 20
-6.216156169484282
 10
0.2770471746647944
 20
-6.171927023532753
 10
0.2858096581686298
 20
-6.128165803003549
 10
0.2868756933141809
 20
-6.083541870743098
 10
0.2805161315886248
 20
-6.04127822891474
 10
0.267296594514554
 20
-6.000647191448044
 10
0.247448555799395
 20
-5.962491300392792
 10
0.2218009032832165
 20
-5.927975868315245
 10
0.1894554972719356
 20
-5.896549868077672
 10
0.1525499724393796
 20
-5.870600058956834
 10
0.1095353573215369
 20
-5.849706849796729
 10
0.0637083966896327
 20
-5.835931137430504
 10
0.0142123022892928
 20
-5.829525129861821
 10
-0.0356723312723043
 20
-5.831269453099534
 10
-0.0853725506742785
 20
-5.841467614248012
 10
-0.1326316164390688
 20
-5.859835484649315
 10
-0.1682163361413054
 20
-5.880574102201326
 10
-0.2004855335474919
 20
-5.906137936045281
  0
LINE
  5
B5
330
8E
100
AcDbEntity
  8
AM_9
100
AcDbLine
 10
2.320214137294764
 20
-5.861960260153422
 30
0.0
 11
2.316814419962599
 21
-5.85751076738921
 31
0.0
  0
LWPOLYLINE
  5
B6
330
8E
100
AcDbEntity
  8
AM_9
100
AcDbPolyline
 90
        3
 70
     0
 43
0.0
 10
2.340113686257207
 20
-5.898397228143253
 10
2.328286763600369
 20
-5.874371923010357
 10
2.320214137294764
 20
-5.861960260153422
  0
LINE
  5
B7
330
8E
100
AcDbEntity
  8
AM_9
100
AcDbLine
 10
2.5
 20
-6.720000000000001
 30
0.0
 11
2.5
 21
-5.48
 31
0.0
  0
LINE
  5
B8
330
8E
100
AcDbEntity
  8
AM_9
100
AcDbLine
 10
-2.5
 20
-5.48
 30
0.0
 11
-2.5
 21
-6.720000000000001
 31
0.0
  0
LINE
  5
B9
330
8E
100
AcDbEntity
  8
AM_9
100
AcDbLine
 10
-3.072914285714285
 20
-5.48
 30
0.0
 11
3.072914285714285
 21
-5.48
 31
0.0
  0
LINE
  5
BA
330
8E
100
AcDbEntity
  8
AM_9
100
AcDbLine
 10
3.072914285714285
 20
-5.608384204413472
 30
0.0
 11
3.072914285714285
 21
-5.48
 31
0.0
  0
LINE
  5
BB
330
8E
100
AcDbEntity
  8
AM_9
100
AcDbLine
 10
-3.072914285714285
 20
-5.48
 30
0.0
 11
-3.072914285714285
 21
-5.608384204413472
 31
0.0
  0
LINE
  5
BC
330
8E
100
AcDbEntity
  8
AM_9
100
AcDbLine
 10
3.147863414634147
 20
-5.71
 30
0.0
 11
3.147863414634147
 21
-5.683333333333334
 31
0.0
  0
LINE
  5
BD
330
8E
100
AcDbEntity
  8
AM_9
100
AcDbLine
 10
-3.147863414634147
 20
-5.683333333333334
 30
0.0
 11
-3.147863414634147
 21
-5.71
 31
0.0
  0
LINE
  5
BE
330
8E
100
AcDbEntity
  8
AM_9
100
AcDbLine
 10
-3.147863414634147
 20
-5.683333333333334
 30
0.0
 11
3.147863414634147
 21
-5.683333333333334
 31
0.0
  0
LINE
  5
BF
330
8E
100
AcDbEntity
  8
AM_9
100
AcDbLine
 10
-3.072914285714285
 20
-5.608384204413472
 30
0.0
 11
3.072914285714285
 21
-5.608384204413472
 31
0.0
  0
LINE
  5
C0
330
8E
100
AcDbEntity
  8
AM_9
100
AcDbLine
 10
-3.072914285714285
 20
-5.608384204413472
 30
0.0
 11
-3.147863414634147
 21
-5.683333333333334
 31
0.0
  0
LINE
  5
C1
330
8E
100
AcDbEntity
  8
AM_9
100
AcDbLine
 10
3.147863414634147
 20
-5.683333333333334
 30
0.0
 11
3.072914285714285
 21
-5.608384204413472
 31
0.0
  0
LINE
  5
C2
330
8E
100
AcDbEntity
  8
AM_9
100
AcDbLine
 10
-0.0438383851130146
 20
-5.832935494745279
 30
0.0
 11
-0.1549716393969374
 21
-5.832935494745279
 31
0.0
  0
LINE
  5
C3
330
8E
100
AcDbEntity
  8
AM_9
100
AcDbLine
 10
0.1549716393969333
 20
-5.832935494745279
 30
0.0
 11
0.0406072258584717
 21
-5.832935494745279
 31
0.0
  0
LINE
  5
C4
330
8E
100
AcDbEntity
  8
AM_9
100
AcDbLine
 10
2.986375396653855
 20
-5.832935494745279
 30
0.0
 11
2.857498246710367
 21
-5.832935494745279
 31
0.0
  0
ELLIPSE
  5
C5
330
8E
100
AcDbEntity
  8
AM_9
100
AcDbEllipse
 10
2.272596986253969
 20
-6.100000000000001
 30
0.0
 11
-4.836742533232457E-17
 21
-0.2632999999999992
 31
0.0
210
0.0
220
0.0
230
1.0
 40
0.4226182617407009
 41
0.0
 42
6.283185307179586
  0
LINE
  5
C8
330
8E
100
AcDbEntity
  8
AM_7
100
AcDbLine
 10
-0.276465
 20
-6.1
 30
0.0
 11
0.276465
 21
-6.1
 31
0.0
  0
ELLIPSE
  5
CA
330
8E
100
AcDbEntity
  8
AM_4
100
AcDbEllipse
 10
2.879670641757705
 20
-6.1
 30
0.0
 11
-4.836742533232489E-17
 21
-0.263300000000001
 31
0.0
210
0.0
220
0.0
230
1.0
 40
0.4226182617406998
 41
5.93055342607296
 42
9.770297152002481
  0
LWPOLYLINE
  5
CB
330
8E
100
AcDbEntity
  8
AM_4
100
AcDbPolyline
 90
        5
 70
     0
 43
0.0
 10
2.857230717803461
 20
-5.830347986902109
 10
2.870133268127412
 20
-5.820924094510198
 10
2.897146778782862
 20
-5.816310806074765
 10
2.935938550173305
 20
-5.820375027564243
 10
2.986375396653851
 20
-5.832935494745278
  0
LWPOLYLINE
  5
CC
330
8E
100
AcDbEntity
  8
AM_4
100
AcDbPolyline
 90
       15
 70
     0
 43
0.0
 10
2.860372356244009
 20
-6.37357055129767
 10
2.857477744843468
 20
-6.369863158718347
 10
2.839151146497043
 20
-6.341491023066943
 10
2.822425122427435
 20
-6.306305103818516
 10
2.80815988286131
 20
-6.2653561564712
 10
2.796848827518389
 20
-6.219034683201818
 10
2.789217112656367
 20
-6.168921270586169
 10
2.785678900596505
 20
-6.115555837769853
 10
2.786620954893802
 20
-6.061908994886097
 10
2.792212768532099
 20
-6.007818497585178
 10
2.801978682415189
 20
-5.957655489763925
 10
2.816112090303225
 20
-5.910202468423491
 10
2.832903826919759
 20
-5.870424580879627
 10
2.852976366150002
 20
-5.836295061246175
 10
2.855387706931781
 20
-5.832935494745279
  0
LINE
  5
CD
330
8E
100
AcDbEntity
  8
AM_4
100
AcDbLine
 10
3.147863414634147
 20
-5.7875
 30
0.0
 11
3.147863414634147
 21
-5.71
 31
0.0
  0
LINE
  5
CE
330
8E
100
AcDbEntity
  8
AM_4
100
AcDbLine
 10
-3.147863414634147
 20
-5.71
 30
0.0
 11
-3.147863414634147
 21
-5.7875
 31
0.0
  0
LINE
  5
CF
330
8E
100
AcDbEntity
  8
AM_4
100
AcDbLine
 10
-3.019893333333334
 20
-6.720000000000001
 30
0.0
 11
3.01989333329854
 21
-6.720000000000001
 31
0.0
  0
ARC
  5
D0
330
8E
100
AcDbEntity
  8
AM_4
100
AcDbCircle
 10
3.019893333333334
 20
-6.513333333333335
 30
0.0
 40
0.2066666666666652
100
AcDbArc
 50
270.0
 51
0.0
  0
ARC
  5
D1
330
8E
100
AcDbEntity
  8
AM_4
100
AcDbCircle
 10
-3.019893333333334
 20
-6.513333333333335
 30
0.0
 40
0.2066666666666657
100
AcDbArc
 50
180.0
 51
270.0
  0
LINE
  5
D2
330
8E
100
AcDbEntity
  8
AM_4
100
AcDbLine
 10
-3.22656
 20
-6.513333333333333
 30
0.0
 11
3.22656
 21
-6.513333333333333
 31
0.0
  0
LWPOLYLINE
  5
D3
330
8E
100
AcDbEntity
  8
AM_4
100
AcDbPolyline
 90
       20
 70
     0
 43
0.0
 10
2.986375396653855
 20
-5.832935494745271
 10
2.996499910598927
 20
-5.852283605239229
 10
3.008578308220337
 20
-5.883085387299968
 10
3.018833591055521
 20
-5.919219401432455
 10
3.027646552249137
 20
-5.9636521637208
 10
3.033882790590416
 20
-6.012880120862031
 10
3.037272412988838
 20
-6.064832979063809
 10
3.037724648779595
 20
-6.119201737815233
 10
3.035142880493721
 20
-6.172521627863358
 10
3.029335913712483
 20
-6.225287721891284
 10
3.020679395063113
 20
-6.272821543636781
 10
3.008667192773266
 20
-6.3166480551519
 10
2.994527020776548
 20
-6.351884518569951
 10
2.977274763192616
 20
-6.380690100976484
 10
2.959153559641446
 20
-6.399557080144569
 10
2.938723653163769
 20
-6.410383159691912
 10
2.918651448086296
 20
-6.412188847278148
 10
2.897484314863442
 20
-6.405659794698018
 10
2.877360990694671
 20
-6.391656343286656
 10
2.860372356244009
 20
-6.37357055129767
  0
LINE
  5
D4
330
8E
100
AcDbEntity
  8
AM_4
100
AcDbLine
 10
3.22656
 20
-6.513333333333333
 30
0.0
 11
3.22656
 21
-5.832935494745279
 31
0.0
  0
LINE
  5
D5
330
8E
100
AcDbEntity
  8
AM_4
100
AcDbLine
 10
-3.22656
 20
-5.832935494745279
 30
0.0
 11
-3.22656
 21
-6.513333333333333
 31
0.0
  0
LINE
  5
D6
330
8E
100
AcDbEntity
  8
AM_4
100
AcDbLine
 10
0.1549716393969333
 20
-5.832935494745278
 30
0.0
 11
2.855387706931781
 21
-5.832935494745279
 31
0.0
  0
LINE
  5
D7
330
8E
100
AcDbEntity
  8
AM_4
100
AcDbLine
 10
2.855387706931781
 20
-5.832935494745279
 30
0.0
 11
2.857230717803461
 21
-5.830347986902109
 31
0.0
  0
LINE
  5
D8
330
8E
100
AcDbEntity
  8
AM_4
100
AcDbLine
 10
2.986375396653855
 20
-5.832935494745271
 30
0.0
 11
3.22656
 21
-5.832935494745279
 31
0.0
  0
LINE
  5
D9
330
8E
100
AcDbEntity
  8
AM_4
100
AcDbLine
 10
-3.147863414634147
 20
-5.7875
 30
0.0
 11
3.147863414634147
 21
-5.7875
 31
0.0
  0
LINE
  5
DA
330
8E
100
AcDbEntity
  8
AM_4
100
AcDbLine
 10
-3.147863414634147
 20
-5.7875
 30
0.0
 11
-3.22656
 21
-5.832935494745279
 31
0.0
  0
LINE
  5
DB
330
8E
100
AcDbEntity
  8
AM_4
100
AcDbLine
 10
3.22656
 20
-5.832935494745279
 30
0.0
 11
3.147863414634147
 21
-5.7875
 31
0.0
  0
LINE
  5
DC
330
8E
100
AcDbEntity
  8
AM_4
100
AcDbLine
 10
-3.22656
 20
-5.832935494745279
 30
0.0
 11
-0.1549716393969374
 21
-5.832935494745279
 31
0.0
  0
LWPOLYLINE
  5
DD
330
8E
100
AcDbEntity
  8
AM_4
100
AcDbPolyline
 90
       33
 70
     0
 43
0.0
 10
0.1549716393969333
 20
-5.832935494745278
 10
0.1611807186241715
 20
-5.836993445623101
 10
0.1995219062239974
 20
-5.867605991497145
 10
0.2324838956122308
 20
-5.903956082332781
 10
0.2602971194098734
 20
-5.946964243849798
 10
0.2808721945460893
 20
-5.993891840296611
 10
0.2939462319154642
 20
-6.044836664070735
 10
0.2986417011306892
 20
-6.098698571723149
 10
0.2944245157162056
 20
-6.152300992835141
 10
0.2809299988206142
 20
-6.205940707861314
 10
0.2592017738188897
 20
-6.255109004559578
 10
0.2284610463572835
 20
-6.301153752591528
 10
0.1921612765332785
 20
-6.339124411621871
 10
0.1484195697285503
 20
-6.371112201670082
 10
0.1031789006777112
 20
-6.393221138294
 10
0.0532071819604984
 20
-6.407486763229928
 10
0.0045554240433679
 20
-6.412424413699202
 10
-0.0442297750832677
 20
-6.409042826115448
 10
-0.0907180484395466
 20
-6.397673457623018
 10
-0.1347097018402034
 20
-6.378847711434315
 10
-0.1755815836269606
 20
-6.352671234731019
 10
-0.2117315146683223
 20
-6.320283288341224
 10
-0.2433777380106629
 20
-6.280952641299385
 10
-0.2683428458618898
 20
-6.237054971192199
 10
-0.2864521796670999
 20
-6.188305138370184
 10
-0.2966695963443696
 20
-6.135845132696374
 10
-0.2981667480039447
 20
-6.082350614622932
 10
-0.2905594982156016
 20
-6.027841135093939
 10
-0.2742801919947973
 20
-5.976466041399286
 10
-0.2487647926749895
 20
-5.927202434418701
 10
-0.2238065760895936
 20
-5.893217834168937
 10
-0.1944776738653987
 20
-5.862935472918606
 10
-0.1549716393969374
 20
-5.832935494745279
  0
LWPOLYLINE
  5
DE
330
8E
100
AcDbEntity
  8
AM_4
100
AcDbPolyline
 90
        5
 70
     0
 43
0.0
 10
-0.1549716393969374
 20
-5.832935494745279
 10
-0.0812432212758297
 20
-5.820924094510199
 10
-0.0023943729638295
 20
-5.816310806074765
 10
0.0762418415662113
 20
-5.820375027564243
 10
0.1549716393969333
 20
-5.832935494745278
  0
CIRCLE
  5
DF
330
8E
100
AcDbEntity
  8
AM_4
100
AcDbCircle
 10
0.0
 20
-6.1
 30
0.0
 40
0.2633
  0
CIRCLE
  5
E1
330
8E
100
AcDbEntity
  8
AM_5
100
AcDbCircle
 10
0.0000000000000008
 20
-6.099999999999999
 30
0.0
 40
0.3124999999999996
  0
ENDBLK
  5
91
330
8E
100
AcDbEntity
  8
0
100
AcDbBlockEnd
  0
BLOCK
  5
E4
330
E2
100
AcDbEntity
  8
0
100
AcDbBlockBegin
  2
3_4_7_16CS2i_2_0_in_071494_4
 70
     2
 10
0.0
 20
0.0
 30
0.0
  3
3_4_7_16CS2i_2_0_in_071494_4
  1

  0
ATTDEF
  5
E6
330
E2
100
AcDbEntity
  8
AM_6
100
AcDbText
 10
8.226560000000001
 20
-0.1887499999999997
 30
0.0
 40
0.5
  1
S-2000 Collar -Inch
100
AcDbAttributeDefinition
  3

  2
NN
 70
     8
280
     0
  0
ATTDEF
  5
E7
330
E2
100
AcDbEntity
  8
AM_6
100
AcDbText
 10
8.226560000000001
 20
-0.6887499999999996
 30
0.0
 40
0.5
  1
S-2000 Bearings
100
AcDbAttributeDefinition
  3

  2
NT
 70
     8
280
     0
  0
ATTDEF
  5
E8
330
E2
100
AcDbEntity
  8
AM_6
100
AcDbText
 10
8.226560000000001
 20
-1.18875
 30
0.0
 40
0.5
  1
4-7/16CS2i
100
AcDbAttributeDefinition
  3

  2
NB
 70
     8
280
     0
  0
ATTDEF
  5
E9
330
E2
100
AcDbEntity
  8
AM_6
100
AcDbText
 10
8.226560000000001
 20
-1.68875
 30
0.0
 40
0.5
  1
$BORE.CS2i
100
AcDbAttributeDefinition
  3

  2
NBSYN
 70
     8
280
     0
  0
ATTDEF
  5
EA
330
E2
100
AcDbEntity
  8
AM_6
100
AcDbText
 10
8.226560000000001
 20
-2.18875
 30
0.0
 40
0.5
  1
4-7/16CS2i
100
AcDbAttributeDefinition
  3

  2
LINA
 70
     8
280
     0
  0
ATTDEF
  5
EB
330
E2
100
AcDbEntity
  8
AM_6
100
AcDbText
 10
8.226560000000001
 20
-2.68875
 30
0.0
 40
0.5
  1
4-7/16
100
AcDbAttributeDefinition
  3

  2
BORE
 70
     8
280
     0
  0
ATTDEF
  5
EC
330
E2
100
AcDbEntity
  8
AM_6
100
AcDbText
 10
8.226560000000001
 20
-3.18875
 30
0.0
 40
0.5
  1
4.437500
100
AcDbAttributeDefinition
  3

  2
BORE1
 70
     8
280
     0
  0
ATTDEF
  5
ED
330
E2
100
AcDbEntity
  8
AM_6
100
AcDbText
 10
8.226560000000001
 20
-3.68875
 30
0.0
 40
0.5
  1
6-29/64
100
AcDbAttributeDefinition
  3

  2
L1
 70
     8
280
     0
  0
ATTDEF
  5
EE
330
E2
100
AcDbEntity
  8
AM_6
100
AcDbText
 10
8.226560000000001
 20
-4.18875
 30
0.0
 40
0.5
  1
6.45313
100
AcDbAttributeDefinition
  3

  2
L
 70
     8
280
     0
  0
ATTDEF
  5
EF
330
E2
100
AcDbEntity
  8
AM_6
100
AcDbText
 10
8.226560000000001
 20
-4.68875
 30
0.0
 40
0.5
  1
6.45312
100
AcDbAttributeDefinition
  3

  2
L2
 70
     8
280
     0
  0
ATTDEF
  5
F0
330
E2
100
AcDbEntity
  8
AM_6
100
AcDbText
 10
8.226560000000001
 20
-5.18875
 30
0.0
 40
0.5
  1
6.75
100
AcDbAttributeDefinition
  3

  2
A
 70
     8
280
     0
  0
ATTDEF
  5
F1
330
E2
100
AcDbEntity
  8
AM_6
100
AcDbText
 10
8.226560000000001
 20
-5.68875
 30
0.0
 40
0.5
  1
3.25
100
AcDbAttributeDefinition
  3

  2
B
 70
     8
280
     0
  0
ATTDEF
  5
F2
330
E2
100
AcDbEntity
  8
AM_6
100
AcDbText
 10
8.226560000000001
 20
-6.18875
 30
0.0
 40
0.5
  1
5.00
100
AcDbAttributeDefinition
  3

  2
C
 70
     8
280
     0
  0
ATTDEF
  5
F3
330
E2
100
AcDbEntity
  8
AM_6
100
AcDbText
 10
8.226560000000001
 20
-6.68875
 30
0.0
 40
0.5
  1
7.00
100
AcDbAttributeDefinition
  3

  2
D
 70
     8
280
     0
  0
ATTDEF
  5
F4
330
E2
100
AcDbEntity
  8
AM_6
100
AcDbText
 10
8.226560000000001
 20
-7.18875
 30
0.0
 40
0.5
  1
0.78
100
AcDbAttributeDefinition
  3

  2
E
 70
     8
280
     0
  0
ATTDEF
  5
F5
330
E2
100
AcDbEntity
  8
AM_6
100
AcDbText
 10
8.226560000000001
 20
-7.68875
 30
0.0
 40
0.5
  1
0.620
100
AcDbAttributeDefinition
  3

  2
F
 70
     8
280
     0
  0
ATTDEF
  5
F6
330
E2
100
AcDbEntity
  8
AM_6
100
AcDbText
 10
8.226560000000001
 20
-8.188749999999999
 30
0.0
 40
0.5
  1
5/8-11
100
AcDbAttributeDefinition
  3

  2
CS
 70
     8
280
     0
  0
ATTDEF
  5
F7
330
E2
100
AcDbEntity
  8
AM_6
100
AcDbText
 10
8.226560000000001
 20
-8.688749999999999
 30
0.0
 40
0.5
  1
0.6250
100
AcDbAttributeDefinition
  3

  2
NDM
 70
     8
280
     0
  0
ATTDEF
  5
F8
330
E2
100
AcDbEntity
  8
AM_6
100
AcDbText
 10
8.226560000000001
 20
-9.188749999999999
 30
0.0
 40
0.5
  1
0.5270
100
AcDbAttributeDefinition
  3

  2
KDM
 70
     8
280
     0
  0
ATTDEF
  5
F9
330
E2
100
AcDbEntity
  8
AM_6
100
AcDbText
 10
8.226560000000001
 20
-9.688749999999999
 30
0.0
 40
0.5
  1
2
100
AcDbAttributeDefinition
  3

  2
DD
 70
     8
280
     0
  0
ATTDEF
  5
FA
330
E2
100
AcDbEntity
  8
AM_6
100
AcDbText
 10
8.226560000000001
 20
-10.18875
 30
0.0
 40
0.5
  1
baldor
100
AcDbAttributeDefinition
  3

  2
COMPANY
 70
     8
280
     0
  0
LINE
  5
FB
330
E2
100
AcDbEntity
  8
AM_9
100
AcDbLine
 10
2.324485551990041
 20
-0.5758288659204467
 30
0.0
 11
2.31689069995176
 21
-0.566355908852744
 31
0.0
  0
LINE
  5
FC
330
E2
100
AcDbEntity
  8
AM_9
100
AcDbLine
 10
2.316957937173596
 20
-1.051060227062401
 30
0.0
 11
2.324485551990041
 21
-1.041671134079553
 31
0.0
  0
LWPOLYLINE
  5
FD
330
E2
100
AcDbEntity
  8
AM_9
100
AcDbPolyline
 90
        3
 70
     0
 43
0.0
 10
2.283964027229756
 20
-1.076395599439961
 10
2.300522000073958
 20
-1.067282385751988
 10
2.316823402383263
 20
-1.051228030499577
  0
LWPOLYLINE
  5
FE
330
E2
100
AcDbEntity
  8
AM_9
100
AcDbPolyline
 90
       23
 70
     0
 43
0.0
 10
2.316818059849384
 20
-0.5662653064015868
 10
2.315894970570229
 20
-0.5651291490866215
 10
2.298268077557129
 20
-0.5485854489174188
 10
2.279033869357457
 20
-0.5395885518123852
 10
2.257886071061365
 20
-0.5385068035819305
 10
2.236062992567633
 20
-0.54570391742552
 10
2.21404012591565
 20
-0.5613046765600315
 10
2.192805815700117
 20
-0.5848364382511301
 10
2.173539747643094
 20
-0.6153049892695369
 10
2.15674439388938
 20
-0.6521981521953367
 10
2.143865342138973
 20
-0.6925938305157173
 10
2.13472853720772
 20
-0.7368229764672463
 10
2.130128291787391
 20
-0.7805841969964501
 10
2.129563725415936
 20
-0.8252081292569007
 10
2.132911557287133
 20
-0.8674717710852605
 10
2.13981714105874
 20
-0.9081028085519554
 10
2.150067158717076
 20
-0.9462586996072074
 10
2.163097459890992
 20
-0.9807741316847546
 10
2.179184573694872
 20
-1.012200131922327
 10
2.197076902243251
 20
-1.038149941043166
 10
2.217297585664704
 20
-1.05904315020327
 10
2.238109319120772
 20
-1.072818862569496
 10
2.248267027583782
 20
-1.076842360745392
  0
LWPOLYLINE
  5
FF
330
E2
100
AcDbEntity
  8
AM_9
100
AcDbPolyline
 90
        4
 70
     0
 43
0.0
 10
2.316823402383263
 20
-1.051228030499577
 10
2.318631165513536
 20
-1.048914515350684
 10
2.331724041117134
 20
-1.028175897798673
 10
2.343200855209431
 20
-1.00261206395472
  0
LINE
  5
100
330
E2
100
AcDbEntity
  8
AM_9
100
AcDbLine
 10
2.272596986253969
 20
-1.07205
 30
0.0
 11
2.879670641757706
 21
-1.07205
 31
0.0
  0
LINE
  5
101
330
E2
100
AcDbEntity
  8
AM_9
100
AcDbLine
 10
2.879670641757706
 20
-0.5454499999999997
 30
0.0
 11
2.272596986253969
 21
-0.5454499999999997
 31
0.0
  0
LINE
  5
102
330
E2
100
AcDbEntity
  8
AM_9
100
AcDbLine
 10
2.827782076021631
 20
-1.041671134079549
 30
0.0
 11
2.857327067185741
 21
-1.07852220523309
 31
0.0
  0
LINE
  5
103
330
E2
100
AcDbEntity
  8
AM_9
100
AcDbLine
 10
2.860244845013601
 20
-0.5353384896221748
 30
0.0
 11
2.827782076021631
 21
-0.5758288659204498
 31
0.0
  0
LWPOLYLINE
  5
104
330
E2
100
AcDbEntity
  8
AM_9
100
AcDbPolyline
 90
       20
 70
     0
 43
0.0
 10
2.860375163562772
 20
-0.535175946388407
 10
2.879155622937212
 20
-0.5155288617059995
 10
2.901372499454115
 20
-0.5012632367700715
 10
2.922323419295145
 20
-0.4963255863007975
 10
2.942674002531056
 20
-0.4997071738845519
 10
2.961435851192036
 20
-0.5110765423769823
 10
2.978637509812972
 20
-0.5299022885656843
 10
2.994125695146897
 20
-0.5560787652689805
 10
3.007435087552521
 20
-0.588466711658776
 10
3.018781786773852
 20
-0.6277973587006143
 10
3.02753235236636
 20
-0.6716950288078004
 10
3.033769392554488
 20
-0.7204448616298147
 10
3.037247250549346
 20
-0.7729048673036264
 10
3.037754364760028
 20
-0.8263993853770674
 10
3.035171031369941
 20
-0.8809088649060598
 10
3.029587497834738
 20
-0.9322839586007134
 10
3.02068476205853
 20
-0.9815475655812982
 10
3.011797716098813
 20
-1.015532165831062
 10
3.001129591014966
 20
-1.045814527081394
 10
2.986375396653861
 20
-1.075814505254719
  0
LINE
  5
105
330
E2
100
AcDbEntity
  8
AM_9
100
AcDbLine
 10
2.857228491826276
 20
-1.078399231391827
 30
0.0
 11
2.855387706931781
 21
-1.075814505254721
 31
0.0
  0
LWPOLYLINE
  5
106
330
E2
100
AcDbEntity
  8
AM_9
100
AcDbPolyline
 90
       13
 70
     0
 43
0.0
 10
2.343200855209431
 20
-1.00261206395472
 10
2.352945376819894
 20
-0.972447913141868
 10
2.360802977051097
 20
-0.9383884951409336
 10
2.367221546978597
 20
-0.8964090846763302
 10
2.371052644364665
 20
-0.8516192900672174
 10
2.37220302027534
 20
-0.807963458310595
 10
2.37096660087238
 20
-0.7643309236827209
 10
2.367466211115886
 20
-0.7231696502464855
 10
2.361777273875156
 20
-0.6843326565837087
 10
2.353746435249324
 20
-0.6480310599728498
 10
2.343614043835539
 20
-0.6159800206633061
 10
2.330754074486079
 20
-0.587530485997561
 10
2.316818059849384
 20
-0.5662653064015868
  0
LWPOLYLINE
  5
107
330
E2
100
AcDbEntity
  8
AM_9
100
AcDbPolyline
 90
       38
 70
     0
 43
0.0
 10
-0.1916979582435595
 20
-1.010352771856747
 10
-0.1587481795873096
 20
-1.034378076989642
 10
-0.121969957738367
 20
-1.053893807811887
 10
-0.0764771609340913
 20
-1.069780785179238
 10
-0.0276900255873286
 20
-1.078318258930818
 10
0.02196593972045
 20
-1.078787910974065
 10
0.0724064489605718
 20
-1.07081330941987
 10
0.1197574165413572
 20
-1.054863153163756
 10
0.1649816966187541
 20
-1.030365369386729
 10
0.2033640746405269
 20
-0.999930969304491
 10
0.2367937142355052
 20
-0.9620269726433812
 10
0.2609423744941723
 20
-0.9220767908583951
 10
0.2781007693577628
 20
-0.8769848383381738
 10
0.2861615821499207
 20
-0.83390437754507
 10
0.2866161512793263
 20
-0.7886877373697094
 10
0.2798399921101583
 20
-0.7471261890525175
 10
0.2659023368588905
 20
-0.7061384262908952
 10
0.2458356522718607
 20
-0.6686593835014596
 10
0.2193743120801808
 20
-0.6339866422205509
 10
0.1869961990258741
 20
-0.6032612405386717
 10
0.1491961647220107
 20
-0.5773960505151768
 10
0.1064097399665211
 20
-0.5572345675792062
 10
0.0596985290568685
 20
-0.5438473121006927
 10
0.0107545150476589
 20
-0.5381071260259491
 10
-0.0398555911203682
 20
-0.5405440675017857
 10
-0.088713326358974
 20
-0.5511922840972231
 10
-0.1364125279017593
 20
-0.5704778897080608
 10
-0.1784118371972112
 20
-0.5965866692469534
 10
-0.2163353456705062
 20
-0.6306565160919695
 10
-0.2455369406606303
 20
-0.6681958567072305
 10
-0.2682749777841534
 20
-0.7117597274248374
 10
-0.2815525480306395
 20
-0.7544636099498093
 10
-0.2872682951268918
 20
-0.8002916896777569
 10
-0.285133475636432
 20
-0.8426936836253035
 10
-0.2756297086276784
 20
-0.8853442268507575
 10
-0.2597872407378028
 20
-0.924403209366006
 10
-0.2372849965845636
 20
-0.9613518466318727
 10
-0.1916979582435593
 20
-1.010352771856746
  0
LINE
  5
108
330
E2
100
AcDbEntity
  8
AM_9
100
AcDbLine
 10
-2.5
 20
-0.1887499999999997
 30
0.0
 11
-2.5
 21
-1.42875
 31
0.0
  0
LINE
  5
109
330
E2
100
AcDbEntity
  8
AM_9
100
AcDbLine
 10
2.5
 20
-1.42875
 30
0.0
 11
2.5
 21
-0.1887499999999997
 31
0.0
  0
LINE
  5
10A
330
E2
100
AcDbEntity
  8
AM_9
100
AcDbLine
 10
-3.072914285714285
 20
-1.300365795586528
 30
0.0
 11
-3.072914285714285
 21
-1.42875
 31
0.0
  0
LINE
  5
10B
330
E2
100
AcDbEntity
  8
AM_9
100
AcDbLine
 10
3.072914285714285
 20
-1.42875
 30
0.0
 11
3.072914285714285
 21
-1.300365795586528
 31
0.0
  0
LINE
  5
10C
330
E2
100
AcDbEntity
  8
AM_9
100
AcDbLine
 10
3.072914285714285
 20
-1.42875
 30
0.0
 11
-3.072914285714285
 21
-1.42875
 31
0.0
  0
LINE
  5
10D
330
E2
100
AcDbEntity
  8
AM_9
100
AcDbLine
 10
-3.147863414634147
 20
-1.12125
 30
0.0
 11
-3.147863414634147
 21
-1.225416666666666
 31
0.0
  0
LINE
  5
10E
330
E2
100
AcDbEntity
  8
AM_9
100
AcDbLine
 10
3.147863414634147
 20
-1.225416666666666
 30
0.0
 11
3.147863414634147
 21
-1.12125
 31
0.0
  0
LINE
  5
10F
330
E2
100
AcDbEntity
  8
AM_9
100
AcDbLine
 10
3.072914285714285
 20
-1.300365795586528
 30
0.0
 11
3.147863414634147
 21
-1.225416666666666
 31
0.0
  0
LINE
  5
110
330
E2
100
AcDbEntity
  8
AM_9
100
AcDbLine
 10
-3.147863414634147
 20
-1.225416666666666
 30
0.0
 11
-3.072914285714285
 21
-1.300365795586528
 31
0.0
  0
LINE
  5
111
330
E2
100
AcDbEntity
  8
AM_9
100
AcDbLine
 10
3.147863414634147
 20
-1.225416666666666
 30
0.0
 11
-3.147863414634147
 21
-1.225416666666666
 31
0.0
  0
LINE
  5
112
330
E2
100
AcDbEntity
  8
AM_9
100
AcDbLine
 10
3.072914285714285
 20
-1.300365795586528
 30
0.0
 11
-3.072914285714285
 21
-1.300365795586528
 31
0.0
  0
LWPOLYLINE
  5
113
330
E2
100
AcDbEntity
  8
AM_9
100
AcDbPolyline
 90
       15
 70
     0
 43
0.0
 10
2.855387706931783
 20
-1.075814505254722
 10
2.85248760962094
 20
-1.071756554376898
 10
2.834337401994245
 20
-1.041144008502854
 10
2.81840376264424
 20
-1.004793917667219
 10
2.804719708835713
 20
-0.9617857561502012
 10
2.794454081055433
 20
-0.9148581597033878
 10
2.787869068307277
 20
-0.8639133359292641
 10
2.785492234087731
 20
-0.81005142827685
 10
2.787627249184937
 20
-0.7564490071648586
 10
2.794425073642983
 20
-0.7028092921386857
 10
2.805261908162863
 20
-0.653640995440421
 10
2.820364987853375
 20
-0.607596247408471
 10
2.837854919667722
 20
-0.5696255883781287
 10
2.858436222467633
 20
-0.5376377983299175
 10
2.860375163562772
 20
-0.535175946388407
  0
LINE
  5
114
330
E2
100
AcDbEntity
  8
AM_9
100
AcDbLine
 10
-3.22656
 20
-0.3954166666666663
 30
0.0
 11
-3.22656
 21
-1.07581450525472
 31
0.0
  0
LINE
  5
115
330
E2
100
AcDbEntity
  8
AM_9
100
AcDbLine
 10
3.22656
 20
-1.07581450525472
 30
0.0
 11
3.22656
 21
-0.3954166666666663
 31
0.0
  0
LINE
  5
116
330
E2
100
AcDbEntity
  8
AM_9
100
AcDbLine
 10
-2.720000000000001
 20
-0.1887499999999997
 30
0.0
 11
-3.019893333333333
 21
-0.1887499999999997
 31
0.0
  0
LINE
  5
117
330
E2
100
AcDbEntity
  8
AM_9
100
AcDbLine
 10
3.019893333333333
 20
-0.1887499999999997
 30
0.0
 11
2.720000000000001
 21
-0.1887499999999997
 31
0.0
  0
ARC
  5
118
330
E2
100
AcDbEntity
  8
AM_9
100
AcDbCircle
 10
-3.019893333333333
 20
-0.3954166666666671
 30
0.0
 40
0.2066666666666672
100
AcDbArc
 50
90.0
 51
180.0
  0
ARC
  5
119
330
E2
100
AcDbEntity
  8
AM_9
100
AcDbCircle
 10
3.019893333333333
 20
-0.3954166666666667
 30
0.0
 40
0.2066666666666666
100
AcDbArc
 50
0.0
 51
90.0
  0
LINE
  5
11A
330
E2
100
AcDbEntity
  8
AM_9
100
AcDbLine
 10
-2.72
 20
-0.3954166666666662
 30
0.0
 11
-3.22656
 21
-0.3954166666666663
 31
0.0
  0
LINE
  5
11B
330
E2
100
AcDbEntity
  8
AM_9
100
AcDbLine
 10
3.22656
 20
-0.3954166666666663
 30
0.0
 11
2.72
 21
-0.3954166666666662
 31
0.0
  0
LWPOLYLINE
  5
11C
330
E2
100
AcDbEntity
  8
AM_9
100
AcDbPolyline
 90
        5
 70
     0
 43
0.0
 10
2.986375396653862
 20
-1.07581450525472
 10
2.938803006035022
 20
-1.087825905489801
 10
2.899170590262721
 20
-1.092439193925234
 10
2.871496161064059
 20
-1.088374972435757
 10
2.860811786431356
 20
-1.08212787267526
  0
LINE
  5
11D
330
E2
100
AcDbEntity
  8
AM_9
100
AcDbLine
 10
2.855387706931783
 20
-1.075814505254722
 30
0.0
 11
2.72
 21
-1.07581450525472
 31
0.0
  0
LINE
  5
11E
330
E2
100
AcDbEntity
  8
AM_9
100
AcDbLine
 10
-2.72
 20
-1.07581450525472
 30
0.0
 11
-3.22656
 21
-1.07581450525472
 31
0.0
  0
LINE
  5
11F
330
E2
100
AcDbEntity
  8
AM_9
100
AcDbLine
 10
3.147863414634147
 20
-1.12125
 30
0.0
 11
3.226560000000001
 21
-1.07581450525472
 31
0.0
  0
LINE
  5
120
330
E2
100
AcDbEntity
  8
AM_9
100
AcDbLine
 10
-3.22656
 20
-1.07581450525472
 30
0.0
 11
-3.147863414634147
 21
-1.12125
 31
0.0
  0
LINE
  5
121
330
E2
100
AcDbEntity
  8
AM_9
100
AcDbLine
 10
2.856985183150923
 20
-1.07581450525472
 30
0.0
 11
3.226560000000001
 21
-1.07581450525472
 31
0.0
  0
LINE
  5
122
330
E2
100
AcDbEntity
  8
AM_9
100
AcDbLine
 10
0.0407907399700812
 20
-1.07581450525472
 30
0.0
 11
0.1549716393969366
 21
-1.07581450525472
 31
0.0
  0
LINE
  5
123
330
E2
100
AcDbEntity
  8
AM_9
100
AcDbLine
 10
-0.154971639396923
 20
-1.07581450525472
 30
0.0
 11
-0.0420517769084019
 21
-1.07581450525472
 31
0.0
  0
LINE
  5
124
330
E2
100
AcDbEntity
  8
AM_9
100
AcDbLine
 10
-2.719999999999999
 20
-1.12125
 30
0.0
 11
-3.147863414634147
 21
-1.12125
 31
0.0
  0
LINE
  5
125
330
E2
100
AcDbEntity
  8
AM_9
100
AcDbLine
 10
3.147863414634147
 20
-1.12125
 30
0.0
 11
2.72
 21
-1.12125
 31
0.0
  0
ELLIPSE
  5
126
330
E2
100
AcDbEntity
  8
AM_9
100
AcDbEllipse
 10
2.272596986253969
 20
-0.8087499999999995
 30
0.0
 11
-4.836742533232471E-17
 21
-0.2633
 31
0.0
210
0.0
220
0.0
230
1.0
 40
0.4226182617406997
 41
0.0
 42
6.283185307179586
  0
ELLIPSE
  5
127
330
E2
100
AcDbEntity
  8
AM_9
100
AcDbEllipse
 10
2.879670641757705
 20
-0.8087499999999995
 30
0.0
 11
-4.836742533232471E-17
 21
-0.2633
 31
0.0
210
0.0
220
0.0
230
1.0
 40
0.4226182617406963
 41
0.0
 42
6.283185307179586
  0
LINE
  5
128
330
E2
100
AcDbEntity
  8
AM_7
100
AcDbLine
 10
-0.2764649999999998
 20
-0.8087499999999995
 30
0.0
 11
0.276465
 21
-0.8087499999999995
 31
0.0
  0
CIRCLE
  5
129
330
E2
100
AcDbEntity
  8
AM_4
100
AcDbCircle
 10
0.0000000000000001
 20
-0.8087499999999995
 30
0.0
 40
0.2632999999999999
  0
LWPOLYLINE
  5
12A
330
E2
100
AcDbEntity
  8
AM_4
100
AcDbPolyline
 90
       33
 70
     0
 43
0.0
 10
-0.154971639396923
 20
-1.075814505254729
 10
-0.1819534878530662
 20
-1.05646639476077
 10
-0.2148846107418818
 20
-1.025664612700032
 10
-0.2435247882313737
 20
-0.9895305985675442
 10
-0.2686720140526948
 20
-0.9450978362791992
 10
-0.2867839559762342
 20
-0.8958698791379678
 10
-0.2967438389682205
 20
-0.8439170209361906
 10
-0.2980789656505947
 20
-0.7895482621847654
 10
-0.2904768672342506
 20
-0.7362283721366409
 10
-0.2735518056605382
 20
-0.6834622781087147
 10
-0.2487495687245506
 20
-0.6359284563632182
 10
-0.2151300869096808
 20
-0.5921019448481003
 10
-0.1766525605470528
 20
-0.5568654814300488
 10
-0.1311723489010109
 20
-0.5280598990235148
 10
-0.0849735278891924
 20
-0.5091929198554299
 10
-0.0346308742629644
 20
-0.498366840308088
 10
0.0132046278550022
 20
-0.4965611527218509
 10
0.0620679160831201
 20
-0.5030902053019808
 10
0.1071478044399702
 20
-0.5170936567133431
 10
0.1504823973127963
 20
-0.5388868412816515
 10
0.1894398612750945
 20
-0.5672589769330564
 10
0.2242251608925861
 20
-0.6024448961814842
 10
0.2533452805762358
 20
-0.6433938435287989
 10
0.276093542211639
 20
-0.6897153167981803
 10
0.2912776301536334
 20
-0.7398287294138314
 10
0.2982733867007212
 20
-0.7931941622301467
 10
0.2964134422190773
 20
-0.8468410051139019
 10
0.2853329903654895
 20
-0.9009315024148219
 10
0.2658131931737009
 20
-0.9510945102360742
 10
0.2371726956943173
 20
-0.9985475315765079
 10
0.2025159034235151
 20
-1.038325419120372
 10
0.1601359241265997
 20
-1.072454938753825
 10
0.1549716393969366
 20
-1.07581450525472
  0
LINE
  5
12B
330
E2
100
AcDbEntity
  8
AM_4
100
AcDbLine
 10
2.720000000000001
 20
-0.1887499999999997
 30
0.0
 11
-2.720000000000001
 21
-0.1887499999999997
 31
0.0
  0
LINE
  5
12C
330
E2
100
AcDbEntity
  8
AM_4
100
AcDbLine
 10
2.72
 20
-0.3954166666666662
 30
0.0
 11
-2.72
 21
-0.3954166666666662
 31
0.0
  0
LINE
  5
12D
330
E2
100
AcDbEntity
  8
AM_4
100
AcDbLine
 10
2.72
 20
-1.07581450525472
 30
0.0
 11
0.1549716393969366
 21
-1.07581450525472
 31
0.0
  0
LWPOLYLINE
  5
12E
330
E2
100
AcDbEntity
  8
AM_4
100
AcDbPolyline
 90
        5
 70
     0
 43
0.0
 10
0.1549716393969366
 20
-1.07581450525472
 10
0.0812432212758226
 20
-1.087825905489802
 10
0.0023943729638152
 20
-1.092439193925234
 10
-0.0762418415662135
 20
-1.088374972435757
 10
-0.154971639396923
 20
-1.075814505254729
  0
LINE
  5
12F
330
E2
100
AcDbEntity
  8
AM_4
100
AcDbLine
 10
-0.154971639396923
 20
-1.075814505254729
 30
0.0
 11
-2.72
 21
-1.07581450525472
 31
0.0
  0
LINE
  5
130
330
E2
100
AcDbEntity
  8
AM_4
100
AcDbLine
 10
2.72
 20
-1.12125
 30
0.0
 11
-2.719999999999999
 21
-1.12125
 31
0.0
  0
ARC
  5
131
330
E2
100
AcDbEntity
  8
AM_5
100
AcDbCircle
 10
0.0000000000000002
 20
-0.8087499999999996
 30
0.0
 40
0.3124999999999999
100
AcDbArc
 50
75.0
 51
14.99999999999994
  0
ARC
  5
132
330
E2
100
AcDbEntity
  8
AM_5
100
AcDbCircle
 10
-0.0000000000000059
 20
-0.8087500000000176
 30
0.0
 40
0.3125000000000189
100
AcDbArc
 50
63.85157066748234
 51
74.99999999999976
  0
ENDBLK
  5
E5
330
E2
100
AcDbEntity
  8
0
100
AcDbBlockEnd
  0
BLOCK
  5
135
330
133
100
AcDbEntity
  8
0
100
AcDbBlockBegin
  2
4_070014i_0_in_071494_4
 70
     2
 10
0.0
 20
0.0
 30
0.0
  3
4_070014i_0_in_071494_4
  1

  0
ATTDEF
  5
137
330
133
100
AcDbEntity
  8
AM_6
100
AcDbText
 10
8.937
 20
-0.1887499999999994
 30
0.0
 40
0.5
  1
S-2000 Insert -Inch
100
AcDbAttributeDefinition
  3

  2
NN
 70
     8
280
     0
  0
ATTDEF
  5
138
330
133
100
AcDbEntity
  8
AM_6
100
AcDbText
 10
8.937
 20
-0.6887499999999994
 30
0.0
 40
0.5
  1
S-2000 Bearings
100
AcDbAttributeDefinition
  3

  2
NT
 70
     8
280
     0
  0
ATTDEF
  5
139
330
133
100
AcDbEntity
  8
AM_6
100
AcDbText
 10
8.937
 20
-1.188749999999999
 30
0.0
 40
0.5
  1
070014i
100
AcDbAttributeDefinition
  3

  2
NB
 70
     8
280
     0
  0
ATTDEF
  5
13A
330
133
100
AcDbEntity
  8
AM_6
100
AcDbText
 10
8.937
 20
-1.688749999999999
 30
0.0
 40
0.5
  1
$PN.i
100
AcDbAttributeDefinition
  3

  2
NBSYN
 70
     8
280
     0
  0
ATTDEF
  5
13B
330
133
100
AcDbEntity
  8
AM_6
100
AcDbText
 10
8.937
 20
-2.188749999999999
 30
0.0
 40
0.5
  1
070014i
100
AcDbAttributeDefinition
  3

  2
LINA
 70
     8
280
     0
  0
ATTDEF
  5
13C
330
133
100
AcDbEntity
  8
AM_6
100
AcDbText
 10
8.937
 20
-2.688749999999999
 30
0.0
 40
0.5
  1
4-7/16
100
AcDbAttributeDefinition
  3

  2
SS
 70
     8
280
     0
  0
ATTDEF
  5
13D
330
133
100
AcDbEntity
  8
AM_6
100
AcDbText
 10
8.937
 20
-3.188749999999999
 30
0.0
 40
0.5
  1
5.00
100
AcDbAttributeDefinition
  3

  2
CC
 70
     8
280
     0
  0
ATTDEF
  5
13E
330
133
100
AcDbEntity
  8
AM_6
100
AcDbText
 10
8.937
 20
-3.688749999999999
 30
0.0
 40
0.5
  1
4.437500
100
AcDbAttributeDefinition
  3

  2
SS1
 70
     8
280
     0
  0
ATTDEF
  5
13F
330
133
100
AcDbEntity
  8
AM_6
100
AcDbText
 10
8.937
 20
-4.188749999999999
 30
0.0
 40
0.5
  1
070014
100
AcDbAttributeDefinition
  3

  2
PN
 70
     8
280
     0
  0
ATTDEF
  5
140
330
133
100
AcDbEntity
  8
AM_6
100
AcDbText
 10
8.937
 20
-4.688749999999999
 30
0.0
 40
0.5
  1
INS-S2-407R
100
AcDbAttributeDefinition
  3

  2
DESCRIPTION
 70
     8
280
     0
  0
ATTDEF
  5
141
330
133
100
AcDbEntity
  8
AM_6
100
AcDbText
 10
8.937
 20
-5.188749999999999
 30
0.0
 40
0.5
  1
Contact Seal
100
AcDbAttributeDefinition
  3

  2
ST
 70
     8
280
     0
  0
ATTDEF
  5
142
330
133
100
AcDbEntity
  8
AM_6
100
AcDbText
 10
8.937
 20
-5.688749999999999
 30
0.0
 40
0.5
  1
1
100
AcDbAttributeDefinition
  3

  2
ST1
 70
     8
280
     0
  0
ATTDEF
  5
143
330
133
100
AcDbEntity
  8
AM_6
100
AcDbText
 10
8.937
 20
-6.188749999999999
 30
0.0
 40
0.5
  1
7.8740
100
AcDbAttributeDefinition
  3

  2
A
 70
     8
280
     0
  0
ATTDEF
  5
144
330
133
100
AcDbEntity
  8
AM_6
100
AcDbText
 10
8.937
 20
-6.688749999999999
 30
0.0
 40
0.5
  1
2-5/32
100
AcDbAttributeDefinition
  3

  2
B
 70
     8
280
     0
  0
ATTDEF
  5
145
330
133
100
AcDbEntity
  8
AM_6
100
AcDbText
 10
8.937
 20
-7.188749999999999
 30
0.0
 40
0.5
  1
6-17/32
100
AcDbAttributeDefinition
  3

  2
C
 70
     8
280
     0
  0
ATTDEF
  5
146
330
133
100
AcDbEntity
  8
AM_6
100
AcDbText
 10
8.937
 20
-7.688749999999999
 30
0.0
 40
0.5
  1
3.266
100
AcDbAttributeDefinition
  3

  2
D
 70
     8
280
     0
  0
ATTDEF
  5
147
330
133
100
AcDbEntity
  8
AM_6
100
AcDbText
 10
8.937
 20
-8.188749999999999
 30
0.0
 40
0.5
  1
6-29/64
100
AcDbAttributeDefinition
  3

  2
E
 70
     8
280
     0
  0
ATTDEF
  5
148
330
133
100
AcDbEntity
  8
AM_6
100
AcDbText
 10
8.937
 20
-8.688749999999999
 30
0.0
 40
0.5
  1
0.43750
100
AcDbAttributeDefinition
  3

  2
F
 70
     8
280
     0
  0
ATTDEF
  5
149
330
133
100
AcDbEntity
  8
AM_6
100
AcDbText
 10
8.937
 20
-9.188749999999999
 30
0.0
 40
0.5
  1
2
100
AcDbAttributeDefinition
  3

  2
DD
 70
     8
280
     0
  0
ATTDEF
  5
14A
330
133
100
AcDbEntity
  8
AM_6
100
AcDbText
 10
8.937
 20
-9.688749999999999
 30
0.0
 40
0.5
  1
baldor
100
AcDbAttributeDefinition
  3

  2
COMPANY
 70
     8
280
     0
  0
LINE
  5
14B
330
133
100
AcDbEntity
  8
AM_9
100
AcDbLine
 10
2.265769467591625
 20
-0.41875
 30
0.0
 11
2.010662166385627
 21
-0.41875
 31
0.0
  0
LINE
  5
14C
330
133
100
AcDbEntity
  8
AM_9
100
AcDbLine
 10
2.010805980668961
 20
-1.19875
 30
0.0
 11
2.265769467591625
 21
-1.19875
 31
0.0
  0
LWPOLYLINE
  5
14D
330
133
100
AcDbEntity
  8
AM_9
100
AcDbPolyline
 90
       21
 70
     0
 43
0.0
 10
2.010883452367077
 20
-0.4187500012224605
 10
1.992637080369742
 20
-0.4210485398120683
 10
1.963846511410627
 20
-0.4334224587408014
 10
1.934874597676671
 20
-0.4560391631607991
 10
1.906642316844467
 20
-0.4885628877763939
 10
1.880417602268087
 20
-0.5298651492152575
 10
1.857064509283933
 20
-0.5796441959507913
 10
1.837993307492582
 20
-0.6359307105461252
 10
1.824213010542119
 20
-0.6973349890242613
 10
1.816384413756529
 20
-0.7619762485929583
 10
1.815023849570296
 20
-0.8271272703835246
 10
1.819945973882121
 20
-0.8917540168055563
 10
1.830894232507766
 20
-0.9535524886797795
 10
1.847217938706389
 20
-1.011333299569005
 10
1.86842810107104
 20
-1.063973253926958
 10
1.893319418905554
 20
-1.10952052068554
 10
1.921159482097264
 20
-1.14701457957629
 10
1.950467595558332
 20
-1.174929049670412
 10
1.979933548910967
 20
-1.192236069317133
 10
2.008647456676044
 20
-1.198714707150293
 10
2.010858335313289
 20
-1.198749998954779
  0
LWPOLYLINE
  5
14E
330
133
100
AcDbEntity
  8
AM_9
100
AcDbPolyline
 90
        6
 70
     0
 43
0.0
 10
2.120688109854242
 20
-1.051765330387503
 10
2.126716111722927
 20
-1.023363034908873
 10
2.135584859885662
 20
-0.9653472443819463
 10
2.141353117227074
 20
-0.9027989761173891
 10
2.143626560743487
 20
-0.8561341147287931
 10
2.144383138759292
 20
-0.80875
  0
LWPOLYLINE
  5
14F
330
133
100
AcDbEntity
  8
AM_9
100
AcDbPolyline
 90
        7
 70
     0
 43
0.0
 10
2.010858335313289
 20
-1.198749998954779
 10
2.035295493209872
 20
-1.194139268952504
 10
2.059624735854459
 20
-1.178966592378627
 10
2.081060729091502
 20
-1.153549246504352
 10
2.099414514826627
 20
-1.118739583710023
 10
2.114696524089497
 20
-1.07477617195484
 10
2.120688109854242
 20
-1.051765330387503
  0
LWPOLYLINE
  5
150
330
133
100
AcDbEntity
  8
AM_9
100
AcDbPolyline
 90
       21
 70
     0
 43
0.0
 10
2.265783204387584
 20
-1.19874999864546
 10
2.247311258350221
 20
-1.196384767135848
 10
2.218644363557162
 20
-1.183856300942309
 10
2.189964238117227
 20
-1.161021767002876
 10
2.162194513097455
 20
-1.128252688320051
 10
2.136528697837837
 20
-1.08667094929481
 10
2.113849777764381
 20
-1.036741683562923
 10
2.09541659512164
 20
-0.9803449617870849
 10
2.082174709821313
 20
-0.918913043916934
 10
2.074717473449861
 20
-0.8543012285800244
 10
2.073518721305757
 20
-0.7890411455528351
 10
2.078422346465016
 20
-0.7243417218739595
 10
2.089205129318325
 20
-0.6624038460683135
 10
2.105249316332166
 20
-0.6045396728486853
 10
2.126055398478711
 20
-0.5519953634285074
 10
2.150502805702975
 20
-0.5066090471621987
 10
2.17783396176187
 20
-0.4694386331536864
 10
2.206690727193555
 20
-0.441869203831432
 10
2.235843821670368
 20
-0.4249003024692107
 10
2.2643933853177
 20
-0.4187635548507376
 10
2.265761144811102
 20
-0.4187500004972083
  0
LWPOLYLINE
  5
151
330
133
100
AcDbEntity
  8
AM_9
100
AcDbPolyline
 90
       11
 70
     0
 43
0.0
 10
2.265761144811102
 20
-0.4187500004972083
 10
2.291126862745232
 20
-0.4236942417838964
 10
2.315696239258886
 20
-0.4392651527665377
 10
2.337517000520263
 20
-0.4651335442915094
 10
2.356340391291953
 20
-0.5004311909892254
 10
2.372092646299096
 20
-0.5447862672635905
 10
2.384565460311587
 20
-0.5965485392954215
 10
2.393793079604179
 20
-0.6547352836523406
 10
2.399793556216568
 20
-0.7173559768001838
 10
2.402086358317878
 20
-0.7627253508434356
 10
2.402850899037565
 20
-0.80875
  0
LINE
  5
152
330
133
100
AcDbEntity
  8
AM_9
100
AcDbLine
 10
2.010805980668961
 20
-6.49
 30
0.0
 11
2.265769467591625
 21
-6.49
 31
0.0
  0
LWPOLYLINE
  5
153
330
133
100
AcDbEntity
  8
AM_9
100
AcDbPolyline
 90
       21
 70
     0
 43
0.0
 10
2.010883452367077
 20
-5.71000000122246
 10
1.992637080369742
 20
-5.712298539812068
 10
1.963846511410627
 20
-5.7246724587408
 10
1.934874597676671
 20
-5.747289163160799
 10
1.906642316844467
 20
-5.779812887776393
 10
1.880417602268087
 20
-5.821115149215257
 10
1.857064509283933
 20
-5.870894195950791
 10
1.837993307492582
 20
-5.927180710546125
 10
1.824213010542119
 20
-5.988584989024261
 10
1.816384413756529
 20
-6.053226248592957
 10
1.815023849570296
 20
-6.118377270383523
 10
1.819945973882121
 20
-6.183004016805556
 10
1.830894232507766
 20
-6.244802488679779
 10
1.847217938706389
 20
-6.302583299569005
 10
1.86842810107104
 20
-6.355223253926957
 10
1.893319418905554
 20
-6.40077052068554
 10
1.921159482097264
 20
-6.438264579576289
 10
1.950467595558331
 20
-6.466179049670411
 10
1.979933548910967
 20
-6.483486069317132
 10
2.008647456676044
 20
-6.489964707150293
 10
2.010858335313289
 20
-6.489999998954779
  0
LWPOLYLINE
  5
154
330
133
100
AcDbEntity
  8
AM_9
100
AcDbPolyline
 90
        6
 70
     0
 43
0.0
 10
2.120688109854242
 20
-6.343015330387503
 10
2.126716111722927
 20
-6.314613034908873
 10
2.135584859885662
 20
-6.256597244381946
 10
2.141353117227074
 20
-6.194048976117388
 10
2.143626560743487
 20
-6.147384114728792
 10
2.144383138759292
 20
-6.099999999999999
  0
LWPOLYLINE
  5
155
330
133
100
AcDbEntity
  8
AM_9
100
AcDbPolyline
 90
        7
 70
     0
 43
0.0
 10
2.010858335313289
 20
-6.489999998954779
 10
2.035295493209872
 20
-6.485389268952503
 10
2.059624735854459
 20
-6.470216592378628
 10
2.081060729091502
 20
-6.444799246504352
 10
2.099414514826627
 20
-6.409989583710022
 10
2.114696524089497
 20
-6.366026171954839
 10
2.120688109854242
 20
-6.343015330387503
  0
LWPOLYLINE
  5
156
330
133
100
AcDbEntity
  8
AM_9
100
AcDbPolyline
 90
       21
 70
     0
 43
0.0
 10
2.265783204387584
 20
-6.48999999864546
 10
2.247311258350221
 20
-6.487634767135848
 10
2.218644363557162
 20
-6.475106300942309
 10
2.189964238117227
 20
-6.452271767002876
 10
2.162194513097455
 20
-6.41950268832005
 10
2.136528697837837
 20
-6.377920949294809
 10
2.113849777764381
 20
-6.327991683562924
 10
2.09541659512164
 20
-6.271594961787084
 10
2.082174709821313
 20
-6.210163043916935
 10
2.074717473449861
 20
-6.145551228580024
 10
2.073518721305757
 20
-6.080291145552835
 10
2.078422346465016
 20
-6.015591721873959
 10
2.089205129318325
 20
-5.953653846068312
 10
2.105249316332166
 20
-5.895789672848684
 10
2.126055398478711
 20
-5.843245363428506
 10
2.150502805702975
 20
-5.797859047162198
 10
2.177833961761869
 20
-5.760688633153686
 10
2.206690727193555
 20
-5.733119203831431
 10
2.235843821670368
 20
-5.71615030246921
 10
2.2643933853177
 20
-5.710013554850737
 10
2.265761144811102
 20
-5.710000000497208
  0
LWPOLYLINE
  5
157
330
133
100
AcDbEntity
  8
AM_9
100
AcDbPolyline
 90
       11
 70
     0
 43
0.0
 10
2.265761144811102
 20
-5.710000000497208
 10
2.291126862745232
 20
-5.714944241783895
 10
2.315696239258886
 20
-5.730515152766537
 10
2.337517000520263
 20
-5.756383544291509
 10
2.356340391291953
 20
-5.791681190989224
 10
2.372092646299096
 20
-5.836036267263591
 10
2.384565460311587
 20
-5.887798539295421
 10
2.393793079604179
 20
-5.94598528365234
 10
2.399793556216568
 20
-6.008605976800184
 10
2.402086358317878
 20
-6.053975350843436
 10
2.402850899037565
 20
-6.099999999999999
  0
LWPOLYLINE
  5
158
330
133
100
AcDbEntity
  8
AM_9
100
AcDbPolyline
 90
        7
 70
     0
 43
0.0
 10
2.120664689707141
 20
-5.85688567119461
 10
2.107365949351632
 20
-5.810710235677227
 10
2.090393425047168
 20
-5.770988192161694
 10
2.069976167155672
 20
-5.740418509657787
 10
2.046484404751818
 20
-5.720061397687812
 10
2.020553426311557
 20
-5.710731833380841
 10
2.010883452367077
 20
-5.71000000122246
  0
LWPOLYLINE
  5
159
330
133
100
AcDbEntity
  8
AM_9
100
AcDbPolyline
 90
        6
 70
     0
 43
0.0
 10
2.144383138759292
 20
-6.099999999999999
 10
2.142953650007355
 20
-6.035099590930385
 10
2.13865334762639
 20
-5.972042431241275
 10
2.131382272697179
 20
-5.912676067840064
 10
2.121050883035888
 20
-5.858528040285472
 10
2.120664689707141
 20
-5.85688567119461
  0
LWPOLYLINE
  5
15A
330
133
100
AcDbEntity
  8
AM_9
100
AcDbPolyline
 90
        7
 70
     0
 43
0.0
 10
2.120664689707141
 20
-0.5656356711946099
 10
2.107365949351632
 20
-0.5194602356772285
 10
2.090393425047168
 20
-0.4797381921616946
 10
2.069976167155672
 20
-0.449168509657787
 10
2.046484404751818
 20
-0.4288113976878122
 10
2.020553426311557
 20
-0.4194818333808409
 10
2.010883452367077
 20
-0.4187500012224605
  0
LWPOLYLINE
  5
15B
330
133
100
AcDbEntity
  8
AM_9
100
AcDbPolyline
 90
        6
 70
     0
 43
0.0
 10
2.144383138759292
 20
-0.80875
 10
2.142953650007355
 20
-0.7438495909303859
 10
2.13865334762639
 20
-0.680792431241275
 10
2.131382272697179
 20
-0.6214260678400652
 10
2.121050883035888
 20
-0.5672780402854734
 10
2.120664689707141
 20
-0.5656356711946099
  0
LINE
  5
15C
330
133
100
AcDbEntity
  8
AM_9
100
AcDbLine
 10
-2.21875
 20
-0.1887499999999994
 30
0.0
 11
-2.21875
 21
-6.720000000000001
 31
0.0
  0
LINE
  5
15D
330
133
100
AcDbEntity
  8
AM_9
100
AcDbLine
 10
2.21875
 20
-6.720000000000001
 30
0.0
 11
2.21875
 21
-0.1887499999999994
 31
0.0
  0
LWPOLYLINE
  5
15E
330
133
100
AcDbEntity
  8
AM_9
100
AcDbPolyline
 90
       11
 70
     0
 43
0.0
 10
2.402850899037565
 20
-6.099999999999999
 10
2.401313441402158
 20
-6.165021506400927
 10
2.396705519739894
 20
-6.228199353951454
 10
2.388953199728143
 20
-6.287686620187095
 10
2.378019814162874
 20
-6.341932398030443
 10
2.363697455559759
 20
-6.389713594016299
 10
2.346108274285411
 20
-6.42937443861616
 10
2.325194356802712
 20
-6.45981710996393
 10
2.301361453803466
 20
-6.480056915059462
 10
2.275230373669896
 20
-6.489302052014112
 10
2.265783204387584
 20
-6.48999999864546
  0
LWPOLYLINE
  5
15F
330
133
100
AcDbEntity
  8
AM_9
100
AcDbPolyline
 90
       11
 70
     0
 43
0.0
 10
0.0026250029737213
 20
-5.710008834254686
 10
0.0607390841471662
 20
-5.714758824037508
 10
0.124823666285143
 20
-5.730515152766537
 10
0.1836018297002148
 20
-5.755920985628689
 10
0.238829462190445
 20
-5.791681190989224
 10
0.2864412457463024
 20
-5.835327725790353
 10
0.3272163505615865
 20
-5.887798539295421
 10
0.3579127123463262
 20
-5.945085538632133
 10
0.3791399906674994
 20
-6.008605976800183
 10
0.3872353834875072
 20
-6.053645304711567
 10
0.3900000000000002
 20
-6.099999999999999
  0
LWPOLYLINE
  5
160
330
133
100
AcDbEntity
  8
AM_9
100
AcDbPolyline
 90
       30
 70
     0
 43
0.0
 10
0.3900000000000002
 20
-6.099999999999999
 10
0.3846962846345249
 20
-6.164099676975726
 10
0.3683271991673026
 20
-6.228199353951454
 10
0.3422992160661122
 20
-6.28689902803526
 10
0.305890037077442
 20
-6.341932398030443
 10
0.2617458609152352
 20
-6.389117803488028
 10
0.208836010271909
 20
-6.42937443861616
 10
0.1512378717215656
 20
-6.459481718807968
 10
0.087502807472018
 20
-6.480056915059462
 10
0.023589815808531
 20
-6.489285911111767
 10
-0.042886913010109
 20
-6.487634767135848
 10
-0.1057312018206749
 20
-6.475394343273251
 10
-0.1673457563629012
 20
-6.452271767002876
 10
-0.2228554812324346
 20
-6.420055361593365
 10
-0.2736054567128944
 20
-6.377920949294809
 10
-0.3158492013923911
 20
-6.328777800452292
 10
-0.3502215999753426
 20
-6.271594961787084
 10
-0.373840008211922
 20
-6.211101972350225
 10
-0.3873307186047221
 20
-6.145551228580024
 10
-0.3895482823296129
 20
-6.081234719984815
 10
-0.3807561458253788
 20
-6.01559172187396
 10
-0.3618370530553301
 20
-5.954487295962743
 10
-0.3322621589720276
 20
-5.895789672848684
 10
-0.2941423656774658
 20
-5.843913552264739
 10
-0.246598549505599
 20
-5.797859047162198
 10
-0.1930394363525759
 20
-5.761125722409209
 10
-0.1322818256704894
 20
-5.733119203831431
 10
-0.0697135829966551
 20
-5.716281331773174
 10
-0.0032515534504866
 20
-5.710013554850737
 10
0.0026250029737213
 20
-5.710008834254686
  0
LINE
  5
161
330
133
100
AcDbEntity
  8
AM_9
100
AcDbLine
 10
-2.5
 20
-5.0425
 30
0.0
 11
-2.5
 21
-6.720000000000001
 31
0.0
  0
LINE
  5
162
330
133
100
AcDbEntity
  8
AM_9
100
AcDbLine
 10
2.5
 20
-6.720000000000001
 30
0.0
 11
2.5
 21
-5.0425
 31
0.0
  0
LWPOLYLINE
  5
163
330
133
100
AcDbEntity
  8
AM_9
100
AcDbPolyline
 90
       11
 70
     0
 43
0.0
 10
2.402850899037565
 20
-0.80875
 10
2.401313441402158
 20
-0.8737715064009268
 10
2.396705519739894
 20
-0.936949353951454
 10
2.388953199728143
 20
-0.9964366201870963
 10
2.378019814162874
 20
-1.050682398030444
 10
2.363697455559759
 20
-1.098463594016299
 10
2.346108274285411
 20
-1.138124438616161
 10
2.325194356802712
 20
-1.16856710996393
 10
2.301361453803466
 20
-1.188806915059462
 10
2.275230373669896
 20
-1.198052052014112
 10
2.265783204387584
 20
-1.19874999864546
  0
LWPOLYLINE
  5
164
330
133
100
AcDbEntity
  8
AM_9
100
AcDbPolyline
 90
       39
 70
     0
 43
0.0
 10
0.3900000000000002
 20
-0.80875
 10
0.3846962846345249
 20
-0.8728496769757269
 10
0.3683271991673026
 20
-0.936949353951454
 10
0.3422992160661124
 20
-0.9956490280352601
 10
0.3058900370774422
 20
-1.050682398030444
 10
0.2617458609152352
 20
-1.097867803488029
 10
0.2088360102719092
 20
-1.138124438616161
 10
0.1512378717215659
 20
-1.168231718807968
 10
0.0875028074720181
 20
-1.188806915059462
 10
0.023589815808531
 20
-1.198035911111768
 10
-0.042886913010109
 20
-1.196384767135848
 10
-0.1057312018206747
 20
-1.184144343273251
 10
-0.1673457563629011
 20
-1.161021767002876
 10
-0.2228554812324346
 20
-1.128805361593366
 10
-0.2736054567128945
 20
-1.08667094929481
 10
-0.315849201392391
 20
-1.037527800452292
 10
-0.3502215999753424
 20
-0.9803449617870854
 10
-0.3738400082119219
 20
-0.9198519723502253
 10
-0.3873307186047221
 20
-0.8543012285800244
 10
-0.3895482823296129
 20
-0.789984719984816
 10
-0.3807561458253788
 20
-0.7243417218739601
 10
-0.3618370530553301
 20
-0.6632372959627433
 10
-0.3322621589720276
 20
-0.6045396728486853
 10
-0.2941423656774661
 20
-0.5526635522647402
 10
-0.2465985495055992
 20
-0.5066090471621987
 10
-0.193039436352576
 20
-0.4698757224092102
 10
-0.1322818256704893
 20
-0.441869203831432
 10
-0.0697135829966551
 20
-0.4250313317731744
 10
-0.003251553450486
 20
-0.4187635548507376
 10
0.0607390841471666
 20
-0.4235088240375084
 10
0.1248236662851432
 20
-0.4392651527665377
 10
0.1836018297002151
 20
-0.4646709856286883
 10
0.2388294621904453
 20
-0.5004311909892248
 10
0.2864412457463024
 20
-0.5440777257903533
 10
0.3272163505615868
 20
-0.5965485392954215
 10
0.3579127123463262
 20
-0.6538355386321345
 10
0.3791399906674994
 20
-0.7173559768001838
 10
0.3872353834875072
 20
-0.7623953047115676
 10
0.39
 20
-0.80875
  0
LINE
  5
165
330
133
100
AcDbEntity
  8
AM_9
100
AcDbLine
 10
-2.5
 20
-0.1887499999999994
 30
0.0
 11
-2.5
 21
-1.86625
 31
0.0
  0
LINE
  5
166
330
133
100
AcDbEntity
  8
AM_9
100
AcDbLine
 10
2.5
 20
-1.86625
 30
0.0
 11
2.5
 21
-0.1887499999999994
 31
0.0
  0
LINE
  5
167
330
133
100
AcDbEntity
  8
AM_9
100
AcDbLine
 10
-3.1496
 20
-4.5325
 30
0.0
 11
-3.1496
 21
-4.826875
 31
0.0
  0
LINE
  5
168
330
133
100
AcDbEntity
  8
AM_9
100
AcDbLine
 10
3.1496
 20
-4.826875
 30
0.0
 11
3.1496
 21
-4.5325
 31
0.0
  0
LINE
  5
169
330
133
100
AcDbEntity
  8
AM_9
100
AcDbLine
 10
-3.1496
 20
-2.081875
 30
0.0
 11
-3.1496
 21
-2.37625
 31
0.0
  0
LINE
  5
16A
330
133
100
AcDbEntity
  8
AM_9
100
AcDbLine
 10
3.1496
 20
-2.37625
 30
0.0
 11
3.1496
 21
-2.081875
 31
0.0
  0
LINE
  5
16B
330
133
100
AcDbEntity
  8
AM_9
100
AcDbLine
 10
2.933975000000001
 20
-5.0425
 30
0.0
 11
-2.933975000000001
 21
-5.0425
 31
0.0
  0
ARC
  5
16C
330
133
100
AcDbEntity
  8
AM_9
100
AcDbCircle
 10
-2.933975
 20
-4.826874999999999
 30
0.0
 40
0.2156249999999997
100
AcDbArc
 50
180.0
 51
270.0
  0
ARC
  5
16D
330
133
100
AcDbEntity
  8
AM_9
100
AcDbCircle
 10
2.933975
 20
-4.826874999999999
 30
0.0
 40
0.2156250000000002
100
AcDbArc
 50
270.0
 51
0.0
  0
LINE
  5
16E
330
133
100
AcDbEntity
  8
AM_9
100
AcDbLine
 10
3.1496
 20
-4.826875
 30
0.0
 11
-3.1496
 21
-4.826875
 31
0.0
  0
LINE
  5
16F
330
133
100
AcDbEntity
  8
AM_9
100
AcDbLine
 10
2.933975
 20
-1.86625
 30
0.0
 11
-2.933975
 21
-1.86625
 31
0.0
  0
ARC
  5
170
330
133
100
AcDbEntity
  8
AM_9
100
AcDbCircle
 10
-2.933974999999998
 20
-2.081875000000001
 30
0.0
 40
0.2156250000000008
100
AcDbArc
 50
90.0
 51
180.0
  0
ARC
  5
171
330
133
100
AcDbEntity
  8
AM_9
100
AcDbCircle
 10
2.933974999999998
 20
-2.081875000000001
 30
0.0
 40
0.2156250000000011
100
AcDbArc
 50
0.0
 51
90.0
  0
LINE
  5
172
330
133
100
AcDbEntity
  8
AM_9
100
AcDbLine
 10
3.1496
 20
-2.081875
 30
0.0
 11
-3.1496
 21
-2.081875
 31
0.0
  0
LINE
  5
173
330
133
100
AcDbEntity
  8
AM_9
100
AcDbLine
 10
-3.77952
 20
-3.346562499999994
 30
0.0
 11
-3.77952
 21
-3.562187500000005
 31
0.0
  0
LINE
  5
174
330
133
100
AcDbEntity
  8
AM_9
100
AcDbLine
 10
3.77952
 20
-3.562187500000005
 30
0.0
 11
3.77952
 21
-3.346562499999994
 31
0.0
  0
LINE
  5
175
330
133
100
AcDbEntity
  8
AM_9
100
AcDbLine
 10
3.77952
 20
-3.346562499999994
 30
0.0
 11
3.936999999999999
 21
-3.255641379608012
 31
0.0
  0
LINE
  5
176
330
133
100
AcDbEntity
  8
AM_9
100
AcDbLine
 10
-3.936999999999999
 20
-3.255641379608012
 30
0.0
 11
-3.77952
 21
-3.346562499999994
 31
0.0
  0
LINE
  5
177
330
133
100
AcDbEntity
  8
AM_9
100
AcDbLine
 10
3.77952
 20
-3.346562499999994
 30
0.0
 11
-3.77952
 21
-3.346562499999994
 31
0.0
  0
LINE
  5
178
330
133
100
AcDbEntity
  8
AM_9
100
AcDbLine
 10
0.1863510742359127
 20
-4.5325
 30
0.0
 11
-3.721374999999999
 21
-4.5325
 31
0.0
  0
LINE
  5
179
330
133
100
AcDbEntity
  8
AM_9
100
AcDbLine
 10
3.721374999999999
 20
-4.5325
 30
0.0
 11
0.1899835519196341
 21
-4.5325
 31
0.0
  0
ARC
  5
17A
330
133
100
AcDbEntity
  8
AM_9
100
AcDbCircle
 10
-3.721374999999998
 20
-4.316874999999999
 30
0.0
 40
0.2156250000000015
100
AcDbArc
 50
180.0
 51
270.0
  0
ARC
  5
17B
330
133
100
AcDbEntity
  8
AM_9
100
AcDbCircle
 10
3.721374999999998
 20
-4.316874999999998
 30
0.0
 40
0.215625000000002
100
AcDbArc
 50
270.0
 51
0.0
  0
LINE
  5
17C
330
133
100
AcDbEntity
  8
AM_9
100
AcDbLine
 10
-3.77952
 20
-3.562187500000005
 30
0.0
 11
-3.936999999999999
 21
-3.653108620391987
 31
0.0
  0
LINE
  5
17D
330
133
100
AcDbEntity
  8
AM_9
100
AcDbLine
 10
3.936999999999999
 20
-3.653108620391987
 30
0.0
 11
3.77952
 21
-3.562187500000005
 31
0.0
  0
LINE
  5
17E
330
133
100
AcDbEntity
  8
AM_9
100
AcDbLine
 10
3.77952
 20
-3.562187500000005
 30
0.0
 11
-3.77952
 21
-3.562187500000005
 31
0.0
  0
LINE
  5
17F
330
133
100
AcDbEntity
  8
AM_9
100
AcDbLine
 10
-3.936999999999999
 20
-3.653108620391987
 30
0.0
 11
-3.936999999999999
 21
-4.316875
 31
0.0
  0
LINE
  5
180
330
133
100
AcDbEntity
  8
AM_9
100
AcDbLine
 10
3.936999999999999
 20
-4.316875
 30
0.0
 11
3.936999999999999
 21
-3.653108620391987
 31
0.0
  0
LINE
  5
181
330
133
100
AcDbEntity
  8
AM_9
100
AcDbLine
 10
3.936999999999999
 20
-3.653108620391987
 30
0.0
 11
-3.936999999999999
 21
-3.653108620391987
 31
0.0
  0
LINE
  5
182
330
133
100
AcDbEntity
  8
AM_9
100
AcDbLine
 10
3.936999999999999
 20
-4.316875
 30
0.0
 11
-3.936999999999999
 21
-4.316875
 31
0.0
  0
LINE
  5
183
330
133
100
AcDbEntity
  8
AM_9
100
AcDbLine
 10
-3.936999999999999
 20
-2.591875
 30
0.0
 11
-3.936999999999999
 21
-3.255641379608012
 31
0.0
  0
LINE
  5
184
330
133
100
AcDbEntity
  8
AM_9
100
AcDbLine
 10
3.936999999999999
 20
-3.255641379608012
 30
0.0
 11
3.936999999999999
 21
-2.591875
 31
0.0
  0
LINE
  5
185
330
133
100
AcDbEntity
  8
AM_9
100
AcDbLine
 10
3.936999999999999
 20
-3.255641379608012
 30
0.0
 11
-3.936999999999999
 21
-3.255641379608012
 31
0.0
  0
LINE
  5
186
330
133
100
AcDbEntity
  8
AM_9
100
AcDbLine
 10
3.721374999999999
 20
-2.37625
 30
0.0
 11
-3.721374999999999
 21
-2.37625
 31
0.0
  0
ARC
  5
187
330
133
100
AcDbEntity
  8
AM_9
100
AcDbCircle
 10
-3.721374999999998
 20
-2.591875000000002
 30
0.0
 40
0.215625000000002
100
AcDbArc
 50
90.0
 51
180.0
  0
ARC
  5
188
330
133
100
AcDbEntity
  8
AM_9
100
AcDbCircle
 10
3.721374999999998
 20
-2.591875000000001
 30
0.0
 40
0.2156250000000015
100
AcDbArc
 50
0.0
 51
90.0
  0
LINE
  5
189
330
133
100
AcDbEntity
  8
AM_9
100
AcDbLine
 10
3.936999999999999
 20
-2.591875
 30
0.0
 11
-3.936999999999999
 21
-2.591875
 31
0.0
  0
ENDBLK
  5
136
330
133
100
AcDbEntity
  8
0
100
AcDbBlockEnd
  0
BLOCK
  5
18C
330
18A
100
AcDbEntity
  8
0
100
AcDbBlockBegin
  2
5_405015E_Inch_0_in_071494_4
 70
     2
 10
0.0
 20
0.0
 30
0.0
  3
5_405015E_Inch_0_in_071494_4
  1

  0
ATTDEF
  5
18E
330
18A
100
AcDbEntity
  8
AM_6
100
AcDbText
 10
5.21875
 20
-3.817409257229539
 30
0.0
 40
0.5
  1
405015E -Inch
100
AcDbAttributeDefinition
  3

  2
NN
 70
     8
280
     0
  0
ATTDEF
  5
18F
330
18A
100
AcDbEntity
  8
AM_6
100
AcDbText
 10
5.21875
 20
-4.317409257229539
 30
0.0
 40
0.5
  1
Grease Fitting
100
AcDbAttributeDefinition
  3

  2
NT
 70
     8
280
     0
  0
ATTDEF
  5
190
330
18A
100
AcDbEntity
  8
AM_6
100
AcDbText
 10
5.21875
 20
-4.817409257229539
 30
0.0
 40
0.5
  1
405015E-Inch
100
AcDbAttributeDefinition
  3

  2
NB
 70
     8
280
     0
  0
ATTDEF
  5
191
330
18A
100
AcDbEntity
  8
AM_6
100
AcDbText
 10
5.21875
 20
-5.317409257229539
 30
0.0
 40
0.5
  1
$MN.-Inch
100
AcDbAttributeDefinition
  3

  2
NBSYN
 70
     8
280
     0
  0
ATTDEF
  5
192
330
18A
100
AcDbEntity
  8
AM_6
100
AcDbText
 10
5.21875
 20
-5.817409257229539
 30
0.0
 40
0.5
  1
405015E
100
AcDbAttributeDefinition
  3

  2
LINA
 70
     8
280
     0
  0
ATTDEF
  5
193
330
18A
100
AcDbEntity
  8
AM_6
100
AcDbText
 10
5.21875
 20
-6.317409257229539
 30
0.0
 40
0.5
  1
405015E
100
AcDbAttributeDefinition
  3

  2
MN
 70
     8
280
     0
  0
ATTDEF
  5
194
330
18A
100
AcDbEntity
  8
AM_6
100
AcDbText
 10
5.21875
 20
-6.817409257229539
 30
0.0
 40
0.5
  1
1/8 x 27PTF
100
AcDbAttributeDefinition
  3

  2
T
 70
     8
280
     0
  0
ATTDEF
  5
195
330
18A
100
AcDbEntity
  8
AM_6
100
AcDbText
 10
5.21875
 20
-7.317409257229539
 30
0.0
 40
0.5
  1
baldor
100
AcDbAttributeDefinition
  3

  2
COMPANY
 70
     8
280
     0
  0
CIRCLE
  5
196
330
18A
100
AcDbEntity
  8
AM_9
100
AcDbCircle
 10
0.0
 20
-4.069999999999999
 30
0.0
 40
0.161902872472269
  0
CIRCLE
  5
197
330
18A
100
AcDbEntity
  8
AM_9
100
AcDbCircle
 10
0.0
 20
-4.069999999999999
 30
0.0
 40
0.1986176267812154
  0
CIRCLE
  5
198
330
18A
100
AcDbEntity
  8
AM_9
100
AcDbCircle
 10
0.0
 20
-4.069999999999999
 30
0.0
 40
0.2057518972230696
  0
CIRCLE
  5
199
330
18A
100
AcDbEntity
  8
AM_9
100
AcDbCircle
 10
0.0
 20
-4.069999999999999
 30
0.0
 40
0.1188200907348975
  0
CIRCLE
  5
19A
330
18A
100
AcDbEntity
  8
AM_9
100
AcDbCircle
 10
0.0
 20
-4.069999999999999
 30
0.0
 40
0.105
  0
LINE
  5
19B
330
18A
100
AcDbEntity
  8
AM_4
100
AcDbLine
 10
-0.21875
 20
-4.19629537138523
 30
0.0
 11
0.0
 21
-4.32259074277046
 31
0.0
  0
LINE
  5
19C
330
18A
100
AcDbEntity
  8
AM_4
100
AcDbLine
 10
-0.21875
 20
-3.943704628614769
 30
0.0
 11
-0.21875
 21
-4.19629537138523
 31
0.0
  0
LINE
  5
19D
330
18A
100
AcDbEntity
  8
AM_4
100
AcDbLine
 10
0.0
 20
-3.817409257229539
 30
0.0
 11
-0.21875
 21
-3.943704628614769
 31
0.0
  0
LINE
  5
19E
330
18A
100
AcDbEntity
  8
AM_4
100
AcDbLine
 10
0.21875
 20
-4.19629537138523
 30
0.0
 11
0.21875
 21
-3.943704628614769
 31
0.0
  0
LINE
  5
19F
330
18A
100
AcDbEntity
  8
AM_4
100
AcDbLine
 10
0.0
 20
-4.32259074277046
 30
0.0
 11
0.21875
 21
-4.19629537138523
 31
0.0
  0
LINE
  5
1A0
330
18A
100
AcDbEntity
  8
AM_4
100
AcDbLine
 10
0.21875
 20
-3.943704628614769
 30
0.0
 11
0.0
 21
-3.817409257229539
 31
0.0
  0
CIRCLE
  5
1A1
330
18A
100
AcDbEntity
  8
AM_4
100
AcDbCircle
 10
0.0
 20
-4.069999999999999
 30
0.0
 40
0.1725340532830154
  0
CIRCLE
  5
1A2
330
18A
100
AcDbEntity
  8
AM_4
100
AcDbCircle
 10
0.0
 20
-4.069999999999999
 30
0.0
 40
0.135
  0
CIRCLE
  5
1A3
330
18A
100
AcDbEntity
  8
AM_4
100
AcDbCircle
 10
0.0
 20
-4.069999999999999
 30
0.0
 40
0.1026779019331875
  0
ARC
  5
1A4
330
18A
100
AcDbEntity
  8
AM_5
100
AcDbCircle
 10
0.0000000000000001
 20
-4.069999999999999
 30
0.0
 40
0.2025000050000003
100
AcDbArc
 50
75.00000000000001
 51
15.00000000000004
  0
CIRCLE
  5
1A5
330
18A
100
AcDbEntity
  8
AM_4
100
AcDbCircle
 10
-0.0000000000000018
 20
-4.069999999999999
 30
0.0
 40
0.2187500000000019
  0
CIRCLE
  5
1A6
330
18A
100
AcDbEntity
  8
AM_4
100
AcDbCircle
 10
0.0000000000000002
 20
-4.069999999999999
 30
0.0
 40
0.2137499999999999
  0
ENDBLK
  5
18D
330
18A
100
AcDbEntity
  8
0
100
AcDbBlockEnd
  0
BLOCK
  5
1A9
330
1A7
100
AcDbEntity
  8
0
100
AcDbBlockBegin
  2
6_B071494_0_in_071494_4
 70
     2
 10
0.0
 20
0.0
 30
0.0
  3
6_B071494_0_in_071494_4
  1

  0
ATTDEF
  5
1AB
330
1A7
100
AcDbEntity
  8
AM_6
100
AcDbText
 10
10.44
 20
0.2855
 30
0.0
 40
0.5
  1
EF4S-S2 -(Contact Seal)-Housing
100
AcDbAttributeDefinition
  3

  2
NN
 70
     8
280
     0
  0
ATTDEF
  5
1AC
330
1A7
100
AcDbEntity
  8
AM_6
100
AcDbText
 10
10.44
 20
-0.2145
 30
0.0
 40
0.5
  1
S-2000 -E TYpe -Inch
100
AcDbAttributeDefinition
  3

  2
NT
 70
     8
280
     0
  0
ATTDEF
  5
1AD
330
1A7
100
AcDbEntity
  8
AM_6
100
AcDbText
 10
10.44
 20
-0.7144999999999999
 30
0.0
 40
0.5
  1
B071494
100
AcDbAttributeDefinition
  3

  2
NB
 70
     8
280
     0
  0
ATTDEF
  5
1AE
330
1A7
100
AcDbEntity
  8
AM_6
100
AcDbText
 10
10.44
 20
-1.2145
 30
0.0
 40
0.5
  1
$PN.
100
AcDbAttributeDefinition
  3

  2
NBSYN
 70
     8
280
     0
  0
ATTDEF
  5
1AF
330
1A7
100
AcDbEntity
  8
AM_6
100
AcDbText
 10
10.44
 20
-1.7145
 30
0.0
 40
0.5
  1
B071494
100
AcDbAttributeDefinition
  3

  2
LINA
 70
     8
280
     0
  0
ATTDEF
  5
1B0
330
1A7
100
AcDbEntity
  8
AM_6
100
AcDbText
 10
10.44
 20
-2.2145
 30
0.0
 40
0.5
  1
4-7/16
100
AcDbAttributeDefinition
  3

  2
SS
 70
     8
280
     0
  0
ATTDEF
  5
1B1
330
1A7
100
AcDbEntity
  8
AM_6
100
AcDbText
 10
10.44
 20
-2.7145
 30
0.0
 40
0.5
  1
4.437500
100
AcDbAttributeDefinition
  3

  2
SS1
 70
     8
280
     0
  0
ATTDEF
  5
1B2
330
1A7
100
AcDbEntity
  8
AM_6
100
AcDbText
 10
10.44
 20
-3.2145
 30
0.0
 40
0.5
  1
Expansion
100
AcDbAttributeDefinition
  3

  2
TYPE
 70
     8
280
     0
  0
ATTDEF
  5
1B3
330
1A7
100
AcDbEntity
  8
AM_6
100
AcDbText
 10
10.44
 20
-3.7145
 30
0.0
 40
0.5
  1
071481
100
AcDbAttributeDefinition
  3

  2
PN1
 70
     8
280
     0
  0
ATTDEF
  5
1B4
330
1A7
100
AcDbEntity
  8
AM_6
100
AcDbText
 10
10.44
 20
-4.2145
 30
0.0
 40
0.5
  1
071494
100
AcDbAttributeDefinition
  3

  2
PN2
 70
     8
280
     0
  0
ATTDEF
  5
1B5
330
1A7
100
AcDbEntity
  8
AM_6
100
AcDbText
 10
10.44
 20
-4.7145
 30
0.0
 40
0.5
  1
EF4B-S2-407R
100
AcDbAttributeDefinition
  3

  2
DESC1
 70
     8
280
     0
  0
ATTDEF
  5
1B6
330
1A7
100
AcDbEntity
  8
AM_6
100
AcDbText
 10
10.44
 20
-5.2145
 30
0.0
 40
0.5
  1
EF4B-S2-407RE
100
AcDbAttributeDefinition
  3

  2
DESC2
 70
     8
280
     0
  0
ATTDEF
  5
1B7
330
1A7
100
AcDbEntity
  8
AM_6
100
AcDbText
 10
10.44
 20
-5.7145
 30
0.0
 40
0.5
  1
Non-Expansion Type
100
AcDbAttributeDefinition
  3

  2
EF
 70
     8
280
     0
  0
ATTDEF
  5
1B8
330
1A7
100
AcDbEntity
  8
AM_6
100
AcDbText
 10
10.44
 20
-6.2145
 30
0.0
 40
0.5
  1
1
100
AcDbAttributeDefinition
  3

  2
EF1
 70
     8
280
     0
  0
ATTDEF
  5
1B9
330
1A7
100
AcDbEntity
  8
AM_6
100
AcDbText
 10
10.44
 20
-6.7145
 30
0.0
 40
0.5
  1
6.53
100
AcDbAttributeDefinition
  3

  2
A
 70
     8
280
     0
  0
ATTDEF
  5
1BA
330
1A7
100
AcDbEntity
  8
AM_6
100
AcDbText
 10
10.44
 20
-7.2145
 30
0.0
 40
0.5
  1
6.5300000
100
AcDbAttributeDefinition
  3

  2
A1
 70
     8
280
     0
  0
ATTDEF
  5
1BB
330
1A7
100
AcDbEntity
  8
AM_6
100
AcDbText
 10
10.44
 20
-7.7145
 30
0.0
 40
0.5
  1
10.88
100
AcDbAttributeDefinition
  3

  2
B
 70
     8
280
     0
  0
ATTDEF
  5
1BC
330
1A7
100
AcDbEntity
  8
AM_6
100
AcDbText
 10
10.44
 20
-8.214500000000001
 30
0.0
 40
0.5
  1
10.8800000
100
AcDbAttributeDefinition
  3

  2
B1
 70
     8
280
     0
  0
ATTDEF
  5
1BD
330
1A7
100
AcDbEntity
  8
AM_6
100
AcDbText
 10
10.44
 20
-8.714500000000001
 30
0.0
 40
0.5
  1
7.1
100
AcDbAttributeDefinition
  3

  2
C
 70
     8
280
     0
  0
ATTDEF
  5
1BE
330
1A7
100
AcDbEntity
  8
AM_6
100
AcDbText
 10
10.44
 20
-9.214500000000001
 30
0.0
 40
0.5
  1
7.1000000
100
AcDbAttributeDefinition
  3

  2
C1
 70
     8
280
     0
  0
ATTDEF
  5
1BF
330
1A7
100
AcDbEntity
  8
AM_6
100
AcDbText
 10
10.44
 20
-9.714500000000001
 30
0.0
 40
0.5
  1
8.75
100
AcDbAttributeDefinition
  3

  2
D
 70
     8
280
     0
  0
ATTDEF
  5
1C0
330
1A7
100
AcDbEntity
  8
AM_6
100
AcDbText
 10
10.44
 20
-10.2145
 30
0.0
 40
0.5
  1
8.7500000
100
AcDbAttributeDefinition
  3

  2
D1
 70
     8
280
     0
  0
ATTDEF
  5
1C1
330
1A7
100
AcDbEntity
  8
AM_6
100
AcDbText
 10
10.44
 20
-10.7145
 30
0.0
 40
0.5
  1
7/8
100
AcDbAttributeDefinition
  3

  2
F
 70
     8
280
     0
  0
ATTDEF
  5
1C2
330
1A7
100
AcDbEntity
  8
AM_6
100
AcDbText
 10
10.44
 20
-11.2145
 30
0.0
 40
0.5
  1
0.8750000
100
AcDbAttributeDefinition
  3

  2
F1
 70
     8
280
     0
  0
ATTDEF
  5
1C3
330
1A7
100
AcDbEntity
  8
AM_6
100
AcDbText
 10
10.44
 20
-11.7145
 30
0.0
 40
0.5
  1
1.39
100
AcDbAttributeDefinition
  3

  2
G
 70
     8
280
     0
  0
ATTDEF
  5
1C4
330
1A7
100
AcDbEntity
  8
AM_6
100
AcDbText
 10
10.44
 20
-12.2145
 30
0.0
 40
0.5
  1
1.390000
100
AcDbAttributeDefinition
  3

  2
G1
 70
     8
280
     0
  0
ATTDEF
  5
1C5
330
1A7
100
AcDbEntity
  8
AM_6
100
AcDbText
 10
10.44
 20
-12.7145
 30
0.0
 40
0.5
  1
2.43
100
AcDbAttributeDefinition
  3

  2
H
 70
     8
280
     0
  0
ATTDEF
  5
1C6
330
1A7
100
AcDbEntity
  8
AM_6
100
AcDbText
 10
10.44
 20
-13.2145
 30
0.0
 40
0.5
  1
2.4300000
100
AcDbAttributeDefinition
  3

  2
H1
 70
     8
280
     0
  0
ATTDEF
  5
1C7
330
1A7
100
AcDbEntity
  8
AM_6
100
AcDbText
 10
10.44
 20
-13.7145
 30
0.0
 40
0.5
  1
9.13
100
AcDbAttributeDefinition
  3

  2
J
 70
     8
280
     0
  0
ATTDEF
  5
1C8
330
1A7
100
AcDbEntity
  8
AM_6
100
AcDbText
 10
10.44
 20
-14.2145
 30
0.0
 40
0.5
  1
9.1300000
100
AcDbAttributeDefinition
  3

  2
J1
 70
     8
280
     0
  0
ATTDEF
  5
1C9
330
1A7
100
AcDbEntity
  8
AM_6
100
AcDbText
 10
10.44
 20
-14.7145
 30
0.0
 40
0.5
  1
10-3/4
100
AcDbAttributeDefinition
  3

  2
K
 70
     8
280
     0
  0
ATTDEF
  5
1CA
330
1A7
100
AcDbEntity
  8
AM_6
100
AcDbText
 10
10.44
 20
-15.2145
 30
0.0
 40
0.5
  1
10.7500000
100
AcDbAttributeDefinition
  3

  2
K1
 70
     8
280
     0
  0
ATTDEF
  5
1CB
330
1A7
100
AcDbEntity
  8
AM_6
100
AcDbText
 10
10.44
 20
-15.7145
 30
0.0
 40
0.5
  1
6.45
100
AcDbAttributeDefinition
  3

  2
L
 70
     8
280
     0
  0
ATTDEF
  5
1CC
330
1A7
100
AcDbEntity
  8
AM_6
100
AcDbText
 10
10.44
 20
-16.2145
 30
0.0
 40
0.5
  1
6.4500000
100
AcDbAttributeDefinition
  3

  2
L1
 70
     8
280
     0
  0
ATTDEF
  5
1CD
330
1A7
100
AcDbEntity
  8
AM_6
100
AcDbText
 10
10.44
 20
-16.7145
 30
0.0
 40
0.5
  1
5.01
100
AcDbAttributeDefinition
  3

  2
N
 70
     8
280
     0
  0
ATTDEF
  5
1CE
330
1A7
100
AcDbEntity
  8
AM_6
100
AcDbText
 10
10.44
 20
-17.2145
 30
0.0
 40
0.5
  1
5.010000
100
AcDbAttributeDefinition
  3

  2
N1
 70
     8
280
     0
  0
ATTDEF
  5
1CF
330
1A7
100
AcDbEntity
  8
AM_6
100
AcDbText
 10
10.44
 20
-17.7145
 30
0.0
 40
0.5
  1
0.56
100
AcDbAttributeDefinition
  3

  2
P
 70
     8
280
     0
  0
ATTDEF
  5
1D0
330
1A7
100
AcDbEntity
  8
AM_6
100
AcDbText
 10
10.44
 20
-18.2145
 30
0.0
 40
0.5
  1
0.560000
100
AcDbAttributeDefinition
  3

  2
P1
 70
     8
280
     0
  0
ATTDEF
  5
1D1
330
1A7
100
AcDbEntity
  8
AM_6
100
AcDbText
 10
10.44
 20
-18.7145
 30
0.0
 40
0.5
  1
0.38
100
AcDbAttributeDefinition
  3

  2
X
 70
     8
280
     0
  0
ATTDEF
  5
1D2
330
1A7
100
AcDbEntity
  8
AM_6
100
AcDbText
 10
10.44
 20
-19.2145
 30
0.0
 40
0.5
  1
0.380000
100
AcDbAttributeDefinition
  3

  2
X1
 70
     8
280
     0
  0
ATTDEF
  5
1D3
330
1A7
100
AcDbEntity
  8
AM_6
100
AcDbText
 10
10.44
 20
-19.7145
 30
0.0
 40
0.5
  1
0.000
100
AcDbAttributeDefinition
  3

  2
Y
 70
     8
280
     0
  0
ATTDEF
  5
1D4
330
1A7
100
AcDbEntity
  8
AM_6
100
AcDbText
 10
10.44
 20
-20.2145
 30
0.0
 40
0.5
  1
0
100
AcDbAttributeDefinition
  3

  2
Z
 70
     8
280
     0
  0
ATTDEF
  5
1D5
330
1A7
100
AcDbEntity
  8
AM_6
100
AcDbText
 10
10.44
 20
-20.7145
 30
0.0
 40
0.5
  1
0.000000
100
AcDbAttributeDefinition
  3

  2
Z1
 70
     8
280
     0
  0
ATTDEF
  5
1D6
330
1A7
100
AcDbEntity
  8
AM_6
100
AcDbText
 10
10.44
 20
-21.2145
 30
0.0
 40
0.5
  1
5/8-11
100
AcDbAttributeDefinition
  3

  2
CS
 70
     8
280
     0
  0
ATTDEF
  5
1D7
330
1A7
100
AcDbEntity
  8
AM_6
100
AcDbText
 10
10.44
 20
-21.7145
 30
0.0
 40
0.5
  1
0.6250
100
AcDbAttributeDefinition
  3

  2
NDM
 70
     8
280
     0
  0
ATTDEF
  5
1D8
330
1A7
100
AcDbEntity
  8
AM_6
100
AcDbText
 10
10.44
 20
-22.2145
 30
0.0
 40
0.5
  1
0.5270
100
AcDbAttributeDefinition
  3

  2
KDM
 70
     8
280
     0
  0
ATTDEF
  5
1D9
330
1A7
100
AcDbEntity
  8
AM_6
100
AcDbText
 10
10.44
 20
-22.7145
 30
0.0
 40
0.5
  1
7.0866
100
AcDbAttributeDefinition
  3

  2
BORE
 70
     8
280
     0
  0
ATTDEF
  5
1DA
330
1A7
100
AcDbEntity
  8
AM_6
100
AcDbText
 10
10.44
 20
-23.2145
 30
0.0
 40
0.5
  1
1
100
AcDbAttributeDefinition
  3

  2
ST1
 70
     8
280
     0
  0
ATTDEF
  5
1DB
330
1A7
100
AcDbEntity
  8
AM_6
100
AcDbText
 10
10.44
 20
-23.7145
 30
0.0
 40
0.5
  1
baldor
100
AcDbAttributeDefinition
  3

  2
COMPANY
 70
     8
280
     0
  0
LINE
  5
1DC
330
1A7
100
AcDbEntity
  8
AM_9
100
AcDbLine
 10
5.44
 20
-2.268
 30
0.0
 11
4.242510659182503
 21
-2.268
 31
0.0
  0
LINE
  5
1DD
330
1A7
100
AcDbEntity
  8
AM_9
100
AcDbLine
 10
4.306818465365977
 20
-2.268
 30
0.0
 11
4.306818465365977
 21
-2.43
 31
0.0
  0
LINE
  5
1DE
330
1A7
100
AcDbEntity
  8
AM_9
100
AcDbLine
 10
4.242510659182503
 20
-2.268
 30
0.0
 11
4.242510659182503
 21
-2.43
 31
0.0
  0
LINE
  5
1DF
330
1A7
100
AcDbEntity
  8
AM_9
100
AcDbLine
 10
-4.306818465365977
 20
-2.268
 30
0.0
 11
-4.306818465365977
 21
-2.43
 31
0.0
  0
LINE
  5
1E0
330
1A7
100
AcDbEntity
  8
AM_9
100
AcDbLine
 10
-4.242510659182507
 20
-2.43
 30
0.0
 11
-4.242510659182507
 21
-2.268
 31
0.0
  0
LINE
  5
1E1
330
1A7
100
AcDbEntity
  8
AM_9
100
AcDbLine
 10
-2.72
 20
-1.215
 30
0.0
 11
-5.44
 21
-1.215
 31
0.0
  0
LWPOLYLINE
  5
1E2
330
1A7
100
AcDbEntity
  8
AM_9
100
AcDbPolyline
 90
        9
 70
     0
 43
0.0
 10
-3.006282126231668
 20
-0.1041428571428576
 10
-2.996881850962256
 20
-0.1619079427415615
 10
-2.98159396756379
 20
-0.196591801460687
 10
-2.959523624050464
 20
-0.2290340458389538
 10
-2.933483351892393
 20
-0.2564866278197501
 10
-2.903216307703762
 20
-0.2804996667198869
 10
-2.852724881687688
 20
-0.3091409742352825
 10
-2.796716990534375
 20
-0.3298077687761272
 10
-2.72
 20
-0.3445341563113655
  0
LINE
  5
1E3
330
1A7
100
AcDbEntity
  8
AM_9
100
AcDbLine
 10
-3.006282126231668
 20
-0.1041428571428576
 30
0.0
 11
-3.006282126231668
 21
0.0000000000000002
 31
0.0
  0
LINE
  5
1E4
330
1A7
100
AcDbEntity
  8
AM_9
100
AcDbLine
 10
5.44
 20
-1.215
 30
0.0
 11
2.72
 21
-1.215
 31
0.0
  0
LWPOLYLINE
  5
1E5
330
1A7
100
AcDbEntity
  8
AM_9
100
AcDbPolyline
 90
       10
 70
     0
 43
0.0
 10
2.72
 20
-0.3445341563113655
 10
2.805657689701418
 20
-0.3271388250927544
 10
2.85176829124785
 20
-0.3095799574355209
 10
2.895760498113884
 20
-0.2854995072106307
 10
2.936305324195953
 20
-0.2538781594874034
 10
2.961775781759278
 20
-0.2262233005640377
 10
2.982994912217341
 20
-0.1940345193559249
 10
2.995883046885932
 20
-0.1648501374962932
 10
3.003951720681836
 20
-0.1330688045965358
 10
3.006282126231668
 20
-0.1041428571428576
  0
LINE
  5
1E6
330
1A7
100
AcDbEntity
  8
AM_9
100
AcDbLine
 10
3.006282126231668
 20
0.0000000000000002
 30
0.0
 11
3.006282126231668
 21
-0.1041428571428576
 31
0.0
  0
LINE
  5
1E7
330
1A7
100
AcDbEntity
  8
AM_9
100
AcDbLine
 10
2.72
 20
-0.1041428571428576
 30
0.0
 11
3.006282126231668
 21
-0.1041428571428576
 31
0.0
  0
LINE
  5
1E8
330
1A7
100
AcDbEntity
  8
AM_9
100
AcDbLine
 10
-3.006282126231668
 20
-0.1041428571428576
 30
0.0
 11
-2.720000000000001
 21
-0.1041428571428576
 31
0.0
  0
LINE
  5
1E9
330
1A7
100
AcDbEntity
  8
AM_9
100
AcDbLine
 10
3.5433
 20
-5.71
 30
0.0
 11
3.5433
 21
-1.215
 31
0.0
  0
LINE
  5
1EA
330
1A7
100
AcDbEntity
  8
AM_9
100
AcDbLine
 10
-3.5433
 20
-1.215
 30
0.0
 11
-3.5433
 21
-5.71
 31
0.0
  0
LINE
  5
1EB
330
1A7
100
AcDbEntity
  8
AM_9
100
AcDbLine
 10
5.345860057926767
 20
-2.268
 30
0.0
 11
5.345860057926767
 21
-2.43
 31
0.0
  0
LINE
  5
1EC
330
1A7
100
AcDbEntity
  8
AM_9
100
AcDbLine
 10
-5.345860057926766
 20
-2.268
 30
0.0
 11
-5.345860057926766
 21
-2.43
 31
0.0
  0
LINE
  5
1ED
330
1A7
100
AcDbEntity
  8
AM_9
100
AcDbLine
 10
-5.44
 20
-2.268
 30
0.0
 11
-4.242510659182507
 21
-2.268
 31
0.0
  0
LINE
  5
1EE
330
1A7
100
AcDbEntity
  8
AM_9
100
AcDbLine
 10
4.273193460765832
 20
-2.268
 30
0.0
 11
4.273193460765832
 21
-2.43
 31
0.0
  0
LINE
  5
1EF
330
1A7
100
AcDbEntity
  8
AM_9
100
AcDbLine
 10
-4.273193483485152
 20
-2.268
 30
0.0
 11
-4.273193483485152
 21
-2.43
 31
0.0
  0
LINE
  5
1F0
330
1A7
100
AcDbEntity
  8
AM_9
100
AcDbLine
 10
4.565
 20
-2.43
 30
0.0
 11
4.565
 21
-2.268
 31
0.0
  0
LINE
  5
1F1
330
1A7
100
AcDbEntity
  8
AM_9
100
AcDbLine
 10
-4.565
 20
-2.268
 30
0.0
 11
-4.565
 21
-2.43
 31
0.0
  0
LINE
  5
1F2
330
1A7
100
AcDbEntity
  8
AM_9
100
AcDbLine
 10
-3.937500000000001
 20
-2.43
 30
0.0
 11
-3.937500000000001
 21
0.0000000000000003
 31
0.0
  0
LINE
  5
1F3
330
1A7
100
AcDbEntity
  8
AM_9
100
AcDbLine
 10
-4.812500000000001
 20
0.0000000000000003
 30
0.0
 11
-4.812500000000001
 21
-2.43
 31
0.0
  0
LINE
  5
1F4
330
1A7
100
AcDbEntity
  8
AM_9
100
AcDbLine
 10
4.8125
 20
-2.43
 30
0.0
 11
4.8125
 21
0.0000000000000003
 31
0.0
  0
LINE
  5
1F5
330
1A7
100
AcDbEntity
  8
AM_9
100
AcDbLine
 10
3.9375
 20
0.0000000000000003
 30
0.0
 11
3.9375
 21
-2.43
 31
0.0
  0
LINE
  5
1F6
330
1A7
100
AcDbEntity
  8
AM_7
100
AcDbLine
 10
4.375
 20
0.1215000000000003
 30
0.0
 11
4.375
 21
-2.5515
 31
0.0
  0
LINE
  5
1F7
330
1A7
100
AcDbEntity
  8
AM_7
100
AcDbLine
 10
-4.375000000000001
 20
0.1215000000000003
 30
0.0
 11
-4.375000000000001
 21
-2.5515
 31
0.0
  0
LINE
  5
1F8
330
1A7
100
AcDbEntity
  8
AM_7
100
AcDbLine
 10
0.0
 20
-7.0465625
 30
0.0
 11
0.0
 21
0.2855
 31
0.0
  0
LINE
  5
1F9
330
1A7
100
AcDbEntity
  8
AM_7
100
AcDbLine
 10
-0.5250000000000001
 20
-4.069999999999999
 30
0.0
 11
0.5249999999999999
 21
-4.069999999999999
 31
0.0
  0
LINE
  5
1FA
330
1A7
100
AcDbEntity
  8
AM_4
100
AcDbLine
 10
4.565
 20
-5.71
 30
0.0
 11
-4.565
 21
-5.71
 31
0.0
  0
LINE
  5
1FB
330
1A7
100
AcDbEntity
  8
AM_4
100
AcDbLine
 10
1.605939741304147
 20
-2.268
 30
0.0
 11
1.605939741304147
 21
-2.43
 31
0.0
  0
LINE
  5
1FC
330
1A7
100
AcDbEntity
  8
AM_4
100
AcDbLine
 10
-1.605939801757255
 20
-2.268
 30
0.0
 11
-1.605939801757255
 21
-2.43
 31
0.0
  0
LINE
  5
1FD
330
1A7
100
AcDbEntity
  8
AM_4
100
AcDbLine
 10
4.565
 20
-5.71
 30
0.0
 11
4.565
 21
-2.43
 31
0.0
  0
LINE
  5
1FE
330
1A7
100
AcDbEntity
  8
AM_4
100
AcDbLine
 10
-4.565
 20
-2.43
 30
0.0
 11
-4.565
 21
-5.71
 31
0.0
  0
CIRCLE
  5
1FF
330
1A7
100
AcDbEntity
  8
AM_4
100
AcDbCircle
 10
0.0
 20
-4.069999999999999
 30
0.0
 40
0.4000000000000006
  0
LINE
  5
200
330
1A7
100
AcDbEntity
  8
AM_4
100
AcDbLine
 10
2.014800854717959
 20
-2.268
 30
0.0
 11
2.014800854717959
 21
-2.43
 31
0.0
  0
LINE
  5
201
330
1A7
100
AcDbEntity
  8
AM_4
100
AcDbLine
 10
-2.014800854717957
 20
-2.268
 30
0.0
 11
-2.014800854717957
 21
-2.43
 31
0.0
  0
LINE
  5
202
330
1A7
100
AcDbEntity
  8
AM_4
100
AcDbLine
 10
-3.814473684210525
 20
-2.268
 30
0.0
 11
-3.814473684210525
 21
-2.43
 31
0.0
  0
LINE
  5
203
330
1A7
100
AcDbEntity
  8
AM_4
100
AcDbLine
 10
5.44
 20
0.0000000000000003
 30
0.0
 11
2.72
 21
0.0000000000000003
 31
0.0
  0
LINE
  5
204
330
1A7
100
AcDbEntity
  8
AM_4
100
AcDbLine
 10
5.44
 20
-2.43
 30
0.0
 11
5.44
 21
0.0000000000000003
 31
0.0
  0
LINE
  5
205
330
1A7
100
AcDbEntity
  8
AM_4
100
AcDbLine
 10
2.72
 20
-1.215
 30
0.0
 11
2.72
 21
0.0000000000000003
 31
0.0
  0
LINE
  5
206
330
1A7
100
AcDbEntity
  8
AM_4
100
AcDbLine
 10
2.72
 20
-1.215
 30
0.0
 11
-2.72
 21
-1.215
 31
0.0
  0
LINE
  5
207
330
1A7
100
AcDbEntity
  8
AM_4
100
AcDbLine
 10
-2.72
 20
-1.215
 30
0.0
 11
-2.72
 21
0.0000000000000003
 31
0.0
  0
LINE
  5
208
330
1A7
100
AcDbEntity
  8
AM_4
100
AcDbLine
 10
-2.72
 20
0.0000000000000003
 30
0.0
 11
-5.44
 21
0.0000000000000003
 31
0.0
  0
LINE
  5
209
330
1A7
100
AcDbEntity
  8
AM_4
100
AcDbLine
 10
-4.024951427984502
 20
-2.268
 30
0.0
 11
-4.024951427984502
 21
-2.43
 31
0.0
  0
LINE
  5
20A
330
1A7
100
AcDbEntity
  8
AM_4
100
AcDbLine
 10
4.024951427984509
 20
-2.268
 30
0.0
 11
-4.024951427984502
 21
-2.268
 31
0.0
  0
LINE
  5
20B
330
1A7
100
AcDbEntity
  8
AM_4
100
AcDbLine
 10
4.375000000000005
 20
-2.43
 30
0.0
 11
4.375000000000005
 21
0.0000000000000003
 31
0.0
  0
LINE
  5
20C
330
1A7
100
AcDbEntity
  8
AM_4
100
AcDbLine
 10
4.024951427984509
 20
-2.43
 30
0.0
 11
4.024951427984509
 21
-2.268
 31
0.0
  0
LINE
  5
20D
330
1A7
100
AcDbEntity
  8
AM_4
100
AcDbLine
 10
3.814473684210526
 20
-2.268
 30
0.0
 11
3.814473684210526
 21
-2.43
 31
0.0
  0
LINE
  5
20E
330
1A7
100
AcDbEntity
  8
AM_4
100
AcDbLine
 10
5.44
 20
-2.43
 30
0.0
 11
1.605939741304147
 21
-2.43
 31
0.0
  0
LINE
  5
20F
330
1A7
100
AcDbEntity
  8
AM_4
100
AcDbLine
 10
-5.44
 20
-2.43
 30
0.0
 11
-5.44
 21
0.0000000000000003
 31
0.0
  0
LINE
  5
210
330
1A7
100
AcDbEntity
  8
AM_4
100
AcDbLine
 10
-1.605939801757255
 20
-2.43
 30
0.0
 11
-5.44
 21
-2.43
 31
0.0
  0
LINE
  5
211
330
1A7
100
AcDbEntity
  8
AM_4
100
AcDbLine
 10
-4.375
 20
-2.43
 30
0.0
 11
-4.375
 21
0.0000000000000003
 31
0.0
  0
CIRCLE
  5
212
330
1A7
100
AcDbEntity
  8
AM_4
100
AcDbCircle
 10
-0.0000000000000001
 20
-4.069999999999999
 30
0.0
 40
0.5
  0
ENDBLK
  5
1AA
330
1A7
100
AcDbEntity
  8
0
100
AcDbBlockEnd
  0
ENDSEC
  0
SECTION
  2
ENTITIES
  0
INSERT
  5
6F
330
1F
100
AcDbEntity
  8
0
100
AcDbBlockReference
  2
1_071494_4
 10
0.0
 20
0.0
 30
0.0
  0
POINT
  5
214
330
1F
100
AcDbEntity
  8
ConnectionPoints
100
AcDbPoint
 10
0.0000000000000001
 20
-0.1887499999999998
 30
0.0
  0
POINT
  5
215
330
1F
100
AcDbEntity
  8
ConnectionPoints
100
AcDbPoint
 10
0.0
 20
-6.72
 30
0.0000000000000004
  0
POINT
  5
216
330
1F
100
AcDbEntity
  8
ConnectionPoints
100
AcDbPoint
 10
0.0
 20
-0.1887499999999998
 30
0.0
  0
POINT
  5
217
330
1F
100
AcDbEntity
  8
ConnectionPoints
100
AcDbPoint
 10
0.0
 20
-6.72
 30
0.0000000000000004
  0
POINT
  5
218
330
1F
100
AcDbEntity
  8
ConnectionPoints
100
AcDbPoint
 10
0.0
 20
-4.07
 30
4.665
  0
POINT
  5
219
330
1F
100
AcDbEntity
  8
ConnectionPoints
100
AcDbPoint
 10
0.0
 20
-4.07
 30
4.665
  0
POINT
  5
21A
330
1F
100
AcDbEntity
  8
ConnectionPoints
100
AcDbPoint
 10
0.0
 20
-6.72
 30
0.0000000000000004
  0
POINT
  5
21B
330
1F
100
AcDbEntity
  8
ConnectionPoints
100
AcDbPoint
 10
0.0
 20
-7.1
 30
0.0000000000000004
  0
ENDSEC
  0
SECTION
  2
OBJECTS
  0
DICTIONARY
  5
C
330
0
100
AcDbDictionary
281
     1
  3
ACAD_DETAILVIEWSTYLE
350
223
  3
ACAD_GROUP
350
D
  3
ACAD_LAYOUT
350
1A
  3
ACAD_MATERIAL
350
43
  3
ACAD_MLEADERSTYLE
350
6B
  3
ACAD_MLINESTYLE
350
17
  3
ACAD_PLOTSETTINGS
350
19
  3
ACAD_PLOTSTYLENAME
350
E
  3
ACAD_SCALELIST
350
47
  3
ACAD_SECTIONVIEWSTYLE
350
224
  3
ACAD_TABLESTYLE
350
69
  3
ACAD_VISUALSTYLE
350
2A
  3
ACDB_RECOMPOSE_DATA
350
220
  3
AcDbVariableDictionary
350
21C
  0
SUN
  5
6D
330
29
100
AcDbSun
 90
        1
290
     0
 63
     7
421
 16777215
 40
1.0
291
     1
 91
  2455826
 92
 54000000
292
     0
 70
     2
 71
   256
280
     1
  0
DICTIONARY
  5
223
102
{ACAD_REACTORS
330
C
102
}
330
C
100
AcDbDictionary
281
     1
  0
DICTIONARY
  5
D
102
{ACAD_REACTORS
330
C
102
}
330
C
100
AcDbDictionary
281
     1
  0
DICTIONARY
  5
1A
102
{ACAD_REACTORS
330
C
102
}
330
C
100
AcDbDictionary
281
     1
  3
Layout1
350
1E
  3
Layout2
350
26
  3
Model
350
22
  0
DICTIONARY
  5
43
102
{ACAD_REACTORS
330
C
102
}
330
C
100
AcDbDictionary
281
     1
  3
ByBlock
350
45
  3
ByLayer
350
44
  3
Global
350
46
  0
DICTIONARY
  5
6B
102
{ACAD_REACTORS
330
C
102
}
330
C
100
AcDbDictionary
281
     1
  3
Standard
350
6C
  0
DICTIONARY
  5
17
102
{ACAD_REACTORS
330
C
102
}
330
C
100
AcDbDictionary
281
     1
  3
Standard
350
18
  0
DICTIONARY
  5
19
102
{ACAD_REACTORS
330
C
102
}
330
C
100
AcDbDictionary
281
     1
  0
ACDBDICTIONARYWDFLT
  5
E
102
{ACAD_REACTORS
330
C
102
}
330
C
100
AcDbDictionary
281
     1
  3
Normal
350
F
100
AcDbDictionaryWithDefault
340
F
  0
DICTIONARY
  5
47
102
{ACAD_REACTORS
330
C
102
}
330
C
100
AcDbDictionary
281
     1
  3
A0
350
48
  3
A1
350
49
  3
A2
350
4A
  3
A3
350
4B
  3
A4
350
4C
  3
A5
350
4D
  3
A6
350
4E
  3
A7
350
4F
  3
A8
350
50
  3
A9
350
51
  3
B0
350
52
  3
B1
350
53
  3
B2
350
54
  3
B3
350
55
  3
B4
350
56
  3
B5
350
57
  3
B6
350
58
  3
B7
350
59
  3
B8
350
5A
  3
B9
350
5B
  3
C0
350
5C
  3
C1
350
5D
  3
C2
350
5E
  3
C3
350
5F
  3
C4
350
60
  3
C5
350
61
  3
C6
350
62
  3
C7
350
63
  3
C8
350
64
  3
C9
350
65
  3
D0
350
66
  3
D1
350
67
  3
D2
350
68
  0
DICTIONARY
  5
224
102
{ACAD_REACTORS
330
C
102
}
330
C
100
AcDbDictionary
281
     1
  0
DICTIONARY
  5
69
102
{ACAD_REACTORS
330
C
102
}
330
C
100
AcDbDictionary
281
     1
  3
Standard
350
6A
  0
DICTIONARY
  5
2A
102
{ACAD_REACTORS
330
C
102
}
330
C
100
AcDbDictionary
281
     1
  3
2dWireframe
350
2F
  3
Basic
350
32
  3
Brighten
350
36
  3
ColorChange
350
3A
  3
Conceptual
350
34
  3
Dim
350
35
  3
EdgeColorOff
350
3D
  3
Facepattern
350
39
  3
Flat
350
2B
  3
FlatWithEdges
350
2C
  3
Gouraud
350
2D
  3
GouraudWithEdges
350
2E
  3
Hidden
350
31
  3
JitterOff
350
3B
  3
Linepattern
350
38
  3
OverhangOff
350
3C
  3
Realistic
350
33
  3
Shaded
350
42
  3
Shaded with edges
350
41
  3
Shades of Gray
350
3E
  3
Sketchy
350
3F
  3
Thicken
350
37
  3
Wireframe
350
30
  3
X-Ray
350
40
  0
XRECORD
  5
220
102
{ACAD_REACTORS
330
C
102
}
330
C
100
AcDbXrecord
280
     1
 90
        1
330
6A
  0
DICTIONARY
  5
21C
102
{ACAD_REACTORS
330
C
102
}
330
C
100
AcDbDictionary
281
     1
  3
CANNOSCALE
350
21D
  3
CMLEADERSTYLE
350
222
  3
CTABLESTYLE
350
221
  0
LAYOUT
  5
1E
102
{ACAD_REACTORS
330
1A
102
}
330
1A
100
AcDbPlotSettings
  1

  2
none_device
  4

  6

 40
0.0
 41
0.0
 42
0.0
 43
0.0
 44
0.0
 45
0.0
 46
0.0
 47
0.0
 48
0.0
 49
0.0
140
0.0
141
0.0
142
1.0
143
1.0
 70
   688
 72
     0
 73
     0
 74
     5
  7

 75
    16
 76
     0
 77
     2
 78
   300
147
1.0
148
0.0
149
0.0
100
AcDbLayout
  1
Layout1
 70
     1
 71
     1
 10
0.0
 20
0.0
 11
12.0
 21
9.0
 12
0.0
 22
0.0
 32
0.0
 14
1.000000000000000E+20
 24
1.000000000000000E+20
 34
1.000000000000000E+20
 15
-1.000000000000000E+20
 25
-1.000000000000000E+20
 35
-1.000000000000000E+20
146
0.0
 13
0.0
 23
0.0
 33
0.0
 16
1.0
 26
0.0
 36
0.0
 17
0.0
 27
1.0
 37
0.0
 76
     0
330
1B
  0
LAYOUT
  5
26
102
{ACAD_REACTORS
330
1A
102
}
330
1A
100
AcDbPlotSettings
  1

  2
none_device
  4

  6

 40
0.0
 41
0.0
 42
0.0
 43
0.0
 44
0.0
 45
0.0
 46
0.0
 47
0.0
 48
0.0
 49
0.0
140
0.0
141
0.0
142
1.0
143
1.0
 70
   688
 72
     0
 73
     0
 74
     5
  7

 75
    16
 76
     0
 77
     2
 78
   300
147
1.0
148
0.0
149
0.0
100
AcDbLayout
  1
Layout2
 70
     1
 71
     2
 10
0.0
 20
0.0
 11
0.0
 21
0.0
 12
0.0
 22
0.0
 32
0.0
 14
0.0
 24
0.0
 34
0.0
 15
0.0
 25
0.0
 35
0.0
146
0.0
 13
0.0
 23
0.0
 33
0.0
 16
1.0
 26
0.0
 36
0.0
 17
0.0
 27
1.0
 37
0.0
 76
     0
330
23
  0
LAYOUT
  5
22
102
{ACAD_REACTORS
330
1A
102
}
330
1A
100
AcDbPlotSettings
  1

  2
none_device
  4
Letter_(8.50_x_11.00_Inches)
  6

 40
6.35
 41
6.35
 42
6.35000508
 43
6.35000508
 44
215.9
 45
279.4
 46
0.0
 47
0.0
 48
0.0
 49
0.0
140
0.0
141
0.0
142
1.0
143
1.0
 70
  1712
 72
     0
 73
     0
 74
     0
  7

 75
     0
 76
     0
 77
     2
 78
   300
147
1.0
148
0.0
149
0.0
100
AcDbLayout
  1
Model
 70
     1
 71
     0
 10
0.0
 20
0.0
 11
12.0
 21
9.0
 12
0.0
 22
0.0
 32
0.0
 14
1.000000000000000E+20
 24
1.000000000000000E+20
 34
1.000000000000000E+20
 15
-1.000000000000000E+20
 25
-1.000000000000000E+20
 35
-1.000000000000000E+20
146
0.0
 13
0.0
 23
0.0
 33
0.0
 16
1.0
 26
0.0
 36
0.0
 17
0.0
 27
1.0
 37
0.0
 76
     0
330
1F
331
29
  0
MATERIAL
  5
45
102
{ACAD_REACTORS
330
43
102
}
330
43
100
AcDbMaterial
  1
ByBlock
 72
     1
 94
      127
  0
MATERIAL
  5
44
102
{ACAD_REACTORS
330
43
102
}
330
43
100
AcDbMaterial
  1
ByLayer
 72
     1
 94
      127
  0
MATERIAL
  5
46
102
{ACAD_REACTORS
330
43
102
}
330
43
100
AcDbMaterial
  1
Global
 72
     1
 94
      127
  0
MLEADERSTYLE
  5
6C
102
{ACAD_REACTORS
330
6B
102
}
330
6B
100
AcDbMLeaderStyle
179
     2
170
     2
171
     1
172
     0
 90
        2
 40
0.0
 41
0.0
173
     1
 91
-1056964608
340
14
 92
       -2
290
     1
 42
0.09
291
     1
 43
0.36
  3
Standard
341
0
 44
0.18
300

342
11
174
     1
178
     6
175
     1
176
     0
 93
-1056964608
 45
0.18
292
     0
297
     0
 46
0.18
343
0
 94
-1056964608
 47
1.0
 49
1.0
140
1.0
293
     1
141
0.0
294
     1
177
     0
142
1.0
295
     0
296
     0
143
0.125
271
     0
272
     9
273
     9
298
     0
  0
MLINESTYLE
  5
18
102
{ACAD_REACTORS
330
17
102
}
330
17
100
AcDbMlineStyle
  2
Standard
 70
     0
  3

 62
   256
 51
90.0
 52
90.0
 71
     2
 49
0.5
 62
   256
  6
BYLAYER
 49
-0.5
 62
   256
  6
BYLAYER
  0
ACDBPLACEHOLDER
  5
F
102
{ACAD_REACTORS
330
E
102
}
330
E
  0
SCALE
  5
48
102
{ACAD_REACTORS
330
47
102
}
330
47
100
AcDbScale
 70
     0
300
1:1
140
1.0
141
1.0
290
     1
  0
SCALE
  5
49
102
{ACAD_REACTORS
330
47
102
}
330
47
100
AcDbScale
 70
     0
300
1:2
140
1.0
141
2.0
290
     0
  0
SCALE
  5
4A
102
{ACAD_REACTORS
330
47
102
}
330
47
100
AcDbScale
 70
     0
300
1:4
140
1.0
141
4.0
290
     0
  0
SCALE
  5
4B
102
{ACAD_REACTORS
330
47
102
}
330
47
100
AcDbScale
 70
     0
300
1:5
140
1.0
141
5.0
290
     0
  0
SCALE
  5
4C
102
{ACAD_REACTORS
330
47
102
}
330
47
100
AcDbScale
 70
     0
300
1:8
140
1.0
141
8.0
290
     0
  0
SCALE
  5
4D
102
{ACAD_REACTORS
330
47
102
}
330
47
100
AcDbScale
 70
     0
300
1:10
140
1.0
141
10.0
290
     0
  0
SCALE
  5
4E
102
{ACAD_REACTORS
330
47
102
}
330
47
100
AcDbScale
 70
     0
300
1:16
140
1.0
141
16.0
290
     0
  0
SCALE
  5
4F
102
{ACAD_REACTORS
330
47
102
}
330
47
100
AcDbScale
 70
     0
300
1:20
140
1.0
141
20.0
290
     0
  0
SCALE
  5
50
102
{ACAD_REACTORS
330
47
102
}
330
47
100
AcDbScale
 70
     0
300
1:30
140
1.0
141
30.0
290
     0
  0
SCALE
  5
51
102
{ACAD_REACTORS
330
47
102
}
330
47
100
AcDbScale
 70
     0
300
1:40
140
1.0
141
40.0
290
     0
  0
SCALE
  5
52
102
{ACAD_REACTORS
330
47
102
}
330
47
100
AcDbScale
 70
     0
300
1:50
140
1.0
141
50.0
290
     0
  0
SCALE
  5
53
102
{ACAD_REACTORS
330
47
102
}
330
47
100
AcDbScale
 70
     0
300
1:100
140
1.0
141
100.0
290
     0
  0
SCALE
  5
54
102
{ACAD_REACTORS
330
47
102
}
330
47
100
AcDbScale
 70
     0
300
2:1
140
2.0
141
1.0
290
     0
  0
SCALE
  5
55
102
{ACAD_REACTORS
330
47
102
}
330
47
100
AcDbScale
 70
     0
300
4:1
140
4.0
141
1.0
290
     0
  0
SCALE
  5
56
102
{ACAD_REACTORS
330
47
102
}
330
47
100
AcDbScale
 70
     0
300
8:1
140
8.0
141
1.0
290
     0
  0
SCALE
  5
57
102
{ACAD_REACTORS
330
47
102
}
330
47
100
AcDbScale
 70
     0
300
10:1
140
10.0
141
1.0
290
     0
  0
SCALE
  5
58
102
{ACAD_REACTORS
330
47
102
}
330
47
100
AcDbScale
 70
     0
300
100:1
140
100.0
141
1.0
290
     0
  0
SCALE
  5
59
102
{ACAD_REACTORS
330
47
102
}
330
47
100
AcDbScale
 70
     0
300
1/128" = 1'-0"
140
0.0078125
141
12.0
290
     0
  0
SCALE
  5
5A
102
{ACAD_REACTORS
330
47
102
}
330
47
100
AcDbScale
 70
     0
300
1/64" = 1'-0"
140
0.015625
141
12.0
290
     0
  0
SCALE
  5
5B
102
{ACAD_REACTORS
330
47
102
}
330
47
100
AcDbScale
 70
     0
300
1/32" = 1'-0"
140
0.03125
141
12.0
290
     0
  0
SCALE
  5
5C
102
{ACAD_REACTORS
330
47
102
}
330
47
100
AcDbScale
 70
     0
300
1/16" = 1'-0"
140
0.0625
141
12.0
290
     0
  0
SCALE
  5
5D
102
{ACAD_REACTORS
330
47
102
}
330
47
100
AcDbScale
 70
     0
300
3/32" = 1'-0"
140
0.09375
141
12.0
290
     0
  0
SCALE
  5
5E
102
{ACAD_REACTORS
330
47
102
}
330
47
100
AcDbScale
 70
     0
300
1/8" = 1'-0"
140
0.125
141
12.0
290
     0
  0
SCALE
  5
5F
102
{ACAD_REACTORS
330
47
102
}
330
47
100
AcDbScale
 70
     0
300
3/16" = 1'-0"
140
0.1875
141
12.0
290
     0
  0
SCALE
  5
60
102
{ACAD_REACTORS
330
47
102
}
330
47
100
AcDbScale
 70
     0
300
1/4" = 1'-0"
140
0.25
141
12.0
290
     0
  0
SCALE
  5
61
102
{ACAD_REACTORS
330
47
102
}
330
47
100
AcDbScale
 70
     0
300
3/8" = 1'-0"
140
0.375
141
12.0
290
     0
  0
SCALE
  5
62
102
{ACAD_REACTORS
330
47
102
}
330
47
100
AcDbScale
 70
     0
300
1/2" = 1'-0"
140
0.5
141
12.0
290
     0
  0
SCALE
  5
63
102
{ACAD_REACTORS
330
47
102
}
330
47
100
AcDbScale
 70
     0
300
3/4" = 1'-0"
140
0.75
141
12.0
290
     0
  0
SCALE
  5
64
102
{ACAD_REACTORS
330
47
102
}
330
47
100
AcDbScale
 70
     0
300
1" = 1'-0"
140
1.0
141
12.0
290
     0
  0
SCALE
  5
65
102
{ACAD_REACTORS
330
47
102
}
330
47
100
AcDbScale
 70
     0
300
1-1/2" = 1'-0"
140
1.5
141
12.0
290
     0
  0
SCALE
  5
66
102
{ACAD_REACTORS
330
47
102
}
330
47
100
AcDbScale
 70
     0
300
3" = 1'-0"
140
3.0
141
12.0
290
     0
  0
SCALE
  5
67
102
{ACAD_REACTORS
330
47
102
}
330
47
100
AcDbScale
 70
     0
300
6" = 1'-0"
140
6.0
141
12.0
290
     0
  0
SCALE
  5
68
102
{ACAD_REACTORS
330
47
102
}
330
47
100
AcDbScale
 70
     0
300
1'-0" = 1'-0"
140
12.0
141
12.0
290
     0
  0
TABLESTYLE
  5
6A
102
{ACAD_REACTORS
330
69
102
}
102
{ACAD_XDICTIONARY
360
21E
102
}
330
69
100
AcDbTableStyle
  3
Standard
 70
     0
 71
     0
 40
0.06
 41
0.06
280
     0
281
     0
  7
Standard
140
0.18
170
     2
 62
     0
 63
   257
283
     0
 90
        4
 91
        0
  1

274
    -2
284
     1
 64
     0
275
    -2
285
     1
 65
     0
276
    -2
286
     1
 66
     0
277
    -2
287
     1
 67
     0
278
    -2
288
     1
 68
     0
279
    -2
289
     1
 69
     0
  7
Standard
140
0.25
170
     5
 62
     0
 63
   257
283
     0
 90
        4
 91
        0
  1

274
    -2
284
     1
 64
     0
275
    -2
285
     1
 65
     0
276
    -2
286
     1
 66
     0
277
    -2
287
     1
 67
     0
278
    -2
288
     1
 68
     0
279
    -2
289
     1
 69
     0
  7
Standard
140
0.18
170
     5
 62
     0
 63
   257
283
     0
 90
        4
 91
        0
  1

274
    -2
284
     1
 64
     0
275
    -2
285
     1
 65
     0
276
    -2
286
     1
 66
     0
277
    -2
287
     1
 67
     0
278
    -2
288
     1
 68
     0
279
    -2
289
     1
 69
     0
  0
VISUALSTYLE
  5
2F
102
{ACAD_REACTORS
330
2A
102
}
330
2A
100
AcDbVisualStyle
  2
2dWireframe
 70
     4
177
     3
291
     0
 70
    58
 90
        0
176
     1
 90
        2
176
     1
 90
        0
176
     1
 90
        0
176
     1
 40
0.6
176
     1
 40
30.0
176
     1
 62
     7
420
 16777215
176
     1
 90
        1
176
     1
 90
        4
176
     1
 62
     7
176
     1
 62
   257
176
     1
 90
        1
176
     1
 90
        1
176
     1
 40
1.0
176
     1
 90
        0
176
     1
 62
   257
176
     1
 40
1.0
176
     1
 90
        1
176
     1
 90
        6
176
     1
 90
        2
176
     1
 62
     7
176
     1
 90
        5
176
     1
 90
        0
176
     1
 90
        0
176
     1
290
     0
176
     1
 90
        1
176
     1
 40
0.0
176
     1
 90
        0
176
     1
290
     1
176
     1
290
     1
176
     1
290
     0
176
     1
290
     0
176
     1
290
     0
176
     1
290
     0
176
     1
290
     0
176
     1
290
     0
176
     1
290
     0
176
     1
 90
       50
176
     1
 40
0.0
176
     1
 40
1.0
176
     1
 90
        0
176
     1
 62
    18
420
        0
176
     1
 90
       50
176
     1
 90
        3
176
     1
 62
     5
420
      255
176
     1
290
     0
176
     1
 90
       50
176
     1
 90
       50
176
     1
 90
       50
176
     1
290
     0
176
     1
 90
       50
176
     1
 62
   256
176
     0
 40
1.0
176
     0
 90
        2
176
     1
  1
strokes_ogs.tif
176
     1
290
     0
176
     1
 40
1.0
176
     1
 40
1.0
176
     1
  0
VISUALSTYLE
  5
32
102
{ACAD_REACTORS
330
2A
102
}
330
2A
100
AcDbVisualStyle
  2
Basic
 70
     7
177
     3
291
     1
 70
    58
 90
        1
176
     1
 90
        0
176
     1
 90
        1
176
     1
 90
        0
176
     1
 40
0.6
176
     1
 40
30.0
176
     1
 62
     7
420
 16777215
176
     1
 90
        0
176
     1
 90
        4
176
     1
 62
     7
176
     1
 62
   257
176
     1
 90
        1
176
     1
 90
        1
176
     1
 40
1.0
176
     1
 90
        8
176
     1
 62
     7
176
     1
 40
1.0
176
     1
 90
        1
176
     1
 90
        6
176
     1
 90
        2
176
     1
 62
     7
176
     1
 90
        5
176
     1
 90
        0
176
     1
 90
        0
176
     1
290
     0
176
     1
 90
        1
176
     1
 40
0.0
176
     1
 90
        0
176
     1
290
     0
176
     1
290
     1
176
     1
290
     1
176
     1
290
     0
176
     1
290
     0
176
     1
290
     0
176
     1
290
     0
176
     1
290
     0
176
     1
290
     0
176
     1
 90
       50
176
     1
 40
0.0
176
     1
 40
1.0
176
     1
 90
        0
176
     1
 62
    18
420
        0
176
     1
 90
       50
176
     1
 90
        3
176
     1
 62
     5
420
      255
176
     1
290
     0
176
     1
 90
       50
176
     1
 90
       50
176
     1
 90
       50
176
     1
290
     0
176
     1
 90
       50
176
     1
 62
   256
176
     0
 40
1.0
176
     0
 90
        2
176
     1
  1
strokes_ogs.tif
176
     1
290
     0
176
     1
 40
1.0
176
     1
 40
1.0
176
     1
  0
VISUALSTYLE
  5
36
102
{ACAD_REACTORS
330
2A
102
}
330
2A
100
AcDbVisualStyle
  2
Brighten
 70
    12
177
     3
291
     1
 70
    58
 90
        2
176
     1
 90
        2
176
     1
 90
        0
176
     1
 90
        0
176
     1
 40
0.6
176
     1
 40
30.0
176
     1
 62
     7
420
 16777215
176
     1
 90
        1
176
     1
 90
        4
176
     1
 62
     7
176
     1
 62
   257
176
     1
 90
        1
176
     1
 90
        1
176
     1
 40
1.0
176
     1
 90
        8
176
     1
 62
     7
176
     1
 40
1.0
176
     1
 90
        1
176
     1
 90
        6
176
     1
 90
        2
176
     1
 62
     7
176
     1
 90
        5
176
     1
 90
        0
176
     1
 90
        0
176
     1
290
     0
176
     1
 90
        1
176
     1
 40
50.0
176
     1
 90
        0
176
     1
290
     0
176
     1
290
     1
176
     1
290
     1
176
     1
290
     0
176
     1
290
     0
176
     1
290
     0
176
     1
290
     0
176
     1
290
     0
176
     1
290
     0
176
     1
 90
       50
176
     1
 40
0.0
176
     1
 40
1.0
176
     1
 90
        0
176
     1
 62
    18
420
        0
176
     1
 90
       50
176
     1
 90
        3
176
     1
 62
     5
420
      255
176
     1
290
     0
176
     1
 90
       50
176
     1
 90
       50
176
     1
 90
       50
176
     1
290
     0
176
     1
 90
       50
176
     1
 62
   256
176
     0
 40
1.0
176
     0
 90
        2
176
     1
  1
strokes_ogs.tif
176
     1
290
     0
176
     1
 40
1.0
176
     1
 40
1.0
176
     1
  0
VISUALSTYLE
  5
3A
102
{ACAD_REACTORS
330
2A
102
}
330
2A
100
AcDbVisualStyle
  2
ColorChange
 70
    16
177
     3
291
     1
 70
    58
 90
        2
176
     1
 90
        2
176
     1
 90
        3
176
     1
 90
        0
176
     1
 40
0.6
176
     1
 40
30.0
176
     1
 62
     8
420
  8421504
176
     1
 90
        1
176
     1
 90
        4
176
     1
 62
     7
176
     1
 62
   257
176
     1
 90
        1
176
     1
 90
        1
176
     1
 40
1.0
176
     1
 90
        8
176
     1
 62
     8
420
  8421504
176
     1
 40
1.0
176
     1
 90
        1
176
     1
 90
        6
176
     1
 90
        2
176
     1
 62
     7
176
     1
 90
        5
176
     1
 90
        0
176
     1
 90
        0
176
     1
290
     0
176
     1
 90
        1
176
     1
 40
0.0
176
     1
 90
        0
176
     1
290
     0
176
     1
290
     1
176
     1
290
     1
176
     1
290
     0
176
     1
290
     0
176
     1
290
     0
176
     1
290
     0
176
     1
290
     0
176
     1
290
     0
176
     1
 90
       50
176
     1
 40
0.0
176
     1
 40
1.0
176
     1
 90
        0
176
     1
 62
    18
420
        0
176
     1
 90
       50
176
     1
 90
        3
176
     1
 62
     5
420
      255
176
     1
290
     0
176
     1
 90
       50
176
     1
 90
       50
176
     1
 90
       50
176
     1
290
     0
176
     1
 90
       50
176
     1
 62
   256
176
     0
 40
1.0
176
     0
 90
        2
176
     1
  1
strokes_ogs.tif
176
     1
290
     0
176
     1
 40
1.0
176
     1
 40
1.0
176
     1
  0
VISUALSTYLE
  5
34
102
{ACAD_REACTORS
330
2A
102
}
330
2A
100
AcDbVisualStyle
  2
Conceptual
 70
     9
177
     3
291
     0
 70
    58
 90
        3
176
     1
 90
        2
176
     1
 90
        0
176
     1
 90
        0
176
     1
 40
0.6
176
     1
 40
30.0
176
     1
 62
     7
420
 16777215
176
     1
 90
        2
176
     1
 90
        2
176
     1
 62
     7
176
     1
 62
   257
176
     1
 90
        1
176
     1
 90
        1
176
     1
 40
179.0
176
     1
 90
        8
176
     1
 62
     7
176
     1
 40
1.0
176
     1
 90
        1
176
     1
 90
        6
176
     1
 90
        2
176
     1
 62
     7
176
     1
 90
        3
176
     1
 90
        0
176
     1
 90
        0
176
     1
290
     0
176
     1
 90
        1
176
     1
 40
0.0
176
     1
 90
        0
176
     1
290
     0
176
     1
290
     1
176
     1
290
     1
176
     1
290
     0
176
     1
290
     0
176
     1
290
     0
176
     1
290
     0
176
     1
290
     0
176
     1
290
     0
176
     1
 90
       50
176
     1
 40
0.0
176
     1
 40
1.0
176
     1
 90
        0
176
     1
 62
    18
420
        0
176
     1
 90
       50
176
     1
 90
        3
176
     1
 62
     5
420
      255
176
     1
290
     0
176
     1
 90
       50
176
     1
 90
       50
176
     1
 90
       50
176
     1
290
     0
176
     1
 90
       50
176
     1
 62
   256
176
     0
 40
1.0
176
     0
 90
        2
176
     1
  1
strokes_ogs.tif
176
     1
290
     0
176
     1
 40
1.0
176
     1
 40
1.0
176
     1
  0
VISUALSTYLE
  5
35
102
{ACAD_REACTORS
330
2A
102
}
330
2A
100
AcDbVisualStyle
  2
Dim
 70
    11
177
     3
291
     1
 70
    58
 90
        2
176
     1
 90
        2
176
     1
 90
        0
176
     1
 90
        0
176
     1
 40
0.6
176
     1
 40
30.0
176
     1
 62
     7
420
 16777215
176
     1
 90
        1
176
     1
 90
        4
176
     1
 62
     7
176
     1
 62
   257
176
     1
 90
        1
176
     1
 90
        1
176
     1
 40
1.0
176
     1
 90
        8
176
     1
 62
     7
176
     1
 40
1.0
176
     1
 90
        1
176
     1
 90
        6
176
     1
 90
        2
176
     1
 62
     7
176
     1
 90
        5
176
     1
 90
        0
176
     1
 90
        0
176
     1
290
     0
176
     1
 90
        1
176
     1
 40
-50.0
176
     1
 90
        0
176
     1
290
     0
176
     1
290
     1
176
     1
290
     1
176
     1
290
     0
176
     1
290
     0
176
     1
290
     0
176
     1
290
     0
176
     1
290
     0
176
     1
290
     0
176
     1
 90
       50
176
     1
 40
0.0
176
     1
 40
1.0
176
     1
 90
        0
176
     1
 62
    18
420
        0
176
     1
 90
       50
176
     1
 90
        3
176
     1
 62
     5
420
      255
176
     1
290
     0
176
     1
 90
       50
176
     1
 90
       50
176
     1
 90
       50
176
     1
290
     0
176
     1
 90
       50
176
     1
 62
   256
176
     0
 40
1.0
176
     0
 90
        2
176
     1
  1
strokes_ogs.tif
176
     1
290
     0
176
     1
 40
1.0
176
     1
 40
1.0
176
     1
  0
VISUALSTYLE
  5
3D
102
{ACAD_REACTORS
330
2A
102
}
330
2A
100
AcDbVisualStyle
  2
EdgeColorOff
 70
    22
177
     3
291
     1
 70
    58
 90
        2
176
     0
 90
        2
176
     0
 90
        0
176
     0
 90
        0
176
     0
 40
0.6
176
     0
 40
30.0
176
     0
 62
     7
420
 16777215
176
     0
 90
        1
176
     0
 90
        4
176
     0
 62
     7
176
     0
 62
   257
176
     0
 90
        1
176
     0
 90
        1
176
     0
 40
1.0
176
     0
 90
        8
176
     2
 62
     7
176
     0
 40
1.0
176
     0
 90
        1
176
     0
 90
        6
176
     0
 90
        2
176
     0
 62
     7
176
     0
 90
        5
176
     0
 90
        0
176
     0
 90
        0
176
     0
290
     0
176
     0
 90
        1
176
     0
 40
0.0
176
     0
 90
        0
176
     0
290
     0
176
     0
290
     1
176
     0
290
     1
176
     0
290
     0
176
     0
290
     0
176
     0
290
     0
176
     0
290
     0
176
     0
290
     0
176
     0
290
     0
176
     0
 90
       50
176
     0
 40
0.0
176
     0
 40
1.0
176
     0
 90
        0
176
     0
 62
    18
420
        0
176
     0
 90
       50
176
     0
 90
        3
176
     0
 62
     5
420
      255
176
     0
290
     0
176
     0
 90
       50
176
     0
 90
       50
176
     0
 90
       50
176
     0
290
     0
176
     0
 90
       50
176
     0
 62
   256
176
     0
 40
1.0
176
     0
 90
        2
176
     0
  1
strokes_ogs.tif
176
     0
290
     0
176
     0
 40
1.0
176
     0
 40
1.0
176
     0
  0
VISUALSTYLE
  5
39
102
{ACAD_REACTORS
330
2A
102
}
330
2A
100
AcDbVisualStyle
  2
Facepattern
 70
    15
177
     3
291
     1
 70
    58
 90
        2
176
     1
 90
        2
176
     1
 90
        0
176
     1
 90
        0
176
     1
 40
0.6
176
     1
 40
30.0
176
     1
 62
     7
420
 16777215
176
     1
 90
        1
176
     1
 90
        4
176
     1
 62
     7
176
     1
 62
   257
176
     1
 90
        1
176
     1
 90
        1
176
     1
 40
1.0
176
     1
 90
        8
176
     1
 62
     7
176
     1
 40
1.0
176
     1
 90
        1
176
     1
 90
        6
176
     1
 90
        2
176
     1
 62
     7
176
     1
 90
        5
176
     1
 90
        0
176
     1
 90
        0
176
     1
290
     0
176
     1
 90
        1
176
     1
 40
0.0
176
     1
 90
        0
176
     1
290
     0
176
     1
290
     1
176
     1
290
     1
176
     1
290
     0
176
     1
290
     0
176
     1
290
     0
176
     1
290
     0
176
     1
290
     0
176
     1
290
     0
176
     1
 90
       50
176
     1
 40
0.0
176
     1
 40
1.0
176
     1
 90
        0
176
     1
 62
    18
420
        0
176
     1
 90
       50
176
     1
 90
        3
176
     1
 62
     5
420
      255
176
     1
290
     0
176
     1
 90
       50
176
     1
 90
       50
176
     1
 90
       50
176
     1
290
     0
176
     1
 90
       50
176
     1
 62
   256
176
     0
 40
1.0
176
     0
 90
        2
176
     1
  1
strokes_ogs.tif
176
     1
290
     0
176
     1
 40
1.0
176
     1
 40
1.0
176
     1
  0
VISUALSTYLE
  5
2B
102
{ACAD_REACTORS
330
2A
102
}
330
2A
100
AcDbVisualStyle
  2
Flat
 70
     0
177
     3
291
     1
 70
    58
 90
        2
176
     1
 90
        1
176
     1
 90
        1
176
     1
 90
        2
176
     1
 40
0.6
176
     1
 40
30.0
176
     1
 62
     7
420
 16777215
176
     1
 90
        0
176
     1
 90
        0
176
     1
 62
     7
176
     1
 62
   257
176
     1
 90
        1
176
     1
 90
        1
176
     1
 40
1.0
176
     1
 90
        8
176
     1
 62
     7
176
     1
 40
1.0
176
     1
 90
        1
176
     1
 90
        6
176
     1
 90
        2
176
     1
 62
     7
176
     1
 90
        5
176
     1
 90
        0
176
     1
 90
        0
176
     1
290
     0
176
     1
 90
       13
176
     1
 40
0.0
176
     1
 90
        0
176
     1
290
     0
176
     1
290
     1
176
     1
290
     1
176
     1
290
     0
176
     1
290
     0
176
     1
290
     0
176
     1
290
     0
176
     1
290
     0
176
     1
290
     0
176
     1
 90
       50
176
     1
 40
0.0
176
     1
 40
1.0
176
     1
 90
        0
176
     1
 62
    18
420
        0
176
     1
 90
       50
176
     1
 90
        3
176
     1
 62
     5
420
      255
176
     1
290
     0
176
     1
 90
       50
176
     1
 90
       50
176
     1
 90
       50
176
     1
290
     0
176
     1
 90
       50
176
     1
 62
   256
176
     0
 40
1.0
176
     0
 90
        2
176
     1
  1
strokes_ogs.tif
176
     1
290
     0
176
     1
 40
1.0
176
     1
 40
1.0
176
     1
  0
VISUALSTYLE
  5
2C
102
{ACAD_REACTORS
330
2A
102
}
330
2A
100
AcDbVisualStyle
  2
FlatWithEdges
 70
     1
177
     3
291
     1
 70
    58
 90
        2
176
     1
 90
        1
176
     1
 90
        1
176
     1
 90
        2
176
     1
 40
0.6
176
     1
 40
30.0
176
     1
 62
     7
420
 16777215
176
     1
 90
        1
176
     1
 90
        0
176
     1
 62
     7
176
     1
 62
   257
176
     1
 90
        1
176
     1
 90
        1
176
     1
 40
1.0
176
     1
 90
        0
176
     1
 62
   257
176
     1
 40
1.0
176
     1
 90
        1
176
     1
 90
        6
176
     1
 90
        2
176
     1
 62
     7
176
     1
 90
        5
176
     1
 90
        0
176
     1
 90
        0
176
     1
290
     0
176
     1
 90
       13
176
     1
 40
0.0
176
     1
 90
        0
176
     1
290
     0
176
     1
290
     1
176
     1
290
     1
176
     1
290
     0
176
     1
290
     0
176
     1
290
     0
176
     1
290
     0
176
     1
290
     0
176
     1
290
     0
176
     1
 90
       50
176
     1
 40
0.0
176
     1
 40
1.0
176
     1
 90
        0
176
     1
 62
    18
420
        0
176
     1
 90
       50
176
     1
 90
        3
176
     1
 62
     5
420
      255
176
     1
290
     0
176
     1
 90
       50
176
     1
 90
       50
176
     1
 90
       50
176
     1
290
     0
176
     1
 90
       50
176
     1
 62
   256
176
     0
 40
1.0
176
     0
 90
        2
176
     1
  1
strokes_ogs.tif
176
     1
290
     0
176
     1
 40
1.0
176
     1
 40
1.0
176
     1
  0
VISUALSTYLE
  5
2D
102
{ACAD_REACTORS
330
2A
102
}
330
2A
100
AcDbVisualStyle
  2
Gouraud
 70
     2
177
     3
291
     1
 70
    58
 90
        2
176
     1
 90
        2
176
     1
 90
        1
176
     1
 90
        2
176
     1
 40
0.6
176
     1
 40
30.0
176
     1
 62
     7
420
 16777215
176
     1
 90
        0
176
     1
 90
        0
176
     1
 62
     7
176
     1
 62
   257
176
     1
 90
        1
176
     1
 90
        1
176
     1
 40
1.0
176
     1
 90
        0
176
     1
 62
     7
176
     1
 40
1.0
176
     1
 90
        1
176
     1
 90
        6
176
     1
 90
        2
176
     1
 62
     7
176
     1
 90
        5
176
     1
 90
        0
176
     1
 90
        0
176
     1
290
     0
176
     1
 90
       13
176
     1
 40
0.0
176
     1
 90
        0
176
     1
290
     0
176
     1
290
     1
176
     1
290
     1
176
     1
290
     0
176
     1
290
     0
176
     1
290
     0
176
     1
290
     0
176
     1
290
     0
176
     1
290
     0
176
     1
 90
       50
176
     1
 40
0.0
176
     1
 40
1.0
176
     1
 90
        0
176
     1
 62
    18
420
        0
176
     1
 90
       50
176
     1
 90
        3
176
     1
 62
     5
420
      255
176
     1
290
     0
176
     1
 90
       50
176
     1
 90
       50
176
     1
 90
       50
176
     1
290
     0
176
     1
 90
       50
176
     1
 62
   256
176
     0
 40
1.0
176
     0
 90
        2
176
     1
  1
strokes_ogs.tif
176
     1
290
     0
176
     1
 40
1.0
176
     1
 40
1.0
176
     1
  0
VISUALSTYLE
  5
2E
102
{ACAD_REACTORS
330
2A
102
}
330
2A
100
AcDbVisualStyle
  2
GouraudWithEdges
 70
     3
177
     3
291
     1
 70
    58
 90
        2
176
     1
 90
        2
176
     1
 90
        1
176
     1
 90
        2
176
     1
 40
0.6
176
     1
 40
30.0
176
     1
 62
     7
420
 16777215
176
     1
 90
        1
176
     1
 90
        0
176
     1
 62
     7
176
     1
 62
   257
176
     1
 90
        1
176
     1
 90
        1
176
     1
 40
1.0
176
     1
 90
        0
176
     1
 62
   257
176
     1
 40
1.0
176
     1
 90
        1
176
     1
 90
        6
176
     1
 90
        2
176
     1
 62
     7
176
     1
 90
        5
176
     1
 90
        0
176
     1
 90
        0
176
     1
290
     0
176
     1
 90
       13
176
     1
 40
0.0
176
     1
 90
        0
176
     1
290
     0
176
     1
290
     1
176
     1
290
     1
176
     1
290
     0
176
     1
290
     0
176
     1
290
     0
176
     1
290
     0
176
     1
290
     0
176
     1
290
     0
176
     1
 90
       50
176
     1
 40
0.0
176
     1
 40
1.0
176
     1
 90
        0
176
     1
 62
    18
420
        0
176
     1
 90
       50
176
     1
 90
        3
176
     1
 62
     5
420
      255
176
     1
290
     0
176
     1
 90
       50
176
     1
 90
       50
176
     1
 90
       50
176
     1
290
     0
176
     1
 90
       50
176
     1
 62
   256
176
     0
 40
1.0
176
     0
 90
        2
176
     1
  1
strokes_ogs.tif
176
     1
290
     0
176
     1
 40
1.0
176
     1
 40
1.0
176
     1
  0
VISUALSTYLE
  5
31
102
{ACAD_REACTORS
330
2A
102
}
330
2A
100
AcDbVisualStyle
  2
Hidden
 70
     6
177
     3
291
     0
 70
    58
 90
        1
176
     1
 90
        2
176
     1
 90
        2
176
     1
 90
        0
176
     1
 40
0.6
176
     1
 40
30.0
176
     1
 62
     7
420
 16777215
176
     1
 90
        2
176
     1
 90
        2
176
     1
 62
     7
176
     1
 62
   257
176
     1
 90
        2
176
     1
 90
        1
176
     1
 40
40.0
176
     1
 90
        0
176
     1
 62
   257
176
     1
 40
1.0
176
     1
 90
        1
176
     1
 90
        6
176
     1
 90
        2
176
     1
 62
     7
176
     1
 90
        3
176
     1
 90
        0
176
     1
 90
        0
176
     1
290
     0
176
     1
 90
        1
176
     1
 40
0.0
176
     1
 90
        0
176
     1
290
     0
176
     1
290
     1
176
     1
290
     1
176
     1
290
     0
176
     1
290
     0
176
     1
290
     0
176
     1
290
     0
176
     1
290
     0
176
     1
290
     0
176
     1
 90
       50
176
     1
 40
0.0
176
     1
 40
1.0
176
     1
 90
        0
176
     1
 62
    18
420
        0
176
     1
 90
       50
176
     1
 90
        3
176
     1
 62
     5
420
      255
176
     1
290
     0
176
     1
 90
       50
176
     1
 90
       50
176
     1
 90
       50
176
     1
290
     0
176
     1
 90
       50
176
     1
 62
   256
176
     0
 40
1.0
176
     0
 90
        2
176
     1
  1
strokes_ogs.tif
176
     1
290
     0
176
     1
 40
1.0
176
     1
 40
1.0
176
     1
  0
VISUALSTYLE
  5
3B
102
{ACAD_REACTORS
330
2A
102
}
330
2A
100
AcDbVisualStyle
  2
JitterOff
 70
    20
177
     3
291
     1
 70
    58
 90
        2
176
     0
 90
        2
176
     0
 90
        0
176
     0
 90
        0
176
     0
 40
0.6
176
     0
 40
30.0
176
     0
 62
     7
420
 16777215
176
     0
 90
        1
176
     0
 90
        4
176
     0
 62
     7
176
     0
 62
   257
176
     0
 90
        1
176
     0
 90
        1
176
     0
 40
1.0
176
     0
 90
       10
176
     2
 62
     7
176
     0
 40
1.0
176
     0
 90
        1
176
     0
 90
        6
176
     0
 90
        2
176
     0
 62
     7
176
     0
 90
        5
176
     0
 90
        0
176
     0
 90
        0
176
     0
290
     0
176
     0
 90
        1
176
     0
 40
0.0
176
     0
 90
        0
176
     0
290
     0
176
     0
290
     1
176
     0
290
     1
176
     0
290
     0
176
     0
290
     0
176
     0
290
     0
176
     0
290
     0
176
     0
290
     0
176
     0
290
     0
176
     0
 90
       50
176
     0
 40
0.0
176
     0
 40
1.0
176
     0
 90
        0
176
     0
 62
    18
420
        0
176
     0
 90
       50
176
     0
 90
        3
176
     0
 62
     5
420
      255
176
     0
290
     0
176
     0
 90
       50
176
     0
 90
       50
176
     0
 90
       50
176
     0
290
     0
176
     0
 90
       50
176
     0
 62
   256
176
     0
 40
1.0
176
     0
 90
        2
176
     0
  1
strokes_ogs.tif
176
     0
290
     0
176
     0
 40
1.0
176
     0
 40
1.0
176
     0
  0
VISUALSTYLE
  5
38
102
{ACAD_REACTORS
330
2A
102
}
330
2A
100
AcDbVisualStyle
  2
Linepattern
 70
    14
177
     3
291
     1
 70
    58
 90
        2
176
     1
 90
        2
176
     1
 90
        0
176
     1
 90
        0
176
     1
 40
0.6
176
     1
 40
30.0
176
     1
 62
     7
420
 16777215
176
     1
 90
        1
176
     1
 90
        4
176
     1
 62
     7
176
     1
 62
   257
176
     1
 90
        7
176
     1
 90
        7
176
     1
 40
1.0
176
     1
 90
        8
176
     1
 62
     7
176
     1
 40
1.0
176
     1
 90
        1
176
     1
 90
        6
176
     1
 90
        2
176
     1
 62
     7
176
     1
 90
        5
176
     1
 90
        0
176
     1
 90
        0
176
     1
290
     0
176
     1
 90
        1
176
     1
 40
0.0
176
     1
 90
        0
176
     1
290
     0
176
     1
290
     1
176
     1
290
     1
176
     1
290
     0
176
     1
290
     0
176
     1
290
     0
176
     1
290
     0
176
     1
290
     0
176
     1
290
     0
176
     1
 90
       50
176
     1
 40
0.0
176
     1
 40
1.0
176
     1
 90
        0
176
     1
 62
    18
420
        0
176
     1
 90
       50
176
     1
 90
        3
176
     1
 62
     5
420
      255
176
     1
290
     0
176
     1
 90
       50
176
     1
 90
       50
176
     1
 90
       50
176
     1
290
     0
176
     1
 90
       50
176
     1
 62
   256
176
     0
 40
1.0
176
     0
 90
        2
176
     1
  1
strokes_ogs.tif
176
     1
290
     0
176
     1
 40
1.0
176
     1
 40
1.0
176
     1
  0
VISUALSTYLE
  5
3C
102
{ACAD_REACTORS
330
2A
102
}
330
2A
100
AcDbVisualStyle
  2
OverhangOff
 70
    21
177
     3
291
     1
 70
    58
 90
        2
176
     0
 90
        2
176
     0
 90
        0
176
     0
 90
        0
176
     0
 40
0.6
176
     0
 40
30.0
176
     0
 62
     7
420
 16777215
176
     0
 90
        1
176
     0
 90
        4
176
     0
 62
     7
176
     0
 62
   257
176
     0
 90
        1
176
     0
 90
        1
176
     0
 40
1.0
176
     0
 90
        9
176
     2
 62
     7
176
     0
 40
1.0
176
     0
 90
        1
176
     0
 90
        6
176
     0
 90
        2
176
     0
 62
     7
176
     0
 90
        5
176
     0
 90
        0
176
     0
 90
        0
176
     0
290
     0
176
     0
 90
        1
176
     0
 40
0.0
176
     0
 90
        0
176
     0
290
     0
176
     0
290
     1
176
     0
290
     1
176
     0
290
     0
176
     0
290
     0
176
     0
290
     0
176
     0
290
     0
176
     0
290
     0
176
     0
290
     0
176
     0
 90
       50
176
     0
 40
0.0
176
     0
 40
1.0
176
     0
 90
        0
176
     0
 62
    18
420
        0
176
     0
 90
       50
176
     0
 90
        3
176
     0
 62
     5
420
      255
176
     0
290
     0
176
     0
 90
       50
176
     0
 90
       50
176
     0
 90
       50
176
     0
290
     0
176
     0
 90
       50
176
     0
 62
   256
176
     0
 40
1.0
176
     0
 90
        2
176
     0
  1
strokes_ogs.tif
176
     0
290
     0
176
     0
 40
1.0
176
     0
 40
1.0
176
     0
  0
VISUALSTYLE
  5
33
102
{ACAD_REACTORS
330
2A
102
}
330
2A
100
AcDbVisualStyle
  2
Realistic
 70
     8
177
     3
291
     0
 70
    58
 90
        2
176
     1
 90
        3
176
     1
 90
        0
176
     1
 90
        2
176
     1
 40
0.6
176
     1
 40
30.0
176
     1
 62
     7
420
 16777215
176
     1
 90
        0
176
     1
 90
        0
176
     1
 62
     7
176
     1
 62
   257
176
     1
 90
        1
176
     1
 90
        1
176
     1
 40
1.0
176
     1
 90
        8
176
     1
 62
   257
176
     1
 40
1.0
176
     1
 90
        1
176
     1
 90
        6
176
     1
 90
        2
176
     1
 62
     7
176
     1
 90
        3
176
     1
 90
        0
176
     1
 90
        0
176
     1
290
     0
176
     1
 90
       13
176
     1
 40
0.0
176
     1
 90
        0
176
     1
290
     0
176
     1
290
     1
176
     1
290
     1
176
     1
290
     0
176
     1
290
     0
176
     1
290
     0
176
     1
290
     0
176
     1
290
     0
176
     1
290
     0
176
     1
 90
       50
176
     1
 40
0.0
176
     1
 40
1.0
176
     1
 90
        0
176
     1
 62
    18
420
        0
176
     1
 90
       50
176
     1
 90
        3
176
     1
 62
     5
420
      255
176
     1
290
     0
176
     1
 90
       50
176
     1
 90
       50
176
     1
 90
       50
176
     1
290
     0
176
     1
 90
       50
176
     1
 62
   256
176
     0
 40
1.0
176
     0
 90
        2
176
     1
  1
strokes_ogs.tif
176
     1
290
     0
176
     1
 40
1.0
176
     1
 40
1.0
176
     1
  0
VISUALSTYLE
  5
42
102
{ACAD_REACTORS
330
2A
102
}
330
2A
100
AcDbVisualStyle
  2
Shaded
 70
    27
177
     3
291
     0
 70
    58
 90
        2
176
     1
 90
        2
176
     1
 90
        1
176
     1
 90
        2
176
     1
 40
0.6
176
     1
 40
30.0
176
     1
 62
     7
420
 16777215
176
     1
 90
        0
176
     1
 90
        4
176
     1
 62
     7
176
     1
 62
   257
176
     1
 90
        1
176
     1
 90
        1
176
     1
 40
1.0
176
     1
 90
        8
176
     1
 62
   257
176
     1
 40
1.0
176
     1
 90
        1
176
     1
 90
        6
176
     1
 90
        2
176
     1
 62
     8
420
  7895160
176
     1
 90
        3
176
     1
 90
        0
176
     1
 90
        0
176
     1
290
     0
176
     1
 90
        5
176
     1
 40
0.0
176
     1
 90
        0
176
     1
290
     0
176
     1
290
     1
176
     1
290
     1
176
     1
290
     0
176
     1
290
     0
176
     1
290
     0
176
     1
290
     0
176
     1
290
     0
176
     1
290
     0
176
     1
 90
       50
176
     1
 40
0.0
176
     1
 40
1.0
176
     1
 90
        0
176
     1
 62
    18
420
        0
176
     1
 90
       50
176
     1
 90
        3
176
     1
 62
     5
420
      255
176
     1
290
     0
176
     1
 90
       50
176
     1
 90
       50
176
     1
 90
       50
176
     1
290
     0
176
     1
 90
       50
176
     1
 62
   256
176
     0
 40
1.0
176
     0
 90
        2
176
     1
  1
strokes_ogs.tif
176
     1
290
     0
176
     1
 40
1.0
176
     1
 40
1.0
176
     1
  0
VISUALSTYLE
  5
41
102
{ACAD_REACTORS
330
2A
102
}
330
2A
100
AcDbVisualStyle
  2
Shaded with edges
 70
    26
177
     3
291
     0
 70
    58
 90
        2
176
     1
 90
        2
176
     1
 90
        1
176
     1
 90
        2
176
     1
 40
0.6
176
     1
 40
30.0
176
     1
 62
     7
420
 16777215
176
     1
 90
        1
176
     1
 90
       10
176
     1
 62
     7
176
     1
 62
   257
176
     1
 90
        2
176
     1
 90
        1
176
     1
 40
1.0
176
     1
 90
        8
176
     1
 62
   257
176
     1
 40
1.0
176
     1
 90
        1
176
     1
 90
        6
176
     1
 90
        2
176
     1
 62
     7
176
     1
 90
        3
176
     1
 90
        0
176
     1
 90
        0
176
     1
290
     0
176
     1
 90
        5
176
     1
 40
0.0
176
     1
 90
        0
176
     1
290
     0
176
     1
290
     1
176
     1
290
     1
176
     1
290
     0
176
     1
290
     0
176
     1
290
     0
176
     1
290
     0
176
     1
290
     0
176
     1
290
     0
176
     1
 90
       50
176
     1
 40
0.0
176
     1
 40
1.0
176
     1
 90
        0
176
     1
 62
    18
420
        0
176
     1
 90
       50
176
     1
 90
        3
176
     1
 62
     5
420
      255
176
     1
290
     0
176
     1
 90
       50
176
     1
 90
       50
176
     1
 90
       50
176
     1
290
     0
176
     1
 90
       50
176
     1
 62
   256
176
     0
 40
1.0
176
     0
 90
        2
176
     1
  1
strokes_ogs.tif
176
     1
290
     0
176
     1
 40
1.0
176
     1
 40
1.0
176
     1
  0
VISUALSTYLE
  5
3E
102
{ACAD_REACTORS
330
2A
102
}
330
2A
100
AcDbVisualStyle
  2
Shades of Gray
 70
    23
177
     3
291
     0
 70
    58
 90
        2
176
     1
 90
        2
176
     1
 90
        3
176
     1
 90
        0
176
     1
 40
0.6
176
     1
 40
30.0
176
     1
 62
     7
420
 16777215
176
     1
 90
        2
176
     1
 90
        2
176
     1
 62
     7
176
     1
 62
     7
176
     1
 90
        1
176
     1
 90
        1
176
     1
 40
40.0
176
     1
 90
        8
176
     1
 62
     7
176
     1
 40
1.0
176
     1
 90
        1
176
     1
 90
        6
176
     1
 90
        2
176
     1
 62
     7
176
     1
 90
        3
176
     1
 90
        0
176
     1
 90
        0
176
     1
290
     0
176
     1
 90
        1
176
     1
 40
0.0
176
     1
 90
        0
176
     1
290
     0
176
     1
290
     1
176
     1
290
     1
176
     1
290
     0
176
     1
290
     0
176
     1
290
     0
176
     1
290
     0
176
     1
290
     0
176
     1
290
     0
176
     1
 90
       50
176
     1
 40
0.0
176
     1
 40
1.0
176
     1
 90
        0
176
     1
 62
    18
420
        0
176
     1
 90
       50
176
     1
 90
        3
176
     1
 62
     5
420
      255
176
     1
290
     0
176
     1
 90
       50
176
     1
 90
       50
176
     1
 90
       50
176
     1
290
     0
176
     1
 90
       50
176
     1
 62
   256
176
     0
 40
1.0
176
     0
 90
        2
176
     1
  1
strokes_ogs.tif
176
     1
290
     0
176
     1
 40
1.0
176
     1
 40
1.0
176
     1
  0
VISUALSTYLE
  5
3F
102
{ACAD_REACTORS
330
2A
102
}
330
2A
100
AcDbVisualStyle
  2
Sketchy
 70
    24
177
     3
291
     0
 70
    58
 90
        1
176
     1
 90
        2
176
     1
 90
        2
176
     1
 90
        0
176
     1
 40
0.6
176
     1
 40
30.0
176
     1
 62
     7
420
 16777215
176
     1
 90
        2
176
     1
 90
        2
176
     1
 62
     7
176
     1
 62
     7
176
     1
 90
        1
176
     1
 90
        1
176
     1
 40
40.0
176
     1
 90
       11
176
     1
 62
     7
176
     1
 40
1.0
176
     1
 90
        1
176
     1
 90
        6
176
     1
 90
        2
176
     1
 62
     7
176
     1
 90
        6
176
     1
 90
        0
176
     1
 90
        0
176
     1
290
     0
176
     1
 90
        1
176
     1
 40
0.0
176
     1
 90
        0
176
     1
290
     0
176
     1
290
     1
176
     1
290
     1
176
     1
290
     0
176
     1
290
     0
176
     1
290
     0
176
     1
290
     0
176
     1
290
     0
176
     1
290
     0
176
     1
 90
       50
176
     1
 40
0.0
176
     1
 40
1.0
176
     1
 90
        0
176
     1
 62
    18
420
        0
176
     1
 90
       50
176
     1
 90
        3
176
     1
 62
     5
420
      255
176
     1
290
     0
176
     1
 90
       50
176
     1
 90
       50
176
     1
 90
       50
176
     1
290
     0
176
     1
 90
       50
176
     1
 62
   256
176
     0
 40
1.0
176
     0
 90
        2
176
     1
  1
strokes_ogs.tif
176
     1
290
     0
176
     1
 40
1.0
176
     1
 40
1.0
176
     1
  0
VISUALSTYLE
  5
37
102
{ACAD_REACTORS
330
2A
102
}
330
2A
100
AcDbVisualStyle
  2
Thicken
 70
    13
177
     3
291
     1
 70
    58
 90
        2
176
     1
 90
        2
176
     1
 90
        0
176
     1
 90
        0
176
     1
 40
0.6
176
     1
 40
30.0
176
     1
 62
     7
420
 16777215
176
     1
 90
        1
176
     1
 90
        4
176
     1
 62
     7
176
     1
 62
   257
176
     1
 90
        1
176
     1
 90
        1
176
     1
 40
1.0
176
     1
 90
       12
176
     1
 62
     7
176
     1
 40
1.0
176
     1
 90
        1
176
     1
 90
        6
176
     1
 90
        2
176
     1
 62
     7
176
     1
 90
        5
176
     1
 90
        0
176
     1
 90
        0
176
     1
290
     0
176
     1
 90
        1
176
     1
 40
0.0
176
     1
 90
        0
176
     1
290
     0
176
     1
290
     1
176
     1
290
     1
176
     1
290
     0
176
     1
290
     0
176
     1
290
     0
176
     1
290
     0
176
     1
290
     0
176
     1
290
     0
176
     1
 90
       50
176
     1
 40
0.0
176
     1
 40
1.0
176
     1
 90
        0
176
     1
 62
    18
420
        0
176
     1
 90
       50
176
     1
 90
        3
176
     1
 62
     5
420
      255
176
     1
290
     0
176
     1
 90
       50
176
     1
 90
       50
176
     1
 90
       50
176
     1
290
     0
176
     1
 90
       50
176
     1
 62
   256
176
     0
 40
1.0
176
     0
 90
        2
176
     1
  1
strokes_ogs.tif
176
     1
290
     0
176
     1
 40
1.0
176
     1
 40
1.0
176
     1
  0
VISUALSTYLE
  5
30
102
{ACAD_REACTORS
330
2A
102
}
330
2A
100
AcDbVisualStyle
  2
Wireframe
 70
     5
177
     3
291
     0
 70
    58
 90
        0
176
     1
 90
        2
176
     1
 90
        0
176
     1
 90
        0
176
     1
 40
0.6
176
     1
 40
30.0
176
     1
 62
     7
420
 16777215
176
     1
 90
        1
176
     1
 90
        4
176
     1
 62
     7
176
     1
 62
   257
176
     1
 90
        1
176
     1
 90
        1
176
     1
 40
1.0
176
     1
 90
        0
176
     1
 62
   257
176
     1
 40
1.0
176
     1
 90
        1
176
     1
 90
        6
176
     1
 90
        2
176
     1
 62
     7
176
     1
 90
        3
176
     1
 90
        0
176
     1
 90
        0
176
     1
290
     0
176
     1
 90
        1
176
     1
 40
0.0
176
     1
 90
        0
176
     1
290
     0
176
     1
290
     1
176
     1
290
     1
176
     1
290
     0
176
     1
290
     0
176
     1
290
     0
176
     1
290
     0
176
     1
290
     0
176
     1
290
     0
176
     1
 90
       50
176
     1
 40
0.0
176
     1
 40
1.0
176
     1
 90
        0
176
     1
 62
    18
420
        0
176
     1
 90
       50
176
     1
 90
        3
176
     1
 62
     5
420
      255
176
     1
290
     0
176
     1
 90
       50
176
     1
 90
       50
176
     1
 90
       50
176
     1
290
     0
176
     1
 90
       50
176
     1
 62
   256
176
     0
 40
1.0
176
     0
 90
        2
176
     1
  1
strokes_ogs.tif
176
     1
290
     0
176
     1
 40
1.0
176
     1
 40
1.0
176
     1
  0
VISUALSTYLE
  5
40
102
{ACAD_REACTORS
330
2A
102
}
330
2A
100
AcDbVisualStyle
  2
X-Ray
 70
    25
177
     3
291
     0
 70
    58
 90
        2
176
     1
 90
        2
176
     1
 90
        1
176
     1
 90
        1
176
     1
 40
0.5
176
     1
 40
30.0
176
     1
 62
     7
420
 16777215
176
     1
 90
        1
176
     1
 90
        0
176
     1
 62
     7
176
     1
 62
   257
176
     1
 90
        1
176
     1
 90
        1
176
     1
 40
1.0
176
     1
 90
        8
176
     1
 62
     7
176
     1
 40
1.0
176
     1
 90
        1
176
     1
 90
        6
176
     1
 90
        2
176
     1
 62
     7
176
     1
 90
        3
176
     1
 90
        0
176
     1
 90
        0
176
     1
290
     0
176
     1
 90
       13
176
     1
 40
0.0
176
     1
 90
        0
176
     1
290
     0
176
     1
290
     1
176
     1
290
     1
176
     1
290
     0
176
     1
290
     0
176
     1
290
     0
176
     1
290
     0
176
     1
290
     0
176
     1
290
     0
176
     1
 90
       50
176
     1
 40
0.0
176
     1
 40
1.0
176
     1
 90
        0
176
     1
 62
    18
420
        0
176
     1
 90
       50
176
     1
 90
        3
176
     1
 62
     5
420
      255
176
     1
290
     0
176
     1
 90
       50
176
     1
 90
       50
176
     1
 90
       50
176
     1
290
     0
176
     1
 90
       50
176
     1
 62
   256
176
     0
 40
1.0
176
     0
 90
        2
176
     1
  1
strokes_ogs.tif
176
     1
290
     0
176
     1
 40
1.0
176
     1
 40
1.0
176
     1
  0
DICTIONARYVAR
  5
21D
102
{ACAD_REACTORS
330
21C
102
}
330
21C
100
DictionaryVariables
280
     0
  1
1:1
  0
DICTIONARYVAR
  5
222
102
{ACAD_REACTORS
330
21C
102
}
330
21C
100
DictionaryVariables
280
     0
  1
Standard
  0
DICTIONARYVAR
  5
221
102
{ACAD_REACTORS
330
21C
102
}
330
21C
100
DictionaryVariables
280
     0
  1
Standard
  0
DICTIONARY
  5
21E
330
6A
100
AcDbDictionary
280
     1
281
     1
  3
ACAD_ROUNDTRIP_2008_TABLESTYLE_CELLSTYLEMAP
360
21F
  0
CELLSTYLEMAP
  5
21F
102
{ACAD_REACTORS
330
21E
102
}
330
21E
100
AcDbCellStyleMap
 90
        3
300
CELLSTYLE
  1
TABLEFORMAT_BEGIN
 90
        5
170
     1
 91
        0
 92
    32768
 62
   257
 93
        1
300
CONTENTFORMAT
  1
CONTENTFORMAT_BEGIN
 90
        0
 91
        0
 92
        4
 93
        0
300

 40
0.0
140
1.0
 94
        5
 62
     0
340
11
144
0.25
309
CONTENTFORMAT_END
171
     1
301
MARGIN
  1
CELLMARGIN_BEGIN
 40
0.06
 40
0.06
 40
0.06
 40
0.06
 40
0.06
 40
0.06
309
CELLMARGIN_END
 94
        6
 95
        1
302
GRIDFORMAT
  1
GRIDFORMAT_BEGIN
 90
        0
 91
        1
 62
     0
 92
       -2
340
14
 93
        0
 40
0.045
309
GRIDFORMAT_END
 95
        2
302
GRIDFORMAT
  1
GRIDFORMAT_BEGIN
 90
        0
 91
        1
 62
     0
 92
       -2
340
14
 93
        0
 40
0.045
309
GRIDFORMAT_END
 95
        4
302
GRIDFORMAT
  1
GRIDFORMAT_BEGIN
 90
        0
 91
        1
 62
     0
 92
       -2
340
14
 93
        0
 40
0.045
309
GRIDFORMAT_END
 95
        8
302
GRIDFORMAT
  1
GRIDFORMAT_BEGIN
 90
        0
 91
        1
 62
     0
 92
       -2
340
14
 93
        0
 40
0.045
309
GRIDFORMAT_END
 95
       16
302
GRIDFORMAT
  1
GRIDFORMAT_BEGIN
 90
        0
 91
        1
 62
     0
 92
       -2
340
14
 93
        0
 40
0.045
309
GRIDFORMAT_END
 95
       32
302
GRIDFORMAT
  1
GRIDFORMAT_BEGIN
 90
        0
 91
        1
 62
     0
 92
       -2
340
14
 93
        0
 40
0.045
309
GRIDFORMAT_END
309
TABLEFORMAT_END
  1
CELLSTYLE_BEGIN
 90
        1
 91
        1
300
_TITLE
309
CELLSTYLE_END
300
CELLSTYLE
  1
TABLEFORMAT_BEGIN
 90
        5
170
     1
 91
        0
 92
        0
 62
   257
 93
        1
300
CONTENTFORMAT
  1
CONTENTFORMAT_BEGIN
 90
        0
 91
        0
 92
        4
 93
        0
300

 40
0.0
140
1.0
 94
        5
 62
     0
340
11
144
0.18
309
CONTENTFORMAT_END
171
     1
301
MARGIN
  1
CELLMARGIN_BEGIN
 40
0.06
 40
0.06
 40
0.06
 40
0.06
 40
0.06
 40
0.06
309
CELLMARGIN_END
 94
        6
 95
        1
302
GRIDFORMAT
  1
GRIDFORMAT_BEGIN
 90
        0
 91
        1
 62
     0
 92
       -2
340
14
 93
        0
 40
0.045
309
GRIDFORMAT_END
 95
        2
302
GRIDFORMAT
  1
GRIDFORMAT_BEGIN
 90
        0
 91
        1
 62
     0
 92
       -2
340
14
 93
        0
 40
0.045
309
GRIDFORMAT_END
 95
        4
302
GRIDFORMAT
  1
GRIDFORMAT_BEGIN
 90
        0
 91
        1
 62
     0
 92
       -2
340
14
 93
        0
 40
0.045
309
GRIDFORMAT_END
 95
        8
302
GRIDFORMAT
  1
GRIDFORMAT_BEGIN
 90
        0
 91
        1
 62
     0
 92
       -2
340
14
 93
        0
 40
0.045
309
GRIDFORMAT_END
 95
       16
302
GRIDFORMAT
  1
GRIDFORMAT_BEGIN
 90
        0
 91
        1
 62
     0
 92
       -2
340
14
 93
        0
 40
0.045
309
GRIDFORMAT_END
 95
       32
302
GRIDFORMAT
  1
GRIDFORMAT_BEGIN
 90
        0
 91
        1
 62
     0
 92
       -2
340
14
 93
        0
 40
0.045
309
GRIDFORMAT_END
309
TABLEFORMAT_END
  1
CELLSTYLE_BEGIN
 90
        2
 91
        1
300
_HEADER
309
CELLSTYLE_END
300
CELLSTYLE
  1
TABLEFORMAT_BEGIN
 90
        5
170
     1
 91
        0
 92
        0
 62
   257
 93
        1
300
CONTENTFORMAT
  1
CONTENTFORMAT_BEGIN
 90
        0
 91
        0
 92
        4
 93
        0
300

 40
0.0
140
1.0
 94
        2
 62
     0
340
11
144
0.18
309
CONTENTFORMAT_END
171
     1
301
MARGIN
  1
CELLMARGIN_BEGIN
 40
0.06
 40
0.06
 40
0.06
 40
0.06
 40
0.06
 40
0.06
309
CELLMARGIN_END
 94
        6
 95
        1
302
GRIDFORMAT
  1
GRIDFORMAT_BEGIN
 90
        0
 91
        1
 62
     0
 92
       -2
340
14
 93
        0
 40
0.045
309
GRIDFORMAT_END
 95
        2
302
GRIDFORMAT
  1
GRIDFORMAT_BEGIN
 90
        0
 91
        1
 62
     0
 92
       -2
340
14
 93
        0
 40
0.045
309
GRIDFORMAT_END
 95
        4
302
GRIDFORMAT
  1
GRIDFORMAT_BEGIN
 90
        0
 91
        1
 62
     0
 92
       -2
340
14
 93
        0
 40
0.045
309
GRIDFORMAT_END
 95
        8
302
GRIDFORMAT
  1
GRIDFORMAT_BEGIN
 90
        0
 91
        1
 62
     0
 92
       -2
340
14
 93
        0
 40
0.045
309
GRIDFORMAT_END
 95
       16
302
GRIDFORMAT
  1
GRIDFORMAT_BEGIN
 90
        0
 91
        1
 62
     0
 92
       -2
340
14
 93
        0
 40
0.045
309
GRIDFORMAT_END
 95
       32
302
GRIDFORMAT
  1
GRIDFORMAT_BEGIN
 90
        0
 91
        1
 62
     0
 92
       -2
340
14
 93
        0
 40
0.045
309
GRIDFORMAT_END
309
TABLEFORMAT_END
  1
CELLSTYLE_BEGIN
 90
        3
 91
        2
300
_DATA
309
CELLSTYLE_END
  0
ENDSEC
  0
EOF