0
SECTION
  2
HEADER
  9
$ACADVER
  1
AC1027
  9
$ACADMAINTVER
 70
     8
  9
$DWGCODEPAGE
  3
ANSI_1252
  9
$REQUIREDVERSIONS
160
                 0
  9
$COMMENTS
  1
File was created by Cadenas
  9
$CUSTOMPROPERTYTAG
  1
NN
  9
$CUSTOMPROPERTY
  1
S-2000 Flange Bearing - Square with Type E Dimensions Trident Seal Non-Expansion
  9
$CUSTOMPROPERTYTAG
  1
NT
  9
$CUSTOMPROPERTY
  1
S-2000 - E Type - Inch
  9
$CUSTOMPROPERTYTAG
  1
NB
  9
$CUSTOMPROPERTY
  1
071489
  9
$CUSTOMPROPERTYTAG
  1
NBSYN
  9
$CUSTOMPROPERTY
  1
$PN.
  9
$CUSTOMPROPERTYTAG
  1
LINA
  9
$CUSTOMPROPERTY
  1
071489
  9
$CUSTOMPROPERTYTAG
  1
SS
  9
$CUSTOMPROPERTY
  1
2-11/16
  9
$CUSTOMPROPERTYTAG
  1
TYPE
  9
$CUSTOMPROPERTY
  1
Expansion
  9
$CUSTOMPROPERTYTAG
  1
PN
  9
$CUSTOMPROPERTY
  1
071489
  9
$CUSTOMPROPERTYTAG
  1
DESCRIPTION
  9
$CUSTOMPROPERTY
  1
EF4B-S2-211RE
  9
$CUSTOMPROPERTYTAG
  1
A
  9
$CUSTOMPROPERTY
  1
3.59
  9
$CUSTOMPROPERTYTAG
  1
B
  9
$CUSTOMPROPERTY
  1
7.76
  9
$CUSTOMPROPERTYTAG
  1
C
  9
$CUSTOMPROPERTY
  1
4.69
  9
$CUSTOMPROPERTYTAG
  1
D
  9
$CUSTOMPROPERTY
  1
6
  9
$CUSTOMPROPERTYTAG
  1
DD
  9
$CUSTOMPROPERTY
  1
8.485
  9
$CUSTOMPROPERTYTAG
  1
F
  9
$CUSTOMPROPERTY
  1
3/4
  9
$CUSTOMPROPERTYTAG
  1
G
  9
$CUSTOMPROPERTY
  1
0.88
  9
$CUSTOMPROPERTYTAG
  1
H
  9
$CUSTOMPROPERTY
  1
1.61
  9
$CUSTOMPROPERTYTAG
  1
J
  9
$CUSTOMPROPERTY
  1
6.3
  9
$CUSTOMPROPERTYTAG
  1
L
  9
$CUSTOMPROPERTY
  1
4.61
  9
$CUSTOMPROPERTYTAG
  1
N
  9
$CUSTOMPROPERTY
  1
3.58
  9
$CUSTOMPROPERTYTAG
  1
P
  9
$CUSTOMPROPERTY
  1
1.09
  9
$CUSTOMPROPERTYTAG
  1
X
  9
$CUSTOMPROPERTY
  1
0.25
  9
$CUSTOMPROPERTYTAG
  1
Y
  9
$CUSTOMPROPERTY
  1
0.025
  9
$CUSTOMPROPERTYTAG
  1
Z
  9
$CUSTOMPROPERTY
  1
3.47
  9
$CUSTOMPROPERTYTAG
  1
CS
  9
$CUSTOMPROPERTY
  1
1/2-13
  9
$CUSTOMPROPERTYTAG
  1
TORQUE
  9
$CUSTOMPROPERTY
  1
620
  9
$CUSTOMPROPERTYTAG
  1
COMPANY
  9
$CUSTOMPROPERTY
  1
baldor
  9
$INSBASE
 10
0.0
 20
0.0
 30
0.0
  9
$EXTMIN
 10
1.000000000000000E+20
 20
1.000000000000000E+20
 30
1.000000000000000E+20
  9
$EXTMAX
 10
-1.000000000000000E+20
 20
-1.000000000000000E+20
 30
-1.000000000000000E+20
  9
$LIMMIN
 10
0.0
 20
0.0
  9
$LIMMAX
 10
12.0
 20
9.0
  9
$ORTHOMODE
 70
     0
  9
$REGENMODE
 70
     1
  9
$FILLMODE
 70
     1
  9
$QTEXTMODE
 70
     0
  9
$MIRRTEXT
 70
     1
  9
$LTSCALE
 40
1.0
  9
$ATTMODE
 70
     1
  9
$TEXTSIZE
 40
0.2
  9
$TRACEWID
 40
0.05
  9
$TEXTSTYLE
  7
Standard
  9
$CLAYER
  8
0
  9
$CELTYPE
  6
ByLayer
  9
$CECOLOR
 62
   256
  9
$CELTSCALE
 40
1.0
  9
$DISPSILH
 70
     0
  9
$DIMSCALE
 40
1.0
  9
$DIMASZ
 40
0.18
  9
$DIMEXO
 40
0.0625
  9
$DIMDLI
 40
0.38
  9
$DIMRND
 40
0.0
  9
$DIMDLE
 40
0.0
  9
$DIMEXE
 40
0.18
  9
$DIMTP
 40
0.0
  9
$DIMTM
 40
0.0
  9
$DIMTXT
 40
0.18
  9
$DIMCEN
 40
0.09
  9
$DIMTSZ
 40
0.0
  9
$DIMTOL
 70
     0
  9
$DIMLIM
 70
     0
  9
$DIMTIH
 70
     1
  9
$DIMTOH
 70
     1
  9
$DIMSE1
 70
     0
  9
$DIMSE2
 70
     0
  9
$DIMTAD
 70
     0
  9
$DIMZIN
 70
     0
  9
$DIMBLK
  1

  9
$DIMASO
 70
     1
  9
$DIMSHO
 70
     1
  9
$DIMPOST
  1

  9
$DIMAPOST
  1

  9
$DIMALT
 70
     0
  9
$DIMALTD
 70
     2
  9
$DIMALTF
 40
25.4
  9
$DIMLFAC
 40
1.0
  9
$DIMTOFL
 70
     0
  9
$DIMTVP
 40
0.0
  9
$DIMTIX
 70
     0
  9
$DIMSOXD
 70
     0
  9
$DIMSAH
 70
     0
  9
$DIMBLK1
  1

  9
$DIMBLK2
  1

  9
$DIMSTYLE
  2
Standard
  9
$DIMCLRD
 70
     0
  9
$DIMCLRE
 70
     0
  9
$DIMCLRT
 70
     0
  9
$DIMTFAC
 40
1.0
  9
$DIMGAP
 40
0.09
  9
$DIMJUST
 70
     0
  9
$DIMSD1
 70
     0
  9
$DIMSD2
 70
     0
  9
$DIMTOLJ
 70
     1
  9
$DIMTZIN
 70
     0
  9
$DIMALTZ
 70
     0
  9
$DIMALTTZ
 70
     0
  9
$DIMUPT
 70
     0
  9
$DIMDEC
 70
     4
  9
$DIMTDEC
 70
     4
  9
$DIMALTU
 70
     2
  9
$DIMALTTD
 70
     2
  9
$DIMTXSTY
  7
Standard
  9
$DIMAUNIT
 70
     0
  9
$DIMADEC
 70
     0
  9
$DIMALTRND
 40
0.0
  9
$DIMAZIN
 70
     0
  9
$DIMDSEP
 70
    46
  9
$DIMATFIT
 70
     3
  9
$DIMFRAC
 70
     0
  9
$DIMLDRBLK
  1

  9
$DIMLUNIT
 70
     2
  9
$DIMLWD
 70
    -2
  9
$DIMLWE
 70
    -2
  9
$DIMTMOVE
 70
     0
  9
$DIMFXL
 40
1.0
  9
$DIMFXLON
 70
     0
  9
$DIMJOGANG
 40
0.7853981633974483
  9
$DIMTFILL
 70
     0
  9
$DIMTFILLCLR
 70
     0
  9
$DIMARCSYM
 70
     0
  9
$DIMLTYPE
  6

  9
$DIMLTEX1
  6

  9
$DIMLTEX2
  6

  9
$DIMTXTDIRECTION
 70
     0
  9
$LUNITS
 70
     2
  9
$LUPREC
 70
     4
  9
$SKETCHINC
 40
0.1
  9
$FILLETRAD
 40
0.5
  9
$AUNITS
 70
     0
  9
$AUPREC
 70
     0
  9
$MENU
  1
.
  9
$ELEVATION
 40
0.0
  9
$PELEVATION
 40
0.0
  9
$THICKNESS
 40
0.0
  9
$LIMCHECK
 70
     0
  9
$CHAMFERA
 40
0.0
  9
$CHAMFERB
 40
0.0
  9
$CHAMFERC
 40
0.0
  9
$CHAMFERD
 40
0.0
  9
$SKPOLY
 70
     0
  9
$TDCREATE
 40
2458168.958573449
  9
$TDUCREATE
 40
2458168.916906782
  9
$TDUPDATE
 40
2458168.958573449
  9
$TDUUPDATE
 40
2458168.916906782
  9
$TDINDWG
 40
0.0000000116
  9
$TDUSRTIMER
 40
0.0000000116
  9
$USRTIMER
 70
     1
  9
$ANGBASE
 50
0.0
  9
$ANGDIR
 70
     0
  9
$PDMODE
 70
     0
  9
$PDSIZE
 40
0.0
  9
$PLINEWID
 40
0.0
  9
$SPLFRAME
 70
     0
  9
$SPLINETYPE
 70
     6
  9
$SPLINESEGS
 70
     8
  9
$HANDSEED
  5
1D6
  9
$SURFTAB1
 70
     6
  9
$SURFTAB2
 70
     6
  9
$SURFTYPE
 70
     6
  9
$SURFU
 70
     6
  9
$SURFV
 70
     6
  9
$UCSBASE
  2

  9
$UCSNAME
  2

  9
$UCSORG
 10
0.0
 20
0.0
 30
0.0
  9
$UCSXDIR
 10
1.0
 20
0.0
 30
0.0
  9
$UCSYDIR
 10
0.0
 20
1.0
 30
0.0
  9
$UCSORTHOREF
  2

  9
$UCSORTHOVIEW
 70
     0
  9
$UCSORGTOP
 10
0.0
 20
0.0
 30
0.0
  9
$UCSORGBOTTOM
 10
0.0
 20
0.0
 30
0.0
  9
$UCSORGLEFT
 10
0.0
 20
0.0
 30
0.0
  9
$UCSORGRIGHT
 10
0.0
 20
0.0
 30
0.0
  9
$UCSORGFRONT
 10
0.0
 20
0.0
 30
0.0
  9
$UCSORGBACK
 10
0.0
 20
0.0
 30
0.0
  9
$PUCSBASE
  2

  9
$PUCSNAME
  2

  9
$PUCSORG
 10
0.0
 20
0.0
 30
0.0
  9
$PUCSXDIR
 10
1.0
 20
0.0
 30
0.0
  9
$PUCSYDIR
 10
0.0
 20
1.0
 30
0.0
  9
$PUCSORTHOREF
  2

  9
$PUCSORTHOVIEW
 70
     0
  9
$PUCSORGTOP
 10
0.0
 20
0.0
 30
0.0
  9
$PUCSORGBOTTOM
 10
0.0
 20
0.0
 30
0.0
  9
$PUCSORGLEFT
 10
0.0
 20
0.0
 30
0.0
  9
$PUCSORGRIGHT
 10
0.0
 20
0.0
 30
0.0
  9
$PUCSORGFRONT
 10
0.0
 20
0.0
 30
0.0
  9
$PUCSORGBACK
 10
0.0
 20
0.0
 30
0.0
  9
$USERI1
 70
     0
  9
$USERI2
 70
     0
  9
$USERI3
 70
     0
  9
$USERI4
 70
     0
  9
$USERI5
 70
     0
  9
$USERR1
 40
0.0
  9
$USERR2
 40
0.0
  9
$USERR3
 40
0.0
  9
$USERR4
 40
0.0
  9
$USERR5
 40
0.0
  9
$WORLDVIEW
 70
     1
  9
$SHADEDGE
 70
     3
  9
$SHADEDIF
 70
    70
  9
$TILEMODE
 70
     1
  9
$MAXACTVP
 70
    64
  9
$PINSBASE
 10
0.0
 20
0.0
 30
0.0
  9
$PLIMCHECK
 70
     0
  9
$PEXTMIN
 10
1.000000000000000E+20
 20
1.000000000000000E+20
 30
1.000000000000000E+20
  9
$PEXTMAX
 10
-1.000000000000000E+20
 20
-1.000000000000000E+20
 30
-1.000000000000000E+20
  9
$PLIMMIN
 10
0.0
 20
0.0
  9
$PLIMMAX
 10
12.0
 20
9.0
  9
$UNITMODE
 70
     0
  9
$VISRETAIN
 70
     1
  9
$PLINEGEN
 70
     0
  9
$PSLTSCALE
 70
     1
  9
$TREEDEPTH
 70
  3020
  9
$CMLSTYLE
  2
Standard
  9
$CMLJUST
 70
     0
  9
$CMLSCALE
 40
1.0
  9
$PROXYGRAPHICS
 70
     1
  9
$MEASUREMENT
 70
     0
  9
$CELWEIGHT
370
    -1
  9
$ENDCAPS
280
     0
  9
$JOINSTYLE
280
     0
  9
$LWDISPLAY
290
     0
  9
$INSUNITS
 70
     1
  9
$HYPERLINKBASE
  1

  9
$STYLESHEET
  1

  9
$XEDIT
290
     1
  9
$CEPSNTYPE
380
     0
  9
$PSTYLEMODE
290
     1
  9
$FINGERPRINTGUID
  2
{1865188D-6524-47C5-BBEF-7FE9374EE896}
  9
$VERSIONGUID
  2
{FAEB1C32-E019-11D5-929B-00C0DF256EC4}
  9
$EXTNAMES
290
     1
  9
$PSVPSCALE
 40
0.0
  9
$OLESTARTUP
290
     0
  9
$SORTENTS
280
   127
  9
$INDEXCTL
280
     0
  9
$HIDETEXT
280
     1
  9
$XCLIPFRAME
280
     2
  9
$HALOGAP
280
     0
  9
$OBSCOLOR
 70
   257
  9
$OBSLTYPE
280
     0
  9
$INTERSECTIONDISPLAY
280
     0
  9
$INTERSECTIONCOLOR
 70
   257
  9
$DIMASSOC
280
     2
  9
$PROJECTNAME
  1

  9
$CAMERADISPLAY
290
     0
  9
$LENSLENGTH
 40
50.0
  9
$CAMERAHEIGHT
 40
0.0
  9
$STEPSPERSEC
 40
2.0
  9
$STEPSIZE
 40
6.0
  9
$3DDWFPREC
 40
2.0
  9
$PSOLWIDTH
 40
0.25
  9
$PSOLHEIGHT
 40
4.0
  9
$LOFTANG1
 40
1.570796326794897
  9
$LOFTANG2
 40
1.570796326794897
  9
$LOFTMAG1
 40
0.0
  9
$LOFTMAG2
 40
0.0
  9
$LOFTPARAM
 70
     7
  9
$LOFTNORMALS
280
     1
  9
$LATITUDE
 40
37.795
  9
$LONGITUDE
 40
-122.394
  9
$NORTHDIRECTION
 40
0.0
  9
$TIMEZONE
 70
 -8000
  9
$LIGHTGLYPHDISPLAY
280
     1
  9
$TILEMODELIGHTSYNCH
280
     1
  9
$CMATERIAL
347
44
  9
$SOLIDHIST
280
     0
  9
$SHOWHIST
280
     1
  9
$DWFFRAME
280
     2
  9
$DGNFRAME
280
     2
  9
$REALWORLDSCALE
290
     1
  9
$INTERFERECOLOR
 62
   256
  9
$CSHADOW
280
     0
  9
$SHADOWPLANELOCATION
 40
0.0
  0
ENDSEC
  0
SECTION
  2
CLASSES
  0
CLASS
  1
ACDBDICTIONARYWDFLT
  2
AcDbDictionaryWithDefault
  3
ObjectDBX Classes
 90
        0
 91
        4
280
     0
281
     0
  0
CLASS
  1
VISUALSTYLE
  2
AcDbVisualStyle
  3
ObjectDBX Classes
 90
     4095
 91
        4
280
     0
281
     0
  0
CLASS
  1
MATERIAL
  2
AcDbMaterial
  3
ObjectDBX Classes
 90
     1153
 91
        4
280
     0
281
     0
  0
CLASS
  1
SCALE
  2
AcDbScale
  3
ObjectDBX Classes
 90
     1153
 91
        4
280
     0
281
     0
  0
CLASS
  1
TABLESTYLE
  2
AcDbTableStyle
  3
ObjectDBX Classes
 90
     4095
 91
        4
280
     0
281
     0
  0
CLASS
  1
MLEADERSTYLE
  2
AcDbMLeaderStyle
  3
ACDB_MLEADERSTYLE_CLASS
 90
     4095
 91
        4
280
     0
281
     0
  0
CLASS
  1
SUN
  2
AcDbSun
  3
SCENEOE
 90
     1153
 91
        4
280
     0
281
     0
  0
CLASS
  1
DICTIONARYVAR
  2
AcDbDictionaryVar
  3
ObjectDBX Classes
 90
        0
 91
        4
280
     0
281
     0
  0
CLASS
  1
CELLSTYLEMAP
  2
AcDbCellStyleMap
  3
ObjectDBX Classes
 90
     1152
 91
        4
280
     0
281
     0
  0
ENDSEC
  0
SECTION
  2
TABLES
  0
TABLE
  2
VPORT
  5
8
330
0
100
AcDbSymbolTable
 70
     1
  0
VPORT
  5
29
330
8
100
AcDbSymbolTableRecord
100
AcDbViewportTableRecord
  2
*Active
 70
     0
 10
0.0
 20
0.0
 11
1.0
 21
1.0
 12
0.0
 22
-2.190250000000001
 13
0.0
 23
0.0
 14
0.5
 24
0.5
 15
0.5
 25
0.5
 16
0.0
 26
0.0
 36
1.0
 17
0.0
 27
0.0
 37
0.0
 40
5.09949
 41
1.552155215521552
 42
50.0
 43
0.0
 44
0.0
 50
0.0
 51
0.0
 71
     0
 72
   100
 73
     1
 74
     3
 75
     0
 76
     0
 77
     0
 78
     0
281
     0
 65
     1
110
0.0
120
0.0
130
0.0
111
1.0
121
0.0
131
0.0
112
0.0
122
1.0
132
0.0
 79
     0
146
0.0
348
2F
 60
     3
 61
     5
292
     1
282
     1
141
0.0
142
0.0
 63
   250
361
6D
  0
ENDTAB
  0
TABLE
  2
LTYPE
  5
5
330
0
100
AcDbSymbolTable
 70
     3
  0
LTYPE
  5
14
330
5
100
AcDbSymbolTableRecord
100
AcDbLinetypeTableRecord
  2
ByBlock
 70
     0
  3

 72
    65
 73
     0
 40
0.0
  0
LTYPE
  5
15
330
5
100
AcDbSymbolTableRecord
100
AcDbLinetypeTableRecord
  2
ByLayer
 70
     0
  3

 72
    65
 73
     0
 40
0.0
  0
LTYPE
  5
16
330
5
100
AcDbSymbolTableRecord
100
AcDbLinetypeTableRecord
  2
Continuous
 70
     0
  3
Solid line
 72
    65
 73
     0
 40
0.0
  0
LTYPE
  5
A7
330
5
100
AcDbSymbolTableRecord
100
AcDbLinetypeTableRecord
  2
Dashed
 70
     0
  3

 72
    65
 73
     2
 40
2.0
 49
1.0
 74
     0
 49
-1.0
 74
     0
  0
LTYPE
  5
1A6
330
5
100
AcDbSymbolTableRecord
100
AcDbLinetypeTableRecord
  2
Center
 70
     0
  3

 72
    65
 73
     4
 40
1.5
 49
0.45
 74
     0
 49
-0.5
 74
     0
 49
0.05
 74
     0
 49
-0.5
 74
     0
  0
ENDTAB
  0
TABLE
  2
LAYER
  5
2
330
0
100
AcDbSymbolTable
 70
     7
  0
LAYER
  5
10
330
2
100
AcDbSymbolTableRecord
100
AcDbLayerTableRecord
  2
0
 70
     0
 62
     7
  6
Continuous
370
    -3
390
F
347
46
348
0
  0
LAYER
  5
72
330
2
100
AcDbSymbolTableRecord
100
AcDbLayerTableRecord
  2
AM_6
 70
     0
 62
    -2
  6
Continuous
370
    35
390
F
347
46
348
0
  0
LAYER
  5
A8
330
2
100
AcDbSymbolTableRecord
100
AcDbLayerTableRecord
  2
AM_9
 70
     0
 62
     6
  6
Dashed
370
    25
390
F
347
46
348
0
  0
LAYER
  5
CC
330
2
100
AcDbSymbolTableRecord
100
AcDbLayerTableRecord
  2
AM_4
 70
     0
 62
     7
  6
Continuous
370
    50
390
F
347
46
348
0
  0
LAYER
  5
E5
330
2
100
AcDbSymbolTableRecord
100
AcDbLayerTableRecord
  2
AM_5
 70
     0
 62
     3
  6
Continuous
370
    25
390
F
347
46
348
0
  0
LAYER
  5
1A7
330
2
100
AcDbSymbolTableRecord
100
AcDbLayerTableRecord
  2
AM_7
 70
     0
 62
     7
  6
Center
370
    25
390
F
347
46
348
0
  0
LAYER
  5
1C5
330
2
100
AcDbSymbolTableRecord
100
AcDbLayerTableRecord
  2
ConnectionPoints
 70
     0
 62
     7
  6
Continuous
370
    50
390
F
347
46
348
0
  0
ENDTAB
  0
TABLE
  2
STYLE
  5
3
330
0
100
AcDbSymbolTable
 70
     1
  0
STYLE
  5
11
330
3
100
AcDbSymbolTableRecord
100
AcDbTextStyleTableRecord
  2
Standard
 70
     0
 40
0.0
 41
1.0
 50
0.0
 71
     0
 42
0.2
  3
txt
  4

  0
ENDTAB
  0
TABLE
  2
VIEW
  5
6
330
0
100
AcDbSymbolTable
 70
     0
  0
ENDTAB
  0
TABLE
  2
UCS
  5
7
330
0
100
AcDbSymbolTable
 70
     0
  0
ENDTAB
  0
TABLE
  2
APPID
  5
9
330
0
100
AcDbSymbolTable
 70
     1
  0
APPID
  5
12
330
9
100
AcDbSymbolTableRecord
100
AcDbRegAppTableRecord
  2
ACAD
 70
     0
  0
ENDTAB
  0
TABLE
  2
DIMSTYLE
  5
A
330
0
100
AcDbSymbolTable
 70
     1
100
AcDbDimStyleTable
  0
DIMSTYLE
105
27
330
A
100
AcDbSymbolTableRecord
100
AcDbDimStyleTableRecord
  2
Standard
 70
     0
178
     0
340
11
  0
ENDTAB
  0
TABLE
  2
BLOCK_RECORD
  5
1
330
0
100
AcDbSymbolTable
 70
     6
  0
BLOCK_RECORD
  5
1F
330
1
100
AcDbSymbolTableRecord
100
AcDbBlockTableRecord
  2
*Model_Space
340
22
 70
     0
280
     1
281
     0
  0
BLOCK_RECORD
  5
1B
330
1
100
AcDbSymbolTableRecord
100
AcDbBlockTableRecord
  2
*Paper_Space
340
1E
 70
     0
280
     1
281
     0
  0
BLOCK_RECORD
  5
23
330
1
100
AcDbSymbolTableRecord
100
AcDbBlockTableRecord
  2
*Paper_Space0
340
26
 70
     0
280
     1
281
     0
  0
BLOCK_RECORD
  5
6E
330
1
100
AcDbSymbolTableRecord
100
AcDbBlockTableRecord
  2
1_071489_4
340
0
102
{BLKREFS
331
6F
102
}
 70
     0
280
     1
281
     0
  0
BLOCK_RECORD
  5
8E
330
1
100
AcDbSymbolTableRecord
100
AcDbBlockTableRecord
  2
2_2_11_16CS2i_0_in_071489_4
340
0
102
{BLKREFS
331
8F
102
}
 70
     0
280
     1
281
     0
  0
BLOCK_RECORD
  5
E7
330
1
100
AcDbSymbolTableRecord
100
AcDbBlockTableRecord
  2
3_070009i_0_in_071489_4
340
0
102
{BLKREFS
331
E8
102
}
 70
     0
280
     1
281
     0
  0
BLOCK_RECORD
  5
13A
330
1
100
AcDbSymbolTableRecord
100
AcDbBlockTableRecord
  2
4_405015E_Inch_0_in_071489_4
340
0
102
{BLKREFS
331
13B
102
}
 70
     0
280
     1
281
     0
  0
BLOCK_RECORD
  5
157
330
1
100
AcDbSymbolTableRecord
100
AcDbBlockTableRecord
  2
5_B071489_0_in_071489_4
340
0
102
{BLKREFS
331
158
102
}
 70
     0
280
     1
281
     0
  0
ENDTAB
  0
ENDSEC
  0
SECTION
  2
BLOCKS
  0
BLOCK
  5
20
330
1F
100
AcDbEntity
  8
0
100
AcDbBlockBegin
  2
*Model_Space
 70
     0
 10
0.0
 20
0.0
 30
0.0
  3
*Model_Space
  1

  0
ENDBLK
  5
21
330
1F
100
AcDbEntity
  8
0
100
AcDbBlockEnd
  0
BLOCK
  5
1C
330
1B
100
AcDbEntity
 67
     1
  8
0
100
AcDbBlockBegin
  2
*Paper_Space
 70
     0
 10
0.0
 20
0.0
 30
0.0
  3
*Paper_Space
  1

  0
ENDBLK
  5
1D
330
1B
100
AcDbEntity
 67
     1
  8
0
100
AcDbBlockEnd
  0
BLOCK
  5
24
330
23
100
AcDbEntity
  8
0
100
AcDbBlockBegin
  2
*Paper_Space0
 70
     0
 10
0.0
 20
0.0
 30
0.0
  3
*Paper_Space0
  1

  0
ENDBLK
  5
25
330
23
100
AcDbEntity
  8
0
100
AcDbBlockEnd
  0
BLOCK
  5
70
330
6E
100
AcDbEntity
  8
0
100
AcDbBlockBegin
  2
1_071489_4
 70
     2
 10
0.0
 20
0.0
 30
0.0
  3
1_071489_4
  1

  0
ATTDEF
  5
73
330
6E
100
AcDbEntity
  8
AM_6
100
AcDbText
 10
8.879999999999999
 20
0.1905
 30
0.0
 40
0.5
  1
S-2000 Flange Bearing - Square with Type E Dimensions Trident Seal Non-Expansion
100
AcDbAttributeDefinition
  3

  2
NN
 70
     8
280
     0
  0
ATTDEF
  5
74
330
6E
100
AcDbEntity
  8
AM_6
100
AcDbText
 10
8.879999999999999
 20
-0.3095
 30
0.0
 40
0.5
  1
S-2000 - E Type - Inch
100
AcDbAttributeDefinition
  3

  2
NT
 70
     8
280
     0
  0
ATTDEF
  5
75
330
6E
100
AcDbEntity
  8
AM_6
100
AcDbText
 10
8.879999999999999
 20
-0.8095
 30
0.0
 40
0.5
  1
071489
100
AcDbAttributeDefinition
  3

  2
NB
 70
     8
280
     0
  0
ATTDEF
  5
76
330
6E
100
AcDbEntity
  8
AM_6
100
AcDbText
 10
8.879999999999999
 20
-1.3095
 30
0.0
 40
0.5
  1
$PN.
100
AcDbAttributeDefinition
  3

  2
NBSYN
 70
     8
280
     0
  0
ATTDEF
  5
77
330
6E
100
AcDbEntity
  8
AM_6
100
AcDbText
 10
8.879999999999999
 20
-1.8095
 30
0.0
 40
0.5
  1
071489
100
AcDbAttributeDefinition
  3

  2
LINA
 70
     8
280
     0
  0
ATTDEF
  5
78
330
6E
100
AcDbEntity
  8
AM_6
100
AcDbText
 10
8.879999999999999
 20
-2.3095
 30
0.0
 40
0.5
  1
2-11/16
100
AcDbAttributeDefinition
  3

  2
SS
 70
     8
280
     0
  0
ATTDEF
  5
79
330
6E
100
AcDbEntity
  8
AM_6
100
AcDbText
 10
8.879999999999999
 20
-2.8095
 30
0.0
 40
0.5
  1
Expansion
100
AcDbAttributeDefinition
  3

  2
TYPE
 70
     8
280
     0
  0
ATTDEF
  5
7A
330
6E
100
AcDbEntity
  8
AM_6
100
AcDbText
 10
8.879999999999999
 20
-3.3095
 30
0.0
 40
0.5
  1
071489
100
AcDbAttributeDefinition
  3

  2
PN
 70
     8
280
     0
  0
ATTDEF
  5
7B
330
6E
100
AcDbEntity
  8
AM_6
100
AcDbText
 10
8.879999999999999
 20
-3.8095
 30
0.0
 40
0.5
  1
EF4B-S2-211RE
100
AcDbAttributeDefinition
  3

  2
DESCRIPTION
 70
     8
280
     0
  0
ATTDEF
  5
7C
330
6E
100
AcDbEntity
  8
AM_6
100
AcDbText
 10
8.879999999999999
 20
-4.3095
 30
0.0
 40
0.5
  1
3.59
100
AcDbAttributeDefinition
  3

  2
A
 70
     8
280
     0
  0
ATTDEF
  5
7D
330
6E
100
AcDbEntity
  8
AM_6
100
AcDbText
 10
8.879999999999999
 20
-4.8095
 30
0.0
 40
0.5
  1
7.76
100
AcDbAttributeDefinition
  3

  2
B
 70
     8
280
     0
  0
ATTDEF
  5
7E
330
6E
100
AcDbEntity
  8
AM_6
100
AcDbText
 10
8.879999999999999
 20
-5.3095
 30
0.0
 40
0.5
  1
4.69
100
AcDbAttributeDefinition
  3

  2
C
 70
     8
280
     0
  0
ATTDEF
  5
7F
330
6E
100
AcDbEntity
  8
AM_6
100
AcDbText
 10
8.879999999999999
 20
-5.8095
 30
0.0
 40
0.5
  1
6
100
AcDbAttributeDefinition
  3

  2
D
 70
     8
280
     0
  0
ATTDEF
  5
80
330
6E
100
AcDbEntity
  8
AM_6
100
AcDbText
 10
8.879999999999999
 20
-6.3095
 30
0.0
 40
0.5
  1
8.485
100
AcDbAttributeDefinition
  3

  2
DD
 70
     8
280
     0
  0
ATTDEF
  5
81
330
6E
100
AcDbEntity
  8
AM_6
100
AcDbText
 10
8.879999999999999
 20
-6.8095
 30
0.0
 40
0.5
  1
3/4
100
AcDbAttributeDefinition
  3

  2
F
 70
     8
280
     0
  0
ATTDEF
  5
82
330
6E
100
AcDbEntity
  8
AM_6
100
AcDbText
 10
8.879999999999999
 20
-7.3095
 30
0.0
 40
0.5
  1
0.88
100
AcDbAttributeDefinition
  3

  2
G
 70
     8
280
     0
  0
ATTDEF
  5
83
330
6E
100
AcDbEntity
  8
AM_6
100
AcDbText
 10
8.879999999999999
 20
-7.8095
 30
0.0
 40
0.5
  1
1.61
100
AcDbAttributeDefinition
  3

  2
H
 70
     8
280
     0
  0
ATTDEF
  5
84
330
6E
100
AcDbEntity
  8
AM_6
100
AcDbText
 10
8.879999999999999
 20
-8.3095
 30
0.0
 40
0.5
  1
6.3
100
AcDbAttributeDefinition
  3

  2
J
 70
     8
280
     0
  0
ATTDEF
  5
85
330
6E
100
AcDbEntity
  8
AM_6
100
AcDbText
 10
8.879999999999999
 20
-8.8095
 30
0.0
 40
0.5
  1
4.61
100
AcDbAttributeDefinition
  3

  2
L
 70
     8
280
     0
  0
ATTDEF
  5
86
330
6E
100
AcDbEntity
  8
AM_6
100
AcDbText
 10
8.879999999999999
 20
-9.3095
 30
0.0
 40
0.5
  1
3.58
100
AcDbAttributeDefinition
  3

  2
N
 70
     8
280
     0
  0
ATTDEF
  5
87
330
6E
100
AcDbEntity
  8
AM_6
100
AcDbText
 10
8.879999999999999
 20
-9.8095
 30
0.0
 40
0.5
  1
1.09
100
AcDbAttributeDefinition
  3

  2
P
 70
     8
280
     0
  0
ATTDEF
  5
88
330
6E
100
AcDbEntity
  8
AM_6
100
AcDbText
 10
8.879999999999999
 20
-10.3095
 30
0.0
 40
0.5
  1
0.25
100
AcDbAttributeDefinition
  3

  2
X
 70
     8
280
     0
  0
ATTDEF
  5
89
330
6E
100
AcDbEntity
  8
AM_6
100
AcDbText
 10
8.879999999999999
 20
-10.8095
 30
0.0
 40
0.5
  1
0.025
100
AcDbAttributeDefinition
  3

  2
Y
 70
     8
280
     0
  0
ATTDEF
  5
8A
330
6E
100
AcDbEntity
  8
AM_6
100
AcDbText
 10
8.879999999999999
 20
-11.3095
 30
0.0
 40
0.5
  1
3.47
100
AcDbAttributeDefinition
  3

  2
Z
 70
     8
280
     0
  0
ATTDEF
  5
8B
330
6E
100
AcDbEntity
  8
AM_6
100
AcDbText
 10
8.879999999999999
 20
-11.8095
 30
0.0
 40
0.5
  1
1/2-13
100
AcDbAttributeDefinition
  3

  2
CS
 70
     8
280
     0
  0
ATTDEF
  5
8C
330
6E
100
AcDbEntity
  8
AM_6
100
AcDbText
 10
8.879999999999999
 20
-12.3095
 30
0.0
 40
0.5
  1
620
100
AcDbAttributeDefinition
  3

  2
TORQUE
 70
     8
280
     0
  0
ATTDEF
  5
8D
330
6E
100
AcDbEntity
  8
AM_6
100
AcDbText
 10
8.879999999999999
 20
-12.8095
 30
0.0
 40
0.5
  1
baldor
100
AcDbAttributeDefinition
  3

  2
COMPANY
 70
     8
280
     0
  0
INSERT
  5
8F
330
6E
100
AcDbEntity
  8
0
100
AcDbBlockReference
  2
2_2_11_16CS2i_0_in_071489_4
 10
0.0
 20
0.0
 30
0.0
  0
INSERT
  5
E8
330
6E
100
AcDbEntity
  8
0
100
AcDbBlockReference
  2
3_070009i_0_in_071489_4
 10
0.0
 20
0.0
 30
0.0
  0
INSERT
  5
13B
330
6E
100
AcDbEntity
  8
0
100
AcDbBlockReference
  2
4_405015E_Inch_0_in_071489_4
 10
0.0
 20
0.0
 30
0.0
  0
INSERT
  5
158
330
6E
100
AcDbEntity
  8
0
100
AcDbBlockReference
  2
5_B071489_0_in_071489_4
 10
0.0
 20
0.0
 30
0.0
  0
ENDBLK
  5
71
330
6E
100
AcDbEntity
  8
0
100
AcDbBlockEnd
  0
BLOCK
  5
90
330
8E
100
AcDbEntity
  8
0
100
AcDbBlockBegin
  2
2_2_11_16CS2i_0_in_071489_4
 70
     2
 10
0.0
 20
0.0
 30
0.0
  3
2_2_11_16CS2i_0_in_071489_4
  1

  0
ATTDEF
  5
92
330
8E
100
AcDbEntity
  8
AM_6
100
AcDbText
 10
7.3125
 20
-3.556
 30
0.0
 40
0.5
  1
S-2000 Collar -Inch
100
AcDbAttributeDefinition
  3

  2
NN
 70
     8
280
     0
  0
ATTDEF
  5
93
330
8E
100
AcDbEntity
  8
AM_6
100
AcDbText
 10
7.3125
 20
-4.056000000000001
 30
0.0
 40
0.5
  1
S-2000 Bearings
100
AcDbAttributeDefinition
  3

  2
NT
 70
     8
280
     0
  0
ATTDEF
  5
94
330
8E
100
AcDbEntity
  8
AM_6
100
AcDbText
 10
7.3125
 20
-4.556000000000001
 30
0.0
 40
0.5
  1
2-11/16CS2i
100
AcDbAttributeDefinition
  3

  2
NB
 70
     8
280
     0
  0
ATTDEF
  5
95
330
8E
100
AcDbEntity
  8
AM_6
100
AcDbText
 10
7.3125
 20
-5.056000000000001
 30
0.0
 40
0.5
  1
$BORE.CS2i
100
AcDbAttributeDefinition
  3

  2
NBSYN
 70
     8
280
     0
  0
ATTDEF
  5
96
330
8E
100
AcDbEntity
  8
AM_6
100
AcDbText
 10
7.3125
 20
-5.556000000000001
 30
0.0
 40
0.5
  1
2-11/16CS2i
100
AcDbAttributeDefinition
  3

  2
LINA
 70
     8
280
     0
  0
ATTDEF
  5
97
330
8E
100
AcDbEntity
  8
AM_6
100
AcDbText
 10
7.3125
 20
-6.056000000000001
 30
0.0
 40
0.5
  1
2-11/16
100
AcDbAttributeDefinition
  3

  2
BORE
 70
     8
280
     0
  0
ATTDEF
  5
98
330
8E
100
AcDbEntity
  8
AM_6
100
AcDbText
 10
7.3125
 20
-6.556000000000001
 30
0.0
 40
0.5
  1
2.687500
100
AcDbAttributeDefinition
  3

  2
BORE1
 70
     8
280
     0
  0
ATTDEF
  5
99
330
8E
100
AcDbEntity
  8
AM_6
100
AcDbText
 10
7.3125
 20
-7.056000000000001
 30
0.0
 40
0.5
  1
4-45/64
100
AcDbAttributeDefinition
  3

  2
L1
 70
     8
280
     0
  0
ATTDEF
  5
9A
330
8E
100
AcDbEntity
  8
AM_6
100
AcDbText
 10
7.3125
 20
-7.556000000000001
 30
0.0
 40
0.5
  1
4.70313
100
AcDbAttributeDefinition
  3

  2
L
 70
     8
280
     0
  0
ATTDEF
  5
9B
330
8E
100
AcDbEntity
  8
AM_6
100
AcDbText
 10
7.3125
 20
-8.056000000000001
 30
0.0
 40
0.5
  1
4.62500
100
AcDbAttributeDefinition
  3

  2
L2
 70
     8
280
     0
  0
ATTDEF
  5
9C
330
8E
100
AcDbEntity
  8
AM_6
100
AcDbText
 10
7.3125
 20
-8.556000000000001
 30
0.0
 40
0.5
  1
4.50
100
AcDbAttributeDefinition
  3

  2
A
 70
     8
280
     0
  0
ATTDEF
  5
9D
330
8E
100
AcDbEntity
  8
AM_6
100
AcDbText
 10
7.3125
 20
-9.056000000000001
 30
0.0
 40
0.5
  1
1.94
100
AcDbAttributeDefinition
  3

  2
B
 70
     8
280
     0
  0
ATTDEF
  5
9E
330
8E
100
AcDbEntity
  8
AM_6
100
AcDbText
 10
7.3125
 20
-9.556000000000001
 30
0.0
 40
0.5
  1
3.47
100
AcDbAttributeDefinition
  3

  2
C
 70
     8
280
     0
  0
ATTDEF
  5
9F
330
8E
100
AcDbEntity
  8
AM_6
100
AcDbText
 10
7.3125
 20
-10.056
 30
0.0
 40
0.5
  1
4.78
100
AcDbAttributeDefinition
  3

  2
D
 70
     8
280
     0
  0
ATTDEF
  5
A0
330
8E
100
AcDbEntity
  8
AM_6
100
AcDbText
 10
7.3125
 20
-10.556
 30
0.0
 40
0.5
  1
0.54
100
AcDbAttributeDefinition
  3

  2
E
 70
     8
280
     0
  0
ATTDEF
  5
A1
330
8E
100
AcDbEntity
  8
AM_6
100
AcDbText
 10
7.3125
 20
-11.056
 30
0.0
 40
0.5
  1
0.442
100
AcDbAttributeDefinition
  3

  2
F
 70
     8
280
     0
  0
ATTDEF
  5
A2
330
8E
100
AcDbEntity
  8
AM_6
100
AcDbText
 10
7.3125
 20
-11.556
 30
0.0
 40
0.5
  1
1/2-13
100
AcDbAttributeDefinition
  3

  2
CS
 70
     8
280
     0
  0
ATTDEF
  5
A3
330
8E
100
AcDbEntity
  8
AM_6
100
AcDbText
 10
7.3125
 20
-12.056
 30
0.0
 40
0.5
  1
0.5000
100
AcDbAttributeDefinition
  3

  2
NDM
 70
     8
280
     0
  0
ATTDEF
  5
A4
330
8E
100
AcDbEntity
  8
AM_6
100
AcDbText
 10
7.3125
 20
-12.556
 30
0.0
 40
0.5
  1
0.4170
100
AcDbAttributeDefinition
  3

  2
KDM
 70
     8
280
     0
  0
ATTDEF
  5
A5
330
8E
100
AcDbEntity
  8
AM_6
100
AcDbText
 10
7.3125
 20
-13.056
 30
0.0
 40
0.5
  1
2
100
AcDbAttributeDefinition
  3

  2
DD
 70
     8
280
     0
  0
ATTDEF
  5
A6
330
8E
100
AcDbEntity
  8
AM_6
100
AcDbText
 10
7.3125
 20
-13.556
 30
0.0
 40
0.5
  1
baldor
100
AcDbAttributeDefinition
  3

  2
COMPANY
 70
     8
280
     0
  0
LINE
  5
A9
330
8E
100
AcDbEntity
  8
AM_9
100
AcDbLine
 10
1.621041032257525
 20
-3.813688878520789
 30
0.0
 11
1.613054407223875
 21
-3.803727268251325
 31
0.0
  0
LINE
  5
AA
330
8E
100
AcDbEntity
  8
AM_9
100
AcDbLine
 10
1.613170729530419
 20
-4.192127644496106
 30
0.0
 11
1.621041032257525
 21
-4.182311121479211
 31
0.0
  0
LWPOLYLINE
  5
AB
330
8E
100
AcDbEntity
  8
AM_9
100
AcDbPolyline
 90
       26
 70
     0
 43
0.0
 10
1.612990574754568
 20
-3.803647651442546
 10
1.612046645345023
 20
-3.802490675361797
 10
1.597857685350579
 20
-3.789404494522095
 10
1.582275798261553
 20
-3.782461797028241
 10
1.565046956142052
 20
-3.78196028843404
 10
1.547173428377314
 20
-3.788170428180735
 10
1.529059042951487
 20
-3.801187605814691
 10
1.511537682000738
 20
-3.820629757231114
 10
1.495645357798665
 20
-3.845641421991176
 10
1.481812561533486
 20
-3.875854894468449
 10
1.471353800244297
 20
-3.908626323758071
 10
1.464056919187701
 20
-3.944437628082112
 10
1.460611199751106
 20
-3.979318106206523
 10
1.460501342178343
 20
-4.014778266969309
 10
1.463559790983704
 20
-4.0480063092977
 10
1.469471304412093
 20
-4.079855005921874
 10
1.478080152316676
 20
-4.109822817727668
 10
1.488875959469233
 20
-4.136868925596461
 10
1.502221246461337
 20
-4.161714244414015
 10
1.516948169503488
 20
-4.182175428933718
 10
1.533630517432526
 20
-4.19874308554285
 10
1.550677039470556
 20
-4.209566887546217
 10
1.568314873597993
 20
-4.214455950329141
 10
1.585225053095025
 20
-4.212738766420177
 10
1.60119238701817
 20
-4.204166359535579
 10
1.612992634762472
 20
-4.192349779511948
  0
LWPOLYLINE
  5
AC
330
8E
100
AcDbEntity
  8
AM_9
100
AcDbPolyline
 90
       12
 70
     0
 43
0.0
 10
1.618715915549296
 20
-4.184419866499892
 10
1.627956172008701
 20
-4.167608146632975
 10
1.638294116472995
 20
-4.140525984542453
 10
1.646116998041129
 20
-4.109709367588376
 10
1.651811072303224
 20
-4.075052376945249
 10
1.655093810789354
 20
-4.040306650676083
 10
1.65642742786631
 20
-4.004196659427123
 10
1.655869411456415
 20
-3.970182542507811
 10
1.653592459925616
 20
-3.936963263442653
 10
1.649650426497844
 20
-3.905762826461811
 10
1.644091577252383
 20
-3.876992724445744
 10
1.631954042127872
 20
-3.83755566875648
  0
LWPOLYLINE
  5
AD
330
8E
100
AcDbEntity
  8
AM_9
100
AcDbPolyline
 90
        3
 70
     0
 43
0.0
 10
1.612992634762472
 20
-4.192349779511948
 10
1.615575161783562
 20
-4.188972840272986
 10
1.618715915549296
 20
-4.184419866499892
  0
ELLIPSE
  5
AE
330
8E
100
AcDbEntity
  8
AM_9
100
AcDbEllipse
 10
2.09349395189281
 20
-3.998000000000516
 30
0.0
 11
-3.827327409046137E-17
 21
-0.2083500000005918
 31
0.0
210
0.0
220
0.0
230
1.0
 40
0.4226182617405152
 41
3.626704900063068
 42
3.693898799129758
  0
LWPOLYLINE
  5
AF
330
8E
100
AcDbEntity
  8
AM_9
100
AcDbPolyline
 90
        7
 70
     0
 43
0.0
 10
2.056061191158149
 20
-3.809340974214571
 10
2.061758466762218
 20
-3.803382342472556
 10
2.076492966154317
 20
-3.792330798587904
 10
2.090779188608292
 20
-3.78745461899066
 10
2.104791630000644
 20
-3.78825304692218
 10
2.122289546901467
 20
-3.798121818270482
 10
2.131852216571728
 20
-3.808592653017025
  0
ELLIPSE
  5
B0
330
8E
100
AcDbEntity
  8
AM_9
100
AcDbEllipse
 10
2.093493951892523
 20
-3.998000000000672
 30
0.0
 11
-3.827327409021043E-17
 21
-0.2083499999992258
 31
0.0
210
0.0
220
0.0
230
1.0
 40
0.422618261740513
 41
-0.5523061455401832
 42
-0.48511224647305
  0
ELLIPSE
  5
B1
330
8E
100
AcDbEntity
  8
AM_9
100
AcDbEllipse
 10
2.09349395189276
 20
-3.998000000000002
 30
0.0
 11
-3.827327409035278E-17
 21
-0.2083500000000007
 31
0.0
210
0.0
220
0.0
230
1.0
 40
0.4226182617407059
 41
2.69593601083611
 42
3.587249296343411
  0
LINE
  5
B2
330
8E
100
AcDbEntity
  8
AM_9
100
AcDbLine
 10
1.579981470270782
 20
-4.20635
 30
0.0
 11
2.093493951892763
 21
-4.20635
 31
0.0
  0
LINE
  5
B3
330
8E
100
AcDbEntity
  8
AM_9
100
AcDbLine
 10
2.093493951892763
 20
-3.78965
 30
0.0
 11
1.579981470270782
 21
-3.78965
 31
0.0
  0
LWPOLYLINE
  5
B4
330
8E
100
AcDbEntity
  8
AM_9
100
AcDbPolyline
 90
       39
 70
     0
 43
0.0
 10
-0.1614669842005706
 20
-3.842460767138975
 10
-0.1841635177382134
 20
-3.866197992660086
 10
-0.2034646077066729
 20
-3.89370439886035
 10
-0.219298322434616
 20
-3.926752577690727
 10
-0.229272331796801
 20
-3.963308884043454
 10
-0.2322858014840351
 20
-3.997448280293218
 10
-0.2292778394375723
 20
-4.032659609339307
 10
-0.2209335884976248
 20
-4.064729276553562
 10
-0.2071343034778676
 20
-4.095831273095762
 10
-0.1885143827045359
 20
-4.124346349179526
 10
-0.165067926385096
 20
-4.150214827786419
 10
-0.1367356484815341
 20
-4.172972569846922
 10
-0.1043519545037595
 20
-4.19145818814768
 10
-0.068066793156531
 20
-4.205103700389166
 10
-0.0290124474895309
 20
-4.212960235219271
 10
0.0112458417610125
 20
-4.214411114352767
 10
0.052322566258815
 20
-4.209067220647533
 10
0.0911718498606547
 20
-4.197189965200798
 10
0.1284866317154295
 20
-4.178340734915684
 10
0.1604137427744523
 20
-4.154484769650649
 10
0.18846498206414
 20
-4.124410334238766
 10
0.2088734306056504
 20
-4.092571293770886
 10
0.2236575397198488
 20
-4.0563464517832
 10
0.2308455463607861
 20
-4.02202622961186
 10
0.2319177534005054
 20
-3.985831398016387
 10
0.2271667767931106
 20
-3.95288859990736
 10
0.2167515968369057
 20
-3.920295213212397
 10
0.2014846923988777
 20
-3.890422082354887
 10
0.1811810434242246
 20
-3.862654236130348
 10
0.1559727047703956
 20
-3.837655096308984
 10
0.1264175880709424
 20
-3.816388550425186
 10
0.09244039881194
 20
-3.799321425731911
 10
0.0551932495490389
 20
-3.787573200158213
 10
0.0156939869056566
 20
-3.781831299756216
 10
-0.0253357208255733
 20
-3.782633464860003
 10
-0.0652749777004011
 20
-3.790112024932891
 10
-0.1044797043361685
 20
-3.804602020644804
 10
-0.134065419177076
 20
-3.821235434007989
 10
-0.1614669842005706
 20
-3.842460767138975
  0
LINE
  5
B5
330
8E
100
AcDbEntity
  8
AM_9
100
AcDbLine
 10
1.617315665690463
 20
-3.809487028419829
 30
0.0
 11
1.612990574754568
 21
-3.803647651442546
 31
0.0
  0
LINE
  5
B6
330
8E
100
AcDbEntity
  8
AM_9
100
AcDbLine
 10
1.619272502896192
 20
-3.812441547963001
 30
0.0
 11
1.617315665690463
 21
-3.809487028419829
 31
0.0
  0
LWPOLYLINE
  5
B7
330
8E
100
AcDbEntity
  8
AM_9
100
AcDbPolyline
 90
        3
 70
     0
 43
0.0
 10
1.631954042127872
 20
-3.83755566875648
 10
1.622646391369938
 20
-3.818059625999029
 10
1.619272502896192
 20
-3.812441547963001
  0
LINE
  5
B8
330
8E
100
AcDbEntity
  8
AM_9
100
AcDbLine
 10
1.735
 20
-4.44
 30
0.0
 11
1.735
 21
-3.556
 31
0.0
  0
LINE
  5
B9
330
8E
100
AcDbEntity
  8
AM_9
100
AcDbLine
 10
-1.735
 20
-3.556
 30
0.0
 11
-1.735
 21
-4.44
 31
0.0
  0
LINE
  5
BA
330
8E
100
AcDbEntity
  8
AM_9
100
AcDbLine
 10
-2.202380952380952
 20
-3.556
 30
0.0
 11
2.202380952380952
 21
-3.556
 31
0.0
  0
LINE
  5
BB
330
8E
100
AcDbEntity
  8
AM_9
100
AcDbLine
 10
2.202380952380952
 20
-3.610950058072009
 30
0.0
 11
2.202380952380952
 21
-3.556
 31
0.0
  0
LINE
  5
BC
330
8E
100
AcDbEntity
  8
AM_9
100
AcDbLine
 10
-2.202380952380952
 20
-3.556
 30
0.0
 11
-2.202380952380952
 21
-3.610950058072009
 31
0.0
  0
LINE
  5
BD
330
8E
100
AcDbEntity
  8
AM_9
100
AcDbLine
 10
-2.202380952380952
 20
-3.610950058072009
 30
0.0
 11
2.202380952380952
 21
-3.610950058072009
 31
0.0
  0
LINE
  5
BE
330
8E
100
AcDbEntity
  8
AM_9
100
AcDbLine
 10
-2.202380952380952
 20
-3.610950058072009
 30
0.0
 11
-2.25609756097561
 21
-3.664666666666667
 31
0.0
  0
LINE
  5
BF
330
8E
100
AcDbEntity
  8
AM_9
100
AcDbLine
 10
2.25609756097561
 20
-3.664666666666667
 30
0.0
 11
2.202380952380952
 21
-3.610950058072009
 31
0.0
  0
LINE
  5
C0
330
8E
100
AcDbEntity
  8
AM_9
100
AcDbLine
 10
-2.25609756097561
 20
-3.664666666666667
 30
0.0
 11
2.25609756097561
 21
-3.664666666666667
 31
0.0
  0
LINE
  5
C1
330
8E
100
AcDbEntity
  8
AM_9
100
AcDbLine
 10
2.25609756097561
 20
-3.748000000000001
 30
0.0
 11
2.25609756097561
 21
-3.664666666666667
 31
0.0
  0
LINE
  5
C2
330
8E
100
AcDbEntity
  8
AM_9
100
AcDbLine
 10
-2.25609756097561
 20
-3.664666666666667
 30
0.0
 11
-2.25609756097561
 21
-3.748000000000001
 31
0.0
  0
LINE
  5
C3
330
8E
100
AcDbEntity
  8
AM_9
100
AcDbLine
 10
-2.25609756097561
 20
-3.748000000000001
 30
0.0
 11
2.25609756097561
 21
-3.748000000000001
 31
0.0
  0
LINE
  5
C4
330
8E
100
AcDbEntity
  8
AM_9
100
AcDbLine
 10
-2.25609756097561
 20
-3.748000000000001
 30
0.0
 11
-2.3125
 21
-3.780563963353683
 31
0.0
  0
LINE
  5
C5
330
8E
100
AcDbEntity
  8
AM_9
100
AcDbLine
 10
2.3125
 20
-3.780563963353683
 30
0.0
 11
2.25609756097561
 21
-3.748000000000001
 31
0.0
  0
LINE
  5
C6
330
8E
100
AcDbEntity
  8
AM_9
100
AcDbLine
 10
-2.3125
 20
-3.780563963353683
 30
0.0
 11
2.3125
 21
-3.780563963353683
 31
0.0
  0
LINE
  5
C7
330
8E
100
AcDbEntity
  8
AM_9
100
AcDbLine
 10
2.3125
 20
-3.81
 30
0.0
 11
2.3125
 21
-3.780563963353683
 31
0.0
  0
LINE
  5
C8
330
8E
100
AcDbEntity
  8
AM_9
100
AcDbLine
 10
-2.3125
 20
-3.780563963353683
 30
0.0
 11
-2.3125
 21
-3.81
 31
0.0
  0
ARC
  5
C9
330
8E
100
AcDbEntity
  8
AM_9
100
AcDbCircle
 10
0.0
 20
-3.998000000000002
 30
0.0
 40
0.2083500000000016
100
AcDbArc
 50
64.46575525824615
 51
115.5342447417539
  0
LWPOLYLINE
  5
CA
330
8E
100
AcDbEntity
  8
AM_9
100
AcDbPolyline
 90
        8
 70
     0
 43
0.0
 10
-0.0910447875447987
 20
-3.809714987136622
 10
-0.0856554834347881
 20
-3.806977048324417
 10
-0.0598338020339571
 20
-3.796536660306018
 10
-0.0276831442526271
 20
-3.789056611989675
 10
0.0062905988535634
 20
-3.787167381257893
 10
0.0382116763667555
 20
-3.79087601189738
 10
0.0699512313053306
 20
-3.800123559860639
 10
0.0894803589209144
 20
-3.808898889786202
  0
ELLIPSE
  5
CB
330
8E
100
AcDbEntity
  8
AM_9
100
AcDbEllipse
 10
1.579981470270782
 20
-3.997999999999999
 30
0.0
 11
-3.827327409035287E-17
 21
-0.2083500000000011
 31
0.0
210
0.0
220
0.0
230
1.0
 40
0.4226182617406986
 41
0.0
 42
6.283185307179586
  0
ELLIPSE
  5
CD
330
8E
100
AcDbEntity
  8
AM_4
100
AcDbEllipse
 10
2.093493951892764
 20
-3.997999999999994
 30
0.0
 11
-3.827327409035376E-17
 21
-0.208350000000006
 31
0.0
210
0.0
220
0.0
230
1.0
 40
0.4226182617406994
 41
5.798073060705818
 42
6.835491452720177
  0
LWPOLYLINE
  5
CE
330
8E
100
AcDbEntity
  8
AM_4
100
AcDbPolyline
 90
        3
 70
     0
 43
0.0
 10
2.052802899618605
 20
-4.182770757225642
 10
2.050682805091217
 20
-4.180048728254032
 10
2.047297034190511
 20
-4.175371868471293
  0
LINE
  5
CF
330
8E
100
AcDbEntity
  8
AM_4
100
AcDbLine
 10
2.131852216571728
 20
-3.808592653017025
 30
0.0
 11
2.139690869595018
 21
-3.820628131528712
 31
0.0
  0
LINE
  5
D0
330
8E
100
AcDbEntity
  8
AM_4
100
AcDbLine
 10
2.052798182551589
 20
-3.813235128176254
 30
0.0
 11
2.056061191158149
 21
-3.809340974214571
 31
0.0
  0
ELLIPSE
  5
D1
330
8E
100
AcDbEntity
  8
AM_4
100
AcDbEllipse
 10
2.093493951891412
 20
-3.998000000006628
 30
0.0
 11
-3.827327409171986E-17
 21
-0.2083500000074427
 31
0.0
210
0.0
220
0.0
230
1.0
 40
0.4226182617405115
 41
-3.693898799127028
 42
-3.587249296343756
  0
ELLIPSE
  5
D2
330
8E
100
AcDbEntity
  8
AM_4
100
AcDbEllipse
 10
2.093493951893254
 20
-3.998000000000328
 30
0.0
 11
-3.827327409042065E-17
 21
-0.2083500000003702
 31
0.0
210
0.0
220
0.0
230
1.0
 40
0.4226182617415806
 41
3.587249296346998
 42
3.62670490006691
  0
LINE
  5
D3
330
8E
100
AcDbEntity
  8
AM_4
100
AcDbLine
 10
-2.165166666666666
 20
-4.44
 30
0.0
 11
2.165166666647044
 21
-4.44
 31
0.0
  0
ARC
  5
D4
330
8E
100
AcDbEntity
  8
AM_4
100
AcDbCircle
 10
2.165166666666666
 20
-4.292666666666667
 30
0.0
 40
0.1473333333333331
100
AcDbArc
 50
270.0
 51
0.0
  0
ARC
  5
D5
330
8E
100
AcDbEntity
  8
AM_4
100
AcDbCircle
 10
-2.165166666666667
 20
-4.292666666666668
 30
0.0
 40
0.1473333333333327
100
AcDbArc
 50
180.0
 51
270.0
  0
LINE
  5
D6
330
8E
100
AcDbEntity
  8
AM_4
100
AcDbLine
 10
-2.3125
 20
-4.292666666666667
 30
0.0
 11
2.3125
 21
-4.292666666666667
 31
0.0
  0
LWPOLYLINE
  5
D7
330
8E
100
AcDbEntity
  8
AM_4
100
AcDbPolyline
 90
       13
 70
     0
 43
0.0
 10
-0.1093112198038347
 20
-4.175371868471293
 10
-0.137542992229782
 20
-4.154470370977226
 10
-0.1618900715252744
 20
-4.129153830449368
 10
-0.1816067383493973
 20
-4.100078279645965
 10
-0.1961991517171535
 20
-4.068111449603252
 10
-0.2051655348035572
 20
-4.0341657383811
 10
-0.2083465837017974
 20
-3.999193130248525
 10
-0.2055871353451224
 20
-3.964311570671275
 10
-0.1970716503271904
 20
-3.930379831874525
 10
-0.1829704211574924
 20
-3.898385863942797
 10
-0.1637578194217304
 20
-3.869185796286901
 10
-0.1386610332564185
 20
-3.842524596145593
 10
-0.1093112198038347
 20
-3.820628131528707
  0
LWPOLYLINE
  5
D8
330
8E
100
AcDbEntity
  8
AM_4
100
AcDbPolyline
 90
       13
 70
     0
 43
0.0
 10
0.1093112198038347
 20
-3.820628131528707
 10
0.137542992229782
 20
-3.841529629022775
 10
0.1618900715252744
 20
-3.866846169550632
 10
0.1816067383493973
 20
-3.895921720354036
 10
0.1961991517171535
 20
-3.927888550396748
 10
0.2051655348035572
 20
-3.9618342616189
 10
0.2083465837017974
 20
-3.996806869751476
 10
0.2055871353451224
 20
-4.031688429328725
 10
0.1970716503271904
 20
-4.065620168125476
 10
0.1829704211574924
 20
-4.097614136057203
 10
0.1637578194217304
 20
-4.1268142037131
 10
0.1386610332564185
 20
-4.153475403854406
 10
0.1093112198038347
 20
-4.175371868471293
  0
LWPOLYLINE
  5
D9
330
8E
100
AcDbEntity
  8
AM_4
100
AcDbPolyline
 90
       13
 70
     0
 43
0.0
 10
2.139690869595015
 20
-3.820628131528707
 10
2.150253301765782
 20
-3.841529629022775
 10
2.159112393942237
 20
-3.866846169550632
 10
2.166114632456999
 20
-3.895921720354036
 10
2.171197233036197
 20
-3.927888550396748
 10
2.174280255679048
 20
-3.9618342616189
 10
2.175364273788554
 20
-3.996806869751476
 10
2.174424361268534
 20
-4.031688429328725
 10
2.171498483601667
 20
-4.065620168125476
 10
2.166593270470814
 20
-4.097614136057203
 10
2.159782254313468
 20
-4.1268142037131
 10
2.150665011257281
 20
-4.153475403854406
 10
2.139690869595015
 20
-4.175371868471293
  0
LWPOLYLINE
  5
DA
330
8E
100
AcDbEntity
  8
AM_4
100
AcDbPolyline
 90
        8
 70
     0
 43
0.0
 10
2.139690869595015
 20
-4.175371868471293
 10
2.131845704072109
 20
-4.187415941176019
 10
2.119325914408193
 20
-4.200301360017709
 10
2.105691109410915
 20
-4.207492496888425
 10
2.09186686260877
 20
-4.208686569585872
 10
2.077742370731517
 20
-4.204322732606286
 10
2.063936777423943
 20
-4.19464883735203
 10
2.052802899618605
 20
-4.182770757225642
  0
LWPOLYLINE
  5
DB
330
8E
100
AcDbEntity
  8
AM_4
100
AcDbPolyline
 90
       13
 70
     0
 43
0.0
 10
2.047297034190511
 20
-4.175371868471293
 10
2.033996941184251
 20
-4.154470370977226
 10
2.022276992700059
 20
-4.129153830449368
 10
2.012613984293758
 20
-4.100078279645964
 10
2.005362544128791
 20
-4.068111449603252
 10
2.000866852303487
 20
-4.0341657383811
 10
1.99926213170122
 20
-3.999193130248524
 10
2.000654605716923
 20
-3.964311570671274
 10
2.004926327002371
 20
-3.930379831874524
 10
2.011939987791728
 20
-3.898385863942797
 10
2.02136816433255
 20
-3.8691857962869
 10
2.033463641565287
 20
-3.842524596145593
 10
2.04729703419051
 20
-3.820628131528707
  0
LWPOLYLINE
  5
DC
330
8E
100
AcDbEntity
  8
AM_4
100
AcDbPolyline
 90
        3
 70
     0
 43
0.0
 10
2.047297034190541
 20
-3.820628131528627
 10
2.047733406577648
 20
-3.820001865382718
 10
2.052798182551589
 20
-3.813235128176254
  0
LINE
  5
DD
330
8E
100
AcDbEntity
  8
AM_4
100
AcDbLine
 10
2.3125
 20
-4.292666666666667
 30
0.0
 11
2.3125
 21
-3.81
 31
0.0
  0
LINE
  5
DE
330
8E
100
AcDbEntity
  8
AM_4
100
AcDbLine
 10
-2.3125
 20
-3.81
 30
0.0
 11
-2.3125
 21
-4.292666666666667
 31
0.0
  0
ARC
  5
DF
330
8E
100
AcDbEntity
  8
AM_4
100
AcDbCircle
 10
-0.0000000000000001
 20
-3.998000000000003
 30
0.0
 40
0.2083499999999976
100
AcDbArc
 50
238.3551888613842
 51
301.6448111386158
  0
LWPOLYLINE
  5
E0
330
8E
100
AcDbEntity
  8
AM_4
100
AcDbPolyline
 90
        8
 70
     0
 43
0.0
 10
0.1093112198038347
 20
-4.175371868471293
 10
0.0856554834347881
 20
-4.189022951675583
 10
0.0598338020339571
 20
-4.199463339693982
 10
0.0276831442526271
 20
-4.206943388010324
 10
-0.0062905988535634
 20
-4.208832618742108
 10
-0.0382116763667555
 20
-4.20512398810262
 10
-0.0699512313053306
 20
-4.195876440139362
 10
-0.1093112198038348
 20
-4.175371868471293
  0
ARC
  5
E1
330
8E
100
AcDbEntity
  8
AM_4
100
AcDbCircle
 10
-0.0000000000000164
 20
-3.997999999999966
 30
0.0
 40
0.2083499999999616
100
AcDbArc
 50
115.5342447417541
 51
121.6448111386165
  0
ARC
  5
E2
330
8E
100
AcDbEntity
  8
AM_4
100
AcDbCircle
 10
0.0000000000000165
 20
-3.997999999999966
 30
0.0
 40
0.2083499999999617
100
AcDbArc
 50
58.35518886138348
 51
64.46575525824592
  0
LINE
  5
E3
330
8E
100
AcDbEntity
  8
AM_4
100
AcDbLine
 10
0.0894803589209144
 20
-3.808898889786202
 30
0.0
 11
0.1093112198038347
 21
-3.820628131528707
 31
0.0
  0
LINE
  5
E4
330
8E
100
AcDbEntity
  8
AM_4
100
AcDbLine
 10
-0.1093112198038347
 20
-3.820628131528707
 30
0.0
 11
-0.0910447875447987
 21
-3.809714987136622
 31
0.0
  0
CIRCLE
  5
E6
330
8E
100
AcDbEntity
  8
AM_5
100
AcDbCircle
 10
0.0000000000000002
 20
-3.998
 30
0.0
 40
0.2499999999999997
  0
ENDBLK
  5
91
330
8E
100
AcDbEntity
  8
0
100
AcDbBlockEnd
  0
BLOCK
  5
E9
330
E7
100
AcDbEntity
  8
0
100
AcDbBlockBegin
  2
3_070009i_0_in_071489_4
 70
     2
 10
0.0
 20
0.0
 30
0.0
  3
3_070009i_0_in_071489_4
  1

  0
ATTDEF
  5
EB
330
E7
100
AcDbEntity
  8
AM_6
100
AcDbText
 10
7.55905
 20
-0.8462500000000003
 30
0.0
 40
0.5
  1
S-2000 Insert -Inch
100
AcDbAttributeDefinition
  3

  2
NN
 70
     8
280
     0
  0
ATTDEF
  5
EC
330
E7
100
AcDbEntity
  8
AM_6
100
AcDbText
 10
7.55905
 20
-1.34625
 30
0.0
 40
0.5
  1
S-2000 Bearings
100
AcDbAttributeDefinition
  3

  2
NT
 70
     8
280
     0
  0
ATTDEF
  5
ED
330
E7
100
AcDbEntity
  8
AM_6
100
AcDbText
 10
7.55905
 20
-1.84625
 30
0.0
 40
0.5
  1
070009i
100
AcDbAttributeDefinition
  3

  2
NB
 70
     8
280
     0
  0
ATTDEF
  5
EE
330
E7
100
AcDbEntity
  8
AM_6
100
AcDbText
 10
7.55905
 20
-2.34625
 30
0.0
 40
0.5
  1
$PN.i
100
AcDbAttributeDefinition
  3

  2
NBSYN
 70
     8
280
     0
  0
ATTDEF
  5
EF
330
E7
100
AcDbEntity
  8
AM_6
100
AcDbText
 10
7.55905
 20
-2.84625
 30
0.0
 40
0.5
  1
070009i
100
AcDbAttributeDefinition
  3

  2
LINA
 70
     8
280
     0
  0
ATTDEF
  5
F0
330
E7
100
AcDbEntity
  8
AM_6
100
AcDbText
 10
7.55905
 20
-3.34625
 30
0.0
 40
0.5
  1
2-11/16
100
AcDbAttributeDefinition
  3

  2
SS
 70
     8
280
     0
  0
ATTDEF
  5
F1
330
E7
100
AcDbEntity
  8
AM_6
100
AcDbText
 10
7.55905
 20
-3.84625
 30
0.0
 40
0.5
  1
3.47
100
AcDbAttributeDefinition
  3

  2
CC
 70
     8
280
     0
  0
ATTDEF
  5
F2
330
E7
100
AcDbEntity
  8
AM_6
100
AcDbText
 10
7.55905
 20
-4.34625
 30
0.0
 40
0.5
  1
2.687500
100
AcDbAttributeDefinition
  3

  2
SS1
 70
     8
280
     0
  0
ATTDEF
  5
F3
330
E7
100
AcDbEntity
  8
AM_6
100
AcDbText
 10
7.55905
 20
-4.84625
 30
0.0
 40
0.5
  1
070009
100
AcDbAttributeDefinition
  3

  2
PN
 70
     8
280
     0
  0
ATTDEF
  5
F4
330
E7
100
AcDbEntity
  8
AM_6
100
AcDbText
 10
7.55905
 20
-5.34625
 30
0.0
 40
0.5
  1
INS-S2-211R
100
AcDbAttributeDefinition
  3

  2
DESCRIPTION
 70
     8
280
     0
  0
ATTDEF
  5
F5
330
E7
100
AcDbEntity
  8
AM_6
100
AcDbText
 10
7.55905
 20
-5.84625
 30
0.0
 40
0.5
  1
Contact Seal
100
AcDbAttributeDefinition
  3

  2
ST
 70
     8
280
     0
  0
ATTDEF
  5
F6
330
E7
100
AcDbEntity
  8
AM_6
100
AcDbText
 10
7.55905
 20
-6.34625
 30
0.0
 40
0.5
  1
1
100
AcDbAttributeDefinition
  3

  2
ST1
 70
     8
280
     0
  0
ATTDEF
  5
F7
330
E7
100
AcDbEntity
  8
AM_6
100
AcDbText
 10
7.55905
 20
-6.84625
 30
0.0
 40
0.5
  1
5.1181
100
AcDbAttributeDefinition
  3

  2
A
 70
     8
280
     0
  0
ATTDEF
  5
F8
330
E7
100
AcDbEntity
  8
AM_6
100
AcDbText
 10
7.55905
 20
-7.34625
 30
0.0
 40
0.5
  1
1-9/32
100
AcDbAttributeDefinition
  3

  2
B
 70
     8
280
     0
  0
ATTDEF
  5
F9
330
E7
100
AcDbEntity
  8
AM_6
100
AcDbText
 10
7.55905
 20
-7.84625
 30
0.0
 40
0.5
  1
3-19/32
100
AcDbAttributeDefinition
  3

  2
C
 70
     8
280
     0
  0
ATTDEF
  5
FA
330
E7
100
AcDbEntity
  8
AM_6
100
AcDbText
 10
7.55905
 20
-8.346250000000001
 30
0.0
 40
0.5
  1
1.219
100
AcDbAttributeDefinition
  3

  2
D
 70
     8
280
     0
  0
ATTDEF
  5
FB
330
E7
100
AcDbEntity
  8
AM_6
100
AcDbText
 10
7.55905
 20
-8.846250000000001
 30
0.0
 40
0.5
  1
4-5/8
100
AcDbAttributeDefinition
  3

  2
E
 70
     8
280
     0
  0
ATTDEF
  5
FC
330
E7
100
AcDbEntity
  8
AM_6
100
AcDbText
 10
7.55905
 20
-9.346250000000001
 30
0.0
 40
0.5
  1
0.53125
100
AcDbAttributeDefinition
  3

  2
F
 70
     8
280
     0
  0
ATTDEF
  5
FD
330
E7
100
AcDbEntity
  8
AM_6
100
AcDbText
 10
7.55905
 20
-9.846250000000001
 30
0.0
 40
0.5
  1
2
100
AcDbAttributeDefinition
  3

  2
DD
 70
     8
280
     0
  0
ATTDEF
  5
FE
330
E7
100
AcDbEntity
  8
AM_6
100
AcDbText
 10
7.55905
 20
-10.34625
 30
0.0
 40
0.5
  1
baldor
100
AcDbAttributeDefinition
  3

  2
COMPANY
 70
     8
280
     0
  0
LINE
  5
FF
330
E7
100
AcDbEntity
  8
AM_9
100
AcDbLine
 10
1.572444010508588
 20
-3.728
 30
0.0
 11
1.217684176093993
 21
-3.728
 31
0.0
  0
LINE
  5
100
330
E7
100
AcDbEntity
  8
AM_9
100
AcDbLine
 10
1.217776104161781
 20
-4.268000000000001
 30
0.0
 11
1.572444010508588
 21
-4.268000000000001
 31
0.0
  0
LWPOLYLINE
  5
101
330
E7
100
AcDbEntity
  8
AM_9
100
AcDbPolyline
 90
       21
 70
     0
 43
0.0
 10
1.217859408242401
 20
-3.728000000717643
 10
1.205459178888749
 20
-3.72952604954033
 10
1.185434105572053
 20
-3.737940157299679
 10
1.16513598859479
 20
-3.753383362503912
 10
1.145195350553029
 20
-3.775655901723713
 10
1.126554581749619
 20
-3.803970993148778
 10
1.109781260004536
 20
-3.838279855942295
 10
1.09599730552265
 20
-3.877132433160832
 10
1.085955976765743
 20
-3.919616923198582
 10
1.080182322819152
 20
-3.964400284661997
 10
1.0790753606943
 20
-4.00939979498496
 10
1.082476453429204
 20
-4.05407264347124
 10
1.090174980511606
 20
-4.096713730397675
 10
1.101693062922414
 20
-4.136628434728903
 10
1.116709104266481
 20
-4.173159034542085
 10
1.134312643716759
 20
-4.204844975859194
 10
1.154034389421631
 20
-4.231123584088377
 10
1.174729979955223
 20
-4.25079285629484
 10
1.19542052318393
 20
-4.263114178457005
 10
1.215465128085642
 20
-4.267941494520596
 10
1.217840140480971
 20
-4.267999998757236
  0
LWPOLYLINE
  5
102
330
E7
100
AcDbEntity
  8
AM_9
100
AcDbPolyline
 90
       11
 70
     0
 43
0.0
 10
1.217840140480971
 20
-4.267999998757236
 10
1.233853768636801
 20
-4.265125158790635
 10
1.250504130368586
 20
-4.255013023636772
 10
1.265021224283822
 20
-4.237862508624092
 10
1.27732919195478
 20
-4.214247575479547
 10
1.287507162348006
 20
-4.184208846455435
 10
1.295435830408868
 20
-4.148974221944328
 10
1.301262039720256
 20
-4.108985833158973
 10
1.305048302339697
 20
-4.065761219750136
 10
1.306604530834144
 20
-4.032164195651458
 10
1.30712062136786
 20
-3.998
  0
LWPOLYLINE
  5
103
330
E7
100
AcDbEntity
  8
AM_9
100
AcDbPolyline
 90
        7
 70
     0
 43
0.0
 10
1.481005973039785
 20
-3.809407065294274
 10
1.49267348387806
 20
-3.788808406601096
 10
1.511588272603896
 20
-3.763079103600344
 10
1.531560071977737
 20
-3.743996897166227
 10
1.551738910215461
 20
-3.732253418495136
 10
1.57150193324043
 20
-3.728009176900261
 10
1.572438301844108
 20
-3.728000000337887
  0
LWPOLYLINE
  5
104
330
E7
100
AcDbEntity
  8
AM_9
100
AcDbPolyline
 90
       16
 70
     0
 43
0.0
 10
1.572453529034551
 20
-4.267999999060577
 10
1.559662479892031
 20
-4.266361689251916
 10
1.539817919809031
 20
-4.257686191475499
 10
1.519966441553498
 20
-4.241874925706518
 10
1.50074748321753
 20
-4.219185563952598
 10
1.482986326566711
 20
-4.190394707038779
 10
1.467294430758221
 20
-4.155826430692859
 10
1.454541367638515
 20
-4.116781192761772
 10
1.445380906261801
 20
-4.074251049515455
 10
1.440222978201757
 20
-4.029520148649331
 10
1.439395081397956
 20
-3.984338706378367
 10
1.442789501938842
 20
-3.939545868557394
 10
1.450252124359514
 20
-3.896664073453575
 10
1.461355722773937
 20
-3.856603240050793
 10
1.475754396814139
 20
-3.820227649049555
 10
1.481005973039785
 20
-3.809407065294274
  0
LINE
  5
105
330
E7
100
AcDbEntity
  8
AM_9
100
AcDbLine
 10
1.667264215723719
 20
-3.982188163410155
 30
0.0
 11
1.667393947872945
 21
-3.998
 31
0.0
  0
LWPOLYLINE
  5
106
330
E7
100
AcDbEntity
  8
AM_9
100
AcDbPolyline
 90
        7
 70
     0
 43
0.0
 10
1.644382142104984
 20
-3.809606207138926
 10
1.646085416535077
 20
-3.815281807824554
 10
1.654726527031491
 20
-3.851121540818258
 10
1.661119684768608
 20
-3.891406783534719
 10
1.665276950596505
 20
-3.934760450401829
 10
1.666864543379217
 20
-3.966153786116405
 10
1.667264215723719
 20
-3.982188163410155
  0
LWPOLYLINE
  5
107
330
E7
100
AcDbEntity
  8
AM_9
100
AcDbPolyline
 90
        6
 70
     0
 43
0.0
 10
1.572438301844108
 20
-3.728000000337887
 10
1.590010953433221
 20
-3.731427194553021
 10
1.607023832385576
 20
-3.742212070566499
 10
1.62213573521823
 20
-3.760126624235077
 10
1.635173662960729
 20
-3.784569579887676
 10
1.644382142104984
 20
-3.809606207138926
  0
LWPOLYLINE
  5
108
330
E7
100
AcDbEntity
  8
AM_9
100
AcDbPolyline
 90
        7
 70
     0
 43
0.0
 10
1.286844112812983
 20
-3.809377487082717
 10
1.283395613770596
 20
-3.798148412314983
 10
1.272196734558353
 20
-3.770587879958263
 10
1.258505127595397
 20
-3.749296511489591
 10
1.242545810348051
 20
-3.735085094134945
 10
1.224776721304192
 20
-3.728541530533203
 10
1.217859408242401
 20
-3.728000000717643
  0
LWPOLYLINE
  5
109
330
E7
100
AcDbEntity
  8
AM_9
100
AcDbPolyline
 90
        6
 70
     0
 43
0.0
 10
1.30712062136786
 20
-3.998
 10
1.306226984811982
 20
-3.953190305412586
 10
1.303523396004483
 20
-3.909656338616259
 10
1.298917557277812
 20
-3.868677812216786
 10
1.292301088678174
 20
-3.83128896147909
 10
1.286844112812983
 20
-3.809377487082717
  0
LINE
  5
10A
330
E7
100
AcDbEntity
  8
AM_9
100
AcDbLine
 10
-1.34375
 20
-0.8462500000000003
 30
0.0
 11
-1.34375
 21
-4.44
 31
0.0
  0
LINE
  5
10B
330
E7
100
AcDbEntity
  8
AM_9
100
AcDbLine
 10
1.34375
 20
-4.44
 30
0.0
 11
1.34375
 21
-0.8462500000000003
 31
0.0
  0
LINE
  5
10C
330
E7
100
AcDbEntity
  8
AM_9
100
AcDbLine
 10
-1.735
 20
-0.8462500000000003
 30
0.0
 11
-1.735
 21
-1.105750000000001
 31
0.0
  0
LINE
  5
10D
330
E7
100
AcDbEntity
  8
AM_9
100
AcDbLine
 10
1.735
 20
-1.105750000000001
 30
0.0
 11
1.735
 21
-0.8462500000000003
 31
0.0
  0
LINE
  5
10E
330
E7
100
AcDbEntity
  8
AM_9
100
AcDbLine
 10
1.735
 20
-0.8462500000000003
 30
0.0
 11
-1.735
 21
-0.8462500000000003
 31
0.0
  0
LWPOLYLINE
  5
10F
330
E7
100
AcDbEntity
  8
AM_9
100
AcDbPolyline
 90
       11
 70
     0
 43
0.0
 10
1.66717152276505
 20
-4.018694155737714
 10
1.666328122499217
 20
-4.043016402455499
 10
1.663133944149217
 20
-4.086756420371638
 10
1.657760573318692
 20
-4.127941422842958
 10
1.650183330245489
 20
-4.165497412273243
 10
1.640259410434626
 20
-4.198576240282542
 10
1.628074126110839
 20
-4.226032979761296
 10
1.613588682433794
 20
-4.247107090367963
 10
1.597084458855766
 20
-4.261117799535108
 10
1.578991091281328
 20
-4.267517223934403
 10
1.572453529034551
 20
-4.267999999060577
  0
LINE
  5
110
330
E7
100
AcDbEntity
  8
AM_9
100
AcDbLine
 10
1.667393947872945
 20
-3.998
 30
0.0
 11
1.66717152276505
 21
-4.018694155737714
 31
0.0
  0
LWPOLYLINE
  5
111
330
E7
100
AcDbEntity
  8
AM_9
100
AcDbPolyline
 90
        7
 70
     0
 43
0.0
 10
0.1934586626887901
 20
-3.809655247403426
 10
0.1983293434060238
 20
-3.814791180495765
 10
0.2265540073103927
 20
-3.851121540818258
 10
0.2477997381730851
 20
-3.890783910902559
 10
0.2624895414423598
 20
-3.934760450401828
 10
0.2680881166594346
 20
-3.965925684637121
 10
0.27
 20
-3.998
  0
LWPOLYLINE
  5
112
330
E7
100
AcDbEntity
  8
AM_9
100
AcDbPolyline
 90
       11
 70
     0
 43
0.0
 10
-0.1932035937913078
 20
-3.809393607356158
 10
-0.1707011342997689
 20
-3.788808406601096
 10
-0.1336196840221797
 20
-3.763381628933681
 10
-0.091555577387812
 20
-3.743996897166227
 10
-0.0482381762769904
 20
-3.73234406020292
 10
-0.0022260821919898
 20
-3.728009176900261
 10
0.0420767147473343
 20
-3.731298762514923
 10
0.0864438265934716
 20
-3.742212070566499
 10
0.1271367328653359
 20
-3.759806273893857
 10
0.1653706617592031
 20
-3.784569579887676
 10
0.1934586626887901
 20
-3.809655247403426
  0
LWPOLYLINE
  5
113
330
E7
100
AcDbEntity
  8
AM_9
100
AcDbPolyline
 90
       25
 70
     0
 43
0.0
 10
0.27
 20
-3.998
 10
0.2663279453243751
 20
-4.042378210185819
 10
0.2549947015975296
 20
-4.086756420371638
 10
0.2369739392194663
 20
-4.127396105547303
 10
0.2117654761328368
 20
-4.165497412273243
 10
0.1812028386142657
 20
-4.198163761151045
 10
0.1445716436275962
 20
-4.226032979761296
 10
0.1046960596777353
 20
-4.24687493864983
 10
0.0605724654261542
 20
-4.261117799535108
 10
0.0163242365921935
 20
-4.267506065422807
 10
-0.0296985478072313
 20
-4.266361689251916
 10
-0.073208263206951
 20
-4.257885648311372
 10
-0.1158663912083254
 20
-4.241874925706518
 10
-0.1542967907545652
 20
-4.219568274721004
 10
-0.189431456478227
 20
-4.190394707038779
 10
-0.2186749246583895
 20
-4.156370695918303
 10
-0.2424686129091572
 20
-4.116781192761772
 10
-0.2588169924764043
 20
-4.074901003930176
 10
-0.2681538368719047
 20
-4.029520148649331
 10
-0.2696864661733382
 20
-3.984991927009088
 10
-0.2635964994405094
 20
-3.939545868557394
 10
-0.250494815206508
 20
-3.897241141557393
 10
-0.2300151218417308
 20
-3.856603240050793
 10
-0.2036203698298914
 20
-3.820690256922136
 10
-0.1932035937913078
 20
-3.809393607356158
  0
LINE
  5
114
330
E7
100
AcDbEntity
  8
AM_9
100
AcDbLine
 10
-1.735
 20
-3.02475
 30
0.0
 11
-1.735
 21
-4.44
 31
0.0
  0
LINE
  5
115
330
E7
100
AcDbEntity
  8
AM_9
100
AcDbLine
 10
1.735
 20
-4.44
 30
0.0
 11
1.735
 21
-3.02475
 31
0.0
  0
LINE
  5
116
330
E7
100
AcDbEntity
  8
AM_9
100
AcDbLine
 10
1.919115
 20
-1.105750000000001
 30
0.0
 11
-1.919115
 21
-1.105750000000001
 31
0.0
  0
ARC
  5
117
330
E7
100
AcDbEntity
  8
AM_9
100
AcDbCircle
 10
-1.919115
 20
-1.233875000000001
 30
0.0
 40
0.128125
100
AcDbArc
 50
90.0
 51
180.0
  0
ARC
  5
118
330
E7
100
AcDbEntity
  8
AM_9
100
AcDbCircle
 10
1.919115
 20
-1.233875000000001
 30
0.0
 40
0.1281250000000003
100
AcDbArc
 50
0.0
 51
90.0
  0
LINE
  5
119
330
E7
100
AcDbEntity
  8
AM_9
100
AcDbLine
 10
-2.04724
 20
-1.233875000000001
 30
0.0
 11
-2.04724
 21
-1.424625
 31
0.0
  0
LINE
  5
11A
330
E7
100
AcDbEntity
  8
AM_9
100
AcDbLine
 10
2.04724
 20
-1.424625
 30
0.0
 11
2.04724
 21
-1.233875000000001
 31
0.0
  0
LINE
  5
11B
330
E7
100
AcDbEntity
  8
AM_9
100
AcDbLine
 10
2.04724
 20
-1.233875000000001
 30
0.0
 11
-2.04724
 21
-1.233875000000001
 31
0.0
  0
LINE
  5
11C
330
E7
100
AcDbEntity
  8
AM_9
100
AcDbLine
 10
1.919115
 20
-3.02475
 30
0.0
 11
-1.919115
 21
-3.02475
 31
0.0
  0
ARC
  5
11D
330
E7
100
AcDbEntity
  8
AM_9
100
AcDbCircle
 10
-1.919114999999999
 20
-2.896624999999999
 30
0.0
 40
0.1281250000000014
100
AcDbArc
 50
180.0
 51
270.0
  0
ARC
  5
11E
330
E7
100
AcDbEntity
  8
AM_9
100
AcDbCircle
 10
1.919114999999999
 20
-2.896624999999999
 30
0.0
 40
0.1281250000000012
100
AcDbArc
 50
270.0
 51
0.0
  0
LINE
  5
11F
330
E7
100
AcDbEntity
  8
AM_9
100
AcDbLine
 10
-2.04724
 20
-2.705875
 30
0.0
 11
-2.04724
 21
-2.896625000000001
 31
0.0
  0
LINE
  5
120
330
E7
100
AcDbEntity
  8
AM_9
100
AcDbLine
 10
2.04724
 20
-2.896625000000001
 30
0.0
 11
2.04724
 21
-2.705875
 31
0.0
  0
LINE
  5
121
330
E7
100
AcDbEntity
  8
AM_9
100
AcDbLine
 10
-0.1143213865036788
 20
-2.896625000000001
 30
0.0
 11
-2.04724
 21
-2.896625000000001
 31
0.0
  0
LINE
  5
122
330
E7
100
AcDbEntity
  8
AM_9
100
AcDbLine
 10
0.1097345777727421
 20
-2.896625000000001
 30
0.0
 11
-0.1097157744214453
 21
-2.896625000000001
 31
0.0
  0
LINE
  5
123
330
E7
100
AcDbEntity
  8
AM_9
100
AcDbLine
 10
2.04724
 20
-2.896625000000001
 30
0.0
 11
0.114338328944391
 21
-2.896625000000001
 31
0.0
  0
LINE
  5
124
330
E7
100
AcDbEntity
  8
AM_9
100
AcDbLine
 10
-2.456688
 20
-2.001187500000004
 30
0.0
 11
-2.456688
 21
-2.129312499999997
 31
0.0
  0
LINE
  5
125
330
E7
100
AcDbEntity
  8
AM_9
100
AcDbLine
 10
2.456688
 20
-2.129312499999997
 30
0.0
 11
2.456688
 21
-2.001187500000004
 31
0.0
  0
LINE
  5
126
330
E7
100
AcDbEntity
  8
AM_9
100
AcDbLine
 10
2.430925
 20
-2.705875
 30
0.0
 11
-2.430925
 21
-2.705875
 31
0.0
  0
ARC
  5
127
330
E7
100
AcDbEntity
  8
AM_9
100
AcDbCircle
 10
-2.430925000000001
 20
-2.577750000000001
 30
0.0
 40
0.1281249999999989
100
AcDbArc
 50
180.0
 51
270.0
  0
ARC
  5
128
330
E7
100
AcDbEntity
  8
AM_9
100
AcDbCircle
 10
2.430925000000001
 20
-2.577750000000001
 30
0.0
 40
0.1281249999999989
100
AcDbArc
 50
270.0
 51
0.0
  0
LINE
  5
129
330
E7
100
AcDbEntity
  8
AM_9
100
AcDbLine
 10
2.456688
 20
-2.001187500000004
 30
0.0
 11
2.55905
 21
-1.942088771745216
 31
0.0
  0
LINE
  5
12A
330
E7
100
AcDbEntity
  8
AM_9
100
AcDbLine
 10
-2.55905
 20
-1.942088771745216
 30
0.0
 11
-2.456688
 21
-2.001187500000004
 31
0.0
  0
LINE
  5
12B
330
E7
100
AcDbEntity
  8
AM_9
100
AcDbLine
 10
2.456688
 20
-2.001187500000004
 30
0.0
 11
-2.456688
 21
-2.001187500000004
 31
0.0
  0
LINE
  5
12C
330
E7
100
AcDbEntity
  8
AM_9
100
AcDbLine
 10
2.430925000000001
 20
-1.424625000000001
 30
0.0
 11
-2.430925000000001
 21
-1.424625000000001
 31
0.0
  0
ARC
  5
12D
330
E7
100
AcDbEntity
  8
AM_9
100
AcDbCircle
 10
-2.430924999999998
 20
-1.552750000000004
 30
0.0
 40
0.1281250000000027
100
AcDbArc
 50
90.0
 51
180.0
  0
ARC
  5
12E
330
E7
100
AcDbEntity
  8
AM_9
100
AcDbCircle
 10
2.430925000000001
 20
-1.552749999999999
 30
0.0
 40
0.1281249999999989
100
AcDbArc
 50
0.0
 51
90.0
  0
LINE
  5
12F
330
E7
100
AcDbEntity
  8
AM_9
100
AcDbLine
 10
-2.55905
 20
-1.552750000000001
 30
0.0
 11
-2.55905
 21
-1.942088771745216
 31
0.0
  0
LINE
  5
130
330
E7
100
AcDbEntity
  8
AM_9
100
AcDbLine
 10
2.55905
 20
-1.942088771745216
 30
0.0
 11
2.55905
 21
-1.552750000000001
 31
0.0
  0
LINE
  5
131
330
E7
100
AcDbEntity
  8
AM_9
100
AcDbLine
 10
2.55905
 20
-1.552750000000001
 30
0.0
 11
-2.55905
 21
-1.552750000000001
 31
0.0
  0
LINE
  5
132
330
E7
100
AcDbEntity
  8
AM_9
100
AcDbLine
 10
2.55905
 20
-1.942088771745216
 30
0.0
 11
-2.55905
 21
-1.942088771745216
 31
0.0
  0
LINE
  5
133
330
E7
100
AcDbEntity
  8
AM_9
100
AcDbLine
 10
-2.456688
 20
-2.129312499999997
 30
0.0
 11
-2.55905
 21
-2.188411228254785
 31
0.0
  0
LINE
  5
134
330
E7
100
AcDbEntity
  8
AM_9
100
AcDbLine
 10
2.55905
 20
-2.188411228254785
 30
0.0
 11
2.456688
 21
-2.129312499999997
 31
0.0
  0
LINE
  5
135
330
E7
100
AcDbEntity
  8
AM_9
100
AcDbLine
 10
2.456688
 20
-2.129312499999997
 30
0.0
 11
-2.456688
 21
-2.129312499999997
 31
0.0
  0
LINE
  5
136
330
E7
100
AcDbEntity
  8
AM_9
100
AcDbLine
 10
-2.55905
 20
-2.188411228254785
 30
0.0
 11
-2.55905
 21
-2.577750000000001
 31
0.0
  0
LINE
  5
137
330
E7
100
AcDbEntity
  8
AM_9
100
AcDbLine
 10
2.55905
 20
-2.577750000000001
 30
0.0
 11
2.55905
 21
-2.188411228254785
 31
0.0
  0
LINE
  5
138
330
E7
100
AcDbEntity
  8
AM_9
100
AcDbLine
 10
2.55905
 20
-2.188411228254785
 30
0.0
 11
-2.55905
 21
-2.188411228254785
 31
0.0
  0
LINE
  5
139
330
E7
100
AcDbEntity
  8
AM_9
100
AcDbLine
 10
2.55905
 20
-2.577750000000001
 30
0.0
 11
-2.55905
 21
-2.577750000000001
 31
0.0
  0
ENDBLK
  5
EA
330
E7
100
AcDbEntity
  8
0
100
AcDbBlockEnd
  0
BLOCK
  5
13C
330
13A
100
AcDbEntity
  8
0
100
AcDbBlockBegin
  2
4_405015E_Inch_0_in_071489_4
 70
     2
 10
0.0
 20
0.0
 30
0.0
  3
4_405015E_Inch_0_in_071489_4
  1

  0
ATTDEF
  5
13E
330
13A
100
AcDbEntity
  8
AM_6
100
AcDbText
 10
5.218750000000002
 20
-2.457409257229538
 30
0.0
 40
0.5
  1
405015E -Inch
100
AcDbAttributeDefinition
  3

  2
NN
 70
     8
280
     0
  0
ATTDEF
  5
13F
330
13A
100
AcDbEntity
  8
AM_6
100
AcDbText
 10
5.218750000000002
 20
-2.957409257229538
 30
0.0
 40
0.5
  1
Grease Fitting
100
AcDbAttributeDefinition
  3

  2
NT
 70
     8
280
     0
  0
ATTDEF
  5
140
330
13A
100
AcDbEntity
  8
AM_6
100
AcDbText
 10
5.218750000000002
 20
-3.457409257229538
 30
0.0
 40
0.5
  1
405015E-Inch
100
AcDbAttributeDefinition
  3

  2
NB
 70
     8
280
     0
  0
ATTDEF
  5
141
330
13A
100
AcDbEntity
  8
AM_6
100
AcDbText
 10
5.218750000000002
 20
-3.957409257229538
 30
0.0
 40
0.5
  1
$MN.-Inch
100
AcDbAttributeDefinition
  3

  2
NBSYN
 70
     8
280
     0
  0
ATTDEF
  5
142
330
13A
100
AcDbEntity
  8
AM_6
100
AcDbText
 10
5.218750000000002
 20
-4.457409257229538
 30
0.0
 40
0.5
  1
405015E
100
AcDbAttributeDefinition
  3

  2
LINA
 70
     8
280
     0
  0
ATTDEF
  5
143
330
13A
100
AcDbEntity
  8
AM_6
100
AcDbText
 10
5.218750000000002
 20
-4.957409257229538
 30
0.0
 40
0.5
  1
405015E
100
AcDbAttributeDefinition
  3

  2
MN
 70
     8
280
     0
  0
ATTDEF
  5
144
330
13A
100
AcDbEntity
  8
AM_6
100
AcDbText
 10
5.218750000000002
 20
-5.457409257229538
 30
0.0
 40
0.5
  1
1/8 x 27PTF
100
AcDbAttributeDefinition
  3

  2
T
 70
     8
280
     0
  0
ATTDEF
  5
145
330
13A
100
AcDbEntity
  8
AM_6
100
AcDbText
 10
5.218750000000002
 20
-5.957409257229538
 30
0.0
 40
0.5
  1
baldor
100
AcDbAttributeDefinition
  3

  2
COMPANY
 70
     8
280
     0
  0
CIRCLE
  5
146
330
13A
100
AcDbEntity
  8
AM_9
100
AcDbCircle
 10
0.0
 20
-2.71
 30
0.0
 40
0.161902872472269
  0
CIRCLE
  5
147
330
13A
100
AcDbEntity
  8
AM_9
100
AcDbCircle
 10
0.0
 20
-2.71
 30
0.0
 40
0.1986176267812154
  0
CIRCLE
  5
148
330
13A
100
AcDbEntity
  8
AM_9
100
AcDbCircle
 10
0.0
 20
-2.71
 30
0.0
 40
0.2057518972230696
  0
CIRCLE
  5
149
330
13A
100
AcDbEntity
  8
AM_9
100
AcDbCircle
 10
0.0
 20
-2.71
 30
0.0
 40
0.1188200907348975
  0
CIRCLE
  5
14A
330
13A
100
AcDbEntity
  8
AM_9
100
AcDbCircle
 10
0.0
 20
-2.71
 30
0.0
 40
0.105
  0
LINE
  5
14B
330
13A
100
AcDbEntity
  8
AM_4
100
AcDbLine
 10
0.21875
 20
-2.583704628614769
 30
0.0
 11
0.0
 21
-2.457409257229538
 31
0.0
  0
LINE
  5
14C
330
13A
100
AcDbEntity
  8
AM_4
100
AcDbLine
 10
0.0
 20
-2.457409257229538
 30
0.0
 11
-0.21875
 21
-2.583704628614769
 31
0.0
  0
LINE
  5
14D
330
13A
100
AcDbEntity
  8
AM_4
100
AcDbLine
 10
0.0
 20
-2.962590742770461
 30
0.0
 11
0.21875
 21
-2.83629537138523
 31
0.0
  0
LINE
  5
14E
330
13A
100
AcDbEntity
  8
AM_4
100
AcDbLine
 10
-0.21875
 20
-2.83629537138523
 30
0.0
 11
0.0
 21
-2.962590742770461
 31
0.0
  0
LINE
  5
14F
330
13A
100
AcDbEntity
  8
AM_4
100
AcDbLine
 10
0.21875
 20
-2.83629537138523
 30
0.0
 11
0.21875
 21
-2.583704628614769
 31
0.0
  0
LINE
  5
150
330
13A
100
AcDbEntity
  8
AM_4
100
AcDbLine
 10
-0.21875
 20
-2.583704628614769
 30
0.0
 11
-0.21875
 21
-2.83629537138523
 31
0.0
  0
CIRCLE
  5
151
330
13A
100
AcDbEntity
  8
AM_4
100
AcDbCircle
 10
0.0
 20
-2.71
 30
0.0
 40
0.21375
  0
CIRCLE
  5
152
330
13A
100
AcDbEntity
  8
AM_4
100
AcDbCircle
 10
0.0
 20
-2.71
 30
0.0
 40
0.1725340532830154
  0
CIRCLE
  5
153
330
13A
100
AcDbEntity
  8
AM_4
100
AcDbCircle
 10
0.0
 20
-2.71
 30
0.0
 40
0.1026779019331875
  0
CIRCLE
  5
154
330
13A
100
AcDbEntity
  8
AM_4
100
AcDbCircle
 10
0.0
 20
-2.71
 30
0.0
 40
0.135
  0
ARC
  5
155
330
13A
100
AcDbEntity
  8
AM_5
100
AcDbCircle
 10
-0.0000000000000001
 20
-2.71
 30
0.0
 40
0.2025000049999999
100
AcDbArc
 50
74.99999999999996
 51
15.00000000000007
  0
CIRCLE
  5
156
330
13A
100
AcDbEntity
  8
AM_4
100
AcDbCircle
 10
0.0
 20
-2.710000000000002
 30
0.0
 40
0.2187500000000018
  0
ENDBLK
  5
13D
330
13A
100
AcDbEntity
  8
0
100
AcDbBlockEnd
  0
BLOCK
  5
159
330
157
100
AcDbEntity
  8
0
100
AcDbBlockBegin
  2
5_B071489_0_in_071489_4
 70
     2
 10
0.0
 20
0.0
 30
0.0
  3
5_B071489_0_in_071489_4
  1

  0
ATTDEF
  5
15B
330
157
100
AcDbEntity
  8
AM_6
100
AcDbText
 10
8.879999999999999
 20
0.1905
 30
0.0
 40
0.5
  1
EF4S-S2 -(Contact Seal)-Housing
100
AcDbAttributeDefinition
  3

  2
NN
 70
     8
280
     0
  0
ATTDEF
  5
15C
330
157
100
AcDbEntity
  8
AM_6
100
AcDbText
 10
8.879999999999999
 20
-0.3095
 30
0.0
 40
0.5
  1
S-2000 -E TYpe -Inch
100
AcDbAttributeDefinition
  3

  2
NT
 70
     8
280
     0
  0
ATTDEF
  5
15D
330
157
100
AcDbEntity
  8
AM_6
100
AcDbText
 10
8.879999999999999
 20
-0.8095
 30
0.0
 40
0.5
  1
B071489
100
AcDbAttributeDefinition
  3

  2
NB
 70
     8
280
     0
  0
ATTDEF
  5
15E
330
157
100
AcDbEntity
  8
AM_6
100
AcDbText
 10
8.879999999999999
 20
-1.3095
 30
0.0
 40
0.5
  1
$PN.
100
AcDbAttributeDefinition
  3

  2
NBSYN
 70
     8
280
     0
  0
ATTDEF
  5
15F
330
157
100
AcDbEntity
  8
AM_6
100
AcDbText
 10
8.879999999999999
 20
-1.8095
 30
0.0
 40
0.5
  1
B071489
100
AcDbAttributeDefinition
  3

  2
LINA
 70
     8
280
     0
  0
ATTDEF
  5
160
330
157
100
AcDbEntity
  8
AM_6
100
AcDbText
 10
8.879999999999999
 20
-2.3095
 30
0.0
 40
0.5
  1
2-11/16
100
AcDbAttributeDefinition
  3

  2
SS
 70
     8
280
     0
  0
ATTDEF
  5
161
330
157
100
AcDbEntity
  8
AM_6
100
AcDbText
 10
8.879999999999999
 20
-2.8095
 30
0.0
 40
0.5
  1
2.687500
100
AcDbAttributeDefinition
  3

  2
SS1
 70
     8
280
     0
  0
ATTDEF
  5
162
330
157
100
AcDbEntity
  8
AM_6
100
AcDbText
 10
8.879999999999999
 20
-3.3095
 30
0.0
 40
0.5
  1
Expansion
100
AcDbAttributeDefinition
  3

  2
TYPE
 70
     8
280
     0
  0
ATTDEF
  5
163
330
157
100
AcDbEntity
  8
AM_6
100
AcDbText
 10
8.879999999999999
 20
-3.8095
 30
0.0
 40
0.5
  1
071476
100
AcDbAttributeDefinition
  3

  2
PN1
 70
     8
280
     0
  0
ATTDEF
  5
164
330
157
100
AcDbEntity
  8
AM_6
100
AcDbText
 10
8.879999999999999
 20
-4.3095
 30
0.0
 40
0.5
  1
071489
100
AcDbAttributeDefinition
  3

  2
PN2
 70
     8
280
     0
  0
ATTDEF
  5
165
330
157
100
AcDbEntity
  8
AM_6
100
AcDbText
 10
8.879999999999999
 20
-4.8095
 30
0.0
 40
0.5
  1
EF4B-S2-211R
100
AcDbAttributeDefinition
  3

  2
DESC1
 70
     8
280
     0
  0
ATTDEF
  5
166
330
157
100
AcDbEntity
  8
AM_6
100
AcDbText
 10
8.879999999999999
 20
-5.3095
 30
0.0
 40
0.5
  1
EF4B-S2-211RE
100
AcDbAttributeDefinition
  3

  2
DESC2
 70
     8
280
     0
  0
ATTDEF
  5
167
330
157
100
AcDbEntity
  8
AM_6
100
AcDbText
 10
8.879999999999999
 20
-5.8095
 30
0.0
 40
0.5
  1
Non-Expansion Type
100
AcDbAttributeDefinition
  3

  2
EF
 70
     8
280
     0
  0
ATTDEF
  5
168
330
157
100
AcDbEntity
  8
AM_6
100
AcDbText
 10
8.879999999999999
 20
-6.3095
 30
0.0
 40
0.5
  1
1
100
AcDbAttributeDefinition
  3

  2
EF1
 70
     8
280
     0
  0
ATTDEF
  5
169
330
157
100
AcDbEntity
  8
AM_6
100
AcDbText
 10
8.879999999999999
 20
-6.8095
 30
0.0
 40
0.5
  1
3.59
100
AcDbAttributeDefinition
  3

  2
A
 70
     8
280
     0
  0
ATTDEF
  5
16A
330
157
100
AcDbEntity
  8
AM_6
100
AcDbText
 10
8.879999999999999
 20
-7.3095
 30
0.0
 40
0.5
  1
3.5900000
100
AcDbAttributeDefinition
  3

  2
A1
 70
     8
280
     0
  0
ATTDEF
  5
16B
330
157
100
AcDbEntity
  8
AM_6
100
AcDbText
 10
8.879999999999999
 20
-7.8095
 30
0.0
 40
0.5
  1
7.76
100
AcDbAttributeDefinition
  3

  2
B
 70
     8
280
     0
  0
ATTDEF
  5
16C
330
157
100
AcDbEntity
  8
AM_6
100
AcDbText
 10
8.879999999999999
 20
-8.3095
 30
0.0
 40
0.5
  1
7.7600000
100
AcDbAttributeDefinition
  3

  2
B1
 70
     8
280
     0
  0
ATTDEF
  5
16D
330
157
100
AcDbEntity
  8
AM_6
100
AcDbText
 10
8.879999999999999
 20
-8.8095
 30
0.0
 40
0.5
  1
4.69
100
AcDbAttributeDefinition
  3

  2
C
 70
     8
280
     0
  0
ATTDEF
  5
16E
330
157
100
AcDbEntity
  8
AM_6
100
AcDbText
 10
8.879999999999999
 20
-9.3095
 30
0.0
 40
0.5
  1
4.6900000
100
AcDbAttributeDefinition
  3

  2
C1
 70
     8
280
     0
  0
ATTDEF
  5
16F
330
157
100
AcDbEntity
  8
AM_6
100
AcDbText
 10
8.879999999999999
 20
-9.8095
 30
0.0
 40
0.5
  1
6
100
AcDbAttributeDefinition
  3

  2
D
 70
     8
280
     0
  0
ATTDEF
  5
170
330
157
100
AcDbEntity
  8
AM_6
100
AcDbText
 10
8.879999999999999
 20
-10.3095
 30
0.0
 40
0.5
  1
6.0000000
100
AcDbAttributeDefinition
  3

  2
D1
 70
     8
280
     0
  0
ATTDEF
  5
171
330
157
100
AcDbEntity
  8
AM_6
100
AcDbText
 10
8.879999999999999
 20
-10.8095
 30
0.0
 40
0.5
  1
3/4
100
AcDbAttributeDefinition
  3

  2
F
 70
     8
280
     0
  0
ATTDEF
  5
172
330
157
100
AcDbEntity
  8
AM_6
100
AcDbText
 10
8.879999999999999
 20
-11.3095
 30
0.0
 40
0.5
  1
0.7500000
100
AcDbAttributeDefinition
  3

  2
F1
 70
     8
280
     0
  0
ATTDEF
  5
173
330
157
100
AcDbEntity
  8
AM_6
100
AcDbText
 10
8.879999999999999
 20
-11.8095
 30
0.0
 40
0.5
  1
0.88
100
AcDbAttributeDefinition
  3

  2
G
 70
     8
280
     0
  0
ATTDEF
  5
174
330
157
100
AcDbEntity
  8
AM_6
100
AcDbText
 10
8.879999999999999
 20
-12.3095
 30
0.0
 40
0.5
  1
0.880000
100
AcDbAttributeDefinition
  3

  2
G1
 70
     8
280
     0
  0
ATTDEF
  5
175
330
157
100
AcDbEntity
  8
AM_6
100
AcDbText
 10
8.879999999999999
 20
-12.8095
 30
0.0
 40
0.5
  1
1.61
100
AcDbAttributeDefinition
  3

  2
H
 70
     8
280
     0
  0
ATTDEF
  5
176
330
157
100
AcDbEntity
  8
AM_6
100
AcDbText
 10
8.879999999999999
 20
-13.3095
 30
0.0
 40
0.5
  1
1.6100000
100
AcDbAttributeDefinition
  3

  2
H1
 70
     8
280
     0
  0
ATTDEF
  5
177
330
157
100
AcDbEntity
  8
AM_6
100
AcDbText
 10
8.879999999999999
 20
-13.8095
 30
0.0
 40
0.5
  1
6.3
100
AcDbAttributeDefinition
  3

  2
J
 70
     8
280
     0
  0
ATTDEF
  5
178
330
157
100
AcDbEntity
  8
AM_6
100
AcDbText
 10
8.879999999999999
 20
-14.3095
 30
0.0
 40
0.5
  1
6.3000000
100
AcDbAttributeDefinition
  3

  2
J1
 70
     8
280
     0
  0
ATTDEF
  5
179
330
157
100
AcDbEntity
  8
AM_6
100
AcDbText
 10
8.879999999999999
 20
-14.8095
 30
0.0
 40
0.5
  1
7-7/8
100
AcDbAttributeDefinition
  3

  2
K
 70
     8
280
     0
  0
ATTDEF
  5
17A
330
157
100
AcDbEntity
  8
AM_6
100
AcDbText
 10
8.879999999999999
 20
-15.3095
 30
0.0
 40
0.5
  1
7.8750000
100
AcDbAttributeDefinition
  3

  2
K1
 70
     8
280
     0
  0
ATTDEF
  5
17B
330
157
100
AcDbEntity
  8
AM_6
100
AcDbText
 10
8.879999999999999
 20
-15.8095
 30
0.0
 40
0.5
  1
4.61
100
AcDbAttributeDefinition
  3

  2
L
 70
     8
280
     0
  0
ATTDEF
  5
17C
330
157
100
AcDbEntity
  8
AM_6
100
AcDbText
 10
8.879999999999999
 20
-16.3095
 30
0.0
 40
0.5
  1
4.6100000
100
AcDbAttributeDefinition
  3

  2
L1
 70
     8
280
     0
  0
ATTDEF
  5
17D
330
157
100
AcDbEntity
  8
AM_6
100
AcDbText
 10
8.879999999999999
 20
-16.8095
 30
0.0
 40
0.5
  1
3.58
100
AcDbAttributeDefinition
  3

  2
N
 70
     8
280
     0
  0
ATTDEF
  5
17E
330
157
100
AcDbEntity
  8
AM_6
100
AcDbText
 10
8.879999999999999
 20
-17.3095
 30
0.0
 40
0.5
  1
3.580000
100
AcDbAttributeDefinition
  3

  2
N1
 70
     8
280
     0
  0
ATTDEF
  5
17F
330
157
100
AcDbEntity
  8
AM_6
100
AcDbText
 10
8.879999999999999
 20
-17.8095
 30
0.0
 40
0.5
  1
1.09
100
AcDbAttributeDefinition
  3

  2
P
 70
     8
280
     0
  0
ATTDEF
  5
180
330
157
100
AcDbEntity
  8
AM_6
100
AcDbText
 10
8.879999999999999
 20
-18.3095
 30
0.0
 40
0.5
  1
1.090000
100
AcDbAttributeDefinition
  3

  2
P1
 70
     8
280
     0
  0
ATTDEF
  5
181
330
157
100
AcDbEntity
  8
AM_6
100
AcDbText
 10
8.879999999999999
 20
-18.8095
 30
0.0
 40
0.5
  1
0.25
100
AcDbAttributeDefinition
  3

  2
X
 70
     8
280
     0
  0
ATTDEF
  5
182
330
157
100
AcDbEntity
  8
AM_6
100
AcDbText
 10
8.879999999999999
 20
-19.3095
 30
0.0
 40
0.5
  1
0.250000
100
AcDbAttributeDefinition
  3

  2
X1
 70
     8
280
     0
  0
ATTDEF
  5
183
330
157
100
AcDbEntity
  8
AM_6
100
AcDbText
 10
8.879999999999999
 20
-19.8095
 30
0.0
 40
0.5
  1
0.025
100
AcDbAttributeDefinition
  3

  2
Y
 70
     8
280
     0
  0
ATTDEF
  5
184
330
157
100
AcDbEntity
  8
AM_6
100
AcDbText
 10
8.879999999999999
 20
-20.3095
 30
0.0
 40
0.5
  1
3.47
100
AcDbAttributeDefinition
  3

  2
Z
 70
     8
280
     0
  0
ATTDEF
  5
185
330
157
100
AcDbEntity
  8
AM_6
100
AcDbText
 10
8.879999999999999
 20
-20.8095
 30
0.0
 40
0.5
  1
3.470000
100
AcDbAttributeDefinition
  3

  2
Z1
 70
     8
280
     0
  0
ATTDEF
  5
186
330
157
100
AcDbEntity
  8
AM_6
100
AcDbText
 10
8.879999999999999
 20
-21.3095
 30
0.0
 40
0.5
  1
1/2-13
100
AcDbAttributeDefinition
  3

  2
CS
 70
     8
280
     0
  0
ATTDEF
  5
187
330
157
100
AcDbEntity
  8
AM_6
100
AcDbText
 10
8.879999999999999
 20
-21.8095
 30
0.0
 40
0.5
  1
0.5000
100
AcDbAttributeDefinition
  3

  2
NDM
 70
     8
280
     0
  0
ATTDEF
  5
188
330
157
100
AcDbEntity
  8
AM_6
100
AcDbText
 10
8.879999999999999
 20
-22.3095
 30
0.0
 40
0.5
  1
0.4170
100
AcDbAttributeDefinition
  3

  2
KDM
 70
     8
280
     0
  0
ATTDEF
  5
189
330
157
100
AcDbEntity
  8
AM_6
100
AcDbText
 10
8.879999999999999
 20
-22.8095
 30
0.0
 40
0.5
  1
5.1181
100
AcDbAttributeDefinition
  3

  2
BORE
 70
     8
280
     0
  0
ATTDEF
  5
18A
330
157
100
AcDbEntity
  8
AM_6
100
AcDbText
 10
8.879999999999999
 20
-23.3095
 30
0.0
 40
0.5
  1
1
100
AcDbAttributeDefinition
  3

  2
ST1
 70
     8
280
     0
  0
ATTDEF
  5
18B
330
157
100
AcDbEntity
  8
AM_6
100
AcDbText
 10
8.879999999999999
 20
-23.8095
 30
0.0
 40
0.5
  1
baldor
100
AcDbAttributeDefinition
  3

  2
COMPANY
 70
     8
280
     0
  0
LINE
  5
18C
330
157
100
AcDbEntity
  8
AM_9
100
AcDbLine
 10
3.038890909246585
 20
-1.502666666666667
 30
0.0
 11
3.038890909246585
 21
-1.61
 31
0.0
  0
LINE
  5
18D
330
157
100
AcDbEntity
  8
AM_9
100
AcDbLine
 10
2.991999800571139
 20
-1.502666666666667
 30
0.0
 11
2.991999800571139
 21
-1.61
 31
0.0
  0
LINE
  5
18E
330
157
100
AcDbEntity
  8
AM_9
100
AcDbLine
 10
-3.038890909246585
 20
-1.502666666666667
 30
0.0
 11
-3.038890909246585
 21
-1.61
 31
0.0
  0
LINE
  5
18F
330
157
100
AcDbEntity
  8
AM_9
100
AcDbLine
 10
-2.991999800571138
 20
-1.61
 30
0.0
 11
-2.991999800571138
 21
-1.502666666666667
 31
0.0
  0
LINE
  5
190
330
157
100
AcDbEntity
  8
AM_9
100
AcDbLine
 10
-2.991999800571138
 20
-1.502666666666667
 30
0.0
 11
-3.879999999999999
 21
-1.502666666666667
 31
0.0
  0
LINE
  5
191
330
157
100
AcDbEntity
  8
AM_9
100
AcDbLine
 10
-1.94
 20
-0.8049999999999998
 30
0.0
 11
-3.879999999999999
 21
-0.8049999999999998
 31
0.0
  0
LWPOLYLINE
  5
192
330
157
100
AcDbEntity
  8
AM_9
100
AcDbPolyline
 90
       10
 70
     0
 43
0.0
 10
-2.093970624346244
 20
-0.0690000000000004
 10
-2.091695676375388
 20
-0.0921179581750628
 10
-2.089228910937247
 20
-0.1022769118567343
 10
-2.080212912457512
 20
-0.1250640451667755
 10
-2.06673787547787
 20
-0.1465657215973162
 10
-2.050559540328648
 20
-0.164916952245985
 10
-2.031549161357008
 20
-0.1811326748223036
 10
-1.99959078983558
 20
-0.2007718462599345
 10
-1.963896636200724
 20
-0.2153974074554984
 10
-1.94
 20
-0.2220230912903164
  0
LINE
  5
193
330
157
100
AcDbEntity
  8
AM_9
100
AcDbLine
 10
-2.093970624346244
 20
-0.0690000000000004
 30
0.0
 11
-2.093970624346244
 21
0.0000000000000001
 31
0.0
  0
LINE
  5
194
330
157
100
AcDbEntity
  8
AM_9
100
AcDbLine
 10
3.879999999999999
 20
-0.8049999999999998
 30
0.0
 11
1.94
 21
-0.8049999999999998
 31
0.0
  0
LWPOLYLINE
  5
195
330
157
100
AcDbEntity
  8
AM_9
100
AcDbPolyline
 90
       10
 70
     0
 43
0.0
 10
1.94
 20
-0.222023091290314
 10
1.971524164924396
 20
-0.2127876307964019
 10
2.00210762765324
 20
-0.1994846847092242
 10
2.029134887994035
 20
-0.18290353825156
 10
2.053761610670217
 20
-0.1616977168141827
 10
2.064795821301774
 20
-0.1490867579485705
 10
2.076972276059232
 20
-0.1310698608002957
 10
2.086403927883756
 20
-0.1108933581345306
 10
2.091984517936193
 20
-0.0906080432049353
 10
2.093970624346244
 20
-0.0690000000000004
  0
LINE
  5
196
330
157
100
AcDbEntity
  8
AM_9
100
AcDbLine
 10
2.093970624346244
 20
0.0000000000000001
 30
0.0
 11
2.093970624346244
 21
-0.0690000000000004
 31
0.0
  0
LINE
  5
197
330
157
100
AcDbEntity
  8
AM_9
100
AcDbLine
 10
1.94
 20
-0.0690000000000004
 30
0.0
 11
2.093970624346244
 21
-0.0690000000000004
 31
0.0
  0
LINE
  5
198
330
157
100
AcDbEntity
  8
AM_9
100
AcDbLine
 10
-2.093970624346244
 20
-0.0690000000000004
 30
0.0
 11
-1.94
 21
-0.0690000000000004
 31
0.0
  0
LINE
  5
199
330
157
100
AcDbEntity
  8
AM_9
100
AcDbLine
 10
-3.802213005610848
 20
-1.502666666666667
 30
0.0
 11
-3.802213005610848
 21
-1.61
 31
0.0
  0
LINE
  5
19A
330
157
100
AcDbEntity
  8
AM_9
100
AcDbLine
 10
3.802213005610849
 20
-1.502666666666667
 30
0.0
 11
3.802213005610849
 21
-1.61
 31
0.0
  0
LINE
  5
19B
330
157
100
AcDbEntity
  8
AM_9
100
AcDbLine
 10
2.55905
 20
-3.81
 30
0.0
 11
2.55905
 21
-0.805
 31
0.0
  0
LINE
  5
19C
330
157
100
AcDbEntity
  8
AM_9
100
AcDbLine
 10
-2.55905
 20
-0.805
 30
0.0
 11
-2.55905
 21
-3.81
 31
0.0
  0
LINE
  5
19D
330
157
100
AcDbEntity
  8
AM_9
100
AcDbLine
 10
2.991999800571139
 20
-1.502666666666667
 30
0.0
 11
3.879999999999999
 21
-1.502666666666667
 31
0.0
  0
LINE
  5
19E
330
157
100
AcDbEntity
  8
AM_9
100
AcDbLine
 10
3.007799820514025
 20
-1.502666666666667
 30
0.0
 11
3.007799820514025
 21
-1.61
 31
0.0
  0
LINE
  5
19F
330
157
100
AcDbEntity
  8
AM_9
100
AcDbLine
 10
-3.007799816373299
 20
-1.502666666666667
 30
0.0
 11
-3.007799816373299
 21
-1.61
 31
0.0
  0
LINE
  5
1A0
330
157
100
AcDbEntity
  8
AM_9
100
AcDbLine
 10
3.15
 20
-1.61
 30
0.0
 11
3.15
 21
-1.502666666666667
 31
0.0
  0
LINE
  5
1A1
330
157
100
AcDbEntity
  8
AM_9
100
AcDbLine
 10
-3.15
 20
-1.502666666666667
 30
0.0
 11
-3.15
 21
-1.61
 31
0.0
  0
LINE
  5
1A2
330
157
100
AcDbEntity
  8
AM_9
100
AcDbLine
 10
-2.625
 20
-1.61
 30
0.0
 11
-2.625
 21
0.0000000000000002
 31
0.0
  0
LINE
  5
1A3
330
157
100
AcDbEntity
  8
AM_9
100
AcDbLine
 10
-3.375
 20
0.0000000000000002
 30
0.0
 11
-3.375
 21
-1.61
 31
0.0
  0
LINE
  5
1A4
330
157
100
AcDbEntity
  8
AM_9
100
AcDbLine
 10
3.375
 20
-1.61
 30
0.0
 11
3.375
 21
0.0000000000000002
 31
0.0
  0
LINE
  5
1A5
330
157
100
AcDbEntity
  8
AM_9
100
AcDbLine
 10
2.625
 20
0.0000000000000002
 30
0.0
 11
2.625
 21
-1.61
 31
0.0
  0
LINE
  5
1A8
330
157
100
AcDbEntity
  8
AM_7
100
AcDbLine
 10
3.0
 20
0.0804999999999998
 30
0.0
 11
3.0
 21
-1.6905
 31
0.0
  0
LINE
  5
1A9
330
157
100
AcDbEntity
  8
AM_7
100
AcDbLine
 10
-3.0
 20
0.0804999999999998
 30
0.0
 11
-3.0
 21
-1.6905
 31
0.0
  0
LINE
  5
1AA
330
157
100
AcDbEntity
  8
AM_7
100
AcDbLine
 10
0.0
 20
-4.6196875
 30
0.0
 11
0.0
 21
0.1905
 31
0.0
  0
LINE
  5
1AB
330
157
100
AcDbEntity
  8
AM_7
100
AcDbLine
 10
-0.5250000000000001
 20
-2.71
 30
0.0
 11
0.5250000000000001
 21
-2.71
 31
0.0
  0
LINE
  5
1AC
330
157
100
AcDbEntity
  8
AM_4
100
AcDbLine
 10
3.15
 20
-3.81
 30
0.0
 11
-3.15
 21
-3.81
 31
0.0
  0
LINE
  5
1AD
330
157
100
AcDbEntity
  8
AM_4
100
AcDbLine
 10
0.9357565199477637
 20
-1.502666666666667
 30
0.0
 11
0.9357565199477637
 21
-1.61
 31
0.0
  0
LINE
  5
1AE
330
157
100
AcDbEntity
  8
AM_4
100
AcDbLine
 10
-0.9357565066382386
 20
-1.502666666666667
 30
0.0
 11
-0.9357565066382386
 21
-1.61
 31
0.0
  0
LINE
  5
1AF
330
157
100
AcDbEntity
  8
AM_4
100
AcDbLine
 10
3.15
 20
-3.81
 30
0.0
 11
3.15
 21
-1.61
 31
0.0
  0
LINE
  5
1B0
330
157
100
AcDbEntity
  8
AM_4
100
AcDbLine
 10
-3.15
 20
-1.61
 30
0.0
 11
-3.15
 21
-3.81
 31
0.0
  0
CIRCLE
  5
1B1
330
157
100
AcDbEntity
  8
AM_4
100
AcDbCircle
 10
0.0
 20
-2.71
 30
0.0
 40
0.4000000000000006
  0
LINE
  5
1B2
330
157
100
AcDbEntity
  8
AM_4
100
AcDbLine
 10
-1.214729451820265
 20
-1.502666666666667
 30
0.0
 11
-1.214729451820265
 21
-1.61
 31
0.0
  0
LINE
  5
1B3
330
157
100
AcDbEntity
  8
AM_4
100
AcDbLine
 10
1.214729451820266
 20
-1.502666666666667
 30
0.0
 11
1.214729451820266
 21
-1.61
 31
0.0
  0
LINE
  5
1B4
330
157
100
AcDbEntity
  8
AM_4
100
AcDbLine
 10
-2.536842105263157
 20
-1.502666666666667
 30
0.0
 11
-2.536842105263157
 21
-1.61
 31
0.0
  0
LINE
  5
1B5
330
157
100
AcDbEntity
  8
AM_4
100
AcDbLine
 10
-1.94
 20
0.0000000000000002
 30
0.0
 11
-3.879999999999999
 21
0.0000000000000002
 31
0.0
  0
LINE
  5
1B6
330
157
100
AcDbEntity
  8
AM_4
100
AcDbLine
 10
-0.9357565066382386
 20
-1.61
 30
0.0
 11
-3.879999999999999
 21
-1.61
 31
0.0
  0
LINE
  5
1B7
330
157
100
AcDbEntity
  8
AM_4
100
AcDbLine
 10
-3.879999999999999
 20
-1.61
 30
0.0
 11
-3.879999999999999
 21
0.0000000000000002
 31
0.0
  0
LINE
  5
1B8
330
157
100
AcDbEntity
  8
AM_4
100
AcDbLine
 10
3.879999999999999
 20
0.0000000000000002
 30
0.0
 11
1.94
 21
0.0000000000000002
 31
0.0
  0
LINE
  5
1B9
330
157
100
AcDbEntity
  8
AM_4
100
AcDbLine
 10
3.879999999999999
 20
-1.61
 30
0.0
 11
3.879999999999999
 21
0.0000000000000002
 31
0.0
  0
LINE
  5
1BA
330
157
100
AcDbEntity
  8
AM_4
100
AcDbLine
 10
-1.94
 20
-0.8049999999999997
 30
0.0
 11
-1.94
 21
0.0000000000000002
 31
0.0
  0
LINE
  5
1BB
330
157
100
AcDbEntity
  8
AM_4
100
AcDbLine
 10
1.94
 20
-0.8049999999999997
 30
0.0
 11
-1.94
 21
-0.8049999999999997
 31
0.0
  0
LINE
  5
1BC
330
157
100
AcDbEntity
  8
AM_4
100
AcDbLine
 10
1.94
 20
-0.8049999999999997
 30
0.0
 11
1.94
 21
0.0000000000000002
 31
0.0
  0
LINE
  5
1BD
330
157
100
AcDbEntity
  8
AM_4
100
AcDbLine
 10
-3.0
 20
-1.61
 30
0.0
 11
-3.0
 21
0.0000000000000002
 31
0.0
  0
LINE
  5
1BE
330
157
100
AcDbEntity
  8
AM_4
100
AcDbLine
 10
-2.710757987442596
 20
-1.502666666666667
 30
0.0
 11
-2.710757987442596
 21
-1.61
 31
0.0
  0
LINE
  5
1BF
330
157
100
AcDbEntity
  8
AM_4
100
AcDbLine
 10
2.710757987442598
 20
-1.502666666666667
 30
0.0
 11
-2.710757987442596
 21
-1.502666666666667
 31
0.0
  0
LINE
  5
1C0
330
157
100
AcDbEntity
  8
AM_4
100
AcDbLine
 10
3.0
 20
-1.61
 30
0.0
 11
3.0
 21
0.0000000000000002
 31
0.0
  0
LINE
  5
1C1
330
157
100
AcDbEntity
  8
AM_4
100
AcDbLine
 10
2.710757987442598
 20
-1.61
 30
0.0
 11
2.710757987442598
 21
-1.502666666666667
 31
0.0
  0
LINE
  5
1C2
330
157
100
AcDbEntity
  8
AM_4
100
AcDbLine
 10
2.536842105263158
 20
-1.502666666666667
 30
0.0
 11
2.536842105263158
 21
-1.61
 31
0.0
  0
LINE
  5
1C3
330
157
100
AcDbEntity
  8
AM_4
100
AcDbLine
 10
3.879999999999999
 20
-1.61
 30
0.0
 11
0.9357565199477637
 21
-1.61
 31
0.0
  0
CIRCLE
  5
1C4
330
157
100
AcDbEntity
  8
AM_4
100
AcDbCircle
 10
0.0
 20
-2.71
 30
0.0
 40
0.5000000000000001
  0
ENDBLK
  5
15A
330
157
100
AcDbEntity
  8
0
100
AcDbBlockEnd
  0
ENDSEC
  0
SECTION
  2
ENTITIES
  0
INSERT
  5
6F
330
1F
100
AcDbEntity
  8
0
100
AcDbBlockReference
  2
1_071489_4
 10
0.0
 20
0.0
 30
0.0
  0
POINT
  5
1C6
330
1F
100
AcDbEntity
  8
ConnectionPoints
100
AcDbPoint
 10
0.0
 20
-4.44
 30
0.0000000000000003
  0
POINT
  5
1C7
330
1F
100
AcDbEntity
  8
ConnectionPoints
100
AcDbPoint
 10
0.0
 20
0.309499999999999
 30
0.0
  0
POINT
  5
1C8
330
1F
100
AcDbEntity
  8
ConnectionPoints
100
AcDbPoint
 10
0.0
 20
-4.44
 30
0.0000000000000003
  0
POINT
  5
1C9
330
1F
100
AcDbEntity
  8
ConnectionPoints
100
AcDbPoint
 10
0.0
 20
-2.71
 30
3.25
  0
POINT
  5
1CA
330
1F
100
AcDbEntity
  8
ConnectionPoints
100
AcDbPoint
 10
0.0
 20
-2.71
 30
3.25
  0
POINT
  5
1CB
330
1F
100
AcDbEntity
  8
ConnectionPoints
100
AcDbPoint
 10
0.0
 20
-4.44
 30
0.0000000000000003
  0
POINT
  5
1CC
330
1F
100
AcDbEntity
  8
ConnectionPoints
100
AcDbPoint
 10
0.0
 20
-4.69
 30
0.0000000000000003
  0
ENDSEC
  0
SECTION
  2
OBJECTS
  0
DICTIONARY
  5
C
330
0
100
AcDbDictionary
281
     1
  3
ACAD_DETAILVIEWSTYLE
350
1D4
  3
ACAD_GROUP
350
D
  3
ACAD_LAYOUT
350
1A
  3
ACAD_MATERIAL
350
43
  3
ACAD_MLEADERSTYLE
350
6B
  3
ACAD_MLINESTYLE
350
17
  3
ACAD_PLOTSETTINGS
350
19
  3
ACAD_PLOTSTYLENAME
350
E
  3
ACAD_SCALELIST
350
47
  3
ACAD_SECTIONVIEWSTYLE
350
1D5
  3
ACAD_TABLESTYLE
350
69
  3
ACAD_VISUALSTYLE
350
2A
  3
ACDB_RECOMPOSE_DATA
350
1D1
  3
AcDbVariableDictionary
350
1CD
  0
SUN
  5
6D
330
29
100
AcDbSun
 90
        1
290
     0
 63
     7
421
 16777215
 40
1.0
291
     1
 91
  2455826
 92
 54000000
292
     0
 70
     2
 71
   256
280
     1
  0
DICTIONARY
  5
1D4
102
{ACAD_REACTORS
330
C
102
}
330
C
100
AcDbDictionary
281
     1
  0
DICTIONARY
  5
D
102
{ACAD_REACTORS
330
C
102
}
330
C
100
AcDbDictionary
281
     1
  0
DICTIONARY
  5
1A
102
{ACAD_REACTORS
330
C
102
}
330
C
100
AcDbDictionary
281
     1
  3
Layout1
350
1E
  3
Layout2
350
26
  3
Model
350
22
  0
DICTIONARY
  5
43
102
{ACAD_REACTORS
330
C
102
}
330
C
100
AcDbDictionary
281
     1
  3
ByBlock
350
45
  3
ByLayer
350
44
  3
Global
350
46
  0
DICTIONARY
  5
6B
102
{ACAD_REACTORS
330
C
102
}
330
C
100
AcDbDictionary
281
     1
  3
Standard
350
6C
  0
DICTIONARY
  5
17
102
{ACAD_REACTORS
330
C
102
}
330
C
100
AcDbDictionary
281
     1
  3
Standard
350
18
  0
DICTIONARY
  5
19
102
{ACAD_REACTORS
330
C
102
}
330
C
100
AcDbDictionary
281
     1
  0
ACDBDICTIONARYWDFLT
  5
E
102
{ACAD_REACTORS
330
C
102
}
330
C
100
AcDbDictionary
281
     1
  3
Normal
350
F
100
AcDbDictionaryWithDefault
340
F
  0
DICTIONARY
  5
47
102
{ACAD_REACTORS
330
C
102
}
330
C
100
AcDbDictionary
281
     1
  3
A0
350
48
  3
A1
350
49
  3
A2
350
4A
  3
A3
350
4B
  3
A4
350
4C
  3
A5
350
4D
  3
A6
350
4E
  3
A7
350
4F
  3
A8
350
50
  3
A9
350
51
  3
B0
350
52
  3
B1
350
53
  3
B2
350
54
  3
B3
350
55
  3
B4
350
56
  3
B5
350
57
  3
B6
350
58
  3
B7
350
59
  3
B8
350
5A
  3
B9
350
5B
  3
C0
350
5C
  3
C1
350
5D
  3
C2
350
5E
  3
C3
350
5F
  3
C4
350
60
  3
C5
350
61
  3
C6
350
62
  3
C7
350
63
  3
C8
350
64
  3
C9
350
65
  3
D0
350
66
  3
D1
350
67
  3
D2
350
68
  0
DICTIONARY
  5
1D5
102
{ACAD_REACTORS
330
C
102
}
330
C
100
AcDbDictionary
281
     1
  0
DICTIONARY
  5
69
102
{ACAD_REACTORS
330
C
102
}
330
C
100
AcDbDictionary
281
     1
  3
Standard
350
6A
  0
DICTIONARY
  5
2A
102
{ACAD_REACTORS
330
C
102
}
330
C
100
AcDbDictionary
281
     1
  3
2dWireframe
350
2F
  3
Basic
350
32
  3
Brighten
350
36
  3
ColorChange
350
3A
  3
Conceptual
350
34
  3
Dim
350
35
  3
EdgeColorOff
350
3D
  3
Facepattern
350
39
  3
Flat
350
2B
  3
FlatWithEdges
350
2C
  3
Gouraud
350
2D
  3
GouraudWithEdges
350
2E
  3
Hidden
350
31
  3
JitterOff
350
3B
  3
Linepattern
350
38
  3
OverhangOff
350
3C
  3
Realistic
350
33
  3
Shaded
350
42
  3
Shaded with edges
350
41
  3
Shades of Gray
350
3E
  3
Sketchy
350
3F
  3
Thicken
350
37
  3
Wireframe
350
30
  3
X-Ray
350
40
  0
XRECORD
  5
1D1
102
{ACAD_REACTORS
330
C
102
}
330
C
100
AcDbXrecord
280
     1
 90
        1
330
6A
  0
DICTIONARY
  5
1CD
102
{ACAD_REACTORS
330
C
102
}
330
C
100
AcDbDictionary
281
     1
  3
CANNOSCALE
350
1CE
  3
CMLEADERSTYLE
350
1D3
  3
CTABLESTYLE
350
1D2
  0
LAYOUT
  5
1E
102
{ACAD_REACTORS
330
1A
102
}
330
1A
100
AcDbPlotSettings
  1

  2
none_device
  4

  6

 40
0.0
 41
0.0
 42
0.0
 43
0.0
 44
0.0
 45
0.0
 46
0.0
 47
0.0
 48
0.0
 49
0.0
140
0.0
141
0.0
142
1.0
143
1.0
 70
   688
 72
     0
 73
     0
 74
     5
  7

 75
    16
 76
     0
 77
     2
 78
   300
147
1.0
148
0.0
149
0.0
100
AcDbLayout
  1
Layout1
 70
     1
 71
     1
 10
0.0
 20
0.0
 11
12.0
 21
9.0
 12
0.0
 22
0.0
 32
0.0
 14
1.000000000000000E+20
 24
1.000000000000000E+20
 34
1.000000000000000E+20
 15
-1.000000000000000E+20
 25
-1.000000000000000E+20
 35
-1.000000000000000E+20
146
0.0
 13
0.0
 23
0.0
 33
0.0
 16
1.0
 26
0.0
 36
0.0
 17
0.0
 27
1.0
 37
0.0
 76
     0
330
1B
  0
LAYOUT
  5
26
102
{ACAD_REACTORS
330
1A
102
}
330
1A
100
AcDbPlotSettings
  1

  2
none_device
  4

  6

 40
0.0
 41
0.0
 42
0.0
 43
0.0
 44
0.0
 45
0.0
 46
0.0
 47
0.0
 48
0.0
 49
0.0
140
0.0
141
0.0
142
1.0
143
1.0
 70
   688
 72
     0
 73
     0
 74
     5
  7

 75
    16
 76
     0
 77
     2
 78
   300
147
1.0
148
0.0
149
0.0
100
AcDbLayout
  1
Layout2
 70
     1
 71
     2
 10
0.0
 20
0.0
 11
0.0
 21
0.0
 12
0.0
 22
0.0
 32
0.0
 14
0.0
 24
0.0
 34
0.0
 15
0.0
 25
0.0
 35
0.0
146
0.0
 13
0.0
 23
0.0
 33
0.0
 16
1.0
 26
0.0
 36
0.0
 17
0.0
 27
1.0
 37
0.0
 76
     0
330
23
  0
LAYOUT
  5
22
102
{ACAD_REACTORS
330
1A
102
}
330
1A
100
AcDbPlotSettings
  1

  2
none_device
  4
Letter_(8.50_x_11.00_Inches)
  6

 40
6.35
 41
6.35
 42
6.35000508
 43
6.35000508
 44
215.9
 45
279.4
 46
0.0
 47
0.0
 48
0.0
 49
0.0
140
0.0
141
0.0
142
1.0
143
1.0
 70
  1712
 72
     0
 73
     0
 74
     0
  7

 75
     0
 76
     0
 77
     2
 78
   300
147
1.0
148
0.0
149
0.0
100
AcDbLayout
  1
Model
 70
     1
 71
     0
 10
0.0
 20
0.0
 11
12.0
 21
9.0
 12
0.0
 22
0.0
 32
0.0
 14
1.000000000000000E+20
 24
1.000000000000000E+20
 34
1.000000000000000E+20
 15
-1.000000000000000E+20
 25
-1.000000000000000E+20
 35
-1.000000000000000E+20
146
0.0
 13
0.0
 23
0.0
 33
0.0
 16
1.0
 26
0.0
 36
0.0
 17
0.0
 27
1.0
 37
0.0
 76
     0
330
1F
331
29
  0
MATERIAL
  5
45
102
{ACAD_REACTORS
330
43
102
}
330
43
100
AcDbMaterial
  1
ByBlock
 72
     1
 94
      127
  0
MATERIAL
  5
44
102
{ACAD_REACTORS
330
43
102
}
330
43
100
AcDbMaterial
  1
ByLayer
 72
     1
 94
      127
  0
MATERIAL
  5
46
102
{ACAD_REACTORS
330
43
102
}
330
43
100
AcDbMaterial
  1
Global
 72
     1
 94
      127
  0
MLEADERSTYLE
  5
6C
102
{ACAD_REACTORS
330
6B
102
}
330
6B
100
AcDbMLeaderStyle
179
     2
170
     2
171
     1
172
     0
 90
        2
 40
0.0
 41
0.0
173
     1
 91
-1056964608
340
14
 92
       -2
290
     1
 42
0.09
291
     1
 43
0.36
  3
Standard
341
0
 44
0.18
300

342
11
174
     1
178
     6
175
     1
176
     0
 93
-1056964608
 45
0.18
292
     0
297
     0
 46
0.18
343
0
 94
-1056964608
 47
1.0
 49
1.0
140
1.0
293
     1
141
0.0
294
     1
177
     0
142
1.0
295
     0
296
     0
143
0.125
271
     0
272
     9
273
     9
298
     0
  0
MLINESTYLE
  5
18
102
{ACAD_REACTORS
330
17
102
}
330
17
100
AcDbMlineStyle
  2
Standard
 70
     0
  3

 62
   256
 51
90.0
 52
90.0
 71
     2
 49
0.5
 62
   256
  6
BYLAYER
 49
-0.5
 62
   256
  6
BYLAYER
  0
ACDBPLACEHOLDER
  5
F
102
{ACAD_REACTORS
330
E
102
}
330
E
  0
SCALE
  5
48
102
{ACAD_REACTORS
330
47
102
}
330
47
100
AcDbScale
 70
     0
300
1:1
140
1.0
141
1.0
290
     1
  0
SCALE
  5
49
102
{ACAD_REACTORS
330
47
102
}
330
47
100
AcDbScale
 70
     0
300
1:2
140
1.0
141
2.0
290
     0
  0
SCALE
  5
4A
102
{ACAD_REACTORS
330
47
102
}
330
47
100
AcDbScale
 70
     0
300
1:4
140
1.0
141
4.0
290
     0
  0
SCALE
  5
4B
102
{ACAD_REACTORS
330
47
102
}
330
47
100
AcDbScale
 70
     0
300
1:5
140
1.0
141
5.0
290
     0
  0
SCALE
  5
4C
102
{ACAD_REACTORS
330
47
102
}
330
47
100
AcDbScale
 70
     0
300
1:8
140
1.0
141
8.0
290
     0
  0
SCALE
  5
4D
102
{ACAD_REACTORS
330
47
102
}
330
47
100
AcDbScale
 70
     0
300
1:10
140
1.0
141
10.0
290
     0
  0
SCALE
  5
4E
102
{ACAD_REACTORS
330
47
102
}
330
47
100
AcDbScale
 70
     0
300
1:16
140
1.0
141
16.0
290
     0
  0
SCALE
  5
4F
102
{ACAD_REACTORS
330
47
102
}
330
47
100
AcDbScale
 70
     0
300
1:20
140
1.0
141
20.0
290
     0
  0
SCALE
  5
50
102
{ACAD_REACTORS
330
47
102
}
330
47
100
AcDbScale
 70
     0
300
1:30
140
1.0
141
30.0
290
     0
  0
SCALE
  5
51
102
{ACAD_REACTORS
330
47
102
}
330
47
100
AcDbScale
 70
     0
300
1:40
140
1.0
141
40.0
290
     0
  0
SCALE
  5
52
102
{ACAD_REACTORS
330
47
102
}
330
47
100
AcDbScale
 70
     0
300
1:50
140
1.0
141
50.0
290
     0
  0
SCALE
  5
53
102
{ACAD_REACTORS
330
47
102
}
330
47
100
AcDbScale
 70
     0
300
1:100
140
1.0
141
100.0
290
     0
  0
SCALE
  5
54
102
{ACAD_REACTORS
330
47
102
}
330
47
100
AcDbScale
 70
     0
300
2:1
140
2.0
141
1.0
290
     0
  0
SCALE
  5
55
102
{ACAD_REACTORS
330
47
102
}
330
47
100
AcDbScale
 70
     0
300
4:1
140
4.0
141
1.0
290
     0
  0
SCALE
  5
56
102
{ACAD_REACTORS
330
47
102
}
330
47
100
AcDbScale
 70
     0
300
8:1
140
8.0
141
1.0
290
     0
  0
SCALE
  5
57
102
{ACAD_REACTORS
330
47
102
}
330
47
100
AcDbScale
 70
     0
300
10:1
140
10.0
141
1.0
290
     0
  0
SCALE
  5
58
102
{ACAD_REACTORS
330
47
102
}
330
47
100
AcDbScale
 70
     0
300
100:1
140
100.0
141
1.0
290
     0
  0
SCALE
  5
59
102
{ACAD_REACTORS
330
47
102
}
330
47
100
AcDbScale
 70
     0
300
1/128" = 1'-0"
140
0.0078125
141
12.0
290
     0
  0
SCALE
  5
5A
102
{ACAD_REACTORS
330
47
102
}
330
47
100
AcDbScale
 70
     0
300
1/64" = 1'-0"
140
0.015625
141
12.0
290
     0
  0
SCALE
  5
5B
102
{ACAD_REACTORS
330
47
102
}
330
47
100
AcDbScale
 70
     0
300
1/32" = 1'-0"
140
0.03125
141
12.0
290
     0
  0
SCALE
  5
5C
102
{ACAD_REACTORS
330
47
102
}
330
47
100
AcDbScale
 70
     0
300
1/16" = 1'-0"
140
0.0625
141
12.0
290
     0
  0
SCALE
  5
5D
102
{ACAD_REACTORS
330
47
102
}
330
47
100
AcDbScale
 70
     0
300
3/32" = 1'-0"
140
0.09375
141
12.0
290
     0
  0
SCALE
  5
5E
102
{ACAD_REACTORS
330
47
102
}
330
47
100
AcDbScale
 70
     0
300
1/8" = 1'-0"
140
0.125
141
12.0
290
     0
  0
SCALE
  5
5F
102
{ACAD_REACTORS
330
47
102
}
330
47
100
AcDbScale
 70
     0
300
3/16" = 1'-0"
140
0.1875
141
12.0
290
     0
  0
SCALE
  5
60
102
{ACAD_REACTORS
330
47
102
}
330
47
100
AcDbScale
 70
     0
300
1/4" = 1'-0"
140
0.25
141
12.0
290
     0
  0
SCALE
  5
61
102
{ACAD_REACTORS
330
47
102
}
330
47
100
AcDbScale
 70
     0
300
3/8" = 1'-0"
140
0.375
141
12.0
290
     0
  0
SCALE
  5
62
102
{ACAD_REACTORS
330
47
102
}
330
47
100
AcDbScale
 70
     0
300
1/2" = 1'-0"
140
0.5
141
12.0
290
     0
  0
SCALE
  5
63
102
{ACAD_REACTORS
330
47
102
}
330
47
100
AcDbScale
 70
     0
300
3/4" = 1'-0"
140
0.75
141
12.0
290
     0
  0
SCALE
  5
64
102
{ACAD_REACTORS
330
47
102
}
330
47
100
AcDbScale
 70
     0
300
1" = 1'-0"
140
1.0
141
12.0
290
     0
  0
SCALE
  5
65
102
{ACAD_REACTORS
330
47
102
}
330
47
100
AcDbScale
 70
     0
300
1-1/2" = 1'-0"
140
1.5
141
12.0
290
     0
  0
SCALE
  5
66
102
{ACAD_REACTORS
330
47
102
}
330
47
100
AcDbScale
 70
     0
300
3" = 1'-0"
140
3.0
141
12.0
290
     0
  0
SCALE
  5
67
102
{ACAD_REACTORS
330
47
102
}
330
47
100
AcDbScale
 70
     0
300
6" = 1'-0"
140
6.0
141
12.0
290
     0
  0
SCALE
  5
68
102
{ACAD_REACTORS
330
47
102
}
330
47
100
AcDbScale
 70
     0
300
1'-0" = 1'-0"
140
12.0
141
12.0
290
     0
  0
TABLESTYLE
  5
6A
102
{ACAD_REACTORS
330
69
102
}
102
{ACAD_XDICTIONARY
360
1CF
102
}
330
69
100
AcDbTableStyle
  3
Standard
 70
     0
 71
     0
 40
0.06
 41
0.06
280
     0
281
     0
  7
Standard
140
0.18
170
     2
 62
     0
 63
   257
283
     0
 90
        4
 91
        0
  1

274
    -2
284
     1
 64
     0
275
    -2
285
     1
 65
     0
276
    -2
286
     1
 66
     0
277
    -2
287
     1
 67
     0
278
    -2
288
     1
 68
     0
279
    -2
289
     1
 69
     0
  7
Standard
140
0.25
170
     5
 62
     0
 63
   257
283
     0
 90
        4
 91
        0
  1

274
    -2
284
     1
 64
     0
275
    -2
285
     1
 65
     0
276
    -2
286
     1
 66
     0
277
    -2
287
     1
 67
     0
278
    -2
288
     1
 68
     0
279
    -2
289
     1
 69
     0
  7
Standard
140
0.18
170
     5
 62
     0
 63
   257
283
     0
 90
        4
 91
        0
  1

274
    -2
284
     1
 64
     0
275
    -2
285
     1
 65
     0
276
    -2
286
     1
 66
     0
277
    -2
287
     1
 67
     0
278
    -2
288
     1
 68
     0
279
    -2
289
     1
 69
     0
  0
VISUALSTYLE
  5
2F
102
{ACAD_REACTORS
330
2A
102
}
330
2A
100
AcDbVisualStyle
  2
2dWireframe
 70
     4
177
     3
291
     0
 70
    58
 90
        0
176
     1
 90
        2
176
     1
 90
        0
176
     1
 90
        0
176
     1
 40
0.6
176
     1
 40
30.0
176
     1
 62
     7
420
 16777215
176
     1
 90
        1
176
     1
 90
        4
176
     1
 62
     7
176
     1
 62
   257
176
     1
 90
        1
176
     1
 90
        1
176
     1
 40
1.0
176
     1
 90
        0
176
     1
 62
   257
176
     1
 40
1.0
176
     1
 90
        1
176
     1
 90
        6
176
     1
 90
        2
176
     1
 62
     7
176
     1
 90
        5
176
     1
 90
        0
176
     1
 90
        0
176
     1
290
     0
176
     1
 90
        1
176
     1
 40
0.0
176
     1
 90
        0
176
     1
290
     1
176
     1
290
     1
176
     1
290
     0
176
     1
290
     0
176
     1
290
     0
176
     1
290
     0
176
     1
290
     0
176
     1
290
     0
176
     1
290
     0
176
     1
 90
       50
176
     1
 40
0.0
176
     1
 40
1.0
176
     1
 90
        0
176
     1
 62
    18
420
        0
176
     1
 90
       50
176
     1
 90
        3
176
     1
 62
     5
420
      255
176
     1
290
     0
176
     1
 90
       50
176
     1
 90
       50
176
     1
 90
       50
176
     1
290
     0
176
     1
 90
       50
176
     1
 62
   256
176
     0
 40
1.0
176
     0
 90
        2
176
     1
  1
strokes_ogs.tif
176
     1
290
     0
176
     1
 40
1.0
176
     1
 40
1.0
176
     1
  0
VISUALSTYLE
  5
32
102
{ACAD_REACTORS
330
2A
102
}
330
2A
100
AcDbVisualStyle
  2
Basic
 70
     7
177
     3
291
     1
 70
    58
 90
        1
176
     1
 90
        0
176
     1
 90
        1
176
     1
 90
        0
176
     1
 40
0.6
176
     1
 40
30.0
176
     1
 62
     7
420
 16777215
176
     1
 90
        0
176
     1
 90
        4
176
     1
 62
     7
176
     1
 62
   257
176
     1
 90
        1
176
     1
 90
        1
176
     1
 40
1.0
176
     1
 90
        8
176
     1
 62
     7
176
     1
 40
1.0
176
     1
 90
        1
176
     1
 90
        6
176
     1
 90
        2
176
     1
 62
     7
176
     1
 90
        5
176
     1
 90
        0
176
     1
 90
        0
176
     1
290
     0
176
     1
 90
        1
176
     1
 40
0.0
176
     1
 90
        0
176
     1
290
     0
176
     1
290
     1
176
     1
290
     1
176
     1
290
     0
176
     1
290
     0
176
     1
290
     0
176
     1
290
     0
176
     1
290
     0
176
     1
290
     0
176
     1
 90
       50
176
     1
 40
0.0
176
     1
 40
1.0
176
     1
 90
        0
176
     1
 62
    18
420
        0
176
     1
 90
       50
176
     1
 90
        3
176
     1
 62
     5
420
      255
176
     1
290
     0
176
     1
 90
       50
176
     1
 90
       50
176
     1
 90
       50
176
     1
290
     0
176
     1
 90
       50
176
     1
 62
   256
176
     0
 40
1.0
176
     0
 90
        2
176
     1
  1
strokes_ogs.tif
176
     1
290
     0
176
     1
 40
1.0
176
     1
 40
1.0
176
     1
  0
VISUALSTYLE
  5
36
102
{ACAD_REACTORS
330
2A
102
}
330
2A
100
AcDbVisualStyle
  2
Brighten
 70
    12
177
     3
291
     1
 70
    58
 90
        2
176
     1
 90
        2
176
     1
 90
        0
176
     1
 90
        0
176
     1
 40
0.6
176
     1
 40
30.0
176
     1
 62
     7
420
 16777215
176
     1
 90
        1
176
     1
 90
        4
176
     1
 62
     7
176
     1
 62
   257
176
     1
 90
        1
176
     1
 90
        1
176
     1
 40
1.0
176
     1
 90
        8
176
     1
 62
     7
176
     1
 40
1.0
176
     1
 90
        1
176
     1
 90
        6
176
     1
 90
        2
176
     1
 62
     7
176
     1
 90
        5
176
     1
 90
        0
176
     1
 90
        0
176
     1
290
     0
176
     1
 90
        1
176
     1
 40
50.0
176
     1
 90
        0
176
     1
290
     0
176
     1
290
     1
176
     1
290
     1
176
     1
290
     0
176
     1
290
     0
176
     1
290
     0
176
     1
290
     0
176
     1
290
     0
176
     1
290
     0
176
     1
 90
       50
176
     1
 40
0.0
176
     1
 40
1.0
176
     1
 90
        0
176
     1
 62
    18
420
        0
176
     1
 90
       50
176
     1
 90
        3
176
     1
 62
     5
420
      255
176
     1
290
     0
176
     1
 90
       50
176
     1
 90
       50
176
     1
 90
       50
176
     1
290
     0
176
     1
 90
       50
176
     1
 62
   256
176
     0
 40
1.0
176
     0
 90
        2
176
     1
  1
strokes_ogs.tif
176
     1
290
     0
176
     1
 40
1.0
176
     1
 40
1.0
176
     1
  0
VISUALSTYLE
  5
3A
102
{ACAD_REACTORS
330
2A
102
}
330
2A
100
AcDbVisualStyle
  2
ColorChange
 70
    16
177
     3
291
     1
 70
    58
 90
        2
176
     1
 90
        2
176
     1
 90
        3
176
     1
 90
        0
176
     1
 40
0.6
176
     1
 40
30.0
176
     1
 62
     8
420
  8421504
176
     1
 90
        1
176
     1
 90
        4
176
     1
 62
     7
176
     1
 62
   257
176
     1
 90
        1
176
     1
 90
        1
176
     1
 40
1.0
176
     1
 90
        8
176
     1
 62
     8
420
  8421504
176
     1
 40
1.0
176
     1
 90
        1
176
     1
 90
        6
176
     1
 90
        2
176
     1
 62
     7
176
     1
 90
        5
176
     1
 90
        0
176
     1
 90
        0
176
     1
290
     0
176
     1
 90
        1
176
     1
 40
0.0
176
     1
 90
        0
176
     1
290
     0
176
     1
290
     1
176
     1
290
     1
176
     1
290
     0
176
     1
290
     0
176
     1
290
     0
176
     1
290
     0
176
     1
290
     0
176
     1
290
     0
176
     1
 90
       50
176
     1
 40
0.0
176
     1
 40
1.0
176
     1
 90
        0
176
     1
 62
    18
420
        0
176
     1
 90
       50
176
     1
 90
        3
176
     1
 62
     5
420
      255
176
     1
290
     0
176
     1
 90
       50
176
     1
 90
       50
176
     1
 90
       50
176
     1
290
     0
176
     1
 90
       50
176
     1
 62
   256
176
     0
 40
1.0
176
     0
 90
        2
176
     1
  1
strokes_ogs.tif
176
     1
290
     0
176
     1
 40
1.0
176
     1
 40
1.0
176
     1
  0
VISUALSTYLE
  5
34
102
{ACAD_REACTORS
330
2A
102
}
330
2A
100
AcDbVisualStyle
  2
Conceptual
 70
     9
177
     3
291
     0
 70
    58
 90
        3
176
     1
 90
        2
176
     1
 90
        0
176
     1
 90
        0
176
     1
 40
0.6
176
     1
 40
30.0
176
     1
 62
     7
420
 16777215
176
     1
 90
        2
176
     1
 90
        2
176
     1
 62
     7
176
     1
 62
   257
176
     1
 90
        1
176
     1
 90
        1
176
     1
 40
179.0
176
     1
 90
        8
176
     1
 62
     7
176
     1
 40
1.0
176
     1
 90
        1
176
     1
 90
        6
176
     1
 90
        2
176
     1
 62
     7
176
     1
 90
        3
176
     1
 90
        0
176
     1
 90
        0
176
     1
290
     0
176
     1
 90
        1
176
     1
 40
0.0
176
     1
 90
        0
176
     1
290
     0
176
     1
290
     1
176
     1
290
     1
176
     1
290
     0
176
     1
290
     0
176
     1
290
     0
176
     1
290
     0
176
     1
290
     0
176
     1
290
     0
176
     1
 90
       50
176
     1
 40
0.0
176
     1
 40
1.0
176
     1
 90
        0
176
     1
 62
    18
420
        0
176
     1
 90
       50
176
     1
 90
        3
176
     1
 62
     5
420
      255
176
     1
290
     0
176
     1
 90
       50
176
     1
 90
       50
176
     1
 90
       50
176
     1
290
     0
176
     1
 90
       50
176
     1
 62
   256
176
     0
 40
1.0
176
     0
 90
        2
176
     1
  1
strokes_ogs.tif
176
     1
290
     0
176
     1
 40
1.0
176
     1
 40
1.0
176
     1
  0
VISUALSTYLE
  5
35
102
{ACAD_REACTORS
330
2A
102
}
330
2A
100
AcDbVisualStyle
  2
Dim
 70
    11
177
     3
291
     1
 70
    58
 90
        2
176
     1
 90
        2
176
     1
 90
        0
176
     1
 90
        0
176
     1
 40
0.6
176
     1
 40
30.0
176
     1
 62
     7
420
 16777215
176
     1
 90
        1
176
     1
 90
        4
176
     1
 62
     7
176
     1
 62
   257
176
     1
 90
        1
176
     1
 90
        1
176
     1
 40
1.0
176
     1
 90
        8
176
     1
 62
     7
176
     1
 40
1.0
176
     1
 90
        1
176
     1
 90
        6
176
     1
 90
        2
176
     1
 62
     7
176
     1
 90
        5
176
     1
 90
        0
176
     1
 90
        0
176
     1
290
     0
176
     1
 90
        1
176
     1
 40
-50.0
176
     1
 90
        0
176
     1
290
     0
176
     1
290
     1
176
     1
290
     1
176
     1
290
     0
176
     1
290
     0
176
     1
290
     0
176
     1
290
     0
176
     1
290
     0
176
     1
290
     0
176
     1
 90
       50
176
     1
 40
0.0
176
     1
 40
1.0
176
     1
 90
        0
176
     1
 62
    18
420
        0
176
     1
 90
       50
176
     1
 90
        3
176
     1
 62
     5
420
      255
176
     1
290
     0
176
     1
 90
       50
176
     1
 90
       50
176
     1
 90
       50
176
     1
290
     0
176
     1
 90
       50
176
     1
 62
   256
176
     0
 40
1.0
176
     0
 90
        2
176
     1
  1
strokes_ogs.tif
176
     1
290
     0
176
     1
 40
1.0
176
     1
 40
1.0
176
     1
  0
VISUALSTYLE
  5
3D
102
{ACAD_REACTORS
330
2A
102
}
330
2A
100
AcDbVisualStyle
  2
EdgeColorOff
 70
    22
177
     3
291
     1
 70
    58
 90
        2
176
     0
 90
        2
176
     0
 90
        0
176
     0
 90
        0
176
     0
 40
0.6
176
     0
 40
30.0
176
     0
 62
     7
420
 16777215
176
     0
 90
        1
176
     0
 90
        4
176
     0
 62
     7
176
     0
 62
   257
176
     0
 90
        1
176
     0
 90
        1
176
     0
 40
1.0
176
     0
 90
        8
176
     2
 62
     7
176
     0
 40
1.0
176
     0
 90
        1
176
     0
 90
        6
176
     0
 90
        2
176
     0
 62
     7
176
     0
 90
        5
176
     0
 90
        0
176
     0
 90
        0
176
     0
290
     0
176
     0
 90
        1
176
     0
 40
0.0
176
     0
 90
        0
176
     0
290
     0
176
     0
290
     1
176
     0
290
     1
176
     0
290
     0
176
     0
290
     0
176
     0
290
     0
176
     0
290
     0
176
     0
290
     0
176
     0
290
     0
176
     0
 90
       50
176
     0
 40
0.0
176
     0
 40
1.0
176
     0
 90
        0
176
     0
 62
    18
420
        0
176
     0
 90
       50
176
     0
 90
        3
176
     0
 62
     5
420
      255
176
     0
290
     0
176
     0
 90
       50
176
     0
 90
       50
176
     0
 90
       50
176
     0
290
     0
176
     0
 90
       50
176
     0
 62
   256
176
     0
 40
1.0
176
     0
 90
        2
176
     0
  1
strokes_ogs.tif
176
     0
290
     0
176
     0
 40
1.0
176
     0
 40
1.0
176
     0
  0
VISUALSTYLE
  5
39
102
{ACAD_REACTORS
330
2A
102
}
330
2A
100
AcDbVisualStyle
  2
Facepattern
 70
    15
177
     3
291
     1
 70
    58
 90
        2
176
     1
 90
        2
176
     1
 90
        0
176
     1
 90
        0
176
     1
 40
0.6
176
     1
 40
30.0
176
     1
 62
     7
420
 16777215
176
     1
 90
        1
176
     1
 90
        4
176
     1
 62
     7
176
     1
 62
   257
176
     1
 90
        1
176
     1
 90
        1
176
     1
 40
1.0
176
     1
 90
        8
176
     1
 62
     7
176
     1
 40
1.0
176
     1
 90
        1
176
     1
 90
        6
176
     1
 90
        2
176
     1
 62
     7
176
     1
 90
        5
176
     1
 90
        0
176
     1
 90
        0
176
     1
290
     0
176
     1
 90
        1
176
     1
 40
0.0
176
     1
 90
        0
176
     1
290
     0
176
     1
290
     1
176
     1
290
     1
176
     1
290
     0
176
     1
290
     0
176
     1
290
     0
176
     1
290
     0
176
     1
290
     0
176
     1
290
     0
176
     1
 90
       50
176
     1
 40
0.0
176
     1
 40
1.0
176
     1
 90
        0
176
     1
 62
    18
420
        0
176
     1
 90
       50
176
     1
 90
        3
176
     1
 62
     5
420
      255
176
     1
290
     0
176
     1
 90
       50
176
     1
 90
       50
176
     1
 90
       50
176
     1
290
     0
176
     1
 90
       50
176
     1
 62
   256
176
     0
 40
1.0
176
     0
 90
        2
176
     1
  1
strokes_ogs.tif
176
     1
290
     0
176
     1
 40
1.0
176
     1
 40
1.0
176
     1
  0
VISUALSTYLE
  5
2B
102
{ACAD_REACTORS
330
2A
102
}
330
2A
100
AcDbVisualStyle
  2
Flat
 70
     0
177
     3
291
     1
 70
    58
 90
        2
176
     1
 90
        1
176
     1
 90
        1
176
     1
 90
        2
176
     1
 40
0.6
176
     1
 40
30.0
176
     1
 62
     7
420
 16777215
176
     1
 90
        0
176
     1
 90
        0
176
     1
 62
     7
176
     1
 62
   257
176
     1
 90
        1
176
     1
 90
        1
176
     1
 40
1.0
176
     1
 90
        8
176
     1
 62
     7
176
     1
 40
1.0
176
     1
 90
        1
176
     1
 90
        6
176
     1
 90
        2
176
     1
 62
     7
176
     1
 90
        5
176
     1
 90
        0
176
     1
 90
        0
176
     1
290
     0
176
     1
 90
       13
176
     1
 40
0.0
176
     1
 90
        0
176
     1
290
     0
176
     1
290
     1
176
     1
290
     1
176
     1
290
     0
176
     1
290
     0
176
     1
290
     0
176
     1
290
     0
176
     1
290
     0
176
     1
290
     0
176
     1
 90
       50
176
     1
 40
0.0
176
     1
 40
1.0
176
     1
 90
        0
176
     1
 62
    18
420
        0
176
     1
 90
       50
176
     1
 90
        3
176
     1
 62
     5
420
      255
176
     1
290
     0
176
     1
 90
       50
176
     1
 90
       50
176
     1
 90
       50
176
     1
290
     0
176
     1
 90
       50
176
     1
 62
   256
176
     0
 40
1.0
176
     0
 90
        2
176
     1
  1
strokes_ogs.tif
176
     1
290
     0
176
     1
 40
1.0
176
     1
 40
1.0
176
     1
  0
VISUALSTYLE
  5
2C
102
{ACAD_REACTORS
330
2A
102
}
330
2A
100
AcDbVisualStyle
  2
FlatWithEdges
 70
     1
177
     3
291
     1
 70
    58
 90
        2
176
     1
 90
        1
176
     1
 90
        1
176
     1
 90
        2
176
     1
 40
0.6
176
     1
 40
30.0
176
     1
 62
     7
420
 16777215
176
     1
 90
        1
176
     1
 90
        0
176
     1
 62
     7
176
     1
 62
   257
176
     1
 90
        1
176
     1
 90
        1
176
     1
 40
1.0
176
     1
 90
        0
176
     1
 62
   257
176
     1
 40
1.0
176
     1
 90
        1
176
     1
 90
        6
176
     1
 90
        2
176
     1
 62
     7
176
     1
 90
        5
176
     1
 90
        0
176
     1
 90
        0
176
     1
290
     0
176
     1
 90
       13
176
     1
 40
0.0
176
     1
 90
        0
176
     1
290
     0
176
     1
290
     1
176
     1
290
     1
176
     1
290
     0
176
     1
290
     0
176
     1
290
     0
176
     1
290
     0
176
     1
290
     0
176
     1
290
     0
176
     1
 90
       50
176
     1
 40
0.0
176
     1
 40
1.0
176
     1
 90
        0
176
     1
 62
    18
420
        0
176
     1
 90
       50
176
     1
 90
        3
176
     1
 62
     5
420
      255
176
     1
290
     0
176
     1
 90
       50
176
     1
 90
       50
176
     1
 90
       50
176
     1
290
     0
176
     1
 90
       50
176
     1
 62
   256
176
     0
 40
1.0
176
     0
 90
        2
176
     1
  1
strokes_ogs.tif
176
     1
290
     0
176
     1
 40
1.0
176
     1
 40
1.0
176
     1
  0
VISUALSTYLE
  5
2D
102
{ACAD_REACTORS
330
2A
102
}
330
2A
100
AcDbVisualStyle
  2
Gouraud
 70
     2
177
     3
291
     1
 70
    58
 90
        2
176
     1
 90
        2
176
     1
 90
        1
176
     1
 90
        2
176
     1
 40
0.6
176
     1
 40
30.0
176
     1
 62
     7
420
 16777215
176
     1
 90
        0
176
     1
 90
        0
176
     1
 62
     7
176
     1
 62
   257
176
     1
 90
        1
176
     1
 90
        1
176
     1
 40
1.0
176
     1
 90
        0
176
     1
 62
     7
176
     1
 40
1.0
176
     1
 90
        1
176
     1
 90
        6
176
     1
 90
        2
176
     1
 62
     7
176
     1
 90
        5
176
     1
 90
        0
176
     1
 90
        0
176
     1
290
     0
176
     1
 90
       13
176
     1
 40
0.0
176
     1
 90
        0
176
     1
290
     0
176
     1
290
     1
176
     1
290
     1
176
     1
290
     0
176
     1
290
     0
176
     1
290
     0
176
     1
290
     0
176
     1
290
     0
176
     1
290
     0
176
     1
 90
       50
176
     1
 40
0.0
176
     1
 40
1.0
176
     1
 90
        0
176
     1
 62
    18
420
        0
176
     1
 90
       50
176
     1
 90
        3
176
     1
 62
     5
420
      255
176
     1
290
     0
176
     1
 90
       50
176
     1
 90
       50
176
     1
 90
       50
176
     1
290
     0
176
     1
 90
       50
176
     1
 62
   256
176
     0
 40
1.0
176
     0
 90
        2
176
     1
  1
strokes_ogs.tif
176
     1
290
     0
176
     1
 40
1.0
176
     1
 40
1.0
176
     1
  0
VISUALSTYLE
  5
2E
102
{ACAD_REACTORS
330
2A
102
}
330
2A
100
AcDbVisualStyle
  2
GouraudWithEdges
 70
     3
177
     3
291
     1
 70
    58
 90
        2
176
     1
 90
        2
176
     1
 90
        1
176
     1
 90
        2
176
     1
 40
0.6
176
     1
 40
30.0
176
     1
 62
     7
420
 16777215
176
     1
 90
        1
176
     1
 90
        0
176
     1
 62
     7
176
     1
 62
   257
176
     1
 90
        1
176
     1
 90
        1
176
     1
 40
1.0
176
     1
 90
        0
176
     1
 62
   257
176
     1
 40
1.0
176
     1
 90
        1
176
     1
 90
        6
176
     1
 90
        2
176
     1
 62
     7
176
     1
 90
        5
176
     1
 90
        0
176
     1
 90
        0
176
     1
290
     0
176
     1
 90
       13
176
     1
 40
0.0
176
     1
 90
        0
176
     1
290
     0
176
     1
290
     1
176
     1
290
     1
176
     1
290
     0
176
     1
290
     0
176
     1
290
     0
176
     1
290
     0
176
     1
290
     0
176
     1
290
     0
176
     1
 90
       50
176
     1
 40
0.0
176
     1
 40
1.0
176
     1
 90
        0
176
     1
 62
    18
420
        0
176
     1
 90
       50
176
     1
 90
        3
176
     1
 62
     5
420
      255
176
     1
290
     0
176
     1
 90
       50
176
     1
 90
       50
176
     1
 90
       50
176
     1
290
     0
176
     1
 90
       50
176
     1
 62
   256
176
     0
 40
1.0
176
     0
 90
        2
176
     1
  1
strokes_ogs.tif
176
     1
290
     0
176
     1
 40
1.0
176
     1
 40
1.0
176
     1
  0
VISUALSTYLE
  5
31
102
{ACAD_REACTORS
330
2A
102
}
330
2A
100
AcDbVisualStyle
  2
Hidden
 70
     6
177
     3
291
     0
 70
    58
 90
        1
176
     1
 90
        2
176
     1
 90
        2
176
     1
 90
        0
176
     1
 40
0.6
176
     1
 40
30.0
176
     1
 62
     7
420
 16777215
176
     1
 90
        2
176
     1
 90
        2
176
     1
 62
     7
176
     1
 62
   257
176
     1
 90
        2
176
     1
 90
        1
176
     1
 40
40.0
176
     1
 90
        0
176
     1
 62
   257
176
     1
 40
1.0
176
     1
 90
        1
176
     1
 90
        6
176
     1
 90
        2
176
     1
 62
     7
176
     1
 90
        3
176
     1
 90
        0
176
     1
 90
        0
176
     1
290
     0
176
     1
 90
        1
176
     1
 40
0.0
176
     1
 90
        0
176
     1
290
     0
176
     1
290
     1
176
     1
290
     1
176
     1
290
     0
176
     1
290
     0
176
     1
290
     0
176
     1
290
     0
176
     1
290
     0
176
     1
290
     0
176
     1
 90
       50
176
     1
 40
0.0
176
     1
 40
1.0
176
     1
 90
        0
176
     1
 62
    18
420
        0
176
     1
 90
       50
176
     1
 90
        3
176
     1
 62
     5
420
      255
176
     1
290
     0
176
     1
 90
       50
176
     1
 90
       50
176
     1
 90
       50
176
     1
290
     0
176
     1
 90
       50
176
     1
 62
   256
176
     0
 40
1.0
176
     0
 90
        2
176
     1
  1
strokes_ogs.tif
176
     1
290
     0
176
     1
 40
1.0
176
     1
 40
1.0
176
     1
  0
VISUALSTYLE
  5
3B
102
{ACAD_REACTORS
330
2A
102
}
330
2A
100
AcDbVisualStyle
  2
JitterOff
 70
    20
177
     3
291
     1
 70
    58
 90
        2
176
     0
 90
        2
176
     0
 90
        0
176
     0
 90
        0
176
     0
 40
0.6
176
     0
 40
30.0
176
     0
 62
     7
420
 16777215
176
     0
 90
        1
176
     0
 90
        4
176
     0
 62
     7
176
     0
 62
   257
176
     0
 90
        1
176
     0
 90
        1
176
     0
 40
1.0
176
     0
 90
       10
176
     2
 62
     7
176
     0
 40
1.0
176
     0
 90
        1
176
     0
 90
        6
176
     0
 90
        2
176
     0
 62
     7
176
     0
 90
        5
176
     0
 90
        0
176
     0
 90
        0
176
     0
290
     0
176
     0
 90
        1
176
     0
 40
0.0
176
     0
 90
        0
176
     0
290
     0
176
     0
290
     1
176
     0
290
     1
176
     0
290
     0
176
     0
290
     0
176
     0
290
     0
176
     0
290
     0
176
     0
290
     0
176
     0
290
     0
176
     0
 90
       50
176
     0
 40
0.0
176
     0
 40
1.0
176
     0
 90
        0
176
     0
 62
    18
420
        0
176
     0
 90
       50
176
     0
 90
        3
176
     0
 62
     5
420
      255
176
     0
290
     0
176
     0
 90
       50
176
     0
 90
       50
176
     0
 90
       50
176
     0
290
     0
176
     0
 90
       50
176
     0
 62
   256
176
     0
 40
1.0
176
     0
 90
        2
176
     0
  1
strokes_ogs.tif
176
     0
290
     0
176
     0
 40
1.0
176
     0
 40
1.0
176
     0
  0
VISUALSTYLE
  5
38
102
{ACAD_REACTORS
330
2A
102
}
330
2A
100
AcDbVisualStyle
  2
Linepattern
 70
    14
177
     3
291
     1
 70
    58
 90
        2
176
     1
 90
        2
176
     1
 90
        0
176
     1
 90
        0
176
     1
 40
0.6
176
     1
 40
30.0
176
     1
 62
     7
420
 16777215
176
     1
 90
        1
176
     1
 90
        4
176
     1
 62
     7
176
     1
 62
   257
176
     1
 90
        7
176
     1
 90
        7
176
     1
 40
1.0
176
     1
 90
        8
176
     1
 62
     7
176
     1
 40
1.0
176
     1
 90
        1
176
     1
 90
        6
176
     1
 90
        2
176
     1
 62
     7
176
     1
 90
        5
176
     1
 90
        0
176
     1
 90
        0
176
     1
290
     0
176
     1
 90
        1
176
     1
 40
0.0
176
     1
 90
        0
176
     1
290
     0
176
     1
290
     1
176
     1
290
     1
176
     1
290
     0
176
     1
290
     0
176
     1
290
     0
176
     1
290
     0
176
     1
290
     0
176
     1
290
     0
176
     1
 90
       50
176
     1
 40
0.0
176
     1
 40
1.0
176
     1
 90
        0
176
     1
 62
    18
420
        0
176
     1
 90
       50
176
     1
 90
        3
176
     1
 62
     5
420
      255
176
     1
290
     0
176
     1
 90
       50
176
     1
 90
       50
176
     1
 90
       50
176
     1
290
     0
176
     1
 90
       50
176
     1
 62
   256
176
     0
 40
1.0
176
     0
 90
        2
176
     1
  1
strokes_ogs.tif
176
     1
290
     0
176
     1
 40
1.0
176
     1
 40
1.0
176
     1
  0
VISUALSTYLE
  5
3C
102
{ACAD_REACTORS
330
2A
102
}
330
2A
100
AcDbVisualStyle
  2
OverhangOff
 70
    21
177
     3
291
     1
 70
    58
 90
        2
176
     0
 90
        2
176
     0
 90
        0
176
     0
 90
        0
176
     0
 40
0.6
176
     0
 40
30.0
176
     0
 62
     7
420
 16777215
176
     0
 90
        1
176
     0
 90
        4
176
     0
 62
     7
176
     0
 62
   257
176
     0
 90
        1
176
     0
 90
        1
176
     0
 40
1.0
176
     0
 90
        9
176
     2
 62
     7
176
     0
 40
1.0
176
     0
 90
        1
176
     0
 90
        6
176
     0
 90
        2
176
     0
 62
     7
176
     0
 90
        5
176
     0
 90
        0
176
     0
 90
        0
176
     0
290
     0
176
     0
 90
        1
176
     0
 40
0.0
176
     0
 90
        0
176
     0
290
     0
176
     0
290
     1
176
     0
290
     1
176
     0
290
     0
176
     0
290
     0
176
     0
290
     0
176
     0
290
     0
176
     0
290
     0
176
     0
290
     0
176
     0
 90
       50
176
     0
 40
0.0
176
     0
 40
1.0
176
     0
 90
        0
176
     0
 62
    18
420
        0
176
     0
 90
       50
176
     0
 90
        3
176
     0
 62
     5
420
      255
176
     0
290
     0
176
     0
 90
       50
176
     0
 90
       50
176
     0
 90
       50
176
     0
290
     0
176
     0
 90
       50
176
     0
 62
   256
176
     0
 40
1.0
176
     0
 90
        2
176
     0
  1
strokes_ogs.tif
176
     0
290
     0
176
     0
 40
1.0
176
     0
 40
1.0
176
     0
  0
VISUALSTYLE
  5
33
102
{ACAD_REACTORS
330
2A
102
}
330
2A
100
AcDbVisualStyle
  2
Realistic
 70
     8
177
     3
291
     0
 70
    58
 90
        2
176
     1
 90
        3
176
     1
 90
        0
176
     1
 90
        2
176
     1
 40
0.6
176
     1
 40
30.0
176
     1
 62
     7
420
 16777215
176
     1
 90
        0
176
     1
 90
        0
176
     1
 62
     7
176
     1
 62
   257
176
     1
 90
        1
176
     1
 90
        1
176
     1
 40
1.0
176
     1
 90
        8
176
     1
 62
   257
176
     1
 40
1.0
176
     1
 90
        1
176
     1
 90
        6
176
     1
 90
        2
176
     1
 62
     7
176
     1
 90
        3
176
     1
 90
        0
176
     1
 90
        0
176
     1
290
     0
176
     1
 90
       13
176
     1
 40
0.0
176
     1
 90
        0
176
     1
290
     0
176
     1
290
     1
176
     1
290
     1
176
     1
290
     0
176
     1
290
     0
176
     1
290
     0
176
     1
290
     0
176
     1
290
     0
176
     1
290
     0
176
     1
 90
       50
176
     1
 40
0.0
176
     1
 40
1.0
176
     1
 90
        0
176
     1
 62
    18
420
        0
176
     1
 90
       50
176
     1
 90
        3
176
     1
 62
     5
420
      255
176
     1
290
     0
176
     1
 90
       50
176
     1
 90
       50
176
     1
 90
       50
176
     1
290
     0
176
     1
 90
       50
176
     1
 62
   256
176
     0
 40
1.0
176
     0
 90
        2
176
     1
  1
strokes_ogs.tif
176
     1
290
     0
176
     1
 40
1.0
176
     1
 40
1.0
176
     1
  0
VISUALSTYLE
  5
42
102
{ACAD_REACTORS
330
2A
102
}
330
2A
100
AcDbVisualStyle
  2
Shaded
 70
    27
177
     3
291
     0
 70
    58
 90
        2
176
     1
 90
        2
176
     1
 90
        1
176
     1
 90
        2
176
     1
 40
0.6
176
     1
 40
30.0
176
     1
 62
     7
420
 16777215
176
     1
 90
        0
176
     1
 90
        4
176
     1
 62
     7
176
     1
 62
   257
176
     1
 90
        1
176
     1
 90
        1
176
     1
 40
1.0
176
     1
 90
        8
176
     1
 62
   257
176
     1
 40
1.0
176
     1
 90
        1
176
     1
 90
        6
176
     1
 90
        2
176
     1
 62
     8
420
  7895160
176
     1
 90
        3
176
     1
 90
        0
176
     1
 90
        0
176
     1
290
     0
176
     1
 90
        5
176
     1
 40
0.0
176
     1
 90
        0
176
     1
290
     0
176
     1
290
     1
176
     1
290
     1
176
     1
290
     0
176
     1
290
     0
176
     1
290
     0
176
     1
290
     0
176
     1
290
     0
176
     1
290
     0
176
     1
 90
       50
176
     1
 40
0.0
176
     1
 40
1.0
176
     1
 90
        0
176
     1
 62
    18
420
        0
176
     1
 90
       50
176
     1
 90
        3
176
     1
 62
     5
420
      255
176
     1
290
     0
176
     1
 90
       50
176
     1
 90
       50
176
     1
 90
       50
176
     1
290
     0
176
     1
 90
       50
176
     1
 62
   256
176
     0
 40
1.0
176
     0
 90
        2
176
     1
  1
strokes_ogs.tif
176
     1
290
     0
176
     1
 40
1.0
176
     1
 40
1.0
176
     1
  0
VISUALSTYLE
  5
41
102
{ACAD_REACTORS
330
2A
102
}
330
2A
100
AcDbVisualStyle
  2
Shaded with edges
 70
    26
177
     3
291
     0
 70
    58
 90
        2
176
     1
 90
        2
176
     1
 90
        1
176
     1
 90
        2
176
     1
 40
0.6
176
     1
 40
30.0
176
     1
 62
     7
420
 16777215
176
     1
 90
        1
176
     1
 90
       10
176
     1
 62
     7
176
     1
 62
   257
176
     1
 90
        2
176
     1
 90
        1
176
     1
 40
1.0
176
     1
 90
        8
176
     1
 62
   257
176
     1
 40
1.0
176
     1
 90
        1
176
     1
 90
        6
176
     1
 90
        2
176
     1
 62
     7
176
     1
 90
        3
176
     1
 90
        0
176
     1
 90
        0
176
     1
290
     0
176
     1
 90
        5
176
     1
 40
0.0
176
     1
 90
        0
176
     1
290
     0
176
     1
290
     1
176
     1
290
     1
176
     1
290
     0
176
     1
290
     0
176
     1
290
     0
176
     1
290
     0
176
     1
290
     0
176
     1
290
     0
176
     1
 90
       50
176
     1
 40
0.0
176
     1
 40
1.0
176
     1
 90
        0
176
     1
 62
    18
420
        0
176
     1
 90
       50
176
     1
 90
        3
176
     1
 62
     5
420
      255
176
     1
290
     0
176
     1
 90
       50
176
     1
 90
       50
176
     1
 90
       50
176
     1
290
     0
176
     1
 90
       50
176
     1
 62
   256
176
     0
 40
1.0
176
     0
 90
        2
176
     1
  1
strokes_ogs.tif
176
     1
290
     0
176
     1
 40
1.0
176
     1
 40
1.0
176
     1
  0
VISUALSTYLE
  5
3E
102
{ACAD_REACTORS
330
2A
102
}
330
2A
100
AcDbVisualStyle
  2
Shades of Gray
 70
    23
177
     3
291
     0
 70
    58
 90
        2
176
     1
 90
        2
176
     1
 90
        3
176
     1
 90
        0
176
     1
 40
0.6
176
     1
 40
30.0
176
     1
 62
     7
420
 16777215
176
     1
 90
        2
176
     1
 90
        2
176
     1
 62
     7
176
     1
 62
     7
176
     1
 90
        1
176
     1
 90
        1
176
     1
 40
40.0
176
     1
 90
        8
176
     1
 62
     7
176
     1
 40
1.0
176
     1
 90
        1
176
     1
 90
        6
176
     1
 90
        2
176
     1
 62
     7
176
     1
 90
        3
176
     1
 90
        0
176
     1
 90
        0
176
     1
290
     0
176
     1
 90
        1
176
     1
 40
0.0
176
     1
 90
        0
176
     1
290
     0
176
     1
290
     1
176
     1
290
     1
176
     1
290
     0
176
     1
290
     0
176
     1
290
     0
176
     1
290
     0
176
     1
290
     0
176
     1
290
     0
176
     1
 90
       50
176
     1
 40
0.0
176
     1
 40
1.0
176
     1
 90
        0
176
     1
 62
    18
420
        0
176
     1
 90
       50
176
     1
 90
        3
176
     1
 62
     5
420
      255
176
     1
290
     0
176
     1
 90
       50
176
     1
 90
       50
176
     1
 90
       50
176
     1
290
     0
176
     1
 90
       50
176
     1
 62
   256
176
     0
 40
1.0
176
     0
 90
        2
176
     1
  1
strokes_ogs.tif
176
     1
290
     0
176
     1
 40
1.0
176
     1
 40
1.0
176
     1
  0
VISUALSTYLE
  5
3F
102
{ACAD_REACTORS
330
2A
102
}
330
2A
100
AcDbVisualStyle
  2
Sketchy
 70
    24
177
     3
291
     0
 70
    58
 90
        1
176
     1
 90
        2
176
     1
 90
        2
176
     1
 90
        0
176
     1
 40
0.6
176
     1
 40
30.0
176
     1
 62
     7
420
 16777215
176
     1
 90
        2
176
     1
 90
        2
176
     1
 62
     7
176
     1
 62
     7
176
     1
 90
        1
176
     1
 90
        1
176
     1
 40
40.0
176
     1
 90
       11
176
     1
 62
     7
176
     1
 40
1.0
176
     1
 90
        1
176
     1
 90
        6
176
     1
 90
        2
176
     1
 62
     7
176
     1
 90
        6
176
     1
 90
        0
176
     1
 90
        0
176
     1
290
     0
176
     1
 90
        1
176
     1
 40
0.0
176
     1
 90
        0
176
     1
290
     0
176
     1
290
     1
176
     1
290
     1
176
     1
290
     0
176
     1
290
     0
176
     1
290
     0
176
     1
290
     0
176
     1
290
     0
176
     1
290
     0
176
     1
 90
       50
176
     1
 40
0.0
176
     1
 40
1.0
176
     1
 90
        0
176
     1
 62
    18
420
        0
176
     1
 90
       50
176
     1
 90
        3
176
     1
 62
     5
420
      255
176
     1
290
     0
176
     1
 90
       50
176
     1
 90
       50
176
     1
 90
       50
176
     1
290
     0
176
     1
 90
       50
176
     1
 62
   256
176
     0
 40
1.0
176
     0
 90
        2
176
     1
  1
strokes_ogs.tif
176
     1
290
     0
176
     1
 40
1.0
176
     1
 40
1.0
176
     1
  0
VISUALSTYLE
  5
37
102
{ACAD_REACTORS
330
2A
102
}
330
2A
100
AcDbVisualStyle
  2
Thicken
 70
    13
177
     3
291
     1
 70
    58
 90
        2
176
     1
 90
        2
176
     1
 90
        0
176
     1
 90
        0
176
     1
 40
0.6
176
     1
 40
30.0
176
     1
 62
     7
420
 16777215
176
     1
 90
        1
176
     1
 90
        4
176
     1
 62
     7
176
     1
 62
   257
176
     1
 90
        1
176
     1
 90
        1
176
     1
 40
1.0
176
     1
 90
       12
176
     1
 62
     7
176
     1
 40
1.0
176
     1
 90
        1
176
     1
 90
        6
176
     1
 90
        2
176
     1
 62
     7
176
     1
 90
        5
176
     1
 90
        0
176
     1
 90
        0
176
     1
290
     0
176
     1
 90
        1
176
     1
 40
0.0
176
     1
 90
        0
176
     1
290
     0
176
     1
290
     1
176
     1
290
     1
176
     1
290
     0
176
     1
290
     0
176
     1
290
     0
176
     1
290
     0
176
     1
290
     0
176
     1
290
     0
176
     1
 90
       50
176
     1
 40
0.0
176
     1
 40
1.0
176
     1
 90
        0
176
     1
 62
    18
420
        0
176
     1
 90
       50
176
     1
 90
        3
176
     1
 62
     5
420
      255
176
     1
290
     0
176
     1
 90
       50
176
     1
 90
       50
176
     1
 90
       50
176
     1
290
     0
176
     1
 90
       50
176
     1
 62
   256
176
     0
 40
1.0
176
     0
 90
        2
176
     1
  1
strokes_ogs.tif
176
     1
290
     0
176
     1
 40
1.0
176
     1
 40
1.0
176
     1
  0
VISUALSTYLE
  5
30
102
{ACAD_REACTORS
330
2A
102
}
330
2A
100
AcDbVisualStyle
  2
Wireframe
 70
     5
177
     3
291
     0
 70
    58
 90
        0
176
     1
 90
        2
176
     1
 90
        0
176
     1
 90
        0
176
     1
 40
0.6
176
     1
 40
30.0
176
     1
 62
     7
420
 16777215
176
     1
 90
        1
176
     1
 90
        4
176
     1
 62
     7
176
     1
 62
   257
176
     1
 90
        1
176
     1
 90
        1
176
     1
 40
1.0
176
     1
 90
        0
176
     1
 62
   257
176
     1
 40
1.0
176
     1
 90
        1
176
     1
 90
        6
176
     1
 90
        2
176
     1
 62
     7
176
     1
 90
        3
176
     1
 90
        0
176
     1
 90
        0
176
     1
290
     0
176
     1
 90
        1
176
     1
 40
0.0
176
     1
 90
        0
176
     1
290
     0
176
     1
290
     1
176
     1
290
     1
176
     1
290
     0
176
     1
290
     0
176
     1
290
     0
176
     1
290
     0
176
     1
290
     0
176
     1
290
     0
176
     1
 90
       50
176
     1
 40
0.0
176
     1
 40
1.0
176
     1
 90
        0
176
     1
 62
    18
420
        0
176
     1
 90
       50
176
     1
 90
        3
176
     1
 62
     5
420
      255
176
     1
290
     0
176
     1
 90
       50
176
     1
 90
       50
176
     1
 90
       50
176
     1
290
     0
176
     1
 90
       50
176
     1
 62
   256
176
     0
 40
1.0
176
     0
 90
        2
176
     1
  1
strokes_ogs.tif
176
     1
290
     0
176
     1
 40
1.0
176
     1
 40
1.0
176
     1
  0
VISUALSTYLE
  5
40
102
{ACAD_REACTORS
330
2A
102
}
330
2A
100
AcDbVisualStyle
  2
X-Ray
 70
    25
177
     3
291
     0
 70
    58
 90
        2
176
     1
 90
        2
176
     1
 90
        1
176
     1
 90
        1
176
     1
 40
0.5
176
     1
 40
30.0
176
     1
 62
     7
420
 16777215
176
     1
 90
        1
176
     1
 90
        0
176
     1
 62
     7
176
     1
 62
   257
176
     1
 90
        1
176
     1
 90
        1
176
     1
 40
1.0
176
     1
 90
        8
176
     1
 62
     7
176
     1
 40
1.0
176
     1
 90
        1
176
     1
 90
        6
176
     1
 90
        2
176
     1
 62
     7
176
     1
 90
        3
176
     1
 90
        0
176
     1
 90
        0
176
     1
290
     0
176
     1
 90
       13
176
     1
 40
0.0
176
     1
 90
        0
176
     1
290
     0
176
     1
290
     1
176
     1
290
     1
176
     1
290
     0
176
     1
290
     0
176
     1
290
     0
176
     1
290
     0
176
     1
290
     0
176
     1
290
     0
176
     1
 90
       50
176
     1
 40
0.0
176
     1
 40
1.0
176
     1
 90
        0
176
     1
 62
    18
420
        0
176
     1
 90
       50
176
     1
 90
        3
176
     1
 62
     5
420
      255
176
     1
290
     0
176
     1
 90
       50
176
     1
 90
       50
176
     1
 90
       50
176
     1
290
     0
176
     1
 90
       50
176
     1
 62
   256
176
     0
 40
1.0
176
     0
 90
        2
176
     1
  1
strokes_ogs.tif
176
     1
290
     0
176
     1
 40
1.0
176
     1
 40
1.0
176
     1
  0
DICTIONARYVAR
  5
1CE
102
{ACAD_REACTORS
330
1CD
102
}
330
1CD
100
DictionaryVariables
280
     0
  1
1:1
  0
DICTIONARYVAR
  5
1D3
102
{ACAD_REACTORS
330
1CD
102
}
330
1CD
100
DictionaryVariables
280
     0
  1
Standard
  0
DICTIONARYVAR
  5
1D2
102
{ACAD_REACTORS
330
1CD
102
}
330
1CD
100
DictionaryVariables
280
     0
  1
Standard
  0
DICTIONARY
  5
1CF
330
6A
100
AcDbDictionary
280
     1
281
     1
  3
ACAD_ROUNDTRIP_2008_TABLESTYLE_CELLSTYLEMAP
360
1D0
  0
CELLSTYLEMAP
  5
1D0
102
{ACAD_REACTORS
330
1CF
102
}
330
1CF
100
AcDbCellStyleMap
 90
        3
300
CELLSTYLE
  1
TABLEFORMAT_BEGIN
 90
        5
170
     1
 91
        0
 92
    32768
 62
   257
 93
        1
300
CONTENTFORMAT
  1
CONTENTFORMAT_BEGIN
 90
        0
 91
        0
 92
        4
 93
        0
300

 40
0.0
140
1.0
 94
        5
 62
     0
340
11
144
0.25
309
CONTENTFORMAT_END
171
     1
301
MARGIN
  1
CELLMARGIN_BEGIN
 40
0.06
 40
0.06
 40
0.06
 40
0.06
 40
0.06
 40
0.06
309
CELLMARGIN_END
 94
        6
 95
        1
302
GRIDFORMAT
  1
GRIDFORMAT_BEGIN
 90
        0
 91
        1
 62
     0
 92
       -2
340
14
 93
        0
 40
0.045
309
GRIDFORMAT_END
 95
        2
302
GRIDFORMAT
  1
GRIDFORMAT_BEGIN
 90
        0
 91
        1
 62
     0
 92
       -2
340
14
 93
        0
 40
0.045
309
GRIDFORMAT_END
 95
        4
302
GRIDFORMAT
  1
GRIDFORMAT_BEGIN
 90
        0
 91
        1
 62
     0
 92
       -2
340
14
 93
        0
 40
0.045
309
GRIDFORMAT_END
 95
        8
302
GRIDFORMAT
  1
GRIDFORMAT_BEGIN
 90
        0
 91
        1
 62
     0
 92
       -2
340
14
 93
        0
 40
0.045
309
GRIDFORMAT_END
 95
       16
302
GRIDFORMAT
  1
GRIDFORMAT_BEGIN
 90
        0
 91
        1
 62
     0
 92
       -2
340
14
 93
        0
 40
0.045
309
GRIDFORMAT_END
 95
       32
302
GRIDFORMAT
  1
GRIDFORMAT_BEGIN
 90
        0
 91
        1
 62
     0
 92
       -2
340
14
 93
        0
 40
0.045
309
GRIDFORMAT_END
309
TABLEFORMAT_END
  1
CELLSTYLE_BEGIN
 90
        1
 91
        1
300
_TITLE
309
CELLSTYLE_END
300
CELLSTYLE
  1
TABLEFORMAT_BEGIN
 90
        5
170
     1
 91
        0
 92
        0
 62
   257
 93
        1
300
CONTENTFORMAT
  1
CONTENTFORMAT_BEGIN
 90
        0
 91
        0
 92
        4
 93
        0
300

 40
0.0
140
1.0
 94
        5
 62
     0
340
11
144
0.18
309
CONTENTFORMAT_END
171
     1
301
MARGIN
  1
CELLMARGIN_BEGIN
 40
0.06
 40
0.06
 40
0.06
 40
0.06
 40
0.06
 40
0.06
309
CELLMARGIN_END
 94
        6
 95
        1
302
GRIDFORMAT
  1
GRIDFORMAT_BEGIN
 90
        0
 91
        1
 62
     0
 92
       -2
340
14
 93
        0
 40
0.045
309
GRIDFORMAT_END
 95
        2
302
GRIDFORMAT
  1
GRIDFORMAT_BEGIN
 90
        0
 91
        1
 62
     0
 92
       -2
340
14
 93
        0
 40
0.045
309
GRIDFORMAT_END
 95
        4
302
GRIDFORMAT
  1
GRIDFORMAT_BEGIN
 90
        0
 91
        1
 62
     0
 92
       -2
340
14
 93
        0
 40
0.045
309
GRIDFORMAT_END
 95
        8
302
GRIDFORMAT
  1
GRIDFORMAT_BEGIN
 90
        0
 91
        1
 62
     0
 92
       -2
340
14
 93
        0
 40
0.045
309
GRIDFORMAT_END
 95
       16
302
GRIDFORMAT
  1
GRIDFORMAT_BEGIN
 90
        0
 91
        1
 62
     0
 92
       -2
340
14
 93
        0
 40
0.045
309
GRIDFORMAT_END
 95
       32
302
GRIDFORMAT
  1
GRIDFORMAT_BEGIN
 90
        0
 91
        1
 62
     0
 92
       -2
340
14
 93
        0
 40
0.045
309
GRIDFORMAT_END
309
TABLEFORMAT_END
  1
CELLSTYLE_BEGIN
 90
        2
 91
        1
300
_HEADER
309
CELLSTYLE_END
300
CELLSTYLE
  1
TABLEFORMAT_BEGIN
 90
        5
170
     1
 91
        0
 92
        0
 62
   257
 93
        1
300
CONTENTFORMAT
  1
CONTENTFORMAT_BEGIN
 90
        0
 91
        0
 92
        4
 93
        0
300

 40
0.0
140
1.0
 94
        2
 62
     0
340
11
144
0.18
309
CONTENTFORMAT_END
171
     1
301
MARGIN
  1
CELLMARGIN_BEGIN
 40
0.06
 40
0.06
 40
0.06
 40
0.06
 40
0.06
 40
0.06
309
CELLMARGIN_END
 94
        6
 95
        1
302
GRIDFORMAT
  1
GRIDFORMAT_BEGIN
 90
        0
 91
        1
 62
     0
 92
       -2
340
14
 93
        0
 40
0.045
309
GRIDFORMAT_END
 95
        2
302
GRIDFORMAT
  1
GRIDFORMAT_BEGIN
 90
        0
 91
        1
 62
     0
 92
       -2
340
14
 93
        0
 40
0.045
309
GRIDFORMAT_END
 95
        4
302
GRIDFORMAT
  1
GRIDFORMAT_BEGIN
 90
        0
 91
        1
 62
     0
 92
       -2
340
14
 93
        0
 40
0.045
309
GRIDFORMAT_END
 95
        8
302
GRIDFORMAT
  1
GRIDFORMAT_BEGIN
 90
        0
 91
        1
 62
     0
 92
       -2
340
14
 93
        0
 40
0.045
309
GRIDFORMAT_END
 95
       16
302
GRIDFORMAT
  1
GRIDFORMAT_BEGIN
 90
        0
 91
        1
 62
     0
 92
       -2
340
14
 93
        0
 40
0.045
309
GRIDFORMAT_END
 95
       32
302
GRIDFORMAT
  1
GRIDFORMAT_BEGIN
 90
        0
 91
        1
 62
     0
 92
       -2
340
14
 93
        0
 40
0.045
309
GRIDFORMAT_END
309
TABLEFORMAT_END
  1
CELLSTYLE_BEGIN
 90
        3
 91
        2
300
_DATA
309
CELLSTYLE_END
  0
ENDSEC
  0
EOF