0
SECTION
  2
HEADER
  9
$ACADVER
  1
AC1027
  9
$ACADMAINTVER
 70
     8
  9
$DWGCODEPAGE
  3
ANSI_1252
  9
$REQUIREDVERSIONS
160
                 0
  9
$COMMENTS
  1
File was created by Cadenas
  9
$CUSTOMPROPERTYTAG
  1
NN
  9
$CUSTOMPROPERTY
  1
S-2000 Flange Bearing - Square with Type E Dimensions Trident Seal Non-Expansion
  9
$CUSTOMPROPERTYTAG
  1
NT
  9
$CUSTOMPROPERTY
  1
S-2000 - E Type - Inch
  9
$CUSTOMPROPERTYTAG
  1
NB
  9
$CUSTOMPROPERTY
  1
071487
  9
$CUSTOMPROPERTYTAG
  1
NBSYN
  9
$CUSTOMPROPERTY
  1
$PN.
  9
$CUSTOMPROPERTYTAG
  1
LINA
  9
$CUSTOMPROPERTY
  1
071487
  9
$CUSTOMPROPERTYTAG
  1
SS
  9
$CUSTOMPROPERTY
  1
2-3/16
  9
$CUSTOMPROPERTYTAG
  1
TYPE
  9
$CUSTOMPROPERTY
  1
Expansion
  9
$CUSTOMPROPERTYTAG
  1
PN
  9
$CUSTOMPROPERTY
  1
071487
  9
$CUSTOMPROPERTYTAG
  1
DESCRIPTION
  9
$CUSTOMPROPERTY
  1
EF4B-S2-203RE
  9
$CUSTOMPROPERTYTAG
  1
A
  9
$CUSTOMPROPERTY
  1
2.94
  9
$CUSTOMPROPERTYTAG
  1
B
  9
$CUSTOMPROPERTY
  1
6.25
  9
$CUSTOMPROPERTYTAG
  1
C
  9
$CUSTOMPROPERTY
  1
3.87
  9
$CUSTOMPROPERTYTAG
  1
D
  9
$CUSTOMPROPERTY
  1
4.87
  9
$CUSTOMPROPERTYTAG
  1
DD
  9
$CUSTOMPROPERTY
  1
6.894
  9
$CUSTOMPROPERTYTAG
  1
F
  9
$CUSTOMPROPERTY
  1
5/8
  9
$CUSTOMPROPERTYTAG
  1
G
  9
$CUSTOMPROPERTY
  1
0.6
  9
$CUSTOMPROPERTYTAG
  1
H
  9
$CUSTOMPROPERTY
  1
1.38
  9
$CUSTOMPROPERTYTAG
  1
J
  9
$CUSTOMPROPERTY
  1
4.88
  9
$CUSTOMPROPERTYTAG
  1
L
  9
$CUSTOMPROPERTY
  1
3.5
  9
$CUSTOMPROPERTYTAG
  1
N
  9
$CUSTOMPROPERTY
  1
2.88
  9
$CUSTOMPROPERTYTAG
  1
P
  9
$CUSTOMPROPERTY
  1
0.93
  9
$CUSTOMPROPERTYTAG
  1
X
  9
$CUSTOMPROPERTY
  1
0.25
  9
$CUSTOMPROPERTYTAG
  1
Y
  9
$CUSTOMPROPERTY
  1
0.025
  9
$CUSTOMPROPERTYTAG
  1
Z
  9
$CUSTOMPROPERTY
  1
2.6
  9
$CUSTOMPROPERTYTAG
  1
CS
  9
$CUSTOMPROPERTY
  1
3/8-16
  9
$CUSTOMPROPERTYTAG
  1
TORQUE
  9
$CUSTOMPROPERTY
  1
290
  9
$CUSTOMPROPERTYTAG
  1
COMPANY
  9
$CUSTOMPROPERTY
  1
baldor
  9
$INSBASE
 10
0.0
 20
0.0
 30
0.0
  9
$EXTMIN
 10
1.000000000000000E+20
 20
1.000000000000000E+20
 30
1.000000000000000E+20
  9
$EXTMAX
 10
-1.000000000000000E+20
 20
-1.000000000000000E+20
 30
-1.000000000000000E+20
  9
$LIMMIN
 10
0.0
 20
0.0
  9
$LIMMAX
 10
12.0
 20
9.0
  9
$ORTHOMODE
 70
     0
  9
$REGENMODE
 70
     1
  9
$FILLMODE
 70
     1
  9
$QTEXTMODE
 70
     0
  9
$MIRRTEXT
 70
     1
  9
$LTSCALE
 40
1.0
  9
$ATTMODE
 70
     1
  9
$TEXTSIZE
 40
0.2
  9
$TRACEWID
 40
0.05
  9
$TEXTSTYLE
  7
Standard
  9
$CLAYER
  8
0
  9
$CELTYPE
  6
ByLayer
  9
$CECOLOR
 62
   256
  9
$CELTSCALE
 40
1.0
  9
$DISPSILH
 70
     0
  9
$DIMSCALE
 40
1.0
  9
$DIMASZ
 40
0.18
  9
$DIMEXO
 40
0.0625
  9
$DIMDLI
 40
0.38
  9
$DIMRND
 40
0.0
  9
$DIMDLE
 40
0.0
  9
$DIMEXE
 40
0.18
  9
$DIMTP
 40
0.0
  9
$DIMTM
 40
0.0
  9
$DIMTXT
 40
0.18
  9
$DIMCEN
 40
0.09
  9
$DIMTSZ
 40
0.0
  9
$DIMTOL
 70
     0
  9
$DIMLIM
 70
     0
  9
$DIMTIH
 70
     1
  9
$DIMTOH
 70
     1
  9
$DIMSE1
 70
     0
  9
$DIMSE2
 70
     0
  9
$DIMTAD
 70
     0
  9
$DIMZIN
 70
     0
  9
$DIMBLK
  1

  9
$DIMASO
 70
     1
  9
$DIMSHO
 70
     1
  9
$DIMPOST
  1

  9
$DIMAPOST
  1

  9
$DIMALT
 70
     0
  9
$DIMALTD
 70
     2
  9
$DIMALTF
 40
25.4
  9
$DIMLFAC
 40
1.0
  9
$DIMTOFL
 70
     0
  9
$DIMTVP
 40
0.0
  9
$DIMTIX
 70
     0
  9
$DIMSOXD
 70
     0
  9
$DIMSAH
 70
     0
  9
$DIMBLK1
  1

  9
$DIMBLK2
  1

  9
$DIMSTYLE
  2
Standard
  9
$DIMCLRD
 70
     0
  9
$DIMCLRE
 70
     0
  9
$DIMCLRT
 70
     0
  9
$DIMTFAC
 40
1.0
  9
$DIMGAP
 40
0.09
  9
$DIMJUST
 70
     0
  9
$DIMSD1
 70
     0
  9
$DIMSD2
 70
     0
  9
$DIMTOLJ
 70
     1
  9
$DIMTZIN
 70
     0
  9
$DIMALTZ
 70
     0
  9
$DIMALTTZ
 70
     0
  9
$DIMUPT
 70
     0
  9
$DIMDEC
 70
     4
  9
$DIMTDEC
 70
     4
  9
$DIMALTU
 70
     2
  9
$DIMALTTD
 70
     2
  9
$DIMTXSTY
  7
Standard
  9
$DIMAUNIT
 70
     0
  9
$DIMADEC
 70
     0
  9
$DIMALTRND
 40
0.0
  9
$DIMAZIN
 70
     0
  9
$DIMDSEP
 70
    46
  9
$DIMATFIT
 70
     3
  9
$DIMFRAC
 70
     0
  9
$DIMLDRBLK
  1

  9
$DIMLUNIT
 70
     2
  9
$DIMLWD
 70
    -2
  9
$DIMLWE
 70
    -2
  9
$DIMTMOVE
 70
     0
  9
$DIMFXL
 40
1.0
  9
$DIMFXLON
 70
     0
  9
$DIMJOGANG
 40
0.7853981633974483
  9
$DIMTFILL
 70
     0
  9
$DIMTFILLCLR
 70
     0
  9
$DIMARCSYM
 70
     0
  9
$DIMLTYPE
  6

  9
$DIMLTEX1
  6

  9
$DIMLTEX2
  6

  9
$DIMTXTDIRECTION
 70
     0
  9
$LUNITS
 70
     2
  9
$LUPREC
 70
     4
  9
$SKETCHINC
 40
0.1
  9
$FILLETRAD
 40
0.5
  9
$AUNITS
 70
     0
  9
$AUPREC
 70
     0
  9
$MENU
  1
.
  9
$ELEVATION
 40
0.0
  9
$PELEVATION
 40
0.0
  9
$THICKNESS
 40
0.0
  9
$LIMCHECK
 70
     0
  9
$CHAMFERA
 40
0.0
  9
$CHAMFERB
 40
0.0
  9
$CHAMFERC
 40
0.0
  9
$CHAMFERD
 40
0.0
  9
$SKPOLY
 70
     0
  9
$TDCREATE
 40
2458168.981901065
  9
$TDUCREATE
 40
2458168.940234398
  9
$TDUPDATE
 40
2458168.98190125
  9
$TDUUPDATE
 40
2458168.940234583
  9
$TDINDWG
 40
0.0000000116
  9
$TDUSRTIMER
 40
0.0000000116
  9
$USRTIMER
 70
     1
  9
$ANGBASE
 50
0.0
  9
$ANGDIR
 70
     0
  9
$PDMODE
 70
     0
  9
$PDSIZE
 40
0.0
  9
$PLINEWID
 40
0.0
  9
$SPLFRAME
 70
     0
  9
$SPLINETYPE
 70
     6
  9
$SPLINESEGS
 70
     8
  9
$HANDSEED
  5
1FA
  9
$SURFTAB1
 70
     6
  9
$SURFTAB2
 70
     6
  9
$SURFTYPE
 70
     6
  9
$SURFU
 70
     6
  9
$SURFV
 70
     6
  9
$UCSBASE
  2

  9
$UCSNAME
  2

  9
$UCSORG
 10
0.0
 20
0.0
 30
0.0
  9
$UCSXDIR
 10
1.0
 20
0.0
 30
0.0
  9
$UCSYDIR
 10
0.0
 20
1.0
 30
0.0
  9
$UCSORTHOREF
  2

  9
$UCSORTHOVIEW
 70
     0
  9
$UCSORGTOP
 10
0.0
 20
0.0
 30
0.0
  9
$UCSORGBOTTOM
 10
0.0
 20
0.0
 30
0.0
  9
$UCSORGLEFT
 10
0.0
 20
0.0
 30
0.0
  9
$UCSORGRIGHT
 10
0.0
 20
0.0
 30
0.0
  9
$UCSORGFRONT
 10
0.0
 20
0.0
 30
0.0
  9
$UCSORGBACK
 10
0.0
 20
0.0
 30
0.0
  9
$PUCSBASE
  2

  9
$PUCSNAME
  2

  9
$PUCSORG
 10
0.0
 20
0.0
 30
0.0
  9
$PUCSXDIR
 10
1.0
 20
0.0
 30
0.0
  9
$PUCSYDIR
 10
0.0
 20
1.0
 30
0.0
  9
$PUCSORTHOREF
  2

  9
$PUCSORTHOVIEW
 70
     0
  9
$PUCSORGTOP
 10
0.0
 20
0.0
 30
0.0
  9
$PUCSORGBOTTOM
 10
0.0
 20
0.0
 30
0.0
  9
$PUCSORGLEFT
 10
0.0
 20
0.0
 30
0.0
  9
$PUCSORGRIGHT
 10
0.0
 20
0.0
 30
0.0
  9
$PUCSORGFRONT
 10
0.0
 20
0.0
 30
0.0
  9
$PUCSORGBACK
 10
0.0
 20
0.0
 30
0.0
  9
$USERI1
 70
     0
  9
$USERI2
 70
     0
  9
$USERI3
 70
     0
  9
$USERI4
 70
     0
  9
$USERI5
 70
     0
  9
$USERR1
 40
0.0
  9
$USERR2
 40
0.0
  9
$USERR3
 40
0.0
  9
$USERR4
 40
0.0
  9
$USERR5
 40
0.0
  9
$WORLDVIEW
 70
     1
  9
$SHADEDGE
 70
     3
  9
$SHADEDIF
 70
    70
  9
$TILEMODE
 70
     1
  9
$MAXACTVP
 70
    64
  9
$PINSBASE
 10
0.0
 20
0.0
 30
0.0
  9
$PLIMCHECK
 70
     0
  9
$PEXTMIN
 10
1.000000000000000E+20
 20
1.000000000000000E+20
 30
1.000000000000000E+20
  9
$PEXTMAX
 10
-1.000000000000000E+20
 20
-1.000000000000000E+20
 30
-1.000000000000000E+20
  9
$PLIMMIN
 10
0.0
 20
0.0
  9
$PLIMMAX
 10
12.0
 20
9.0
  9
$UNITMODE
 70
     0
  9
$VISRETAIN
 70
     1
  9
$PLINEGEN
 70
     0
  9
$PSLTSCALE
 70
     1
  9
$TREEDEPTH
 70
  3020
  9
$CMLSTYLE
  2
Standard
  9
$CMLJUST
 70
     0
  9
$CMLSCALE
 40
1.0
  9
$PROXYGRAPHICS
 70
     1
  9
$MEASUREMENT
 70
     0
  9
$CELWEIGHT
370
    -1
  9
$ENDCAPS
280
     0
  9
$JOINSTYLE
280
     0
  9
$LWDISPLAY
290
     0
  9
$INSUNITS
 70
     1
  9
$HYPERLINKBASE
  1

  9
$STYLESHEET
  1

  9
$XEDIT
290
     1
  9
$CEPSNTYPE
380
     0
  9
$PSTYLEMODE
290
     1
  9
$FINGERPRINTGUID
  2
{9F5A1898-06FD-4C97-9A98-CD01146C95E9}
  9
$VERSIONGUID
  2
{FAEB1C32-E019-11D5-929B-00C0DF256EC4}
  9
$EXTNAMES
290
     1
  9
$PSVPSCALE
 40
0.0
  9
$OLESTARTUP
290
     0
  9
$SORTENTS
280
   127
  9
$INDEXCTL
280
     0
  9
$HIDETEXT
280
     1
  9
$XCLIPFRAME
280
     2
  9
$HALOGAP
280
     0
  9
$OBSCOLOR
 70
   257
  9
$OBSLTYPE
280
     0
  9
$INTERSECTIONDISPLAY
280
     0
  9
$INTERSECTIONCOLOR
 70
   257
  9
$DIMASSOC
280
     2
  9
$PROJECTNAME
  1

  9
$CAMERADISPLAY
290
     0
  9
$LENSLENGTH
 40
50.0
  9
$CAMERAHEIGHT
 40
0.0
  9
$STEPSPERSEC
 40
2.0
  9
$STEPSIZE
 40
6.0
  9
$3DDWFPREC
 40
2.0
  9
$PSOLWIDTH
 40
0.25
  9
$PSOLHEIGHT
 40
4.0
  9
$LOFTANG1
 40
1.570796326794897
  9
$LOFTANG2
 40
1.570796326794897
  9
$LOFTMAG1
 40
0.0
  9
$LOFTMAG2
 40
0.0
  9
$LOFTPARAM
 70
     7
  9
$LOFTNORMALS
280
     1
  9
$LATITUDE
 40
37.795
  9
$LONGITUDE
 40
-122.394
  9
$NORTHDIRECTION
 40
0.0
  9
$TIMEZONE
 70
 -8000
  9
$LIGHTGLYPHDISPLAY
280
     1
  9
$TILEMODELIGHTSYNCH
280
     1
  9
$CMATERIAL
347
44
  9
$SOLIDHIST
280
     0
  9
$SHOWHIST
280
     1
  9
$DWFFRAME
280
     2
  9
$DGNFRAME
280
     2
  9
$REALWORLDSCALE
290
     1
  9
$INTERFERECOLOR
 62
   256
  9
$CSHADOW
280
     0
  9
$SHADOWPLANELOCATION
 40
0.0
  0
ENDSEC
  0
SECTION
  2
CLASSES
  0
CLASS
  1
ACDBDICTIONARYWDFLT
  2
AcDbDictionaryWithDefault
  3
ObjectDBX Classes
 90
        0
 91
        4
280
     0
281
     0
  0
CLASS
  1
VISUALSTYLE
  2
AcDbVisualStyle
  3
ObjectDBX Classes
 90
     4095
 91
        4
280
     0
281
     0
  0
CLASS
  1
MATERIAL
  2
AcDbMaterial
  3
ObjectDBX Classes
 90
     1153
 91
        4
280
     0
281
     0
  0
CLASS
  1
SCALE
  2
AcDbScale
  3
ObjectDBX Classes
 90
     1153
 91
        4
280
     0
281
     0
  0
CLASS
  1
TABLESTYLE
  2
AcDbTableStyle
  3
ObjectDBX Classes
 90
     4095
 91
        4
280
     0
281
     0
  0
CLASS
  1
MLEADERSTYLE
  2
AcDbMLeaderStyle
  3
ACDB_MLEADERSTYLE_CLASS
 90
     4095
 91
        4
280
     0
281
     0
  0
CLASS
  1
SUN
  2
AcDbSun
  3
SCENEOE
 90
     1153
 91
        4
280
     0
281
     0
  0
CLASS
  1
DICTIONARYVAR
  2
AcDbDictionaryVar
  3
ObjectDBX Classes
 90
        0
 91
        4
280
     0
281
     0
  0
CLASS
  1
CELLSTYLEMAP
  2
AcDbCellStyleMap
  3
ObjectDBX Classes
 90
     1152
 91
        4
280
     0
281
     0
  0
ENDSEC
  0
SECTION
  2
TABLES
  0
TABLE
  2
VPORT
  5
8
330
0
100
AcDbSymbolTable
 70
     1
  0
VPORT
  5
29
330
8
100
AcDbSymbolTableRecord
100
AcDbViewportTableRecord
  2
*Active
 70
     0
 10
0.0
 20
0.0
 11
1.0
 21
1.0
 12
-1.853249999999999
 22
0.0
 13
0.0
 23
0.0
 14
0.5
 24
0.5
 15
0.5
 25
0.5
 16
0.0
 26
0.0
 36
1.0
 17
0.0
 27
0.0
 37
0.0
 40
6.375
 41
0.64536
 42
50.0
 43
0.0
 44
0.0
 50
0.0
 51
0.0
 71
     0
 72
   100
 73
     1
 74
     3
 75
     0
 76
     0
 77
     0
 78
     0
281
     0
 65
     1
110
0.0
120
0.0
130
0.0
111
1.0
121
0.0
131
0.0
112
0.0
122
1.0
132
0.0
 79
     0
146
0.0
348
2F
 60
     3
 61
     5
292
     1
282
     1
141
0.0
142
0.0
 63
   250
361
6D
  0
ENDTAB
  0
TABLE
  2
LTYPE
  5
5
330
0
100
AcDbSymbolTable
 70
     3
  0
LTYPE
  5
14
330
5
100
AcDbSymbolTableRecord
100
AcDbLinetypeTableRecord
  2
ByBlock
 70
     0
  3

 72
    65
 73
     0
 40
0.0
  0
LTYPE
  5
15
330
5
100
AcDbSymbolTableRecord
100
AcDbLinetypeTableRecord
  2
ByLayer
 70
     0
  3

 72
    65
 73
     0
 40
0.0
  0
LTYPE
  5
16
330
5
100
AcDbSymbolTableRecord
100
AcDbLinetypeTableRecord
  2
Continuous
 70
     0
  3
Solid line
 72
    65
 73
     0
 40
0.0
  0
LTYPE
  5
A7
330
5
100
AcDbSymbolTableRecord
100
AcDbLinetypeTableRecord
  2
Dashed
 70
     0
  3

 72
    65
 73
     2
 40
2.0
 49
1.0
 74
     0
 49
-1.0
 74
     0
  0
LTYPE
  5
C6
330
5
100
AcDbSymbolTableRecord
100
AcDbLinetypeTableRecord
  2
Center
 70
     0
  3

 72
    65
 73
     4
 40
1.5
 49
0.45
 74
     0
 49
-0.5
 74
     0
 49
0.05
 74
     0
 49
-0.5
 74
     0
  0
ENDTAB
  0
TABLE
  2
LAYER
  5
2
330
0
100
AcDbSymbolTable
 70
     7
  0
LAYER
  5
10
330
2
100
AcDbSymbolTableRecord
100
AcDbLayerTableRecord
  2
0
 70
     0
 62
     7
  6
Continuous
370
    -3
390
F
347
46
348
0
  0
LAYER
  5
72
330
2
100
AcDbSymbolTableRecord
100
AcDbLayerTableRecord
  2
AM_6
 70
     0
 62
    -2
  6
Continuous
370
    35
390
F
347
46
348
0
  0
LAYER
  5
A8
330
2
100
AcDbSymbolTableRecord
100
AcDbLayerTableRecord
  2
AM_9
 70
     0
 62
     6
  6
Dashed
370
    25
390
F
347
46
348
0
  0
LAYER
  5
C1
330
2
100
AcDbSymbolTableRecord
100
AcDbLayerTableRecord
  2
AM_5
 70
     0
 62
     3
  6
Continuous
370
    25
390
F
347
46
348
0
  0
LAYER
  5
C7
330
2
100
AcDbSymbolTableRecord
100
AcDbLayerTableRecord
  2
AM_7
 70
     0
 62
     7
  6
Center
370
    25
390
F
347
46
348
0
  0
LAYER
  5
C9
330
2
100
AcDbSymbolTableRecord
100
AcDbLayerTableRecord
  2
AM_4
 70
     0
 62
     7
  6
Continuous
370
    50
390
F
347
46
348
0
  0
LAYER
  5
1E9
330
2
100
AcDbSymbolTableRecord
100
AcDbLayerTableRecord
  2
ConnectionPoints
 70
     0
 62
     7
  6
Continuous
370
    50
390
F
347
46
348
0
  0
ENDTAB
  0
TABLE
  2
STYLE
  5
3
330
0
100
AcDbSymbolTable
 70
     1
  0
STYLE
  5
11
330
3
100
AcDbSymbolTableRecord
100
AcDbTextStyleTableRecord
  2
Standard
 70
     0
 40
0.0
 41
1.0
 50
0.0
 71
     0
 42
0.2
  3
txt
  4

  0
ENDTAB
  0
TABLE
  2
VIEW
  5
6
330
0
100
AcDbSymbolTable
 70
     0
  0
ENDTAB
  0
TABLE
  2
UCS
  5
7
330
0
100
AcDbSymbolTable
 70
     0
  0
ENDTAB
  0
TABLE
  2
APPID
  5
9
330
0
100
AcDbSymbolTable
 70
     1
  0
APPID
  5
12
330
9
100
AcDbSymbolTableRecord
100
AcDbRegAppTableRecord
  2
ACAD
 70
     0
  0
ENDTAB
  0
TABLE
  2
DIMSTYLE
  5
A
330
0
100
AcDbSymbolTable
 70
     1
100
AcDbDimStyleTable
  0
DIMSTYLE
105
27
330
A
100
AcDbSymbolTableRecord
100
AcDbDimStyleTableRecord
  2
Standard
 70
     0
178
     0
340
11
  0
ENDTAB
  0
TABLE
  2
BLOCK_RECORD
  5
1
330
0
100
AcDbSymbolTable
 70
     6
  0
BLOCK_RECORD
  5
1F
330
1
100
AcDbSymbolTableRecord
100
AcDbBlockTableRecord
  2
*Model_Space
340
22
 70
     0
280
     1
281
     0
  0
BLOCK_RECORD
  5
1B
330
1
100
AcDbSymbolTableRecord
100
AcDbBlockTableRecord
  2
*Paper_Space
340
1E
 70
     0
280
     1
281
     0
  0
BLOCK_RECORD
  5
23
330
1
100
AcDbSymbolTableRecord
100
AcDbBlockTableRecord
  2
*Paper_Space0
340
26
 70
     0
280
     1
281
     0
  0
BLOCK_RECORD
  5
6E
330
1
100
AcDbSymbolTableRecord
100
AcDbBlockTableRecord
  2
1_071487_2
340
0
102
{BLKREFS
331
6F
102
}
 70
     0
280
     1
281
     0
  0
BLOCK_RECORD
  5
8E
330
1
100
AcDbSymbolTableRecord
100
AcDbBlockTableRecord
  2
2_2_3_16CS2i_0_in_071487_2
340
0
102
{BLKREFS
331
8F
102
}
 70
     0
280
     1
281
     0
  0
BLOCK_RECORD
  5
DD
330
1
100
AcDbSymbolTableRecord
100
AcDbBlockTableRecord
  2
3_070007i_0_in_071487_2
340
0
102
{BLKREFS
331
DE
102
}
 70
     0
280
     1
281
     0
  0
BLOCK_RECORD
  5
141
330
1
100
AcDbSymbolTableRecord
100
AcDbBlockTableRecord
  2
4_405015E_Inch_0_in_071487_2
340
0
102
{BLKREFS
331
142
102
}
 70
     0
280
     1
281
     0
  0
BLOCK_RECORD
  5
17F
330
1
100
AcDbSymbolTableRecord
100
AcDbBlockTableRecord
  2
5_B071487_0_in_071487_2
340
0
102
{BLKREFS
331
180
102
}
 70
     0
280
     1
281
     0
  0
ENDTAB
  0
ENDSEC
  0
SECTION
  2
BLOCKS
  0
BLOCK
  5
20
330
1F
100
AcDbEntity
  8
0
100
AcDbBlockBegin
  2
*Model_Space
 70
     0
 10
0.0
 20
0.0
 30
0.0
  3
*Model_Space
  1

  0
ENDBLK
  5
21
330
1F
100
AcDbEntity
  8
0
100
AcDbBlockEnd
  0
BLOCK
  5
1C
330
1B
100
AcDbEntity
 67
     1
  8
0
100
AcDbBlockBegin
  2
*Paper_Space
 70
     0
 10
0.0
 20
0.0
 30
0.0
  3
*Paper_Space
  1

  0
ENDBLK
  5
1D
330
1B
100
AcDbEntity
 67
     1
  8
0
100
AcDbBlockEnd
  0
BLOCK
  5
24
330
23
100
AcDbEntity
  8
0
100
AcDbBlockBegin
  2
*Paper_Space0
 70
     0
 10
0.0
 20
0.0
 30
0.0
  3
*Paper_Space0
  1

  0
ENDBLK
  5
25
330
23
100
AcDbEntity
  8
0
100
AcDbBlockEnd
  0
BLOCK
  5
70
330
6E
100
AcDbEntity
  8
0
100
AcDbBlockBegin
  2
1_071487_2
 70
     2
 10
0.0
 20
0.0
 30
0.0
  3
1_071487_2
  1

  0
ATTDEF
  5
73
330
6E
100
AcDbEntity
  8
AM_6
100
AcDbText
 10
5.1635
 20
3.125
 30
0.0
 40
0.5
  1
S-2000 Flange Bearing - Square with Type E Dimensions Trident Seal Non-Expansion
100
AcDbAttributeDefinition
  3

  2
NN
 70
     8
280
     0
  0
ATTDEF
  5
74
330
6E
100
AcDbEntity
  8
AM_6
100
AcDbText
 10
5.1635
 20
2.625
 30
0.0
 40
0.5
  1
S-2000 - E Type - Inch
100
AcDbAttributeDefinition
  3

  2
NT
 70
     8
280
     0
  0
ATTDEF
  5
75
330
6E
100
AcDbEntity
  8
AM_6
100
AcDbText
 10
5.1635
 20
2.125
 30
0.0
 40
0.5
  1
071487
100
AcDbAttributeDefinition
  3

  2
NB
 70
     8
280
     0
  0
ATTDEF
  5
76
330
6E
100
AcDbEntity
  8
AM_6
100
AcDbText
 10
5.1635
 20
1.625
 30
0.0
 40
0.5
  1
$PN.
100
AcDbAttributeDefinition
  3

  2
NBSYN
 70
     8
280
     0
  0
ATTDEF
  5
77
330
6E
100
AcDbEntity
  8
AM_6
100
AcDbText
 10
5.1635
 20
1.125
 30
0.0
 40
0.5
  1
071487
100
AcDbAttributeDefinition
  3

  2
LINA
 70
     8
280
     0
  0
ATTDEF
  5
78
330
6E
100
AcDbEntity
  8
AM_6
100
AcDbText
 10
5.1635
 20
0.625
 30
0.0
 40
0.5
  1
2-3/16
100
AcDbAttributeDefinition
  3

  2
SS
 70
     8
280
     0
  0
ATTDEF
  5
79
330
6E
100
AcDbEntity
  8
AM_6
100
AcDbText
 10
5.1635
 20
0.125
 30
0.0
 40
0.5
  1
Expansion
100
AcDbAttributeDefinition
  3

  2
TYPE
 70
     8
280
     0
  0
ATTDEF
  5
7A
330
6E
100
AcDbEntity
  8
AM_6
100
AcDbText
 10
5.1635
 20
-0.375
 30
0.0
 40
0.5
  1
071487
100
AcDbAttributeDefinition
  3

  2
PN
 70
     8
280
     0
  0
ATTDEF
  5
7B
330
6E
100
AcDbEntity
  8
AM_6
100
AcDbText
 10
5.1635
 20
-0.875
 30
0.0
 40
0.5
  1
EF4B-S2-203RE
100
AcDbAttributeDefinition
  3

  2
DESCRIPTION
 70
     8
280
     0
  0
ATTDEF
  5
7C
330
6E
100
AcDbEntity
  8
AM_6
100
AcDbText
 10
5.1635
 20
-1.375
 30
0.0
 40
0.5
  1
2.94
100
AcDbAttributeDefinition
  3

  2
A
 70
     8
280
     0
  0
ATTDEF
  5
7D
330
6E
100
AcDbEntity
  8
AM_6
100
AcDbText
 10
5.1635
 20
-1.875
 30
0.0
 40
0.5
  1
6.25
100
AcDbAttributeDefinition
  3

  2
B
 70
     8
280
     0
  0
ATTDEF
  5
7E
330
6E
100
AcDbEntity
  8
AM_6
100
AcDbText
 10
5.1635
 20
-2.375
 30
0.0
 40
0.5
  1
3.87
100
AcDbAttributeDefinition
  3

  2
C
 70
     8
280
     0
  0
ATTDEF
  5
7F
330
6E
100
AcDbEntity
  8
AM_6
100
AcDbText
 10
5.1635
 20
-2.875
 30
0.0
 40
0.5
  1
4.87
100
AcDbAttributeDefinition
  3

  2
D
 70
     8
280
     0
  0
ATTDEF
  5
80
330
6E
100
AcDbEntity
  8
AM_6
100
AcDbText
 10
5.1635
 20
-3.375
 30
0.0
 40
0.5
  1
6.894
100
AcDbAttributeDefinition
  3

  2
DD
 70
     8
280
     0
  0
ATTDEF
  5
81
330
6E
100
AcDbEntity
  8
AM_6
100
AcDbText
 10
5.1635
 20
-3.875
 30
0.0
 40
0.5
  1
5/8
100
AcDbAttributeDefinition
  3

  2
F
 70
     8
280
     0
  0
ATTDEF
  5
82
330
6E
100
AcDbEntity
  8
AM_6
100
AcDbText
 10
5.1635
 20
-4.375
 30
0.0
 40
0.5
  1
0.6
100
AcDbAttributeDefinition
  3

  2
G
 70
     8
280
     0
  0
ATTDEF
  5
83
330
6E
100
AcDbEntity
  8
AM_6
100
AcDbText
 10
5.1635
 20
-4.875
 30
0.0
 40
0.5
  1
1.38
100
AcDbAttributeDefinition
  3

  2
H
 70
     8
280
     0
  0
ATTDEF
  5
84
330
6E
100
AcDbEntity
  8
AM_6
100
AcDbText
 10
5.1635
 20
-5.375
 30
0.0
 40
0.5
  1
4.88
100
AcDbAttributeDefinition
  3

  2
J
 70
     8
280
     0
  0
ATTDEF
  5
85
330
6E
100
AcDbEntity
  8
AM_6
100
AcDbText
 10
5.1635
 20
-5.875
 30
0.0
 40
0.5
  1
3.5
100
AcDbAttributeDefinition
  3

  2
L
 70
     8
280
     0
  0
ATTDEF
  5
86
330
6E
100
AcDbEntity
  8
AM_6
100
AcDbText
 10
5.1635
 20
-6.375
 30
0.0
 40
0.5
  1
2.88
100
AcDbAttributeDefinition
  3

  2
N
 70
     8
280
     0
  0
ATTDEF
  5
87
330
6E
100
AcDbEntity
  8
AM_6
100
AcDbText
 10
5.1635
 20
-6.875
 30
0.0
 40
0.5
  1
0.93
100
AcDbAttributeDefinition
  3

  2
P
 70
     8
280
     0
  0
ATTDEF
  5
88
330
6E
100
AcDbEntity
  8
AM_6
100
AcDbText
 10
5.1635
 20
-7.375
 30
0.0
 40
0.5
  1
0.25
100
AcDbAttributeDefinition
  3

  2
X
 70
     8
280
     0
  0
ATTDEF
  5
89
330
6E
100
AcDbEntity
  8
AM_6
100
AcDbText
 10
5.1635
 20
-7.875
 30
0.0
 40
0.5
  1
0.025
100
AcDbAttributeDefinition
  3

  2
Y
 70
     8
280
     0
  0
ATTDEF
  5
8A
330
6E
100
AcDbEntity
  8
AM_6
100
AcDbText
 10
5.1635
 20
-8.375
 30
0.0
 40
0.5
  1
2.6
100
AcDbAttributeDefinition
  3

  2
Z
 70
     8
280
     0
  0
ATTDEF
  5
8B
330
6E
100
AcDbEntity
  8
AM_6
100
AcDbText
 10
5.1635
 20
-8.875
 30
0.0
 40
0.5
  1
3/8-16
100
AcDbAttributeDefinition
  3

  2
CS
 70
     8
280
     0
  0
ATTDEF
  5
8C
330
6E
100
AcDbEntity
  8
AM_6
100
AcDbText
 10
5.1635
 20
-9.375
 30
0.0
 40
0.5
  1
290
100
AcDbAttributeDefinition
  3

  2
TORQUE
 70
     8
280
     0
  0
ATTDEF
  5
8D
330
6E
100
AcDbEntity
  8
AM_6
100
AcDbText
 10
5.1635
 20
-9.875
 30
0.0
 40
0.5
  1
baldor
100
AcDbAttributeDefinition
  3

  2
COMPANY
 70
     8
280
     0
  0
INSERT
  5
8F
330
6E
100
AcDbEntity
  8
0
100
AcDbBlockReference
  2
2_2_3_16CS2i_0_in_071487_2
 10
0.0
 20
0.0
 30
0.0
  0
INSERT
  5
DE
330
6E
100
AcDbEntity
  8
0
100
AcDbBlockReference
  2
3_070007i_0_in_071487_2
 10
0.0
 20
0.0
 30
0.0
  0
INSERT
  5
142
330
6E
100
AcDbEntity
  8
0
100
AcDbBlockReference
  2
4_405015E_Inch_0_in_071487_2
 10
0.0
 20
0.0
 30
0.0
  0
INSERT
  5
180
330
6E
100
AcDbEntity
  8
0
100
AcDbBlockReference
  2
5_B071487_0_in_071487_2
 10
0.0
 20
0.0
 30
0.0
  0
ENDBLK
  5
71
330
6E
100
AcDbEntity
  8
0
100
AcDbBlockEnd
  0
BLOCK
  5
90
330
8E
100
AcDbEntity
  8
0
100
AcDbBlockBegin
  2
2_2_3_16CS2i_0_in_071487_2
 70
     2
 10
0.0
 20
0.0
 30
0.0
  3
2_2_3_16CS2i_0_in_071487_2
  1

  0
ATTDEF
  5
92
330
8E
100
AcDbEntity
  8
AM_6
100
AcDbText
 10
2.014
 20
1.9045
 30
0.0
 40
0.5
  1
S-2000 Collar -Inch
100
AcDbAttributeDefinition
  3

  2
NN
 70
     8
280
     0
  0
ATTDEF
  5
93
330
8E
100
AcDbEntity
  8
AM_6
100
AcDbText
 10
2.014
 20
1.4045
 30
0.0
 40
0.5
  1
S-2000 Bearings
100
AcDbAttributeDefinition
  3

  2
NT
 70
     8
280
     0
  0
ATTDEF
  5
94
330
8E
100
AcDbEntity
  8
AM_6
100
AcDbText
 10
2.014
 20
0.9045000000000001
 30
0.0
 40
0.5
  1
2-3/16CS2i
100
AcDbAttributeDefinition
  3

  2
NB
 70
     8
280
     0
  0
ATTDEF
  5
95
330
8E
100
AcDbEntity
  8
AM_6
100
AcDbText
 10
2.014
 20
0.4045000000000001
 30
0.0
 40
0.5
  1
$BORE.CS2i
100
AcDbAttributeDefinition
  3

  2
NBSYN
 70
     8
280
     0
  0
ATTDEF
  5
96
330
8E
100
AcDbEntity
  8
AM_6
100
AcDbText
 10
2.014
 20
-0.0954999999999999
 30
0.0
 40
0.5
  1
2-3/16CS2i
100
AcDbAttributeDefinition
  3

  2
LINA
 70
     8
280
     0
  0
ATTDEF
  5
97
330
8E
100
AcDbEntity
  8
AM_6
100
AcDbText
 10
2.014
 20
-0.5954999999999999
 30
0.0
 40
0.5
  1
2-3/16
100
AcDbAttributeDefinition
  3

  2
BORE
 70
     8
280
     0
  0
ATTDEF
  5
98
330
8E
100
AcDbEntity
  8
AM_6
100
AcDbText
 10
2.014
 20
-1.0955
 30
0.0
 40
0.5
  1
2.187500
100
AcDbAttributeDefinition
  3

  2
BORE1
 70
     8
280
     0
  0
ATTDEF
  5
99
330
8E
100
AcDbEntity
  8
AM_6
100
AcDbText
 10
2.014
 20
-1.5955
 30
0.0
 40
0.5
  1
3-3/4
100
AcDbAttributeDefinition
  3

  2
L1
 70
     8
280
     0
  0
ATTDEF
  5
9A
330
8E
100
AcDbEntity
  8
AM_6
100
AcDbText
 10
2.014
 20
-2.0955
 30
0.0
 40
0.5
  1
3.75000
100
AcDbAttributeDefinition
  3

  2
L
 70
     8
280
     0
  0
ATTDEF
  5
9B
330
8E
100
AcDbEntity
  8
AM_6
100
AcDbText
 10
2.014
 20
-2.5955
 30
0.0
 40
0.5
  1
3.65625
100
AcDbAttributeDefinition
  3

  2
L2
 70
     8
280
     0
  0
ATTDEF
  5
9C
330
8E
100
AcDbEntity
  8
AM_6
100
AcDbText
 10
2.014
 20
-3.0955
 30
0.0
 40
0.5
  1
3.75
100
AcDbAttributeDefinition
  3

  2
A
 70
     8
280
     0
  0
ATTDEF
  5
9D
330
8E
100
AcDbEntity
  8
AM_6
100
AcDbText
 10
2.014
 20
-3.5955
 30
0.0
 40
0.5
  1
1.66
100
AcDbAttributeDefinition
  3

  2
B
 70
     8
280
     0
  0
ATTDEF
  5
9E
330
8E
100
AcDbEntity
  8
AM_6
100
AcDbText
 10
2.014
 20
-4.095499999999999
 30
0.0
 40
0.5
  1
2.62
100
AcDbAttributeDefinition
  3

  2
C
 70
     8
280
     0
  0
ATTDEF
  5
9F
330
8E
100
AcDbEntity
  8
AM_6
100
AcDbText
 10
2.014
 20
-4.595499999999999
 30
0.0
 40
0.5
  1
3.81
100
AcDbAttributeDefinition
  3

  2
D
 70
     8
280
     0
  0
ATTDEF
  5
A0
330
8E
100
AcDbEntity
  8
AM_6
100
AcDbText
 10
2.014
 20
-5.095499999999999
 30
0.0
 40
0.5
  1
0.41
100
AcDbAttributeDefinition
  3

  2
E
 70
     8
280
     0
  0
ATTDEF
  5
A1
330
8E
100
AcDbEntity
  8
AM_6
100
AcDbText
 10
2.014
 20
-5.595499999999999
 30
0.0
 40
0.5
  1
0.317
100
AcDbAttributeDefinition
  3

  2
F
 70
     8
280
     0
  0
ATTDEF
  5
A2
330
8E
100
AcDbEntity
  8
AM_6
100
AcDbText
 10
2.014
 20
-6.095499999999999
 30
0.0
 40
0.5
  1
3/8-16
100
AcDbAttributeDefinition
  3

  2
CS
 70
     8
280
     0
  0
ATTDEF
  5
A3
330
8E
100
AcDbEntity
  8
AM_6
100
AcDbText
 10
2.014
 20
-6.595499999999999
 30
0.0
 40
0.5
  1
0.3750
100
AcDbAttributeDefinition
  3

  2
NDM
 70
     8
280
     0
  0
ATTDEF
  5
A4
330
8E
100
AcDbEntity
  8
AM_6
100
AcDbText
 10
2.014
 20
-7.095499999999999
 30
0.0
 40
0.5
  1
0.3070
100
AcDbAttributeDefinition
  3

  2
KDM
 70
     8
280
     0
  0
ATTDEF
  5
A5
330
8E
100
AcDbEntity
  8
AM_6
100
AcDbText
 10
2.014
 20
-7.595499999999999
 30
0.0
 40
0.5
  1
1
100
AcDbAttributeDefinition
  3

  2
DD
 70
     8
280
     0
  0
ATTDEF
  5
A6
330
8E
100
AcDbEntity
  8
AM_6
100
AcDbText
 10
2.014
 20
-8.0955
 30
0.0
 40
0.5
  1
baldor
100
AcDbAttributeDefinition
  3

  2
COMPANY
 70
     8
280
     0
  0
LINE
  5
A9
330
8E
100
AcDbEntity
  8
AM_9
100
AcDbLine
 10
-3.14935
 20
1.318849999999998
 30
0.0
 11
-3.14935
 21
1.84115
 31
0.0
  0
LINE
  5
AA
330
8E
100
AcDbEntity
  8
AM_9
100
AcDbLine
 10
-3.45665
 20
1.828083329217944
 30
0.0
 11
-3.45665
 21
1.318849999999998
 31
0.0
  0
LINE
  5
AB
330
8E
100
AcDbEntity
  8
AM_9
100
AcDbLine
 10
-3.45665
 20
1.318849999999998
 30
0.0
 11
-3.14935
 21
1.318849999999998
 31
0.0
  0
LINE
  5
AC
330
8E
100
AcDbEntity
  8
AM_9
100
AcDbLine
 10
-3.45665
 20
1.318849999999998
 30
0.0
 11
-3.46528557603507
 21
1.310214423964929
 31
0.0
  0
LINE
  5
AD
330
8E
100
AcDbEntity
  8
AM_9
100
AcDbLine
 10
-3.140757778627882
 20
1.310257778627881
 30
0.0
 11
-3.14935
 21
1.318849999999998
 31
0.0
  0
LINE
  5
AE
330
8E
100
AcDbEntity
  8
AM_9
100
AcDbLine
 10
-3.302999999999999
 20
1.84115
 30
0.0
 11
-3.14935
 21
1.84115
 31
0.0
  0
LINE
  5
AF
330
8E
100
AcDbEntity
  8
AM_9
100
AcDbLine
 10
-3.14935
 20
1.84115
 30
0.0
 11
-3.115499999999999
 21
1.875
 31
0.0
  0
LWPOLYLINE
  5
B0
330
8E
100
AcDbEntity
  8
AM_9
100
AcDbPolyline
 90
       38
 70
     0
 43
0.0
 10
-3.182739795400335
 20
0.4454553340870209
 10
-3.168102157395506
 20
0.4643138121682407
 10
-3.15640969285707
 20
0.4847808473524228
 10
-3.14658177062218
 20
0.5106664144202897
 10
-3.141357915908209
 20
0.5374299934606555
 10
-3.140961035959137
 20
0.5652383606843941
 10
-3.145594424418918
 20
0.5924289346763261
 10
-3.155330223445363
 20
0.6184493365590064
 10
-3.169882177892986
 20
0.642358272311616
 10
-3.188611480547189
 20
0.663065224660515
 10
-3.211240600676214
 20
0.6804170158894296
 10
-3.235799513172281
 20
0.6931552315099777
 10
-3.262640596075073
 20
0.7018609413282767
 10
-3.288806879059509
 20
0.705941141979617
 10
-3.315413312255015
 20
0.7060923853880126
 10
-3.340358590402661
 20
0.7025249528871632
 10
-3.364272864413716
 20
0.6955229844667069
 10
-3.386771781918626
 20
0.6851391771507512
 10
-3.407080400446549
 20
0.6717929184556499
 10
-3.425728298023222
 20
0.6547784583698778
 10
-3.441088966392302
 20
0.6352898679140677
 10
-3.453524895961858
 20
0.6122153586641237
 10
-3.461655558172998
 20
0.5874328238680538
 10
-3.46533772390218
 20
0.560305729893561
 10
-3.464068765370067
 20
0.5327047496794325
 10
-3.457661891818041
 20
0.5049295051250278
 10
-3.446292117539707
 20
0.478284828221489
 10
-3.43029549681806
 20
0.4538558976382238
 10
-3.410013127851825
 20
0.4322506495427493
 10
-3.386924217417115
 20
0.4150329933045249
 10
-3.360954832298562
 20
0.4019704520501974
 10
-3.334898493763943
 20
0.3942096675082308
 10
-3.307814561680348
 20
0.3909818634271393
 10
-3.282284004110847
 20
0.3923016508464801
 10
-3.257345489956255
 20
0.3976903300900806
 10
-3.233920787962261
 20
0.4068619817596912
 10
-3.212317549032613
 20
0.419424355920897
 10
-3.182739795400335
 20
0.4454553340870212
  0
LINE
  5
B1
330
8E
100
AcDbEntity
  8
AM_9
100
AcDbLine
 10
-3.62
 20
-1.31
 30
0.0
 11
-2.986
 21
-1.31
 31
0.0
  0
LINE
  5
B2
330
8E
100
AcDbEntity
  8
AM_9
100
AcDbLine
 10
-2.986
 20
1.31
 30
0.0
 11
-3.14110054714185
 21
1.31
 31
0.0
  0
LINE
  5
B3
330
8E
100
AcDbEntity
  8
AM_9
100
AcDbLine
 10
-3.465000242803868
 20
1.31
 30
0.0
 11
-3.62
 21
1.31
 31
0.0
  0
LWPOLYLINE
  5
B4
330
8E
100
AcDbEntity
  8
AM_9
100
AcDbPolyline
 90
       21
 70
     0
 43
0.0
 10
-3.465499999999663
 20
1.309999999999953
 10
-3.465302778927689
 20
1.309972087359224
 10
-3.461276415948909
 20
1.309409357790498
 10
-3.45235444446062
 20
1.308210936201127
 10
-3.438207843527011
 20
1.306448665357621
 10
-3.420312488178497
 20
1.304463909932972
 10
-3.397760408416193
 20
1.302355736591321
 10
-3.373884898216065
 20
1.300606511345046
 10
-3.346727222146959
 20
1.29922599636072
 10
-3.320982440638728
 20
1.298520061078894
 10
-3.293834429079859
 20
1.298413625064043
 10
-3.269111648408038
 20
1.298886781313496
 10
-3.244652034726319
 20
1.299888341515009
 10
-3.222235988033971
 20
1.301269778693122
 10
-3.201401601548725
 20
1.302948380784639
 10
-3.182657391076654
 20
1.304780658154192
 10
-3.166716068578944
 20
1.306576741861005
 10
-3.153935850865356
 20
1.30817306980801
 10
-3.145146488292913
 20
1.309351040898662
 10
-3.14086444620377
 20
1.309948445529012
 10
-3.140500000000161
 20
1.309999999999977
  0
ELLIPSE
  5
B5
330
8E
100
AcDbEntity
  8
AM_9
100
AcDbEllipse
 10
-3.303
 20
0.5573700944967204
 30
0.0
 11
0.1536499999999994
 21
0.0
 31
0.0
210
0.0
220
0.0
230
1.0
 40
0.9063077870366516
 41
2.264645186367125
 42
3.141592653589793
  0
LINE
  5
B6
330
8E
100
AcDbEntity
  8
AM_9
100
AcDbLine
 10
-3.14935
 20
0.5573700944967208
 30
0.0
 11
-3.14935
 21
0.7781036126038889
 31
0.0
  0
LINE
  5
B7
330
8E
100
AcDbEntity
  8
AM_9
100
AcDbLine
 10
-3.45665
 20
0.7725814182623202
 30
0.0
 11
-3.45665
 21
0.5573700944967208
 31
0.0
  0
ELLIPSE
  5
B8
330
8E
100
AcDbEntity
  8
AM_9
100
AcDbEllipse
 10
-3.302999999999999
 20
0.7781036126038889
 30
0.0
 11
0.1536499999999998
 21
0.0
 31
0.0
210
0.0
220
0.0
230
1.0
 40
0.9063077870366497
 41
0.0
 42
1.354336070107
  0
ELLIPSE
  5
B9
330
8E
100
AcDbEntity
  8
AM_9
100
AcDbEllipse
 10
-3.302999999999998
 20
0.5573700944967206
 30
0.0
 11
0.153649999999998
 21
2.289563417434664E-9
 31
0.0
210
0.0
220
0.0
230
1.0
 40
0.9063077870366587
 41
3.141592653589793
 42
7.637521363646097
  0
ELLIPSE
  5
BA
330
8E
100
AcDbEntity
  8
AM_9
100
AcDbEllipse
 10
-3.302999999999999
 20
0.7781036126038887
 30
0.0
 11
0.1536499999999998
 21
0.0
 31
0.0
210
0.0
220
0.0
230
1.0
 40
0.9063077870366483
 41
4.928849237072587
 42
6.283185307179586
  0
LINE
  5
BB
330
8E
100
AcDbEntity
  8
AM_9
100
AcDbLine
 10
-3.302999999999999
 20
0.6388494211257076
 30
0.0
 11
-3.302999999999999
 21
0.9091195285357462
 31
0.0
  0
LWPOLYLINE
  5
BC
330
8E
100
AcDbEntity
  8
AM_9
100
AcDbPolyline
 90
       19
 70
     0
 43
0.0
 10
-3.269800936302542
 20
0.9485153895236748
 10
-3.256437321172983
 20
0.9461032026400715
 10
-3.225760661351643
 20
0.9371612471520933
 10
-3.196448797452761
 20
0.9233682836411279
 10
-3.171488540448502
 20
0.9061169709416094
 10
-3.149702054368457
 20
0.8845362938933454
 10
-3.133724132260832
 20
0.861433367201112
 10
-3.122236115849509
 20
0.8351969922119378
 10
-3.116550516730777
 20
0.8094964069075993
 10
-3.115865128966385
 20
0.7822885537201293
 10
-3.120158322171802
 20
0.7564098740115107
 10
-3.129076016102374
 20
0.7313679146634914
 10
-3.142454347795304
 20
0.7077554413852051
 10
-3.159762372346376
 20
0.6863127232992426
 10
-3.181025438991017
 20
0.6672060805251148
 10
-3.205939649917971
 20
0.6510432254022286
 10
-3.233822784430437
 20
0.6385708579312077
 10
-3.26429387625647
 20
0.6302703343762718
 10
-3.269917105545354
 20
0.629278186462185
  0
LINE
  5
BD
330
8E
100
AcDbEntity
  8
AM_9
100
AcDbLine
 10
-3.27
 20
-1.875
 30
0.0
 11
-2.986
 21
-1.875
 31
0.0
  0
LINE
  5
BE
330
8E
100
AcDbEntity
  8
AM_9
100
AcDbLine
 10
-2.986
 20
1.875
 30
0.0
 11
-3.115499999999999
 21
1.875
 31
0.0
  0
LWPOLYLINE
  5
BF
330
8E
100
AcDbEntity
  8
AM_9
100
AcDbPolyline
 90
       11
 70
     0
 43
0.0
 10
-3.115500000000039
 20
1.874999999999996
 10
-3.115865128966385
 20
1.87496683824421
 10
-3.120047077974399
 20
1.874591560735137
 10
-3.129076016102374
 20
1.873809810684511
 10
-3.142236501685281
 20
1.872740227696645
 10
-3.159762372346376
 20
1.871444967628002
 10
-3.181025438991017
 20
1.870072237051632
 10
-3.205939649917972
 20
1.868742094251962
 10
-3.233822784430437
 20
1.867610918815138
 10
-3.26429387625647
 20
1.866807925783103
 10
-3.269917105545354
 20
1.866709274092937
  0
LINE
  5
C0
330
8E
100
AcDbEntity
  8
AM_9
100
AcDbLine
 10
-2.986
 20
1.875
 30
0.0
 11
-2.986
 21
-1.875
 31
0.0
  0
LINE
  5
C2
330
8E
100
AcDbEntity
  8
AM_5
100
AcDbLine
 10
-3.4905
 20
1.828125
 30
0.0
 11
-3.4905
 21
1.31
 31
0.0
  0
LINE
  5
C3
330
8E
100
AcDbEntity
  8
AM_5
100
AcDbLine
 10
-3.39675
 20
1.285
 30
0.0
 11
-3.4905
 21
1.285
 31
0.0
  0
LINE
  5
C4
330
8E
100
AcDbEntity
  8
AM_5
100
AcDbLine
 10
-3.115499999999999
 20
1.875
 30
0.0
 11
-3.115499999999999
 21
1.31
 31
0.0
  0
LINE
  5
C5
330
8E
100
AcDbEntity
  8
AM_5
100
AcDbLine
 10
-3.209249999999999
 20
1.285
 30
0.0
 11
-3.115499999999999
 21
1.285
 31
0.0
  0
LINE
  5
C8
330
8E
100
AcDbEntity
  8
AM_7
100
AcDbLine
 10
-3.302999999999999
 20
1.9045
 30
0.0
 11
-3.303
 21
-0.0671794871794872
 31
0.0
  0
ELLIPSE
  5
CA
330
8E
100
AcDbEntity
  8
AM_4
100
AcDbEllipse
 10
-3.303
 20
0.5573700944967227
 30
0.0
 11
0.1536499999999976
 21
0.0
 31
0.0
210
0.0
220
0.0
230
1.0
 40
0.9063077870366512
 41
1.570796326794897
 42
2.264645186367136
  0
LWPOLYLINE
  5
CB
330
8E
100
AcDbEntity
  8
AM_4
100
AcDbPolyline
 90
       11
 70
     0
 43
0.0
 10
-3.456649999327498
 20
0.7725859809452943
 10
-3.455646716688784
 20
0.7884511023625607
 10
-3.450547203614805
 20
0.8111928557821327
 10
-3.441319800313571
 20
0.8327158002328813
 10
-3.428153009545071
 20
0.8524401189313028
 10
-3.411480178782845
 20
0.8698476952719474
 10
-3.391658694300661
 20
0.884493413076928
 10
-3.369332860650557
 20
0.8959843133612968
 10
-3.345098999109215
 20
0.9039823090238623
 10
-3.319670305966226
 20
0.908329740602742
 10
-3.302999999999999
 20
0.9091195285357463
  0
ELLIPSE
  5
CC
330
8E
100
AcDbEntity
  8
AM_4
100
AcDbEllipse
 10
-3.302999999999998
 20
0.7781036126038959
 30
0.0
 11
0.1536499999999892
 21
0.0
 31
0.0
210
0.0
220
0.0
230
1.0
 40
0.906307787036667
 41
1.354336070106994
 42
1.570796326794897
  0
ELLIPSE
  5
CD
330
8E
100
AcDbEntity
  8
AM_4
100
AcDbEllipse
 10
-3.302999999999998
 20
0.5573700944967345
 30
0.0
 11
0.1536499999999799
 21
0.0
 31
0.0
210
0.0
220
0.0
230
1.0
 40
0.9063077870366794
 41
1.354336070106983
 42
1.570796326794897
  0
LINE
  5
CE
330
8E
100
AcDbEntity
  8
AM_4
100
AcDbLine
 10
-3.302999999999999
 20
-1.875
 30
0.0
 11
-3.302999999999999
 21
0.6388494211257076
 31
0.0
  0
ELLIPSE
  5
CF
330
8E
100
AcDbEntity
  8
AM_4
100
AcDbEllipse
 10
-3.302999999999999
 20
0.7781036126038812
 30
0.0
 11
0.1536499999999883
 21
0.0
 31
0.0
210
0.0
220
0.0
230
1.0
 40
0.9063077870366686
 41
4.71238898038469
 42
4.9288492370726
  0
LINE
  5
D0
330
8E
100
AcDbEntity
  8
AM_4
100
AcDbLine
 10
-3.62
 20
1.722458333333333
 30
0.0
 11
-3.62
 21
-1.722458333333333
 31
0.0
  0
ARC
  5
D1
330
8E
100
AcDbEntity
  8
AM_4
100
AcDbCircle
 10
-3.514333333333333
 20
-1.722458333333333
 30
0.0
 40
0.105666666666667
100
AcDbArc
 50
179.9999991462263
 51
270.0
  0
ARC
  5
D2
330
8E
100
AcDbEntity
  8
AM_4
100
AcDbCircle
 10
-3.514333333333333
 20
1.722458333333333
 30
0.0
 40
0.1056666666666668
100
AcDbArc
 50
90.0
 51
179.9999991462263
  0
LWPOLYLINE
  5
D3
330
8E
100
AcDbEntity
  8
AM_4
100
AcDbPolyline
 90
       11
 70
     0
 43
0.0
 10
-3.302999999999999
 20
0.6306111455793838
 10
-3.328742001669664
 20
0.6326715615160058
 10
-3.35375716217025
 20
0.6387275175994213
 10
-3.377318464068364
 20
0.6486412483761171
 10
-3.398790533406881
 20
0.6620494027104202
 10
-3.41757607295949
 20
0.678624305216736
 10
-3.433137133692954
 20
0.6977944319457977
 10
-3.44500015575863
 20
0.7190480958209339
 10
-3.452853561651678
 20
0.7417016029853343
 10
-3.456408641025081
 20
0.7650447766126816
 10
-3.456649999327498
 20
0.7725859809452943
  0
LWPOLYLINE
  5
D4
330
8E
100
AcDbEntity
  8
AM_4
100
AcDbPolyline
 90
       11
 70
     0
 43
0.0
 10
-3.302999999999999
 20
1.821656579359842
 10
-3.328378581085125
 20
1.821833352835241
 10
-3.35375716217025
 20
1.822363570376827
 10
-3.377003068523618
 20
1.823159111892298
 10
-3.398790533406881
 20
1.824173379757356
 10
-3.417340658393714
 20
1.825241485197755
 10
-3.433137133692954
 20
1.826299090152218
 10
-3.444871482833741
 20
1.827172736980947
 10
-3.452853561651678
 20
1.827809832303321
 10
-3.456403588022121
 20
1.828104306089524
 10
-3.456649999999966
 20
1.828124999999997
  0
LINE
  5
D5
330
8E
100
AcDbEntity
  8
AM_4
100
AcDbLine
 10
-3.514333333333333
 20
-1.828125
 30
0.0
 11
-3.302999999999999
 21
-1.828125
 31
0.0
  0
LINE
  5
D6
330
8E
100
AcDbEntity
  8
AM_4
100
AcDbLine
 10
-3.456152582670805
 20
1.828125
 30
0.0
 11
-3.514333333333333
 21
1.828125
 31
0.0
  0
LINE
  5
D7
330
8E
100
AcDbEntity
  8
AM_4
100
AcDbLine
 10
-3.514333333333333
 20
1.828125
 30
0.0
 11
-3.514333333333333
 21
-1.828125
 31
0.0
  0
LINE
  5
D8
330
8E
100
AcDbEntity
  8
AM_4
100
AcDbLine
 10
-3.302999999999999
 20
1.866441760747098
 30
0.0
 11
-3.302999999999999
 21
0.9091195285357462
 31
0.0
  0
LINE
  5
D9
330
8E
100
AcDbEntity
  8
AM_4
100
AcDbLine
 10
-3.269917105545354
 20
0.629278186462185
 30
0.0
 11
-3.302999999999999
 21
0.626616061376045
 31
0.0
  0
LINE
  5
DA
330
8E
100
AcDbEntity
  8
AM_4
100
AcDbLine
 10
-3.302999999999999
 20
0.9509686837583332
 30
0.0
 11
-3.269800936302542
 21
0.9485153895236748
 31
0.0
  0
LINE
  5
DB
330
8E
100
AcDbEntity
  8
AM_4
100
AcDbLine
 10
-3.302999999999999
 20
-1.875
 30
0.0
 11
-3.27
 21
-1.875
 31
0.0
  0
LINE
  5
DC
330
8E
100
AcDbEntity
  8
AM_4
100
AcDbLine
 10
-3.269917105545354
 20
1.866709274092937
 30
0.0
 11
-3.302999999999999
 21
1.866441760747098
 31
0.0
  0
ENDBLK
  5
91
330
8E
100
AcDbEntity
  8
0
100
AcDbBlockEnd
  0
BLOCK
  5
DF
330
DD
100
AcDbEntity
  8
0
100
AcDbBlockBegin
  2
3_070007i_0_in_071487_2
 70
     2
 10
0.0
 20
0.0
 30
0.0
  3
3_070007i_0_in_071487_2
  1

  0
ATTDEF
  5
E1
330
DD
100
AcDbEntity
  8
AM_6
100
AcDbText
 10
4.3175
 20
1.9685
 30
0.0
 40
0.5
  1
S-2000 Insert -Inch
100
AcDbAttributeDefinition
  3

  2
NN
 70
     8
280
     0
  0
ATTDEF
  5
E2
330
DD
100
AcDbEntity
  8
AM_6
100
AcDbText
 10
4.3175
 20
1.4685
 30
0.0
 40
0.5
  1
S-2000 Bearings
100
AcDbAttributeDefinition
  3

  2
NT
 70
     8
280
     0
  0
ATTDEF
  5
E3
330
DD
100
AcDbEntity
  8
AM_6
100
AcDbText
 10
4.3175
 20
0.9684999999999997
 30
0.0
 40
0.5
  1
070007i
100
AcDbAttributeDefinition
  3

  2
NB
 70
     8
280
     0
  0
ATTDEF
  5
E4
330
DD
100
AcDbEntity
  8
AM_6
100
AcDbText
 10
4.3175
 20
0.4684999999999997
 30
0.0
 40
0.5
  1
$PN.i
100
AcDbAttributeDefinition
  3

  2
NBSYN
 70
     8
280
     0
  0
ATTDEF
  5
E5
330
DD
100
AcDbEntity
  8
AM_6
100
AcDbText
 10
4.3175
 20
-0.0315000000000003
 30
0.0
 40
0.5
  1
070007i
100
AcDbAttributeDefinition
  3

  2
LINA
 70
     8
280
     0
  0
ATTDEF
  5
E6
330
DD
100
AcDbEntity
  8
AM_6
100
AcDbText
 10
4.3175
 20
-0.5315000000000003
 30
0.0
 40
0.5
  1
2-3/16
100
AcDbAttributeDefinition
  3

  2
SS
 70
     8
280
     0
  0
ATTDEF
  5
E7
330
DD
100
AcDbEntity
  8
AM_6
100
AcDbText
 10
4.3175
 20
-1.0315
 30
0.0
 40
0.5
  1
2.62
100
AcDbAttributeDefinition
  3

  2
CC
 70
     8
280
     0
  0
ATTDEF
  5
E8
330
DD
100
AcDbEntity
  8
AM_6
100
AcDbText
 10
4.3175
 20
-1.5315
 30
0.0
 40
0.5
  1
2.187500
100
AcDbAttributeDefinition
  3

  2
SS1
 70
     8
280
     0
  0
ATTDEF
  5
E9
330
DD
100
AcDbEntity
  8
AM_6
100
AcDbText
 10
4.3175
 20
-2.0315
 30
0.0
 40
0.5
  1
070007
100
AcDbAttributeDefinition
  3

  2
PN
 70
     8
280
     0
  0
ATTDEF
  5
EA
330
DD
100
AcDbEntity
  8
AM_6
100
AcDbText
 10
4.3175
 20
-2.5315
 30
0.0
 40
0.5
  1
INS-S2-203R
100
AcDbAttributeDefinition
  3

  2
DESCRIPTION
 70
     8
280
     0
  0
ATTDEF
  5
EB
330
DD
100
AcDbEntity
  8
AM_6
100
AcDbText
 10
4.3175
 20
-3.0315
 30
0.0
 40
0.5
  1
Contact Seal
100
AcDbAttributeDefinition
  3

  2
ST
 70
     8
280
     0
  0
ATTDEF
  5
EC
330
DD
100
AcDbEntity
  8
AM_6
100
AcDbText
 10
4.3175
 20
-3.5315
 30
0.0
 40
0.5
  1
1
100
AcDbAttributeDefinition
  3

  2
ST1
 70
     8
280
     0
  0
ATTDEF
  5
ED
330
DD
100
AcDbEntity
  8
AM_6
100
AcDbText
 10
4.3175
 20
-4.0315
 30
0.0
 40
0.5
  1
3.9370
100
AcDbAttributeDefinition
  3

  2
A
 70
     8
280
     0
  0
ATTDEF
  5
EE
330
DD
100
AcDbEntity
  8
AM_6
100
AcDbText
 10
4.3175
 20
-4.5315
 30
0.0
 40
0.5
  1
1-3/64
100
AcDbAttributeDefinition
  3

  2
B
 70
     8
280
     0
  0
ATTDEF
  5
EF
330
DD
100
AcDbEntity
  8
AM_6
100
AcDbText
 10
4.3175
 20
-5.0315
 30
0.0
 40
0.5
  1
2-15/16
100
AcDbAttributeDefinition
  3

  2
C
 70
     8
280
     0
  0
ATTDEF
  5
F0
330
DD
100
AcDbEntity
  8
AM_6
100
AcDbText
 10
4.3175
 20
-5.5315
 30
0.0
 40
0.5
  1
1.050
100
AcDbAttributeDefinition
  3

  2
D
 70
     8
280
     0
  0
ATTDEF
  5
F1
330
DD
100
AcDbEntity
  8
AM_6
100
AcDbText
 10
4.3175
 20
-6.0315
 30
0.0
 40
0.5
  1
3-21/32
100
AcDbAttributeDefinition
  3

  2
E
 70
     8
280
     0
  0
ATTDEF
  5
F2
330
DD
100
AcDbEntity
  8
AM_6
100
AcDbText
 10
4.3175
 20
-6.5315
 30
0.0
 40
0.5
  1
0.40625
100
AcDbAttributeDefinition
  3

  2
F
 70
     8
280
     0
  0
ATTDEF
  5
F3
330
DD
100
AcDbEntity
  8
AM_6
100
AcDbText
 10
4.3175
 20
-7.0315
 30
0.0
 40
0.5
  1
1
100
AcDbAttributeDefinition
  3

  2
DD
 70
     8
280
     0
  0
ATTDEF
  5
F4
330
DD
100
AcDbEntity
  8
AM_6
100
AcDbText
 10
4.3175
 20
-7.5315
 30
0.0
 40
0.5
  1
baldor
100
AcDbAttributeDefinition
  3

  2
COMPANY
 70
     8
280
     0
  0
LINE
  5
F5
330
DD
100
AcDbEntity
  8
AM_9
100
AcDbLine
 10
-3.508
 20
1.309893343729898
 30
0.0
 11
-3.508
 21
1.09375
 31
0.0
  0
LINE
  5
F6
330
DD
100
AcDbEntity
  8
AM_9
100
AcDbLine
 10
-3.097999999999999
 20
1.09375
 30
0.0
 11
-3.098
 21
1.309979004003506
 31
0.0
  0
LINE
  5
F7
330
DD
100
AcDbEntity
  8
AM_9
100
AcDbLine
 10
-3.508
 20
0.5536299228803162
 30
0.0
 11
-3.508
 21
0.4622182288331491
 31
0.0
  0
LINE
  5
F8
330
DD
100
AcDbEntity
  8
AM_9
100
AcDbLine
 10
-3.098
 20
0.4621839774865027
 30
0.0
 11
-3.098
 21
0.5536299228803162
 31
0.0
  0
LWPOLYLINE
  5
F9
330
DD
100
AcDbEntity
  8
AM_9
100
AcDbPolyline
 90
        4
 70
     0
 43
0.0
 10
-3.501801377757419
 20
0.5070975772719796
 10
-3.504449829596604
 20
0.4962786578354733
 10
-3.507971255466082
 20
0.4653476622504734
 10
-3.507999999263455
 20
0.4622544732447242
  0
LWPOLYLINE
  5
FA
330
DD
100
AcDbEntity
  8
AM_9
100
AcDbPolyline
 90
        5
 70
     0
 43
0.0
 10
-3.454181104488891
 20
0.5840014875248865
 10
-3.46063019505583
 20
0.577692190416864
 10
-3.48044781651697
 20
0.5531943244937183
 10
-3.495237562367084
 20
0.525789123689773
 10
-3.501801377757419
 20
0.5070975772719796
  0
LWPOLYLINE
  5
FB
330
DD
100
AcDbEntity
  8
AM_9
100
AcDbPolyline
 90
        6
 70
     0
 43
0.0
 10
-3.343771134865254
 20
0.6364553927909335
 10
-3.346156960913158
 20
0.6360425348356541
 10
-3.378592788977798
 20
0.6278534448373143
 10
-3.408935554185032
 20
0.6153121716665402
 10
-3.436635862579424
 20
0.5984150989118975
 10
-3.454181104488891
 20
0.5840014875248865
  0
LWPOLYLINE
  5
FC
330
DD
100
AcDbEntity
  8
AM_9
100
AcDbPolyline
 90
        3
 70
     0
 43
0.0
 10
-3.269910710414152
 20
0.6376191714939112
 10
-3.278000272164696
 20
0.6385763295462018
 10
-3.299711258535722
 20
0.6398183512984552
  0
LWPOLYLINE
  5
FD
330
DD
100
AcDbEntity
  8
AM_9
100
AcDbPolyline
 90
        6
 70
     0
 43
0.0
 10
-3.152743667169624
 20
0.5848562763177926
 10
-3.156081848137523
 20
0.587846423751119
 10
-3.182196050986026
 20
0.6069940469390253
 10
-3.211744082465577
 20
0.6220514658817197
 10
-3.244011661326748
 20
0.6326485166386171
 10
-3.269910710414152
 20
0.6376191714939112
  0
LWPOLYLINE
  5
FE
330
DD
100
AcDbEntity
  8
AM_9
100
AcDbPolyline
 90
        5
 70
     0
 43
0.0
 10
-3.104540371987768
 20
0.5082847803023045
 10
-3.105638227981815
 20
0.5118200844270712
 10
-3.117453382857473
 20
0.539765421327479
 10
-3.134466311747424
 20
0.5653453642049191
 10
-3.152743667169624
 20
0.5848562763177926
  0
LWPOLYLINE
  5
FF
330
DD
100
AcDbEntity
  8
AM_9
100
AcDbPolyline
 90
        3
 70
     0
 43
0.0
 10
-3.098000000598485
 20
0.4622245268108323
 10
-3.099185919992238
 20
0.4821007191227428
 10
-3.104540371987768
 20
0.5082847803023045
  0
LWPOLYLINE
  5
100
330
DD
100
AcDbEntity
  8
AM_9
100
AcDbPolyline
 90
       11
 70
     0
 43
0.0
 10
-3.507999999263455
 20
0.4622544732447242
 10
-3.505685776092236
 20
0.4343422182949456
 10
-3.49784402015236
 20
0.4036995398140625
 10
-3.484635464307554
 20
0.3743867523214272
 10
-3.466502689581855
 20
0.3472005841005791
 10
-3.443527891358673
 20
0.3226689183680379
 10
-3.416623733254017
 20
0.3019357855998276
 10
-3.386187443334288
 20
0.2856211346975015
 10
-3.353335312723607
 20
0.2744396870130477
 10
-3.32836813203633
 20
0.2698154075035102
 10
-3.303
 20
0.2682539413190878
  0
LWPOLYLINE
  5
101
330
DD
100
AcDbEntity
  8
AM_9
100
AcDbPolyline
 90
        8
 70
     0
 43
0.0
 10
-3.179400236898086
 20
0.6975236269477865
 10
-3.168057946768477
 20
0.6896166789525782
 10
-3.14419903062212
 20
0.6684084307928593
 10
-3.124656766026592
 20
0.6435572250935263
 10
-3.110160917379447
 20
0.6158884430004011
 10
-3.101237237715455
 20
0.5861937140470106
 10
-3.098007330194224
 20
0.5552006020308803
 10
-3.098000000267581
 20
0.5536394156829167
  0
LWPOLYLINE
  5
102
330
DD
100
AcDbEntity
  8
AM_9
100
AcDbPolyline
 90
        5
 70
     0
 43
0.0
 10
-3.269893105618892
 20
0.730342279976008
 10
-3.258648783836642
 20
0.7285230869284877
 10
-3.226093384884042
 20
0.7199801600845697
 10
-3.195678600926211
 20
0.7069852325773576
 10
-3.179400236898086
 20
0.6975236269477865
  0
LWPOLYLINE
  5
103
330
DD
100
AcDbEntity
  8
AM_9
100
AcDbPolyline
 90
        7
 70
     0
 43
0.0
 10
-3.430732271223129
 20
0.6947861646093846
 10
-3.422855437236501
 20
0.6998587553742849
 10
-3.393212331163462
 20
0.7149728906240802
 10
-3.360921540617337
 20
0.7255617860156123
 10
-3.326958571218726
 20
0.7314226882240419
 10
-3.292656547522722
 20
0.7323666324403301
 10
-3.269893105618892
 20
0.730342279976008
  0
LWPOLYLINE
  5
104
330
DD
100
AcDbEntity
  8
AM_9
100
AcDbPolyline
 90
        7
 70
     0
 43
0.0
 10
-3.507999999289626
 20
0.553614455644713
 10
-3.506757559447962
 20
0.5739722612883434
 10
-3.50017398434172
 20
0.6038998236435441
 10
-3.488173897281876
 20
0.6320926815568071
 10
-3.4709521331698
 20
0.6578989426016884
 10
-3.44909848665385
 20
0.6806167012475527
 10
-3.430732271223129
 20
0.6947861646093846
  0
LWPOLYLINE
  5
105
330
DD
100
AcDbEntity
  8
AM_9
100
AcDbPolyline
 90
        3
 70
     0
 43
0.0
 10
-3.269944373724635
 20
0.3636256750861759
 10
-3.278790928435694
 20
0.3624172260917353
 10
-3.303
 20
0.3610159801704899
  0
LWPOLYLINE
  5
106
330
DD
100
AcDbEntity
  8
AM_9
100
AcDbPolyline
 90
       10
 70
     0
 43
0.0
 10
-3.098000000267581
 20
0.5536394156829167
 10
-3.1005947362227
 20
0.5241094091564467
 10
-3.108774543775759
 20
0.4934948914797351
 10
-3.122366491030943
 20
0.4642954315170981
 10
-3.140914395415116
 20
0.4373305067264196
 10
-3.164224482383054
 20
0.4132219087172119
 10
-3.191428635743626
 20
0.3929722563492812
 10
-3.222011909521858
 20
0.3772226223025424
 10
-3.254927054067791
 20
0.3665740063789005
 10
-3.269944373724635
 20
0.3636256750861759
  0
LWPOLYLINE
  5
107
330
DD
100
AcDbEntity
  8
AM_9
100
AcDbPolyline
 90
       11
 70
     0
 43
0.0
 10
-3.303
 20
0.2682539413190878
 10
-3.268926809952118
 20
0.2710889446686107
 10
-3.235822377970732
 20
0.2793995490425911
 10
-3.204658066171018
 20
0.2929478083981996
 10
-3.176228904633593
 20
0.3111883198535711
 10
-3.151081647604525
 20
0.33384279718671
 10
-3.130181480916717
 20
0.3599480618745632
 10
-3.114069561302903
 20
0.3889543411791222
 10
-3.103329080184507
 20
0.4197344304079162
 10
-3.098396399590419
 20
0.4509779725123085
 10
-3.098000000598485
 20
0.4622245268108323
  0
LWPOLYLINE
  5
108
330
DD
100
AcDbEntity
  8
AM_9
100
AcDbPolyline
 90
       11
 70
     0
 43
0.0
 10
-3.303
 20
1.074366819340583
 10
-3.269411188985366
 20
1.074891748375331
 10
-3.235822377970732
 20
1.076464999617501
 10
-3.205067842799307
 20
1.078821009210509
 10
-3.176228904633593
 20
1.081820212937621
 10
-3.151394193220719
 20
1.085010775591283
 10
-3.130181480916717
 20
1.088177514488394
 10
-3.114248788877667
 20
1.090821287929488
 10
-3.103329080184507
 20
1.092763715869064
 10
-3.098405996541589
 20
1.09367397735849
 10
-3.09800000000072
 20
1.093749999999865
  0
LINE
  5
109
330
DD
100
AcDbEntity
  8
AM_9
100
AcDbLine
 10
-0.6825000000000002
 20
1.09375
 30
0.0
 11
-3.097999999999999
 21
1.09375
 31
0.0
  0
LINE
  5
10A
330
DD
100
AcDbEntity
  8
AM_9
100
AcDbLine
 10
-3.508
 20
1.09375
 30
0.0
 11
-3.62
 21
1.09375
 31
0.0
  0
LINE
  5
10B
330
DD
100
AcDbEntity
  8
AM_9
100
AcDbLine
 10
-3.62
 20
-1.09375
 30
0.0
 11
-0.6825000000000002
 21
-1.09375
 31
0.0
  0
LINE
  5
10C
330
DD
100
AcDbEntity
  8
AM_9
100
AcDbLine
 10
-3.4972254051705
 20
1.091781832837332
 30
0.0
 11
-3.50799999999919
 21
1.093749999999848
 31
0.0
  0
LINE
  5
10D
330
DD
100
AcDbEntity
  8
AM_9
100
AcDbLine
 10
-3.290366823913492
 20
1.074441091748643
 30
0.0
 11
-3.308210646843653
 21
1.074379455006717
 31
0.0
  0
LWPOLYLINE
  5
10E
330
DD
100
AcDbEntity
  8
AM_9
100
AcDbPolyline
 90
       11
 70
     0
 43
0.0
 10
-3.50799999999919
 20
1.093749999999848
 10
-3.505778757985553
 20
1.093335852878777
 10
-3.49784402015236
 20
1.091892052672394
 10
-3.484870646114056
 20
1.089651776678194
 10
-3.466502689581855
 20
1.086736947011787
 10
-3.443893327383059
 20
1.083565868879723
 10
-3.416623733254016
 20
1.080358466092889
 10
-3.386662079714041
 20
1.077619323361491
 10
-3.353335312723607
 20
1.075545306440869
 10
-3.328570268450788
 20
1.074671066479714
 10
-3.303
 20
1.074366819340583
  0
LWPOLYLINE
  5
10F
330
DD
100
AcDbEntity
  8
AM_9
100
AcDbPolyline
 90
       11
 70
     0
 43
0.0
 10
-3.303
 20
0.3610159801704899
 10
-3.337176491401276
 20
0.3638286216734344
 10
-3.370383885282032
 20
0.3720808611847762
 10
-3.401651355867768
 20
0.3855525929836366
 10
-3.430163968963368
 20
0.4037159041225188
 10
-3.455280176973312
 20
0.4262256408506708
 10
-3.476128295183939
 20
0.4521882775907386
 10
-3.492131762130507
 20
0.4809951964714891
 10
-3.502772065333889
 20
0.5115971180560214
 10
-3.50763272028775
 20
0.5428162977041567
 10
-3.507999999289626
 20
0.553614455644713
  0
LWPOLYLINE
  5
110
330
DD
100
AcDbEntity
  8
AM_9
100
AcDbPolyline
 90
       11
 70
     0
 43
0.0
 10
-3.303
 20
1.293860502527224
 10
-3.336691942641016
 20
1.294299094876808
 10
-3.370383885282032
 20
1.295613981089932
 10
-3.401237424949584
 20
1.297584521971777
 10
-3.430163968963368
 20
1.30009448695182
 10
-3.454967013607562
 20
1.30275437946867
 10
-3.476128295183939
 20
1.30539205091547
 10
-3.491955425548667
 20
1.307585237315058
 10
-3.502772065333889
 20
1.309192070739724
 10
-3.507624220358586
 20
1.309941247368506
 10
-3.507999999999583
 20
1.309999999999934
  0
LINE
  5
111
330
DD
100
AcDbEntity
  8
AM_9
100
AcDbLine
 10
-2.57975
 20
1.31
 30
0.0
 11
-3.098135651812219
 21
1.31
 31
0.0
  0
LINE
  5
112
330
DD
100
AcDbEntity
  8
AM_9
100
AcDbLine
 10
-3.507316511093212
 20
1.31
 30
0.0
 11
-3.62
 21
1.31
 31
0.0
  0
LINE
  5
113
330
DD
100
AcDbEntity
  8
AM_9
100
AcDbLine
 10
-3.62
 20
-1.31
 30
0.0
 11
-2.57975
 21
-1.31
 31
0.0
  0
LINE
  5
114
330
DD
100
AcDbEntity
  8
AM_9
100
AcDbLine
 10
-3.10907368966436
 20
1.308312811922437
 30
0.0
 11
-3.098000000000145
 21
1.309999999999977
 31
0.0
  0
LINE
  5
115
330
DD
100
AcDbEntity
  8
AM_9
100
AcDbLine
 10
-3.315089482086713
 20
1.293916981717573
 30
0.0
 11
-3.29686242165621
 21
1.293875059605032
 31
0.0
  0
LINE
  5
116
330
DD
100
AcDbEntity
  8
AM_9
100
AcDbLine
 10
-3.26994601338417
 20
1.294282645341117
 30
0.0
 11
-3.303
 21
1.293860502527224
 31
0.0
  0
LWPOLYLINE
  5
117
330
DD
100
AcDbEntity
  8
AM_9
100
AcDbPolyline
 90
       10
 70
     0
 43
0.0
 10
-3.098000000000145
 20
1.309999999999977
 10
-3.10049733746582
 20
1.309611518097421
 10
-3.108774543775759
 20
1.30835718664496
 10
-3.122123465982591
 20
1.306442237742699
 10
-3.140914395415116
 20
1.303973444213358
 10
-3.163852140414748
 20
1.301321300381715
 10
-3.191428635743627
 20
1.298662068947125
 10
-3.221538939551793
 20
1.296422347990556
 10
-3.254927054067791
 20
1.294753261486759
 10
-3.26994601338417
 20
1.294282645341117
  0
LINE
  5
118
330
DD
100
AcDbEntity
  8
AM_9
100
AcDbLine
 10
-0.6899999999999997
 20
1.31
 30
0.0
 11
-0.8852500000000001
 21
1.31
 31
0.0
  0
LINE
  5
119
330
DD
100
AcDbEntity
  8
AM_9
100
AcDbLine
 10
-0.8852500000000001
 20
-1.31
 30
0.0
 11
-0.6899999999999997
 21
-1.31
 31
0.0
  0
LINE
  5
11A
330
DD
100
AcDbEntity
  8
AM_9
100
AcDbLine
 10
-2.57975
 20
-1.4701125
 30
0.0
 11
-2.57975
 21
1.4701125
 31
0.0
  0
ARC
  5
11B
330
DD
100
AcDbEntity
  8
AM_9
100
AcDbCircle
 10
-2.475062499999999
 20
1.470112499999999
 30
0.0
 40
0.1046875000000009
100
AcDbArc
 50
90.0
 51
180.0
  0
ARC
  5
11C
330
DD
100
AcDbEntity
  8
AM_9
100
AcDbCircle
 10
-2.475062499999999
 20
-1.470112499999998
 30
0.0
 40
0.1046875000000016
100
AcDbArc
 50
179.9999991462263
 51
270.0
  0
LINE
  5
11D
330
DD
100
AcDbEntity
  8
AM_9
100
AcDbLine
 10
-0.9899375000000002
 20
1.5748
 30
0.0
 11
-1.2090625
 21
1.5748
 31
0.0
  0
LINE
  5
11E
330
DD
100
AcDbEntity
  8
AM_9
100
AcDbLine
 10
-1.2090625
 20
-1.5748
 30
0.0
 11
-0.9899375000000002
 21
-1.5748
 31
0.0
  0
LINE
  5
11F
330
DD
100
AcDbEntity
  8
AM_9
100
AcDbLine
 10
-0.8852500000000001
 20
-1.470112500000001
 30
0.0
 11
-0.8852500000000001
 21
1.470112500000001
 31
0.0
  0
LINE
  5
120
330
DD
100
AcDbEntity
  8
AM_9
100
AcDbLine
 10
-0.9899375000000002
 20
-1.5748
 30
0.0
 11
-0.9899375000000002
 21
1.5748
 31
0.0
  0
ARC
  5
121
330
DD
100
AcDbEntity
  8
AM_9
100
AcDbCircle
 10
-0.9899375
 20
1.4701125
 30
0.0
 40
0.1046874999999999
100
AcDbArc
 50
0.0
 51
90.0
  0
ARC
  5
122
330
DD
100
AcDbEntity
  8
AM_9
100
AcDbCircle
 10
-0.9899374999999997
 20
-1.4701125
 30
0.0
 40
0.1046874999999998
100
AcDbArc
 50
270.0
 51
0.0
  0
LINE
  5
123
330
DD
100
AcDbEntity
  8
AM_9
100
AcDbLine
 10
-2.4750625
 20
-1.5748
 30
0.0
 11
-2.4750625
 21
1.5748
 31
0.0
  0
LINE
  5
124
330
DD
100
AcDbEntity
  8
AM_9
100
AcDbLine
 10
-2.2559375
 20
1.5748
 30
0.0
 11
-2.4750625
 21
1.5748
 31
0.0
  0
LINE
  5
125
330
DD
100
AcDbEntity
  8
AM_9
100
AcDbLine
 10
-2.4750625
 20
-1.5748
 30
0.0
 11
-2.2559375
 21
-1.5748
 31
0.0
  0
LINE
  5
126
330
DD
100
AcDbEntity
  8
AM_9
100
AcDbLine
 10
-1.680156249999998
 20
1.88976
 30
0.0
 11
-1.784843750000003
 21
1.88976
 31
0.0
  0
LINE
  5
127
330
DD
100
AcDbEntity
  8
AM_9
100
AcDbLine
 10
-1.784843750000003
 20
-1.88976
 30
0.0
 11
-1.680156249999998
 21
-1.88976
 31
0.0
  0
LINE
  5
128
330
DD
100
AcDbEntity
  8
AM_9
100
AcDbLine
 10
-1.680156249999998
 20
-1.88976
 30
0.0
 11
-1.680156249999998
 21
1.88976
 31
0.0
  0
LINE
  5
129
330
DD
100
AcDbEntity
  8
AM_9
100
AcDbLine
 10
-1.680156249999998
 20
-1.88976
 30
0.0
 11
-1.634695689804007
 21
-1.9685
 31
0.0
  0
LINE
  5
12A
330
DD
100
AcDbEntity
  8
AM_9
100
AcDbLine
 10
-1.634695689804007
 20
1.968499999999999
 30
0.0
 11
-1.680156249999998
 21
1.88976
 31
0.0
  0
LINE
  5
12B
330
DD
100
AcDbEntity
  8
AM_9
100
AcDbLine
 10
-1.830304310195994
 20
1.9685
 30
0.0
 11
-2.151250000000001
 21
1.9685
 31
0.0
  0
LINE
  5
12C
330
DD
100
AcDbEntity
  8
AM_9
100
AcDbLine
 10
-2.151250000000001
 20
-1.9685
 30
0.0
 11
-1.830304310195994
 21
-1.9685
 31
0.0
  0
LINE
  5
12D
330
DD
100
AcDbEntity
  8
AM_9
100
AcDbLine
 10
-2.151250000000001
 20
-1.968499999999999
 30
0.0
 11
-2.151250000000001
 21
1.968499999999999
 31
0.0
  0
LINE
  5
12E
330
DD
100
AcDbEntity
  8
AM_9
100
AcDbLine
 10
-2.2559375
 20
-1.8638125
 30
0.0
 11
-2.2559375
 21
1.8638125
 31
0.0
  0
ARC
  5
12F
330
DD
100
AcDbEntity
  8
AM_9
100
AcDbCircle
 10
-2.151250000000001
 20
1.8638125
 30
0.0
 40
0.1046874999999994
100
AcDbArc
 50
90.0
 51
180.0
  0
ARC
  5
130
330
DD
100
AcDbEntity
  8
AM_9
100
AcDbCircle
 10
-2.151250000000001
 20
-1.8638125
 30
0.0
 40
0.1046874999999989
100
AcDbArc
 50
180.0
 51
270.0
  0
LINE
  5
131
330
DD
100
AcDbEntity
  8
AM_9
100
AcDbLine
 10
-1.634695689804007
 20
-1.9685
 30
0.0
 11
-1.634695689804007
 21
1.9685
 31
0.0
  0
LINE
  5
132
330
DD
100
AcDbEntity
  8
AM_9
100
AcDbLine
 10
-1.31375
 20
1.9685
 30
0.0
 11
-1.634695689804007
 21
1.9685
 31
0.0
  0
LINE
  5
133
330
DD
100
AcDbEntity
  8
AM_9
100
AcDbLine
 10
-1.634695689804007
 20
-1.9685
 30
0.0
 11
-1.31375
 21
-1.9685
 31
0.0
  0
LINE
  5
134
330
DD
100
AcDbEntity
  8
AM_9
100
AcDbLine
 10
-1.2090625
 20
-1.863812501559965
 30
0.0
 11
-1.2090625
 21
1.863812501559965
 31
0.0
  0
LINE
  5
135
330
DD
100
AcDbEntity
  8
AM_9
100
AcDbLine
 10
-1.31375
 20
-1.9685
 30
0.0
 11
-1.31375
 21
1.9685
 31
0.0
  0
ARC
  5
136
330
DD
100
AcDbEntity
  8
AM_9
100
AcDbCircle
 10
-1.313750000000003
 20
1.863812499999997
 30
0.0
 40
0.1046875000000025
100
AcDbArc
 50
0.0
 51
90.0
  0
ARC
  5
137
330
DD
100
AcDbEntity
  8
AM_9
100
AcDbCircle
 10
-1.313749999999999
 20
-1.863812500000001
 30
0.0
 40
0.1046874999999987
100
AcDbArc
 50
270.0
 51
0.0
  0
LINE
  5
138
330
DD
100
AcDbEntity
  8
AM_9
100
AcDbLine
 10
-1.784843750000003
 20
-1.88976
 30
0.0
 11
-1.784843750000003
 21
1.88976
 31
0.0
  0
LINE
  5
139
330
DD
100
AcDbEntity
  8
AM_9
100
AcDbLine
 10
-1.830304310195994
 20
-1.968499999999999
 30
0.0
 11
-1.830304310195994
 21
1.9685
 31
0.0
  0
LINE
  5
13A
330
DD
100
AcDbEntity
  8
AM_9
100
AcDbLine
 10
-1.784843750000003
 20
1.88976
 30
0.0
 11
-1.830304310195994
 21
1.9685
 31
0.0
  0
LINE
  5
13B
330
DD
100
AcDbEntity
  8
AM_9
100
AcDbLine
 10
-1.830304310195994
 20
-1.968499999999999
 30
0.0
 11
-1.784843750000003
 21
-1.88976
 31
0.0
  0
LWPOLYLINE
  5
13C
330
DD
100
AcDbEntity
  8
AM_4
100
AcDbPolyline
 90
        3
 70
     0
 43
0.0
 10
-3.302015933454063
 20
0.6398381838305203
 10
-3.312210247936747
 20
0.6396532354069758
 10
-3.343771134865254
 20
0.6364553927909335
  0
LINE
  5
13D
330
DD
100
AcDbEntity
  8
AM_4
100
AcDbLine
 10
-3.299711258535722
 20
0.6398183512984552
 30
0.0
 11
-3.302015933454063
 21
0.6398381838305203
 31
0.0
  0
LINE
  5
13E
330
DD
100
AcDbEntity
  8
AM_4
100
AcDbLine
 10
-0.6825000000000002
 20
-1.31
 30
0.0
 11
-0.6825000000000002
 21
1.31
 31
0.0
  0
LINE
  5
13F
330
DD
100
AcDbEntity
  8
AM_4
100
AcDbLine
 10
-0.6825000000000002
 20
1.31
 30
0.0
 11
-0.6899999999999997
 21
1.31
 31
0.0
  0
LINE
  5
140
330
DD
100
AcDbEntity
  8
AM_4
100
AcDbLine
 10
-0.6899999999999997
 20
-1.31
 30
0.0
 11
-0.6825000000000002
 21
-1.31
 31
0.0
  0
ENDBLK
  5
E0
330
DD
100
AcDbEntity
  8
0
100
AcDbBlockEnd
  0
BLOCK
  5
143
330
141
100
AcDbEntity
  8
0
100
AcDbBlockBegin
  2
4_405015E_Inch_0_in_071487_2
 70
     2
 10
0.0
 20
0.0
 30
0.0
  3
4_405015E_Inch_0_in_071487_2
  1

  0
ATTDEF
  5
145
330
141
100
AcDbEntity
  8
AM_6
100
AcDbText
 10
2.927590742770461
 20
2.915
 30
0.0
 40
0.5
  1
405015E -Inch
100
AcDbAttributeDefinition
  3

  2
NN
 70
     8
280
     0
  0
ATTDEF
  5
146
330
141
100
AcDbEntity
  8
AM_6
100
AcDbText
 10
2.927590742770461
 20
2.415
 30
0.0
 40
0.5
  1
Grease Fitting
100
AcDbAttributeDefinition
  3

  2
NT
 70
     8
280
     0
  0
ATTDEF
  5
147
330
141
100
AcDbEntity
  8
AM_6
100
AcDbText
 10
2.927590742770461
 20
1.915
 30
0.0
 40
0.5
  1
405015E-Inch
100
AcDbAttributeDefinition
  3

  2
NB
 70
     8
280
     0
  0
ATTDEF
  5
148
330
141
100
AcDbEntity
  8
AM_6
100
AcDbText
 10
2.927590742770461
 20
1.415
 30
0.0
 40
0.5
  1
$MN.-Inch
100
AcDbAttributeDefinition
  3

  2
NBSYN
 70
     8
280
     0
  0
ATTDEF
  5
149
330
141
100
AcDbEntity
  8
AM_6
100
AcDbText
 10
2.927590742770461
 20
0.915
 30
0.0
 40
0.5
  1
405015E
100
AcDbAttributeDefinition
  3

  2
LINA
 70
     8
280
     0
  0
ATTDEF
  5
14A
330
141
100
AcDbEntity
  8
AM_6
100
AcDbText
 10
2.927590742770461
 20
0.415
 30
0.0
 40
0.5
  1
405015E
100
AcDbAttributeDefinition
  3

  2
MN
 70
     8
280
     0
  0
ATTDEF
  5
14B
330
141
100
AcDbEntity
  8
AM_6
100
AcDbText
 10
2.927590742770461
 20
-0.085
 30
0.0
 40
0.5
  1
1/8 x 27PTF
100
AcDbAttributeDefinition
  3

  2
T
 70
     8
280
     0
  0
ATTDEF
  5
14C
330
141
100
AcDbEntity
  8
AM_6
100
AcDbText
 10
2.927590742770461
 20
-0.585
 30
0.0
 40
0.5
  1
baldor
100
AcDbAttributeDefinition
  3

  2
COMPANY
 70
     8
280
     0
  0
LINE
  5
14D
330
141
100
AcDbEntity
  8
AM_9
100
AcDbLine
 10
-2.486902872472269
 20
2.275
 30
0.0
 11
-2.163097127527731
 21
2.275
 31
0.0
  0
LINE
  5
14E
330
141
100
AcDbEntity
  8
AM_9
100
AcDbLine
 10
-2.163097127527731
 20
2.275
 30
0.0
 11
-2.126382373218785
 21
2.311714754308947
 31
0.0
  0
LINE
  5
14F
330
141
100
AcDbEntity
  8
AM_9
100
AcDbLine
 10
-2.523617626781216
 20
2.311714754308947
 30
0.0
 11
-2.486902872472269
 21
2.275
 31
0.0
  0
LINE
  5
150
330
141
100
AcDbEntity
  8
AM_9
100
AcDbLine
 10
-2.523617626781216
 20
2.311714754308947
 30
0.0
 11
-2.126382373218785
 21
2.311714754308947
 31
0.0
  0
LINE
  5
151
330
141
100
AcDbEntity
  8
AM_9
100
AcDbLine
 10
-2.126382373218785
 20
2.311714754308947
 30
0.0
 11
-2.11924810277693
 21
2.54
 31
0.0
  0
LINE
  5
152
330
141
100
AcDbEntity
  8
AM_9
100
AcDbLine
 10
-2.53075189722307
 20
2.54
 30
0.0
 11
-2.523617626781216
 21
2.311714754308947
 31
0.0
  0
LINE
  5
153
330
141
100
AcDbEntity
  8
AM_5
100
AcDbLine
 10
-2.156850875147652
 20
2.474870087748463
 30
0.0
 11
-2.163097127527731
 21
2.275
 31
0.0
  0
LINE
  5
154
330
141
100
AcDbEntity
  8
AM_5
100
AcDbLine
 10
-2.11924810277693
 20
2.540000000000001
 30
0.0
 11
-2.156850875147652
 21
2.474870087748463
 31
0.0
  0
LINE
  5
155
330
141
100
AcDbEntity
  8
AM_5
100
AcDbLine
 10
-2.528716485751557
 20
2.474870087748463
 30
0.0
 11
-2.121283514248443
 21
2.474870087748463
 31
0.0
  0
LINE
  5
156
330
141
100
AcDbEntity
  8
AM_5
100
AcDbLine
 10
-2.493149124852348
 20
2.474870087748463
 30
0.0
 11
-2.486902872472269
 21
2.275
 31
0.0
  0
LINE
  5
157
330
141
100
AcDbEntity
  8
AM_5
100
AcDbLine
 10
-2.53075189722307
 20
2.540000000000001
 30
0.0
 11
-2.493149124852348
 21
2.474870087748463
 31
0.0
  0
LINE
  5
158
330
141
100
AcDbEntity
  8
AM_4
100
AcDbLine
 10
-2.22
 20
2.745000000000001
 30
0.0
 11
-2.22
 21
2.775
 31
0.0
  0
LINE
  5
159
330
141
100
AcDbEntity
  8
AM_4
100
AcDbLine
 10
-2.43
 20
2.775
 30
0.0
 11
-2.43
 21
2.745000000000001
 31
0.0
  0
LINE
  5
15A
330
141
100
AcDbEntity
  8
AM_4
100
AcDbLine
 10
-2.543750000000001
 20
2.64
 30
0.0
 11
-2.10625
 21
2.64
 31
0.0
  0
LINE
  5
15B
330
141
100
AcDbEntity
  8
AM_4
100
AcDbLine
 10
-2.072409257229539
 20
2.630932400303386
 30
0.0
 11
-2.10625
 21
2.64
 31
0.0
  0
LINE
  5
15C
330
141
100
AcDbEntity
  8
AM_4
100
AcDbLine
 10
-2.543750000000001
 20
2.64
 30
0.0
 11
-2.577590742770461
 21
2.630932400303386
 31
0.0
  0
LINE
  5
15D
330
141
100
AcDbEntity
  8
AM_4
100
AcDbLine
 10
-2.10625
 20
2.54
 30
0.0
 11
-2.072409257229539
 21
2.549067599696615
 31
0.0
  0
LINE
  5
15E
330
141
100
AcDbEntity
  8
AM_4
100
AcDbLine
 10
-2.577590742770461
 20
2.549067599696615
 30
0.0
 11
-2.543750000000001
 21
2.54
 31
0.0
  0
LINE
  5
15F
330
141
100
AcDbEntity
  8
AM_4
100
AcDbLine
 10
-2.43
 20
2.745000000000001
 30
0.0
 11
-2.22
 21
2.745000000000001
 31
0.0
  0
LINE
  5
160
330
141
100
AcDbEntity
  8
AM_4
100
AcDbLine
 10
-2.43
 20
2.745000000000001
 30
0.0
 11
-2.443820090734897
 21
2.712753121618572
 31
0.0
  0
LINE
  5
161
330
141
100
AcDbEntity
  8
AM_4
100
AcDbLine
 10
-2.206179909265103
 20
2.712753121618572
 30
0.0
 11
-2.22
 21
2.745000000000001
 31
0.0
  0
LINE
  5
162
330
141
100
AcDbEntity
  8
AM_4
100
AcDbLine
 10
-2.427677901933188
 20
2.915
 30
0.0
 11
-2.222322098066813
 21
2.915
 31
0.0
  0
LINE
  5
163
330
141
100
AcDbEntity
  8
AM_4
100
AcDbLine
 10
-2.427677901933188
 20
2.915
 30
0.0
 11
-2.46
 21
2.835
 31
0.0
  0
LINE
  5
164
330
141
100
AcDbEntity
  8
AM_4
100
AcDbLine
 10
-2.19
 20
2.835
 30
0.0
 11
-2.222322098066813
 21
2.915
 31
0.0
  0
LINE
  5
165
330
141
100
AcDbEntity
  8
AM_4
100
AcDbLine
 10
-2.46
 20
2.835
 30
0.0
 11
-2.19
 21
2.835
 31
0.0
  0
LINE
  5
166
330
141
100
AcDbEntity
  8
AM_4
100
AcDbLine
 10
-2.43
 20
2.775
 30
0.0
 11
-2.22
 21
2.775
 31
0.0
  0
LINE
  5
167
330
141
100
AcDbEntity
  8
AM_4
100
AcDbLine
 10
-2.22
 20
2.775
 30
0.0
 11
-2.19
 21
2.835
 31
0.0
  0
LINE
  5
168
330
141
100
AcDbEntity
  8
AM_4
100
AcDbLine
 10
-2.46
 20
2.835
 30
0.0
 11
-2.43
 21
2.775
 31
0.0
  0
LINE
  5
169
330
141
100
AcDbEntity
  8
AM_4
100
AcDbLine
 10
-2.443820090734897
 20
2.712753121618572
 30
0.0
 11
-2.206179909265102
 21
2.712753121618572
 31
0.0
  0
LINE
  5
16A
330
141
100
AcDbEntity
  8
AM_4
100
AcDbLine
 10
-2.443820090734898
 20
2.712753121618572
 30
0.0
 11
-2.497534053283016
 21
2.658318198540882
 31
0.0
  0
LINE
  5
16B
330
141
100
AcDbEntity
  8
AM_4
100
AcDbLine
 10
-2.152465946716985
 20
2.658318198540882
 30
0.0
 11
-2.206179909265102
 21
2.712753121618572
 31
0.0
  0
LINE
  5
16C
330
141
100
AcDbEntity
  8
AM_4
100
AcDbLine
 10
-2.497534053283016
 20
2.658318198540882
 30
0.0
 11
-2.152465946716985
 21
2.658318198540882
 31
0.0
  0
LINE
  5
16D
330
141
100
AcDbEntity
  8
AM_4
100
AcDbLine
 10
-2.497534053283016
 20
2.658318198540882
 30
0.0
 11
-2.53875
 21
2.64
 31
0.0
  0
LINE
  5
16E
330
141
100
AcDbEntity
  8
AM_4
100
AcDbLine
 10
-2.11125
 20
2.64
 30
0.0
 11
-2.152465946716985
 21
2.658318198540882
 31
0.0
  0
LWPOLYLINE
  5
16F
330
141
100
AcDbEntity
  8
AM_4
100
AcDbPolyline
 90
        3
 70
     0
 43
0.0
 10
-2.577590742770461
 20
2.630932400303386
 10
-2.546158864423564
 20
2.63758547505038
 10
-2.514443057077846
 20
2.64
  0
LINE
  5
170
330
141
100
AcDbEntity
  8
AM_4
100
AcDbLine
 10
-2.577590742770461
 20
2.630932400303386
 30
0.0
 11
-2.577590742770461
 21
2.549067599696615
 31
0.0
  0
LWPOLYLINE
  5
171
330
141
100
AcDbEntity
  8
AM_4
100
AcDbPolyline
 90
        3
 70
     0
 43
0.0
 10
-2.514443057077846
 20
2.54
 10
-2.546016899924154
 20
2.542393380785035
 10
-2.577590742770461
 20
2.549067599696615
  0
LINE
  5
172
330
141
100
AcDbEntity
  8
AM_4
100
AcDbLine
 10
-2.072409257229539
 20
2.630932400303386
 30
0.0
 11
-2.072409257229539
 21
2.549067599696615
 31
0.0
  0
LWPOLYLINE
  5
173
330
141
100
AcDbEntity
  8
AM_4
100
AcDbPolyline
 90
        3
 70
     0
 43
0.0
 10
-2.135556942922154
 20
2.64
 10
-2.103983100075847
 20
2.637606619214965
 10
-2.072409257229539
 20
2.630932400303386
  0
LWPOLYLINE
  5
174
330
141
100
AcDbEntity
  8
AM_4
100
AcDbPolyline
 90
        3
 70
     0
 43
0.0
 10
-2.072409257229539
 20
2.549067599696615
 10
-2.103841135576436
 20
2.54241452494962
 10
-2.135556942922154
 20
2.54
  0
LWPOLYLINE
  5
175
330
141
100
AcDbEntity
  8
AM_4
100
AcDbPolyline
 90
        3
 70
     0
 43
0.0
 10
-2.514443057077846
 20
2.64
 10
-2.482869214231538
 20
2.637606619214965
 10
-2.451295371385231
 20
2.630932400303386
  0
LWPOLYLINE
  5
176
330
141
100
AcDbEntity
  8
AM_4
100
AcDbPolyline
 90
        3
 70
     0
 43
0.0
 10
-2.135556942922154
 20
2.54
 10
-2.167130785768462
 20
2.542393380785035
 10
-2.198704628614769
 20
2.549067599696615
  0
LWPOLYLINE
  5
177
330
141
100
AcDbEntity
  8
AM_4
100
AcDbPolyline
 90
        3
 70
     0
 43
0.0
 10
-2.451295371385231
 20
2.549067599696615
 10
-2.482727249732128
 20
2.54241452494962
 10
-2.514443057077846
 20
2.54
  0
LINE
  5
178
330
141
100
AcDbEntity
  8
AM_4
100
AcDbLine
 10
-2.198704628614769
 20
2.630932400303386
 30
0.0
 11
-2.198704628614769
 21
2.549067599696615
 31
0.0
  0
LWPOLYLINE
  5
179
330
141
100
AcDbEntity
  8
AM_4
100
AcDbPolyline
 90
        3
 70
     0
 43
0.0
 10
-2.451295371385231
 20
2.630932400303386
 10
-2.388431614691437
 20
2.63758547505038
 10
-2.325
 20
2.64
  0
LINE
  5
17A
330
141
100
AcDbEntity
  8
AM_4
100
AcDbLine
 10
-2.451295371385231
 20
2.630932400303386
 30
0.0
 11
-2.451295371385231
 21
2.549067599696615
 31
0.0
  0
LWPOLYLINE
  5
17B
330
141
100
AcDbEntity
  8
AM_4
100
AcDbPolyline
 90
        3
 70
     0
 43
0.0
 10
-2.325
 20
2.54
 10
-2.388147685692616
 20
2.542393380785035
 10
-2.451295371385231
 20
2.549067599696615
  0
LWPOLYLINE
  5
17C
330
141
100
AcDbEntity
  8
AM_4
100
AcDbPolyline
 90
        4
 70
     0
 43
0.0
 10
-2.198704628614769
 20
2.549067599696615
 10
-2.228200367888202
 20
2.545482412517844
 10
-2.276457558752246
 20
2.541425828243072
 10
-2.325
 20
2.54
  0
LWPOLYLINE
  5
17D
330
141
100
AcDbEntity
  8
AM_4
100
AcDbPolyline
 90
        4
 70
     0
 43
0.0
 10
-2.325
 20
2.64
 10
-2.276600183944101
 20
2.638582439282863
 10
-2.228200367888202
 20
2.634517587482156
 10
-2.198704628614769
 20
2.630932400303386
  0
LWPOLYLINE
  5
17E
330
141
100
AcDbEntity
  8
AM_4
100
AcDbPolyline
 90
        3
 70
     0
 43
0.0
 10
-2.198704628614769
 20
2.630932400303386
 10
-2.167272750267872
 20
2.63758547505038
 10
-2.135556942922154
 20
2.64
  0
ENDBLK
  5
144
330
141
100
AcDbEntity
  8
0
100
AcDbBlockEnd
  0
BLOCK
  5
181
330
17F
100
AcDbEntity
  8
0
100
AcDbBlockBegin
  2
5_B071487_0_in_071487_2
 70
     2
 10
0.0
 20
0.0
 30
0.0
  3
5_B071487_0_in_071487_2
  1

  0
ATTDEF
  5
183
330
17F
100
AcDbEntity
  8
AM_6
100
AcDbText
 10
5.1635
 20
3.125
 30
0.0
 40
0.5
  1
EF4S-S2 -(Contact Seal)-Housing
100
AcDbAttributeDefinition
  3

  2
NN
 70
     8
280
     0
  0
ATTDEF
  5
184
330
17F
100
AcDbEntity
  8
AM_6
100
AcDbText
 10
5.1635
 20
2.625
 30
0.0
 40
0.5
  1
S-2000 -E TYpe -Inch
100
AcDbAttributeDefinition
  3

  2
NT
 70
     8
280
     0
  0
ATTDEF
  5
185
330
17F
100
AcDbEntity
  8
AM_6
100
AcDbText
 10
5.1635
 20
2.125
 30
0.0
 40
0.5
  1
B071487
100
AcDbAttributeDefinition
  3

  2
NB
 70
     8
280
     0
  0
ATTDEF
  5
186
330
17F
100
AcDbEntity
  8
AM_6
100
AcDbText
 10
5.1635
 20
1.625
 30
0.0
 40
0.5
  1
$PN.
100
AcDbAttributeDefinition
  3

  2
NBSYN
 70
     8
280
     0
  0
ATTDEF
  5
187
330
17F
100
AcDbEntity
  8
AM_6
100
AcDbText
 10
5.1635
 20
1.125
 30
0.0
 40
0.5
  1
B071487
100
AcDbAttributeDefinition
  3

  2
LINA
 70
     8
280
     0
  0
ATTDEF
  5
188
330
17F
100
AcDbEntity
  8
AM_6
100
AcDbText
 10
5.1635
 20
0.625
 30
0.0
 40
0.5
  1
2-3/16
100
AcDbAttributeDefinition
  3

  2
SS
 70
     8
280
     0
  0
ATTDEF
  5
189
330
17F
100
AcDbEntity
  8
AM_6
100
AcDbText
 10
5.1635
 20
0.125
 30
0.0
 40
0.5
  1
2.187500
100
AcDbAttributeDefinition
  3

  2
SS1
 70
     8
280
     0
  0
ATTDEF
  5
18A
330
17F
100
AcDbEntity
  8
AM_6
100
AcDbText
 10
5.1635
 20
-0.375
 30
0.0
 40
0.5
  1
Expansion
100
AcDbAttributeDefinition
  3

  2
TYPE
 70
     8
280
     0
  0
ATTDEF
  5
18B
330
17F
100
AcDbEntity
  8
AM_6
100
AcDbText
 10
5.1635
 20
-0.875
 30
0.0
 40
0.5
  1
071474
100
AcDbAttributeDefinition
  3

  2
PN1
 70
     8
280
     0
  0
ATTDEF
  5
18C
330
17F
100
AcDbEntity
  8
AM_6
100
AcDbText
 10
5.1635
 20
-1.375
 30
0.0
 40
0.5
  1
071487
100
AcDbAttributeDefinition
  3

  2
PN2
 70
     8
280
     0
  0
ATTDEF
  5
18D
330
17F
100
AcDbEntity
  8
AM_6
100
AcDbText
 10
5.1635
 20
-1.875
 30
0.0
 40
0.5
  1
EF4B-S2-203R
100
AcDbAttributeDefinition
  3

  2
DESC1
 70
     8
280
     0
  0
ATTDEF
  5
18E
330
17F
100
AcDbEntity
  8
AM_6
100
AcDbText
 10
5.1635
 20
-2.375
 30
0.0
 40
0.5
  1
EF4B-S2-203RE
100
AcDbAttributeDefinition
  3

  2
DESC2
 70
     8
280
     0
  0
ATTDEF
  5
18F
330
17F
100
AcDbEntity
  8
AM_6
100
AcDbText
 10
5.1635
 20
-2.875
 30
0.0
 40
0.5
  1
Non-Expansion Type
100
AcDbAttributeDefinition
  3

  2
EF
 70
     8
280
     0
  0
ATTDEF
  5
190
330
17F
100
AcDbEntity
  8
AM_6
100
AcDbText
 10
5.1635
 20
-3.375
 30
0.0
 40
0.5
  1
1
100
AcDbAttributeDefinition
  3

  2
EF1
 70
     8
280
     0
  0
ATTDEF
  5
191
330
17F
100
AcDbEntity
  8
AM_6
100
AcDbText
 10
5.1635
 20
-3.875
 30
0.0
 40
0.5
  1
2.94
100
AcDbAttributeDefinition
  3

  2
A
 70
     8
280
     0
  0
ATTDEF
  5
192
330
17F
100
AcDbEntity
  8
AM_6
100
AcDbText
 10
5.1635
 20
-4.375
 30
0.0
 40
0.5
  1
2.9400000
100
AcDbAttributeDefinition
  3

  2
A1
 70
     8
280
     0
  0
ATTDEF
  5
193
330
17F
100
AcDbEntity
  8
AM_6
100
AcDbText
 10
5.1635
 20
-4.875
 30
0.0
 40
0.5
  1
6.25
100
AcDbAttributeDefinition
  3

  2
B
 70
     8
280
     0
  0
ATTDEF
  5
194
330
17F
100
AcDbEntity
  8
AM_6
100
AcDbText
 10
5.1635
 20
-5.375
 30
0.0
 40
0.5
  1
6.2500000
100
AcDbAttributeDefinition
  3

  2
B1
 70
     8
280
     0
  0
ATTDEF
  5
195
330
17F
100
AcDbEntity
  8
AM_6
100
AcDbText
 10
5.1635
 20
-5.875
 30
0.0
 40
0.5
  1
3.87
100
AcDbAttributeDefinition
  3

  2
C
 70
     8
280
     0
  0
ATTDEF
  5
196
330
17F
100
AcDbEntity
  8
AM_6
100
AcDbText
 10
5.1635
 20
-6.375
 30
0.0
 40
0.5
  1
3.8700000
100
AcDbAttributeDefinition
  3

  2
C1
 70
     8
280
     0
  0
ATTDEF
  5
197
330
17F
100
AcDbEntity
  8
AM_6
100
AcDbText
 10
5.1635
 20
-6.875
 30
0.0
 40
0.5
  1
4.87
100
AcDbAttributeDefinition
  3

  2
D
 70
     8
280
     0
  0
ATTDEF
  5
198
330
17F
100
AcDbEntity
  8
AM_6
100
AcDbText
 10
5.1635
 20
-7.375
 30
0.0
 40
0.5
  1
4.8700000
100
AcDbAttributeDefinition
  3

  2
D1
 70
     8
280
     0
  0
ATTDEF
  5
199
330
17F
100
AcDbEntity
  8
AM_6
100
AcDbText
 10
5.1635
 20
-7.875
 30
0.0
 40
0.5
  1
5/8
100
AcDbAttributeDefinition
  3

  2
F
 70
     8
280
     0
  0
ATTDEF
  5
19A
330
17F
100
AcDbEntity
  8
AM_6
100
AcDbText
 10
5.1635
 20
-8.375
 30
0.0
 40
0.5
  1
0.6250000
100
AcDbAttributeDefinition
  3

  2
F1
 70
     8
280
     0
  0
ATTDEF
  5
19B
330
17F
100
AcDbEntity
  8
AM_6
100
AcDbText
 10
5.1635
 20
-8.875
 30
0.0
 40
0.5
  1
0.6
100
AcDbAttributeDefinition
  3

  2
G
 70
     8
280
     0
  0
ATTDEF
  5
19C
330
17F
100
AcDbEntity
  8
AM_6
100
AcDbText
 10
5.1635
 20
-9.375
 30
0.0
 40
0.5
  1
0.600000
100
AcDbAttributeDefinition
  3

  2
G1
 70
     8
280
     0
  0
ATTDEF
  5
19D
330
17F
100
AcDbEntity
  8
AM_6
100
AcDbText
 10
5.1635
 20
-9.875
 30
0.0
 40
0.5
  1
1.38
100
AcDbAttributeDefinition
  3

  2
H
 70
     8
280
     0
  0
ATTDEF
  5
19E
330
17F
100
AcDbEntity
  8
AM_6
100
AcDbText
 10
5.1635
 20
-10.375
 30
0.0
 40
0.5
  1
1.3800000
100
AcDbAttributeDefinition
  3

  2
H1
 70
     8
280
     0
  0
ATTDEF
  5
19F
330
17F
100
AcDbEntity
  8
AM_6
100
AcDbText
 10
5.1635
 20
-10.875
 30
0.0
 40
0.5
  1
4.88
100
AcDbAttributeDefinition
  3

  2
J
 70
     8
280
     0
  0
ATTDEF
  5
1A0
330
17F
100
AcDbEntity
  8
AM_6
100
AcDbText
 10
5.1635
 20
-11.375
 30
0.0
 40
0.5
  1
4.8800000
100
AcDbAttributeDefinition
  3

  2
J1
 70
     8
280
     0
  0
ATTDEF
  5
1A1
330
17F
100
AcDbEntity
  8
AM_6
100
AcDbText
 10
5.1635
 20
-11.875
 30
0.0
 40
0.5
  1
6-3/8
100
AcDbAttributeDefinition
  3

  2
K
 70
     8
280
     0
  0
ATTDEF
  5
1A2
330
17F
100
AcDbEntity
  8
AM_6
100
AcDbText
 10
5.1635
 20
-12.375
 30
0.0
 40
0.5
  1
6.3750000
100
AcDbAttributeDefinition
  3

  2
K1
 70
     8
280
     0
  0
ATTDEF
  5
1A3
330
17F
100
AcDbEntity
  8
AM_6
100
AcDbText
 10
5.1635
 20
-12.875
 30
0.0
 40
0.5
  1
3.5
100
AcDbAttributeDefinition
  3

  2
L
 70
     8
280
     0
  0
ATTDEF
  5
1A4
330
17F
100
AcDbEntity
  8
AM_6
100
AcDbText
 10
5.1635
 20
-13.375
 30
0.0
 40
0.5
  1
3.5000000
100
AcDbAttributeDefinition
  3

  2
L1
 70
     8
280
     0
  0
ATTDEF
  5
1A5
330
17F
100
AcDbEntity
  8
AM_6
100
AcDbText
 10
5.1635
 20
-13.875
 30
0.0
 40
0.5
  1
2.88
100
AcDbAttributeDefinition
  3

  2
N
 70
     8
280
     0
  0
ATTDEF
  5
1A6
330
17F
100
AcDbEntity
  8
AM_6
100
AcDbText
 10
5.1635
 20
-14.375
 30
0.0
 40
0.5
  1
2.880000
100
AcDbAttributeDefinition
  3

  2
N1
 70
     8
280
     0
  0
ATTDEF
  5
1A7
330
17F
100
AcDbEntity
  8
AM_6
100
AcDbText
 10
5.1635
 20
-14.875
 30
0.0
 40
0.5
  1
0.93
100
AcDbAttributeDefinition
  3

  2
P
 70
     8
280
     0
  0
ATTDEF
  5
1A8
330
17F
100
AcDbEntity
  8
AM_6
100
AcDbText
 10
5.1635
 20
-15.375
 30
0.0
 40
0.5
  1
0.930000
100
AcDbAttributeDefinition
  3

  2
P1
 70
     8
280
     0
  0
ATTDEF
  5
1A9
330
17F
100
AcDbEntity
  8
AM_6
100
AcDbText
 10
5.1635
 20
-15.875
 30
0.0
 40
0.5
  1
0.25
100
AcDbAttributeDefinition
  3

  2
X
 70
     8
280
     0
  0
ATTDEF
  5
1AA
330
17F
100
AcDbEntity
  8
AM_6
100
AcDbText
 10
5.1635
 20
-16.375
 30
0.0
 40
0.5
  1
0.250000
100
AcDbAttributeDefinition
  3

  2
X1
 70
     8
280
     0
  0
ATTDEF
  5
1AB
330
17F
100
AcDbEntity
  8
AM_6
100
AcDbText
 10
5.1635
 20
-16.875
 30
0.0
 40
0.5
  1
0.025
100
AcDbAttributeDefinition
  3

  2
Y
 70
     8
280
     0
  0
ATTDEF
  5
1AC
330
17F
100
AcDbEntity
  8
AM_6
100
AcDbText
 10
5.1635
 20
-17.375
 30
0.0
 40
0.5
  1
2.6
100
AcDbAttributeDefinition
  3

  2
Z
 70
     8
280
     0
  0
ATTDEF
  5
1AD
330
17F
100
AcDbEntity
  8
AM_6
100
AcDbText
 10
5.1635
 20
-17.875
 30
0.0
 40
0.5
  1
2.600000
100
AcDbAttributeDefinition
  3

  2
Z1
 70
     8
280
     0
  0
ATTDEF
  5
1AE
330
17F
100
AcDbEntity
  8
AM_6
100
AcDbText
 10
5.1635
 20
-18.375
 30
0.0
 40
0.5
  1
3/8-16
100
AcDbAttributeDefinition
  3

  2
CS
 70
     8
280
     0
  0
ATTDEF
  5
1AF
330
17F
100
AcDbEntity
  8
AM_6
100
AcDbText
 10
5.1635
 20
-18.875
 30
0.0
 40
0.5
  1
0.3750
100
AcDbAttributeDefinition
  3

  2
NDM
 70
     8
280
     0
  0
ATTDEF
  5
1B0
330
17F
100
AcDbEntity
  8
AM_6
100
AcDbText
 10
5.1635
 20
-19.375
 30
0.0
 40
0.5
  1
0.3070
100
AcDbAttributeDefinition
  3

  2
KDM
 70
     8
280
     0
  0
ATTDEF
  5
1B1
330
17F
100
AcDbEntity
  8
AM_6
100
AcDbText
 10
5.1635
 20
-19.875
 30
0.0
 40
0.5
  1
3.9370
100
AcDbAttributeDefinition
  3

  2
BORE
 70
     8
280
     0
  0
ATTDEF
  5
1B2
330
17F
100
AcDbEntity
  8
AM_6
100
AcDbText
 10
5.1635
 20
-20.375
 30
0.0
 40
0.5
  1
1
100
AcDbAttributeDefinition
  3

  2
ST1
 70
     8
280
     0
  0
ATTDEF
  5
1B3
330
17F
100
AcDbEntity
  8
AM_6
100
AcDbText
 10
5.1635
 20
-20.875
 30
0.0
 40
0.5
  1
baldor
100
AcDbAttributeDefinition
  3

  2
COMPANY
 70
     8
280
     0
  0
LINE
  5
1B4
330
17F
100
AcDbEntity
  8
AM_9
100
AcDbLine
 10
-1.288
 20
-3.125
 30
0.0
 11
-1.288
 21
-2.343008041483629
 31
0.0
  0
LINE
  5
1B5
330
17F
100
AcDbEntity
  8
AM_9
100
AcDbLine
 10
-1.288
 20
-2.389899150159076
 30
0.0
 11
-1.38
 21
-2.389899150159076
 31
0.0
  0
LINE
  5
1B6
330
17F
100
AcDbEntity
  8
AM_9
100
AcDbLine
 10
-1.288
 20
-2.343008041483629
 30
0.0
 11
-1.38
 21
-2.343008041483629
 31
0.0
  0
LINE
  5
1B7
330
17F
100
AcDbEntity
  8
AM_9
100
AcDbLine
 10
-1.288
 20
2.389899150159076
 30
0.0
 11
-1.38
 21
2.389899150159076
 31
0.0
  0
LINE
  5
1B8
330
17F
100
AcDbEntity
  8
AM_9
100
AcDbLine
 10
-1.38
 20
2.343008041483629
 30
0.0
 11
-1.288
 21
2.343008041483629
 31
0.0
  0
LINE
  5
1B9
330
17F
100
AcDbEntity
  8
AM_9
100
AcDbLine
 10
-0.6899999999999997
 20
-3.125
 30
0.0
 11
-0.6899999999999997
 21
-1.5625
 31
0.0
  0
LINE
  5
1BA
330
17F
100
AcDbEntity
  8
AM_9
100
AcDbLine
 10
-0.6899999999999997
 20
1.5625
 30
0.0
 11
-0.6899999999999997
 21
3.125
 31
0.0
  0
LINE
  5
1BB
330
17F
100
AcDbEntity
  8
AM_9
100
AcDbLine
 10
-3.27
 20
-1.9685
 30
0.0
 11
-0.6899999999999998
 21
-1.9685
 31
0.0
  0
LINE
  5
1BC
330
17F
100
AcDbEntity
  8
AM_9
100
AcDbLine
 10
-0.6899999999999998
 20
1.9685
 30
0.0
 11
-3.27
 21
1.9685
 31
0.0
  0
LINE
  5
1BD
330
17F
100
AcDbEntity
  8
AM_9
100
AcDbLine
 10
-1.288
 20
3.064007924853961
 30
0.0
 11
-1.38
 21
3.064007924853961
 31
0.0
  0
LINE
  5
1BE
330
17F
100
AcDbEntity
  8
AM_9
100
AcDbLine
 10
-1.288
 20
-3.064007924853962
 30
0.0
 11
-1.38
 21
-3.064007924853962
 31
0.0
  0
LINE
  5
1BF
330
17F
100
AcDbEntity
  8
AM_9
100
AcDbLine
 10
-1.288
 20
3.125
 30
0.0
 11
-1.288
 21
2.343008041483629
 31
0.0
  0
LINE
  5
1C0
330
17F
100
AcDbEntity
  8
AM_9
100
AcDbLine
 10
-1.288
 20
2.355175491476722
 30
0.0
 11
-1.38
 21
2.355175491476722
 31
0.0
  0
LINE
  5
1C1
330
17F
100
AcDbEntity
  8
AM_9
100
AcDbLine
 10
-1.288
 20
-2.355175491476722
 30
0.0
 11
-1.38
 21
-2.355175491476722
 31
0.0
  0
LINE
  5
1C2
330
17F
100
AcDbEntity
  8
AM_9
100
AcDbLine
 10
-1.38
 20
-2.44
 30
0.0
 11
-1.288
 21
-2.44
 31
0.0
  0
LINE
  5
1C3
330
17F
100
AcDbEntity
  8
AM_9
100
AcDbLine
 10
-1.288
 20
2.44
 30
0.0
 11
-1.38
 21
2.44
 31
0.0
  0
LINE
  5
1C4
330
17F
100
AcDbEntity
  8
AM_9
100
AcDbLine
 10
-1.379999999999999
 20
-2.7475
 30
0.0
 11
0.0000000000000001
 21
-2.7475
 31
0.0
  0
LINE
  5
1C5
330
17F
100
AcDbEntity
  8
AM_9
100
AcDbLine
 10
0.0000000000000001
 20
-2.1225
 30
0.0
 11
-1.379999999999999
 21
-2.1225
 31
0.0
  0
LINE
  5
1C6
330
17F
100
AcDbEntity
  8
AM_9
100
AcDbLine
 10
-1.379999999999999
 20
2.1225
 30
0.0
 11
0.0000000000000001
 21
2.1225
 31
0.0
  0
LINE
  5
1C7
330
17F
100
AcDbEntity
  8
AM_9
100
AcDbLine
 10
0.0000000000000001
 20
2.7475
 30
0.0
 11
-1.379999999999999
 21
2.7475
 31
0.0
  0
LINE
  5
1C8
330
17F
100
AcDbEntity
  8
AM_7
100
AcDbLine
 10
0.0689999999999998
 20
2.435
 30
0.0
 11
-1.449
 21
2.435
 31
0.0
  0
LINE
  5
1C9
330
17F
100
AcDbEntity
  8
AM_7
100
AcDbLine
 10
0.0689999999999998
 20
-2.435
 30
0.0
 11
-1.449
 21
-2.435
 31
0.0
  0
LINE
  5
1CA
330
17F
100
AcDbEntity
  8
AM_7
100
AcDbLine
 10
-3.766875
 20
0.0
 30
0.0
 11
0.1635
 21
0.0
 31
0.0
  0
LINE
  5
1CB
330
17F
100
AcDbEntity
  8
AM_7
100
AcDbLine
 10
-2.325
 20
2.947
 30
0.0
 11
-2.325
 21
2.044925
 31
0.0
  0
LINE
  5
1CC
330
17F
100
AcDbEntity
  8
AM_4
100
AcDbLine
 10
-2.725000000000001
 20
2.540000000000001
 30
0.0
 11
-1.925000000016692
 21
2.540000000000001
 31
0.0
  0
ARC
  5
1CD
330
17F
100
AcDbEntity
  8
AM_4
100
AcDbCircle
 10
-1.925000000000001
 20
2.44
 30
0.0
 40
0.1000000000000005
100
AcDbArc
 50
0.0
 51
90.0
  0
ARC
  5
1CE
330
17F
100
AcDbEntity
  8
AM_4
100
AcDbCircle
 10
-2.725
 20
2.440000000000001
 30
0.0
 40
0.1000000000000001
100
AcDbArc
 50
90.0
 51
180.0
  0
LINE
  5
1CF
330
17F
100
AcDbEntity
  8
AM_4
100
AcDbLine
 10
-2.825
 20
2.44
 30
0.0
 11
-1.825
 21
2.44
 31
0.0
  0
LINE
  5
1D0
330
17F
100
AcDbEntity
  8
AM_4
100
AcDbLine
 10
-3.27
 20
-2.44
 30
0.0
 11
-3.27
 21
2.44
 31
0.0
  0
LINE
  5
1D1
330
17F
100
AcDbEntity
  8
AM_4
100
AcDbLine
 10
-1.288
 20
0.6377682998921929
 30
0.0
 11
-1.379999999999999
 21
0.6377682998921929
 31
0.0
  0
LINE
  5
1D2
330
17F
100
AcDbEntity
  8
AM_4
100
AcDbLine
 10
-1.288
 20
-0.6377682998921946
 30
0.0
 11
-1.379999999999999
 21
-0.6377682998921946
 31
0.0
  0
LWPOLYLINE
  5
1D3
330
17F
100
AcDbEntity
  8
AM_4
100
AcDbPolyline
 90
       38
 70
     0
 43
0.0
 10
-2.825
 20
2.44
 10
-2.823310199894709
 20
2.439653745066555
 10
-2.818266243525779
 20
2.438629038415239
 10
-2.809599157030837
 20
2.436890202226033
 10
-2.797489521585541
 20
2.43451152143672
 10
-2.782511045166141
 20
2.431648606989512
 10
-2.76448303058969
 20
2.428321505521108
 10
-2.742886891135938
 20
2.424505938463204
 10
-2.718355804196659
 20
2.420398477254355
 10
-2.691489650909534
 20
2.416177880681528
 10
-2.662122821958838
 20
2.411897965728544
 10
-2.629505197035255
 20
2.407556017084722
 10
-2.594670845789594
 20
2.40339808709853
 10
-2.558569493873123
 20
2.399616343647661
 10
-2.520808362488714
 20
2.396234737003141
 10
-2.480450372087255
 20
2.393276159292363
 10
-2.43890259094513
 20
2.39093575828043
 10
-2.398290247098276
 20
2.389346647954227
 10
-2.357157488793328
 20
2.388437586391048
 10
-2.31455222948646
 20
2.388245414611093
 10
-2.272025939084577
 20
2.388808542166967
 10
-2.231742228951569
 20
2.390042350685565
 10
-2.192099284801133
 20
2.391916093867084
 10
-2.152273360594221
 20
2.394460165790516
 10
-2.113687299432015
 20
2.397551471276755
 10
-2.077360035851771
 20
2.401026624236335
 10
-2.042712048205206
 20
2.404846458243956
 10
-2.009084221166913
 20
2.409025724210505
 10
-1.977690372874732
 20
2.413342904995868
 10
-1.94900370498751
 20
2.417638080652593
 10
-1.922907819736026
 20
2.421833627941737
 10
-1.898956272999868
 20
2.425925096030164
 10
-1.87811020586234
 20
2.429672917926279
 10
-1.860969599385504
 20
2.432883575751899
 10
-1.847044957909795
 20
2.435578170016198
 10
-1.836187985585742
 20
2.437731391350674
 10
-1.828945440817136
 20
2.439194564950919
 10
-1.825
 20
2.44
  0
LINE
  5
1D4
330
17F
100
AcDbEntity
  8
AM_4
100
AcDbLine
 10
-3.27
 20
-2.44
 30
0.0
 11
-1.38
 21
-2.44
 31
0.0
  0
LINE
  5
1D5
330
17F
100
AcDbEntity
  8
AM_4
100
AcDbLine
 10
-1.38
 20
2.44
 30
0.0
 11
-1.825
 21
2.44
 31
0.0
  0
LINE
  5
1D6
330
17F
100
AcDbEntity
  8
AM_4
100
AcDbLine
 10
-2.825
 20
2.44
 30
0.0
 11
-3.27
 21
2.44
 31
0.0
  0
LINE
  5
1D7
330
17F
100
AcDbEntity
  8
AM_4
100
AcDbLine
 10
-1.288
 20
0.9042514576636153
 30
0.0
 11
-1.379999999999999
 21
0.9042514576636153
 31
0.0
  0
LINE
  5
1D8
330
17F
100
AcDbEntity
  8
AM_4
100
AcDbLine
 10
-1.288
 20
-0.9042514576636156
 30
0.0
 11
-1.379999999999999
 21
-0.9042514576636156
 31
0.0
  0
LINE
  5
1D9
330
17F
100
AcDbEntity
  8
AM_4
100
AcDbLine
 10
0.0000000000000001
 20
-3.125
 30
0.0
 11
0.0000000000000002
 21
-1.5625
 31
0.0
  0
LINE
  5
1DA
330
17F
100
AcDbEntity
  8
AM_4
100
AcDbLine
 10
-1.379999999999999
 20
-3.125
 30
0.0
 11
0.0000000000000001
 21
-3.125
 31
0.0
  0
LINE
  5
1DB
330
17F
100
AcDbEntity
  8
AM_4
100
AcDbLine
 10
0.0000000000000002
 20
1.5625
 30
0.0
 11
0.0000000000000001
 21
3.125
 31
0.0
  0
LINE
  5
1DC
330
17F
100
AcDbEntity
  8
AM_4
100
AcDbLine
 10
-1.379999999999999
 20
3.125
 30
0.0
 11
0.0000000000000001
 21
3.125
 31
0.0
  0
LINE
  5
1DD
330
17F
100
AcDbEntity
  8
AM_4
100
AcDbLine
 10
-0.6899999999999997
 20
-1.5625
 30
0.0
 11
0.0000000000000002
 21
-1.5625
 31
0.0
  0
LINE
  5
1DE
330
17F
100
AcDbEntity
  8
AM_4
100
AcDbLine
 10
-0.6899999999999997
 20
-1.5625
 30
0.0
 11
-0.6899999999999997
 21
1.5625
 31
0.0
  0
LINE
  5
1DF
330
17F
100
AcDbEntity
  8
AM_4
100
AcDbLine
 10
-0.6899999999999997
 20
1.5625
 30
0.0
 11
0.0000000000000002
 21
1.5625
 31
0.0
  0
LINE
  5
1E0
330
17F
100
AcDbEntity
  8
AM_4
100
AcDbLine
 10
-1.379999999999999
 20
2.434999999999999
 30
0.0
 11
0.0000000000000002
 21
2.434999999999999
 31
0.0
  0
LINE
  5
1E1
330
17F
100
AcDbEntity
  8
AM_4
100
AcDbLine
 10
-1.288
 20
-2.208207967426584
 30
0.0
 11
-1.288
 21
2.208207967426583
 31
0.0
  0
LINE
  5
1E2
330
17F
100
AcDbEntity
  8
AM_4
100
AcDbLine
 10
-1.379999999999999
 20
-2.435
 30
0.0
 11
0.0000000000000002
 21
-2.435
 31
0.0
  0
LINE
  5
1E3
330
17F
100
AcDbEntity
  8
AM_4
100
AcDbLine
 10
-1.288
 20
2.208207967426583
 30
0.0
 11
-1.379999999999999
 21
2.208207967426583
 31
0.0
  0
LINE
  5
1E4
330
17F
100
AcDbEntity
  8
AM_4
100
AcDbLine
 10
-1.379999999999999
 20
0.6377682998921929
 30
0.0
 11
-1.379999999999999
 21
3.125
 31
0.0
  0
LINE
  5
1E5
330
17F
100
AcDbEntity
  8
AM_4
100
AcDbLine
 10
-1.288
 20
2.071842105263157
 30
0.0
 11
-1.379999999999999
 21
2.071842105263157
 31
0.0
  0
LINE
  5
1E6
330
17F
100
AcDbEntity
  8
AM_4
100
AcDbLine
 10
-1.379999999999999
 20
-2.208207967426584
 30
0.0
 11
-1.288
 21
-2.208207967426584
 31
0.0
  0
LINE
  5
1E7
330
17F
100
AcDbEntity
  8
AM_4
100
AcDbLine
 10
-1.288
 20
-2.071842105263158
 30
0.0
 11
-1.379999999999999
 21
-2.071842105263158
 31
0.0
  0
LINE
  5
1E8
330
17F
100
AcDbEntity
  8
AM_4
100
AcDbLine
 10
-1.379999999999999
 20
-3.125
 30
0.0
 11
-1.379999999999999
 21
-0.6377682998921946
 31
0.0
  0
ENDBLK
  5
182
330
17F
100
AcDbEntity
  8
0
100
AcDbBlockEnd
  0
ENDSEC
  0
SECTION
  2
ENTITIES
  0
INSERT
  5
6F
330
1F
100
AcDbEntity
  8
0
100
AcDbBlockReference
  2
1_071487_2
 10
0.0
 20
0.0
 30
0.0
  0
POINT
  5
1EA
330
1F
100
AcDbEntity
  8
ConnectionPoints
100
AcDbPoint
 10
-3.62
 20
0.0
 30
0.0000000000000002
  0
POINT
  5
1EB
330
1F
100
AcDbEntity
  8
ConnectionPoints
100
AcDbPoint
 10
0.1549999999999998
 20
0.0
 30
0.0
  0
POINT
  5
1EC
330
1F
100
AcDbEntity
  8
ConnectionPoints
100
AcDbPoint
 10
-3.62
 20
0.0
 30
0.0000000000000002
  0
POINT
  5
1ED
330
1F
100
AcDbEntity
  8
ConnectionPoints
100
AcDbPoint
 10
-2.325
 20
2.54
 30
0.0000000000000001
  0
POINT
  5
1EE
330
1F
100
AcDbEntity
  8
ConnectionPoints
100
AcDbPoint
 10
-2.325
 20
2.54
 30
0.0000000000000001
  0
POINT
  5
1EF
330
1F
100
AcDbEntity
  8
ConnectionPoints
100
AcDbPoint
 10
-3.62
 20
0.0
 30
0.0000000000000002
  0
POINT
  5
1F0
330
1F
100
AcDbEntity
  8
ConnectionPoints
100
AcDbPoint
 10
-3.87
 20
0.0
 30
0.0000000000000002
  0
ENDSEC
  0
SECTION
  2
OBJECTS
  0
DICTIONARY
  5
C
330
0
100
AcDbDictionary
281
     1
  3
ACAD_DETAILVIEWSTYLE
350
1F8
  3
ACAD_GROUP
350
D
  3
ACAD_LAYOUT
350
1A
  3
ACAD_MATERIAL
350
43
  3
ACAD_MLEADERSTYLE
350
6B
  3
ACAD_MLINESTYLE
350
17
  3
ACAD_PLOTSETTINGS
350
19
  3
ACAD_PLOTSTYLENAME
350
E
  3
ACAD_SCALELIST
350
47
  3
ACAD_SECTIONVIEWSTYLE
350
1F9
  3
ACAD_TABLESTYLE
350
69
  3
ACAD_VISUALSTYLE
350
2A
  3
ACDB_RECOMPOSE_DATA
350
1F5
  3
AcDbVariableDictionary
350
1F1
  0
SUN
  5
6D
330
29
100
AcDbSun
 90
        1
290
     0
 63
     7
421
 16777215
 40
1.0
291
     1
 91
  2455826
 92
 54000000
292
     0
 70
     2
 71
   256
280
     1
  0
DICTIONARY
  5
1F8
102
{ACAD_REACTORS
330
C
102
}
330
C
100
AcDbDictionary
281
     1
  0
DICTIONARY
  5
D
102
{ACAD_REACTORS
330
C
102
}
330
C
100
AcDbDictionary
281
     1
  0
DICTIONARY
  5
1A
102
{ACAD_REACTORS
330
C
102
}
330
C
100
AcDbDictionary
281
     1
  3
Layout1
350
1E
  3
Layout2
350
26
  3
Model
350
22
  0
DICTIONARY
  5
43
102
{ACAD_REACTORS
330
C
102
}
330
C
100
AcDbDictionary
281
     1
  3
ByBlock
350
45
  3
ByLayer
350
44
  3
Global
350
46
  0
DICTIONARY
  5
6B
102
{ACAD_REACTORS
330
C
102
}
330
C
100
AcDbDictionary
281
     1
  3
Standard
350
6C
  0
DICTIONARY
  5
17
102
{ACAD_REACTORS
330
C
102
}
330
C
100
AcDbDictionary
281
     1
  3
Standard
350
18
  0
DICTIONARY
  5
19
102
{ACAD_REACTORS
330
C
102
}
330
C
100
AcDbDictionary
281
     1
  0
ACDBDICTIONARYWDFLT
  5
E
102
{ACAD_REACTORS
330
C
102
}
330
C
100
AcDbDictionary
281
     1
  3
Normal
350
F
100
AcDbDictionaryWithDefault
340
F
  0
DICTIONARY
  5
47
102
{ACAD_REACTORS
330
C
102
}
330
C
100
AcDbDictionary
281
     1
  3
A0
350
48
  3
A1
350
49
  3
A2
350
4A
  3
A3
350
4B
  3
A4
350
4C
  3
A5
350
4D
  3
A6
350
4E
  3
A7
350
4F
  3
A8
350
50
  3
A9
350
51
  3
B0
350
52
  3
B1
350
53
  3
B2
350
54
  3
B3
350
55
  3
B4
350
56
  3
B5
350
57
  3
B6
350
58
  3
B7
350
59
  3
B8
350
5A
  3
B9
350
5B
  3
C0
350
5C
  3
C1
350
5D
  3
C2
350
5E
  3
C3
350
5F
  3
C4
350
60
  3
C5
350
61
  3
C6
350
62
  3
C7
350
63
  3
C8
350
64
  3
C9
350
65
  3
D0
350
66
  3
D1
350
67
  3
D2
350
68
  0
DICTIONARY
  5
1F9
102
{ACAD_REACTORS
330
C
102
}
330
C
100
AcDbDictionary
281
     1
  0
DICTIONARY
  5
69
102
{ACAD_REACTORS
330
C
102
}
330
C
100
AcDbDictionary
281
     1
  3
Standard
350
6A
  0
DICTIONARY
  5
2A
102
{ACAD_REACTORS
330
C
102
}
330
C
100
AcDbDictionary
281
     1
  3
2dWireframe
350
2F
  3
Basic
350
32
  3
Brighten
350
36
  3
ColorChange
350
3A
  3
Conceptual
350
34
  3
Dim
350
35
  3
EdgeColorOff
350
3D
  3
Facepattern
350
39
  3
Flat
350
2B
  3
FlatWithEdges
350
2C
  3
Gouraud
350
2D
  3
GouraudWithEdges
350
2E
  3
Hidden
350
31
  3
JitterOff
350
3B
  3
Linepattern
350
38
  3
OverhangOff
350
3C
  3
Realistic
350
33
  3
Shaded
350
42
  3
Shaded with edges
350
41
  3
Shades of Gray
350
3E
  3
Sketchy
350
3F
  3
Thicken
350
37
  3
Wireframe
350
30
  3
X-Ray
350
40
  0
XRECORD
  5
1F5
102
{ACAD_REACTORS
330
C
102
}
330
C
100
AcDbXrecord
280
     1
 90
        1
330
6A
  0
DICTIONARY
  5
1F1
102
{ACAD_REACTORS
330
C
102
}
330
C
100
AcDbDictionary
281
     1
  3
CANNOSCALE
350
1F2
  3
CMLEADERSTYLE
350
1F7
  3
CTABLESTYLE
350
1F6
  0
LAYOUT
  5
1E
102
{ACAD_REACTORS
330
1A
102
}
330
1A
100
AcDbPlotSettings
  1

  2
none_device
  4

  6

 40
0.0
 41
0.0
 42
0.0
 43
0.0
 44
0.0
 45
0.0
 46
0.0
 47
0.0
 48
0.0
 49
0.0
140
0.0
141
0.0
142
1.0
143
1.0
 70
   688
 72
     0
 73
     0
 74
     5
  7

 75
    16
 76
     0
 77
     2
 78
   300
147
1.0
148
0.0
149
0.0
100
AcDbLayout
  1
Layout1
 70
     1
 71
     1
 10
0.0
 20
0.0
 11
12.0
 21
9.0
 12
0.0
 22
0.0
 32
0.0
 14
1.000000000000000E+20
 24
1.000000000000000E+20
 34
1.000000000000000E+20
 15
-1.000000000000000E+20
 25
-1.000000000000000E+20
 35
-1.000000000000000E+20
146
0.0
 13
0.0
 23
0.0
 33
0.0
 16
1.0
 26
0.0
 36
0.0
 17
0.0
 27
1.0
 37
0.0
 76
     0
330
1B
  0
LAYOUT
  5
26
102
{ACAD_REACTORS
330
1A
102
}
330
1A
100
AcDbPlotSettings
  1

  2
none_device
  4

  6

 40
0.0
 41
0.0
 42
0.0
 43
0.0
 44
0.0
 45
0.0
 46
0.0
 47
0.0
 48
0.0
 49
0.0
140
0.0
141
0.0
142
1.0
143
1.0
 70
   688
 72
     0
 73
     0
 74
     5
  7

 75
    16
 76
     0
 77
     2
 78
   300
147
1.0
148
0.0
149
0.0
100
AcDbLayout
  1
Layout2
 70
     1
 71
     2
 10
0.0
 20
0.0
 11
0.0
 21
0.0
 12
0.0
 22
0.0
 32
0.0
 14
0.0
 24
0.0
 34
0.0
 15
0.0
 25
0.0
 35
0.0
146
0.0
 13
0.0
 23
0.0
 33
0.0
 16
1.0
 26
0.0
 36
0.0
 17
0.0
 27
1.0
 37
0.0
 76
     0
330
23
  0
LAYOUT
  5
22
102
{ACAD_REACTORS
330
1A
102
}
330
1A
100
AcDbPlotSettings
  1

  2
none_device
  4
Letter_(8.50_x_11.00_Inches)
  6

 40
6.35
 41
6.35
 42
6.35000508
 43
6.35000508
 44
215.9
 45
279.4
 46
0.0
 47
0.0
 48
0.0
 49
0.0
140
0.0
141
0.0
142
1.0
143
1.0
 70
  1712
 72
     0
 73
     0
 74
     0
  7

 75
     0
 76
     0
 77
     2
 78
   300
147
1.0
148
0.0
149
0.0
100
AcDbLayout
  1
Model
 70
     1
 71
     0
 10
0.0
 20
0.0
 11
12.0
 21
9.0
 12
0.0
 22
0.0
 32
0.0
 14
1.000000000000000E+20
 24
1.000000000000000E+20
 34
1.000000000000000E+20
 15
-1.000000000000000E+20
 25
-1.000000000000000E+20
 35
-1.000000000000000E+20
146
0.0
 13
0.0
 23
0.0
 33
0.0
 16
1.0
 26
0.0
 36
0.0
 17
0.0
 27
1.0
 37
0.0
 76
     0
330
1F
331
29
  0
MATERIAL
  5
45
102
{ACAD_REACTORS
330
43
102
}
330
43
100
AcDbMaterial
  1
ByBlock
 72
     1
 94
      127
  0
MATERIAL
  5
44
102
{ACAD_REACTORS
330
43
102
}
330
43
100
AcDbMaterial
  1
ByLayer
 72
     1
 94
      127
  0
MATERIAL
  5
46
102
{ACAD_REACTORS
330
43
102
}
330
43
100
AcDbMaterial
  1
Global
 72
     1
 94
      127
  0
MLEADERSTYLE
  5
6C
102
{ACAD_REACTORS
330
6B
102
}
330
6B
100
AcDbMLeaderStyle
179
     2
170
     2
171
     1
172
     0
 90
        2
 40
0.0
 41
0.0
173
     1
 91
-1056964608
340
14
 92
       -2
290
     1
 42
0.09
291
     1
 43
0.36
  3
Standard
341
0
 44
0.18
300

342
11
174
     1
178
     6
175
     1
176
     0
 93
-1056964608
 45
0.18
292
     0
297
     0
 46
0.18
343
0
 94
-1056964608
 47
1.0
 49
1.0
140
1.0
293
     1
141
0.0
294
     1
177
     0
142
1.0
295
     0
296
     0
143
0.125
271
     0
272
     9
273
     9
298
     0
  0
MLINESTYLE
  5
18
102
{ACAD_REACTORS
330
17
102
}
330
17
100
AcDbMlineStyle
  2
Standard
 70
     0
  3

 62
   256
 51
90.0
 52
90.0
 71
     2
 49
0.5
 62
   256
  6
BYLAYER
 49
-0.5
 62
   256
  6
BYLAYER
  0
ACDBPLACEHOLDER
  5
F
102
{ACAD_REACTORS
330
E
102
}
330
E
  0
SCALE
  5
48
102
{ACAD_REACTORS
330
47
102
}
330
47
100
AcDbScale
 70
     0
300
1:1
140
1.0
141
1.0
290
     1
  0
SCALE
  5
49
102
{ACAD_REACTORS
330
47
102
}
330
47
100
AcDbScale
 70
     0
300
1:2
140
1.0
141
2.0
290
     0
  0
SCALE
  5
4A
102
{ACAD_REACTORS
330
47
102
}
330
47
100
AcDbScale
 70
     0
300
1:4
140
1.0
141
4.0
290
     0
  0
SCALE
  5
4B
102
{ACAD_REACTORS
330
47
102
}
330
47
100
AcDbScale
 70
     0
300
1:5
140
1.0
141
5.0
290
     0
  0
SCALE
  5
4C
102
{ACAD_REACTORS
330
47
102
}
330
47
100
AcDbScale
 70
     0
300
1:8
140
1.0
141
8.0
290
     0
  0
SCALE
  5
4D
102
{ACAD_REACTORS
330
47
102
}
330
47
100
AcDbScale
 70
     0
300
1:10
140
1.0
141
10.0
290
     0
  0
SCALE
  5
4E
102
{ACAD_REACTORS
330
47
102
}
330
47
100
AcDbScale
 70
     0
300
1:16
140
1.0
141
16.0
290
     0
  0
SCALE
  5
4F
102
{ACAD_REACTORS
330
47
102
}
330
47
100
AcDbScale
 70
     0
300
1:20
140
1.0
141
20.0
290
     0
  0
SCALE
  5
50
102
{ACAD_REACTORS
330
47
102
}
330
47
100
AcDbScale
 70
     0
300
1:30
140
1.0
141
30.0
290
     0
  0
SCALE
  5
51
102
{ACAD_REACTORS
330
47
102
}
330
47
100
AcDbScale
 70
     0
300
1:40
140
1.0
141
40.0
290
     0
  0
SCALE
  5
52
102
{ACAD_REACTORS
330
47
102
}
330
47
100
AcDbScale
 70
     0
300
1:50
140
1.0
141
50.0
290
     0
  0
SCALE
  5
53
102
{ACAD_REACTORS
330
47
102
}
330
47
100
AcDbScale
 70
     0
300
1:100
140
1.0
141
100.0
290
     0
  0
SCALE
  5
54
102
{ACAD_REACTORS
330
47
102
}
330
47
100
AcDbScale
 70
     0
300
2:1
140
2.0
141
1.0
290
     0
  0
SCALE
  5
55
102
{ACAD_REACTORS
330
47
102
}
330
47
100
AcDbScale
 70
     0
300
4:1
140
4.0
141
1.0
290
     0
  0
SCALE
  5
56
102
{ACAD_REACTORS
330
47
102
}
330
47
100
AcDbScale
 70
     0
300
8:1
140
8.0
141
1.0
290
     0
  0
SCALE
  5
57
102
{ACAD_REACTORS
330
47
102
}
330
47
100
AcDbScale
 70
     0
300
10:1
140
10.0
141
1.0
290
     0
  0
SCALE
  5
58
102
{ACAD_REACTORS
330
47
102
}
330
47
100
AcDbScale
 70
     0
300
100:1
140
100.0
141
1.0
290
     0
  0
SCALE
  5
59
102
{ACAD_REACTORS
330
47
102
}
330
47
100
AcDbScale
 70
     0
300
1/128" = 1'-0"
140
0.0078125
141
12.0
290
     0
  0
SCALE
  5
5A
102
{ACAD_REACTORS
330
47
102
}
330
47
100
AcDbScale
 70
     0
300
1/64" = 1'-0"
140
0.015625
141
12.0
290
     0
  0
SCALE
  5
5B
102
{ACAD_REACTORS
330
47
102
}
330
47
100
AcDbScale
 70
     0
300
1/32" = 1'-0"
140
0.03125
141
12.0
290
     0
  0
SCALE
  5
5C
102
{ACAD_REACTORS
330
47
102
}
330
47
100
AcDbScale
 70
     0
300
1/16" = 1'-0"
140
0.0625
141
12.0
290
     0
  0
SCALE
  5
5D
102
{ACAD_REACTORS
330
47
102
}
330
47
100
AcDbScale
 70
     0
300
3/32" = 1'-0"
140
0.09375
141
12.0
290
     0
  0
SCALE
  5
5E
102
{ACAD_REACTORS
330
47
102
}
330
47
100
AcDbScale
 70
     0
300
1/8" = 1'-0"
140
0.125
141
12.0
290
     0
  0
SCALE
  5
5F
102
{ACAD_REACTORS
330
47
102
}
330
47
100
AcDbScale
 70
     0
300
3/16" = 1'-0"
140
0.1875
141
12.0
290
     0
  0
SCALE
  5
60
102
{ACAD_REACTORS
330
47
102
}
330
47
100
AcDbScale
 70
     0
300
1/4" = 1'-0"
140
0.25
141
12.0
290
     0
  0
SCALE
  5
61
102
{ACAD_REACTORS
330
47
102
}
330
47
100
AcDbScale
 70
     0
300
3/8" = 1'-0"
140
0.375
141
12.0
290
     0
  0
SCALE
  5
62
102
{ACAD_REACTORS
330
47
102
}
330
47
100
AcDbScale
 70
     0
300
1/2" = 1'-0"
140
0.5
141
12.0
290
     0
  0
SCALE
  5
63
102
{ACAD_REACTORS
330
47
102
}
330
47
100
AcDbScale
 70
     0
300
3/4" = 1'-0"
140
0.75
141
12.0
290
     0
  0
SCALE
  5
64
102
{ACAD_REACTORS
330
47
102
}
330
47
100
AcDbScale
 70
     0
300
1" = 1'-0"
140
1.0
141
12.0
290
     0
  0
SCALE
  5
65
102
{ACAD_REACTORS
330
47
102
}
330
47
100
AcDbScale
 70
     0
300
1-1/2" = 1'-0"
140
1.5
141
12.0
290
     0
  0
SCALE
  5
66
102
{ACAD_REACTORS
330
47
102
}
330
47
100
AcDbScale
 70
     0
300
3" = 1'-0"
140
3.0
141
12.0
290
     0
  0
SCALE
  5
67
102
{ACAD_REACTORS
330
47
102
}
330
47
100
AcDbScale
 70
     0
300
6" = 1'-0"
140
6.0
141
12.0
290
     0
  0
SCALE
  5
68
102
{ACAD_REACTORS
330
47
102
}
330
47
100
AcDbScale
 70
     0
300
1'-0" = 1'-0"
140
12.0
141
12.0
290
     0
  0
TABLESTYLE
  5
6A
102
{ACAD_REACTORS
330
69
102
}
102
{ACAD_XDICTIONARY
360
1F3
102
}
330
69
100
AcDbTableStyle
  3
Standard
 70
     0
 71
     0
 40
0.06
 41
0.06
280
     0
281
     0
  7
Standard
140
0.18
170
     2
 62
     0
 63
   257
283
     0
 90
        4
 91
        0
  1

274
    -2
284
     1
 64
     0
275
    -2
285
     1
 65
     0
276
    -2
286
     1
 66
     0
277
    -2
287
     1
 67
     0
278
    -2
288
     1
 68
     0
279
    -2
289
     1
 69
     0
  7
Standard
140
0.25
170
     5
 62
     0
 63
   257
283
     0
 90
        4
 91
        0
  1

274
    -2
284
     1
 64
     0
275
    -2
285
     1
 65
     0
276
    -2
286
     1
 66
     0
277
    -2
287
     1
 67
     0
278
    -2
288
     1
 68
     0
279
    -2
289
     1
 69
     0
  7
Standard
140
0.18
170
     5
 62
     0
 63
   257
283
     0
 90
        4
 91
        0
  1

274
    -2
284
     1
 64
     0
275
    -2
285
     1
 65
     0
276
    -2
286
     1
 66
     0
277
    -2
287
     1
 67
     0
278
    -2
288
     1
 68
     0
279
    -2
289
     1
 69
     0
  0
VISUALSTYLE
  5
2F
102
{ACAD_REACTORS
330
2A
102
}
330
2A
100
AcDbVisualStyle
  2
2dWireframe
 70
     4
177
     3
291
     0
 70
    58
 90
        0
176
     1
 90
        2
176
     1
 90
        0
176
     1
 90
        0
176
     1
 40
0.6
176
     1
 40
30.0
176
     1
 62
     7
420
 16777215
176
     1
 90
        1
176
     1
 90
        4
176
     1
 62
     7
176
     1
 62
   257
176
     1
 90
        1
176
     1
 90
        1
176
     1
 40
1.0
176
     1
 90
        0
176
     1
 62
   257
176
     1
 40
1.0
176
     1
 90
        1
176
     1
 90
        6
176
     1
 90
        2
176
     1
 62
     7
176
     1
 90
        5
176
     1
 90
        0
176
     1
 90
        0
176
     1
290
     0
176
     1
 90
        1
176
     1
 40
0.0
176
     1
 90
        0
176
     1
290
     1
176
     1
290
     1
176
     1
290
     0
176
     1
290
     0
176
     1
290
     0
176
     1
290
     0
176
     1
290
     0
176
     1
290
     0
176
     1
290
     0
176
     1
 90
       50
176
     1
 40
0.0
176
     1
 40
1.0
176
     1
 90
        0
176
     1
 62
    18
420
        0
176
     1
 90
       50
176
     1
 90
        3
176
     1
 62
     5
420
      255
176
     1
290
     0
176
     1
 90
       50
176
     1
 90
       50
176
     1
 90
       50
176
     1
290
     0
176
     1
 90
       50
176
     1
 62
   256
176
     0
 40
1.0
176
     0
 90
        2
176
     1
  1
strokes_ogs.tif
176
     1
290
     0
176
     1
 40
1.0
176
     1
 40
1.0
176
     1
  0
VISUALSTYLE
  5
32
102
{ACAD_REACTORS
330
2A
102
}
330
2A
100
AcDbVisualStyle
  2
Basic
 70
     7
177
     3
291
     1
 70
    58
 90
        1
176
     1
 90
        0
176
     1
 90
        1
176
     1
 90
        0
176
     1
 40
0.6
176
     1
 40
30.0
176
     1
 62
     7
420
 16777215
176
     1
 90
        0
176
     1
 90
        4
176
     1
 62
     7
176
     1
 62
   257
176
     1
 90
        1
176
     1
 90
        1
176
     1
 40
1.0
176
     1
 90
        8
176
     1
 62
     7
176
     1
 40
1.0
176
     1
 90
        1
176
     1
 90
        6
176
     1
 90
        2
176
     1
 62
     7
176
     1
 90
        5
176
     1
 90
        0
176
     1
 90
        0
176
     1
290
     0
176
     1
 90
        1
176
     1
 40
0.0
176
     1
 90
        0
176
     1
290
     0
176
     1
290
     1
176
     1
290
     1
176
     1
290
     0
176
     1
290
     0
176
     1
290
     0
176
     1
290
     0
176
     1
290
     0
176
     1
290
     0
176
     1
 90
       50
176
     1
 40
0.0
176
     1
 40
1.0
176
     1
 90
        0
176
     1
 62
    18
420
        0
176
     1
 90
       50
176
     1
 90
        3
176
     1
 62
     5
420
      255
176
     1
290
     0
176
     1
 90
       50
176
     1
 90
       50
176
     1
 90
       50
176
     1
290
     0
176
     1
 90
       50
176
     1
 62
   256
176
     0
 40
1.0
176
     0
 90
        2
176
     1
  1
strokes_ogs.tif
176
     1
290
     0
176
     1
 40
1.0
176
     1
 40
1.0
176
     1
  0
VISUALSTYLE
  5
36
102
{ACAD_REACTORS
330
2A
102
}
330
2A
100
AcDbVisualStyle
  2
Brighten
 70
    12
177
     3
291
     1
 70
    58
 90
        2
176
     1
 90
        2
176
     1
 90
        0
176
     1
 90
        0
176
     1
 40
0.6
176
     1
 40
30.0
176
     1
 62
     7
420
 16777215
176
     1
 90
        1
176
     1
 90
        4
176
     1
 62
     7
176
     1
 62
   257
176
     1
 90
        1
176
     1
 90
        1
176
     1
 40
1.0
176
     1
 90
        8
176
     1
 62
     7
176
     1
 40
1.0
176
     1
 90
        1
176
     1
 90
        6
176
     1
 90
        2
176
     1
 62
     7
176
     1
 90
        5
176
     1
 90
        0
176
     1
 90
        0
176
     1
290
     0
176
     1
 90
        1
176
     1
 40
50.0
176
     1
 90
        0
176
     1
290
     0
176
     1
290
     1
176
     1
290
     1
176
     1
290
     0
176
     1
290
     0
176
     1
290
     0
176
     1
290
     0
176
     1
290
     0
176
     1
290
     0
176
     1
 90
       50
176
     1
 40
0.0
176
     1
 40
1.0
176
     1
 90
        0
176
     1
 62
    18
420
        0
176
     1
 90
       50
176
     1
 90
        3
176
     1
 62
     5
420
      255
176
     1
290
     0
176
     1
 90
       50
176
     1
 90
       50
176
     1
 90
       50
176
     1
290
     0
176
     1
 90
       50
176
     1
 62
   256
176
     0
 40
1.0
176
     0
 90
        2
176
     1
  1
strokes_ogs.tif
176
     1
290
     0
176
     1
 40
1.0
176
     1
 40
1.0
176
     1
  0
VISUALSTYLE
  5
3A
102
{ACAD_REACTORS
330
2A
102
}
330
2A
100
AcDbVisualStyle
  2
ColorChange
 70
    16
177
     3
291
     1
 70
    58
 90
        2
176
     1
 90
        2
176
     1
 90
        3
176
     1
 90
        0
176
     1
 40
0.6
176
     1
 40
30.0
176
     1
 62
     8
420
  8421504
176
     1
 90
        1
176
     1
 90
        4
176
     1
 62
     7
176
     1
 62
   257
176
     1
 90
        1
176
     1
 90
        1
176
     1
 40
1.0
176
     1
 90
        8
176
     1
 62
     8
420
  8421504
176
     1
 40
1.0
176
     1
 90
        1
176
     1
 90
        6
176
     1
 90
        2
176
     1
 62
     7
176
     1
 90
        5
176
     1
 90
        0
176
     1
 90
        0
176
     1
290
     0
176
     1
 90
        1
176
     1
 40
0.0
176
     1
 90
        0
176
     1
290
     0
176
     1
290
     1
176
     1
290
     1
176
     1
290
     0
176
     1
290
     0
176
     1
290
     0
176
     1
290
     0
176
     1
290
     0
176
     1
290
     0
176
     1
 90
       50
176
     1
 40
0.0
176
     1
 40
1.0
176
     1
 90
        0
176
     1
 62
    18
420
        0
176
     1
 90
       50
176
     1
 90
        3
176
     1
 62
     5
420
      255
176
     1
290
     0
176
     1
 90
       50
176
     1
 90
       50
176
     1
 90
       50
176
     1
290
     0
176
     1
 90
       50
176
     1
 62
   256
176
     0
 40
1.0
176
     0
 90
        2
176
     1
  1
strokes_ogs.tif
176
     1
290
     0
176
     1
 40
1.0
176
     1
 40
1.0
176
     1
  0
VISUALSTYLE
  5
34
102
{ACAD_REACTORS
330
2A
102
}
330
2A
100
AcDbVisualStyle
  2
Conceptual
 70
     9
177
     3
291
     0
 70
    58
 90
        3
176
     1
 90
        2
176
     1
 90
        0
176
     1
 90
        0
176
     1
 40
0.6
176
     1
 40
30.0
176
     1
 62
     7
420
 16777215
176
     1
 90
        2
176
     1
 90
        2
176
     1
 62
     7
176
     1
 62
   257
176
     1
 90
        1
176
     1
 90
        1
176
     1
 40
179.0
176
     1
 90
        8
176
     1
 62
     7
176
     1
 40
1.0
176
     1
 90
        1
176
     1
 90
        6
176
     1
 90
        2
176
     1
 62
     7
176
     1
 90
        3
176
     1
 90
        0
176
     1
 90
        0
176
     1
290
     0
176
     1
 90
        1
176
     1
 40
0.0
176
     1
 90
        0
176
     1
290
     0
176
     1
290
     1
176
     1
290
     1
176
     1
290
     0
176
     1
290
     0
176
     1
290
     0
176
     1
290
     0
176
     1
290
     0
176
     1
290
     0
176
     1
 90
       50
176
     1
 40
0.0
176
     1
 40
1.0
176
     1
 90
        0
176
     1
 62
    18
420
        0
176
     1
 90
       50
176
     1
 90
        3
176
     1
 62
     5
420
      255
176
     1
290
     0
176
     1
 90
       50
176
     1
 90
       50
176
     1
 90
       50
176
     1
290
     0
176
     1
 90
       50
176
     1
 62
   256
176
     0
 40
1.0
176
     0
 90
        2
176
     1
  1
strokes_ogs.tif
176
     1
290
     0
176
     1
 40
1.0
176
     1
 40
1.0
176
     1
  0
VISUALSTYLE
  5
35
102
{ACAD_REACTORS
330
2A
102
}
330
2A
100
AcDbVisualStyle
  2
Dim
 70
    11
177
     3
291
     1
 70
    58
 90
        2
176
     1
 90
        2
176
     1
 90
        0
176
     1
 90
        0
176
     1
 40
0.6
176
     1
 40
30.0
176
     1
 62
     7
420
 16777215
176
     1
 90
        1
176
     1
 90
        4
176
     1
 62
     7
176
     1
 62
   257
176
     1
 90
        1
176
     1
 90
        1
176
     1
 40
1.0
176
     1
 90
        8
176
     1
 62
     7
176
     1
 40
1.0
176
     1
 90
        1
176
     1
 90
        6
176
     1
 90
        2
176
     1
 62
     7
176
     1
 90
        5
176
     1
 90
        0
176
     1
 90
        0
176
     1
290
     0
176
     1
 90
        1
176
     1
 40
-50.0
176
     1
 90
        0
176
     1
290
     0
176
     1
290
     1
176
     1
290
     1
176
     1
290
     0
176
     1
290
     0
176
     1
290
     0
176
     1
290
     0
176
     1
290
     0
176
     1
290
     0
176
     1
 90
       50
176
     1
 40
0.0
176
     1
 40
1.0
176
     1
 90
        0
176
     1
 62
    18
420
        0
176
     1
 90
       50
176
     1
 90
        3
176
     1
 62
     5
420
      255
176
     1
290
     0
176
     1
 90
       50
176
     1
 90
       50
176
     1
 90
       50
176
     1
290
     0
176
     1
 90
       50
176
     1
 62
   256
176
     0
 40
1.0
176
     0
 90
        2
176
     1
  1
strokes_ogs.tif
176
     1
290
     0
176
     1
 40
1.0
176
     1
 40
1.0
176
     1
  0
VISUALSTYLE
  5
3D
102
{ACAD_REACTORS
330
2A
102
}
330
2A
100
AcDbVisualStyle
  2
EdgeColorOff
 70
    22
177
     3
291
     1
 70
    58
 90
        2
176
     0
 90
        2
176
     0
 90
        0
176
     0
 90
        0
176
     0
 40
0.6
176
     0
 40
30.0
176
     0
 62
     7
420
 16777215
176
     0
 90
        1
176
     0
 90
        4
176
     0
 62
     7
176
     0
 62
   257
176
     0
 90
        1
176
     0
 90
        1
176
     0
 40
1.0
176
     0
 90
        8
176
     2
 62
     7
176
     0
 40
1.0
176
     0
 90
        1
176
     0
 90
        6
176
     0
 90
        2
176
     0
 62
     7
176
     0
 90
        5
176
     0
 90
        0
176
     0
 90
        0
176
     0
290
     0
176
     0
 90
        1
176
     0
 40
0.0
176
     0
 90
        0
176
     0
290
     0
176
     0
290
     1
176
     0
290
     1
176
     0
290
     0
176
     0
290
     0
176
     0
290
     0
176
     0
290
     0
176
     0
290
     0
176
     0
290
     0
176
     0
 90
       50
176
     0
 40
0.0
176
     0
 40
1.0
176
     0
 90
        0
176
     0
 62
    18
420
        0
176
     0
 90
       50
176
     0
 90
        3
176
     0
 62
     5
420
      255
176
     0
290
     0
176
     0
 90
       50
176
     0
 90
       50
176
     0
 90
       50
176
     0
290
     0
176
     0
 90
       50
176
     0
 62
   256
176
     0
 40
1.0
176
     0
 90
        2
176
     0
  1
strokes_ogs.tif
176
     0
290
     0
176
     0
 40
1.0
176
     0
 40
1.0
176
     0
  0
VISUALSTYLE
  5
39
102
{ACAD_REACTORS
330
2A
102
}
330
2A
100
AcDbVisualStyle
  2
Facepattern
 70
    15
177
     3
291
     1
 70
    58
 90
        2
176
     1
 90
        2
176
     1
 90
        0
176
     1
 90
        0
176
     1
 40
0.6
176
     1
 40
30.0
176
     1
 62
     7
420
 16777215
176
     1
 90
        1
176
     1
 90
        4
176
     1
 62
     7
176
     1
 62
   257
176
     1
 90
        1
176
     1
 90
        1
176
     1
 40
1.0
176
     1
 90
        8
176
     1
 62
     7
176
     1
 40
1.0
176
     1
 90
        1
176
     1
 90
        6
176
     1
 90
        2
176
     1
 62
     7
176
     1
 90
        5
176
     1
 90
        0
176
     1
 90
        0
176
     1
290
     0
176
     1
 90
        1
176
     1
 40
0.0
176
     1
 90
        0
176
     1
290
     0
176
     1
290
     1
176
     1
290
     1
176
     1
290
     0
176
     1
290
     0
176
     1
290
     0
176
     1
290
     0
176
     1
290
     0
176
     1
290
     0
176
     1
 90
       50
176
     1
 40
0.0
176
     1
 40
1.0
176
     1
 90
        0
176
     1
 62
    18
420
        0
176
     1
 90
       50
176
     1
 90
        3
176
     1
 62
     5
420
      255
176
     1
290
     0
176
     1
 90
       50
176
     1
 90
       50
176
     1
 90
       50
176
     1
290
     0
176
     1
 90
       50
176
     1
 62
   256
176
     0
 40
1.0
176
     0
 90
        2
176
     1
  1
strokes_ogs.tif
176
     1
290
     0
176
     1
 40
1.0
176
     1
 40
1.0
176
     1
  0
VISUALSTYLE
  5
2B
102
{ACAD_REACTORS
330
2A
102
}
330
2A
100
AcDbVisualStyle
  2
Flat
 70
     0
177
     3
291
     1
 70
    58
 90
        2
176
     1
 90
        1
176
     1
 90
        1
176
     1
 90
        2
176
     1
 40
0.6
176
     1
 40
30.0
176
     1
 62
     7
420
 16777215
176
     1
 90
        0
176
     1
 90
        0
176
     1
 62
     7
176
     1
 62
   257
176
     1
 90
        1
176
     1
 90
        1
176
     1
 40
1.0
176
     1
 90
        8
176
     1
 62
     7
176
     1
 40
1.0
176
     1
 90
        1
176
     1
 90
        6
176
     1
 90
        2
176
     1
 62
     7
176
     1
 90
        5
176
     1
 90
        0
176
     1
 90
        0
176
     1
290
     0
176
     1
 90
       13
176
     1
 40
0.0
176
     1
 90
        0
176
     1
290
     0
176
     1
290
     1
176
     1
290
     1
176
     1
290
     0
176
     1
290
     0
176
     1
290
     0
176
     1
290
     0
176
     1
290
     0
176
     1
290
     0
176
     1
 90
       50
176
     1
 40
0.0
176
     1
 40
1.0
176
     1
 90
        0
176
     1
 62
    18
420
        0
176
     1
 90
       50
176
     1
 90
        3
176
     1
 62
     5
420
      255
176
     1
290
     0
176
     1
 90
       50
176
     1
 90
       50
176
     1
 90
       50
176
     1
290
     0
176
     1
 90
       50
176
     1
 62
   256
176
     0
 40
1.0
176
     0
 90
        2
176
     1
  1
strokes_ogs.tif
176
     1
290
     0
176
     1
 40
1.0
176
     1
 40
1.0
176
     1
  0
VISUALSTYLE
  5
2C
102
{ACAD_REACTORS
330
2A
102
}
330
2A
100
AcDbVisualStyle
  2
FlatWithEdges
 70
     1
177
     3
291
     1
 70
    58
 90
        2
176
     1
 90
        1
176
     1
 90
        1
176
     1
 90
        2
176
     1
 40
0.6
176
     1
 40
30.0
176
     1
 62
     7
420
 16777215
176
     1
 90
        1
176
     1
 90
        0
176
     1
 62
     7
176
     1
 62
   257
176
     1
 90
        1
176
     1
 90
        1
176
     1
 40
1.0
176
     1
 90
        0
176
     1
 62
   257
176
     1
 40
1.0
176
     1
 90
        1
176
     1
 90
        6
176
     1
 90
        2
176
     1
 62
     7
176
     1
 90
        5
176
     1
 90
        0
176
     1
 90
        0
176
     1
290
     0
176
     1
 90
       13
176
     1
 40
0.0
176
     1
 90
        0
176
     1
290
     0
176
     1
290
     1
176
     1
290
     1
176
     1
290
     0
176
     1
290
     0
176
     1
290
     0
176
     1
290
     0
176
     1
290
     0
176
     1
290
     0
176
     1
 90
       50
176
     1
 40
0.0
176
     1
 40
1.0
176
     1
 90
        0
176
     1
 62
    18
420
        0
176
     1
 90
       50
176
     1
 90
        3
176
     1
 62
     5
420
      255
176
     1
290
     0
176
     1
 90
       50
176
     1
 90
       50
176
     1
 90
       50
176
     1
290
     0
176
     1
 90
       50
176
     1
 62
   256
176
     0
 40
1.0
176
     0
 90
        2
176
     1
  1
strokes_ogs.tif
176
     1
290
     0
176
     1
 40
1.0
176
     1
 40
1.0
176
     1
  0
VISUALSTYLE
  5
2D
102
{ACAD_REACTORS
330
2A
102
}
330
2A
100
AcDbVisualStyle
  2
Gouraud
 70
     2
177
     3
291
     1
 70
    58
 90
        2
176
     1
 90
        2
176
     1
 90
        1
176
     1
 90
        2
176
     1
 40
0.6
176
     1
 40
30.0
176
     1
 62
     7
420
 16777215
176
     1
 90
        0
176
     1
 90
        0
176
     1
 62
     7
176
     1
 62
   257
176
     1
 90
        1
176
     1
 90
        1
176
     1
 40
1.0
176
     1
 90
        0
176
     1
 62
     7
176
     1
 40
1.0
176
     1
 90
        1
176
     1
 90
        6
176
     1
 90
        2
176
     1
 62
     7
176
     1
 90
        5
176
     1
 90
        0
176
     1
 90
        0
176
     1
290
     0
176
     1
 90
       13
176
     1
 40
0.0
176
     1
 90
        0
176
     1
290
     0
176
     1
290
     1
176
     1
290
     1
176
     1
290
     0
176
     1
290
     0
176
     1
290
     0
176
     1
290
     0
176
     1
290
     0
176
     1
290
     0
176
     1
 90
       50
176
     1
 40
0.0
176
     1
 40
1.0
176
     1
 90
        0
176
     1
 62
    18
420
        0
176
     1
 90
       50
176
     1
 90
        3
176
     1
 62
     5
420
      255
176
     1
290
     0
176
     1
 90
       50
176
     1
 90
       50
176
     1
 90
       50
176
     1
290
     0
176
     1
 90
       50
176
     1
 62
   256
176
     0
 40
1.0
176
     0
 90
        2
176
     1
  1
strokes_ogs.tif
176
     1
290
     0
176
     1
 40
1.0
176
     1
 40
1.0
176
     1
  0
VISUALSTYLE
  5
2E
102
{ACAD_REACTORS
330
2A
102
}
330
2A
100
AcDbVisualStyle
  2
GouraudWithEdges
 70
     3
177
     3
291
     1
 70
    58
 90
        2
176
     1
 90
        2
176
     1
 90
        1
176
     1
 90
        2
176
     1
 40
0.6
176
     1
 40
30.0
176
     1
 62
     7
420
 16777215
176
     1
 90
        1
176
     1
 90
        0
176
     1
 62
     7
176
     1
 62
   257
176
     1
 90
        1
176
     1
 90
        1
176
     1
 40
1.0
176
     1
 90
        0
176
     1
 62
   257
176
     1
 40
1.0
176
     1
 90
        1
176
     1
 90
        6
176
     1
 90
        2
176
     1
 62
     7
176
     1
 90
        5
176
     1
 90
        0
176
     1
 90
        0
176
     1
290
     0
176
     1
 90
       13
176
     1
 40
0.0
176
     1
 90
        0
176
     1
290
     0
176
     1
290
     1
176
     1
290
     1
176
     1
290
     0
176
     1
290
     0
176
     1
290
     0
176
     1
290
     0
176
     1
290
     0
176
     1
290
     0
176
     1
 90
       50
176
     1
 40
0.0
176
     1
 40
1.0
176
     1
 90
        0
176
     1
 62
    18
420
        0
176
     1
 90
       50
176
     1
 90
        3
176
     1
 62
     5
420
      255
176
     1
290
     0
176
     1
 90
       50
176
     1
 90
       50
176
     1
 90
       50
176
     1
290
     0
176
     1
 90
       50
176
     1
 62
   256
176
     0
 40
1.0
176
     0
 90
        2
176
     1
  1
strokes_ogs.tif
176
     1
290
     0
176
     1
 40
1.0
176
     1
 40
1.0
176
     1
  0
VISUALSTYLE
  5
31
102
{ACAD_REACTORS
330
2A
102
}
330
2A
100
AcDbVisualStyle
  2
Hidden
 70
     6
177
     3
291
     0
 70
    58
 90
        1
176
     1
 90
        2
176
     1
 90
        2
176
     1
 90
        0
176
     1
 40
0.6
176
     1
 40
30.0
176
     1
 62
     7
420
 16777215
176
     1
 90
        2
176
     1
 90
        2
176
     1
 62
     7
176
     1
 62
   257
176
     1
 90
        2
176
     1
 90
        1
176
     1
 40
40.0
176
     1
 90
        0
176
     1
 62
   257
176
     1
 40
1.0
176
     1
 90
        1
176
     1
 90
        6
176
     1
 90
        2
176
     1
 62
     7
176
     1
 90
        3
176
     1
 90
        0
176
     1
 90
        0
176
     1
290
     0
176
     1
 90
        1
176
     1
 40
0.0
176
     1
 90
        0
176
     1
290
     0
176
     1
290
     1
176
     1
290
     1
176
     1
290
     0
176
     1
290
     0
176
     1
290
     0
176
     1
290
     0
176
     1
290
     0
176
     1
290
     0
176
     1
 90
       50
176
     1
 40
0.0
176
     1
 40
1.0
176
     1
 90
        0
176
     1
 62
    18
420
        0
176
     1
 90
       50
176
     1
 90
        3
176
     1
 62
     5
420
      255
176
     1
290
     0
176
     1
 90
       50
176
     1
 90
       50
176
     1
 90
       50
176
     1
290
     0
176
     1
 90
       50
176
     1
 62
   256
176
     0
 40
1.0
176
     0
 90
        2
176
     1
  1
strokes_ogs.tif
176
     1
290
     0
176
     1
 40
1.0
176
     1
 40
1.0
176
     1
  0
VISUALSTYLE
  5
3B
102
{ACAD_REACTORS
330
2A
102
}
330
2A
100
AcDbVisualStyle
  2
JitterOff
 70
    20
177
     3
291
     1
 70
    58
 90
        2
176
     0
 90
        2
176
     0
 90
        0
176
     0
 90
        0
176
     0
 40
0.6
176
     0
 40
30.0
176
     0
 62
     7
420
 16777215
176
     0
 90
        1
176
     0
 90
        4
176
     0
 62
     7
176
     0
 62
   257
176
     0
 90
        1
176
     0
 90
        1
176
     0
 40
1.0
176
     0
 90
       10
176
     2
 62
     7
176
     0
 40
1.0
176
     0
 90
        1
176
     0
 90
        6
176
     0
 90
        2
176
     0
 62
     7
176
     0
 90
        5
176
     0
 90
        0
176
     0
 90
        0
176
     0
290
     0
176
     0
 90
        1
176
     0
 40
0.0
176
     0
 90
        0
176
     0
290
     0
176
     0
290
     1
176
     0
290
     1
176
     0
290
     0
176
     0
290
     0
176
     0
290
     0
176
     0
290
     0
176
     0
290
     0
176
     0
290
     0
176
     0
 90
       50
176
     0
 40
0.0
176
     0
 40
1.0
176
     0
 90
        0
176
     0
 62
    18
420
        0
176
     0
 90
       50
176
     0
 90
        3
176
     0
 62
     5
420
      255
176
     0
290
     0
176
     0
 90
       50
176
     0
 90
       50
176
     0
 90
       50
176
     0
290
     0
176
     0
 90
       50
176
     0
 62
   256
176
     0
 40
1.0
176
     0
 90
        2
176
     0
  1
strokes_ogs.tif
176
     0
290
     0
176
     0
 40
1.0
176
     0
 40
1.0
176
     0
  0
VISUALSTYLE
  5
38
102
{ACAD_REACTORS
330
2A
102
}
330
2A
100
AcDbVisualStyle
  2
Linepattern
 70
    14
177
     3
291
     1
 70
    58
 90
        2
176
     1
 90
        2
176
     1
 90
        0
176
     1
 90
        0
176
     1
 40
0.6
176
     1
 40
30.0
176
     1
 62
     7
420
 16777215
176
     1
 90
        1
176
     1
 90
        4
176
     1
 62
     7
176
     1
 62
   257
176
     1
 90
        7
176
     1
 90
        7
176
     1
 40
1.0
176
     1
 90
        8
176
     1
 62
     7
176
     1
 40
1.0
176
     1
 90
        1
176
     1
 90
        6
176
     1
 90
        2
176
     1
 62
     7
176
     1
 90
        5
176
     1
 90
        0
176
     1
 90
        0
176
     1
290
     0
176
     1
 90
        1
176
     1
 40
0.0
176
     1
 90
        0
176
     1
290
     0
176
     1
290
     1
176
     1
290
     1
176
     1
290
     0
176
     1
290
     0
176
     1
290
     0
176
     1
290
     0
176
     1
290
     0
176
     1
290
     0
176
     1
 90
       50
176
     1
 40
0.0
176
     1
 40
1.0
176
     1
 90
        0
176
     1
 62
    18
420
        0
176
     1
 90
       50
176
     1
 90
        3
176
     1
 62
     5
420
      255
176
     1
290
     0
176
     1
 90
       50
176
     1
 90
       50
176
     1
 90
       50
176
     1
290
     0
176
     1
 90
       50
176
     1
 62
   256
176
     0
 40
1.0
176
     0
 90
        2
176
     1
  1
strokes_ogs.tif
176
     1
290
     0
176
     1
 40
1.0
176
     1
 40
1.0
176
     1
  0
VISUALSTYLE
  5
3C
102
{ACAD_REACTORS
330
2A
102
}
330
2A
100
AcDbVisualStyle
  2
OverhangOff
 70
    21
177
     3
291
     1
 70
    58
 90
        2
176
     0
 90
        2
176
     0
 90
        0
176
     0
 90
        0
176
     0
 40
0.6
176
     0
 40
30.0
176
     0
 62
     7
420
 16777215
176
     0
 90
        1
176
     0
 90
        4
176
     0
 62
     7
176
     0
 62
   257
176
     0
 90
        1
176
     0
 90
        1
176
     0
 40
1.0
176
     0
 90
        9
176
     2
 62
     7
176
     0
 40
1.0
176
     0
 90
        1
176
     0
 90
        6
176
     0
 90
        2
176
     0
 62
     7
176
     0
 90
        5
176
     0
 90
        0
176
     0
 90
        0
176
     0
290
     0
176
     0
 90
        1
176
     0
 40
0.0
176
     0
 90
        0
176
     0
290
     0
176
     0
290
     1
176
     0
290
     1
176
     0
290
     0
176
     0
290
     0
176
     0
290
     0
176
     0
290
     0
176
     0
290
     0
176
     0
290
     0
176
     0
 90
       50
176
     0
 40
0.0
176
     0
 40
1.0
176
     0
 90
        0
176
     0
 62
    18
420
        0
176
     0
 90
       50
176
     0
 90
        3
176
     0
 62
     5
420
      255
176
     0
290
     0
176
     0
 90
       50
176
     0
 90
       50
176
     0
 90
       50
176
     0
290
     0
176
     0
 90
       50
176
     0
 62
   256
176
     0
 40
1.0
176
     0
 90
        2
176
     0
  1
strokes_ogs.tif
176
     0
290
     0
176
     0
 40
1.0
176
     0
 40
1.0
176
     0
  0
VISUALSTYLE
  5
33
102
{ACAD_REACTORS
330
2A
102
}
330
2A
100
AcDbVisualStyle
  2
Realistic
 70
     8
177
     3
291
     0
 70
    58
 90
        2
176
     1
 90
        3
176
     1
 90
        0
176
     1
 90
        2
176
     1
 40
0.6
176
     1
 40
30.0
176
     1
 62
     7
420
 16777215
176
     1
 90
        0
176
     1
 90
        0
176
     1
 62
     7
176
     1
 62
   257
176
     1
 90
        1
176
     1
 90
        1
176
     1
 40
1.0
176
     1
 90
        8
176
     1
 62
   257
176
     1
 40
1.0
176
     1
 90
        1
176
     1
 90
        6
176
     1
 90
        2
176
     1
 62
     7
176
     1
 90
        3
176
     1
 90
        0
176
     1
 90
        0
176
     1
290
     0
176
     1
 90
       13
176
     1
 40
0.0
176
     1
 90
        0
176
     1
290
     0
176
     1
290
     1
176
     1
290
     1
176
     1
290
     0
176
     1
290
     0
176
     1
290
     0
176
     1
290
     0
176
     1
290
     0
176
     1
290
     0
176
     1
 90
       50
176
     1
 40
0.0
176
     1
 40
1.0
176
     1
 90
        0
176
     1
 62
    18
420
        0
176
     1
 90
       50
176
     1
 90
        3
176
     1
 62
     5
420
      255
176
     1
290
     0
176
     1
 90
       50
176
     1
 90
       50
176
     1
 90
       50
176
     1
290
     0
176
     1
 90
       50
176
     1
 62
   256
176
     0
 40
1.0
176
     0
 90
        2
176
     1
  1
strokes_ogs.tif
176
     1
290
     0
176
     1
 40
1.0
176
     1
 40
1.0
176
     1
  0
VISUALSTYLE
  5
42
102
{ACAD_REACTORS
330
2A
102
}
330
2A
100
AcDbVisualStyle
  2
Shaded
 70
    27
177
     3
291
     0
 70
    58
 90
        2
176
     1
 90
        2
176
     1
 90
        1
176
     1
 90
        2
176
     1
 40
0.6
176
     1
 40
30.0
176
     1
 62
     7
420
 16777215
176
     1
 90
        0
176
     1
 90
        4
176
     1
 62
     7
176
     1
 62
   257
176
     1
 90
        1
176
     1
 90
        1
176
     1
 40
1.0
176
     1
 90
        8
176
     1
 62
   257
176
     1
 40
1.0
176
     1
 90
        1
176
     1
 90
        6
176
     1
 90
        2
176
     1
 62
     8
420
  7895160
176
     1
 90
        3
176
     1
 90
        0
176
     1
 90
        0
176
     1
290
     0
176
     1
 90
        5
176
     1
 40
0.0
176
     1
 90
        0
176
     1
290
     0
176
     1
290
     1
176
     1
290
     1
176
     1
290
     0
176
     1
290
     0
176
     1
290
     0
176
     1
290
     0
176
     1
290
     0
176
     1
290
     0
176
     1
 90
       50
176
     1
 40
0.0
176
     1
 40
1.0
176
     1
 90
        0
176
     1
 62
    18
420
        0
176
     1
 90
       50
176
     1
 90
        3
176
     1
 62
     5
420
      255
176
     1
290
     0
176
     1
 90
       50
176
     1
 90
       50
176
     1
 90
       50
176
     1
290
     0
176
     1
 90
       50
176
     1
 62
   256
176
     0
 40
1.0
176
     0
 90
        2
176
     1
  1
strokes_ogs.tif
176
     1
290
     0
176
     1
 40
1.0
176
     1
 40
1.0
176
     1
  0
VISUALSTYLE
  5
41
102
{ACAD_REACTORS
330
2A
102
}
330
2A
100
AcDbVisualStyle
  2
Shaded with edges
 70
    26
177
     3
291
     0
 70
    58
 90
        2
176
     1
 90
        2
176
     1
 90
        1
176
     1
 90
        2
176
     1
 40
0.6
176
     1
 40
30.0
176
     1
 62
     7
420
 16777215
176
     1
 90
        1
176
     1
 90
       10
176
     1
 62
     7
176
     1
 62
   257
176
     1
 90
        2
176
     1
 90
        1
176
     1
 40
1.0
176
     1
 90
        8
176
     1
 62
   257
176
     1
 40
1.0
176
     1
 90
        1
176
     1
 90
        6
176
     1
 90
        2
176
     1
 62
     7
176
     1
 90
        3
176
     1
 90
        0
176
     1
 90
        0
176
     1
290
     0
176
     1
 90
        5
176
     1
 40
0.0
176
     1
 90
        0
176
     1
290
     0
176
     1
290
     1
176
     1
290
     1
176
     1
290
     0
176
     1
290
     0
176
     1
290
     0
176
     1
290
     0
176
     1
290
     0
176
     1
290
     0
176
     1
 90
       50
176
     1
 40
0.0
176
     1
 40
1.0
176
     1
 90
        0
176
     1
 62
    18
420
        0
176
     1
 90
       50
176
     1
 90
        3
176
     1
 62
     5
420
      255
176
     1
290
     0
176
     1
 90
       50
176
     1
 90
       50
176
     1
 90
       50
176
     1
290
     0
176
     1
 90
       50
176
     1
 62
   256
176
     0
 40
1.0
176
     0
 90
        2
176
     1
  1
strokes_ogs.tif
176
     1
290
     0
176
     1
 40
1.0
176
     1
 40
1.0
176
     1
  0
VISUALSTYLE
  5
3E
102
{ACAD_REACTORS
330
2A
102
}
330
2A
100
AcDbVisualStyle
  2
Shades of Gray
 70
    23
177
     3
291
     0
 70
    58
 90
        2
176
     1
 90
        2
176
     1
 90
        3
176
     1
 90
        0
176
     1
 40
0.6
176
     1
 40
30.0
176
     1
 62
     7
420
 16777215
176
     1
 90
        2
176
     1
 90
        2
176
     1
 62
     7
176
     1
 62
     7
176
     1
 90
        1
176
     1
 90
        1
176
     1
 40
40.0
176
     1
 90
        8
176
     1
 62
     7
176
     1
 40
1.0
176
     1
 90
        1
176
     1
 90
        6
176
     1
 90
        2
176
     1
 62
     7
176
     1
 90
        3
176
     1
 90
        0
176
     1
 90
        0
176
     1
290
     0
176
     1
 90
        1
176
     1
 40
0.0
176
     1
 90
        0
176
     1
290
     0
176
     1
290
     1
176
     1
290
     1
176
     1
290
     0
176
     1
290
     0
176
     1
290
     0
176
     1
290
     0
176
     1
290
     0
176
     1
290
     0
176
     1
 90
       50
176
     1
 40
0.0
176
     1
 40
1.0
176
     1
 90
        0
176
     1
 62
    18
420
        0
176
     1
 90
       50
176
     1
 90
        3
176
     1
 62
     5
420
      255
176
     1
290
     0
176
     1
 90
       50
176
     1
 90
       50
176
     1
 90
       50
176
     1
290
     0
176
     1
 90
       50
176
     1
 62
   256
176
     0
 40
1.0
176
     0
 90
        2
176
     1
  1
strokes_ogs.tif
176
     1
290
     0
176
     1
 40
1.0
176
     1
 40
1.0
176
     1
  0
VISUALSTYLE
  5
3F
102
{ACAD_REACTORS
330
2A
102
}
330
2A
100
AcDbVisualStyle
  2
Sketchy
 70
    24
177
     3
291
     0
 70
    58
 90
        1
176
     1
 90
        2
176
     1
 90
        2
176
     1
 90
        0
176
     1
 40
0.6
176
     1
 40
30.0
176
     1
 62
     7
420
 16777215
176
     1
 90
        2
176
     1
 90
        2
176
     1
 62
     7
176
     1
 62
     7
176
     1
 90
        1
176
     1
 90
        1
176
     1
 40
40.0
176
     1
 90
       11
176
     1
 62
     7
176
     1
 40
1.0
176
     1
 90
        1
176
     1
 90
        6
176
     1
 90
        2
176
     1
 62
     7
176
     1
 90
        6
176
     1
 90
        0
176
     1
 90
        0
176
     1
290
     0
176
     1
 90
        1
176
     1
 40
0.0
176
     1
 90
        0
176
     1
290
     0
176
     1
290
     1
176
     1
290
     1
176
     1
290
     0
176
     1
290
     0
176
     1
290
     0
176
     1
290
     0
176
     1
290
     0
176
     1
290
     0
176
     1
 90
       50
176
     1
 40
0.0
176
     1
 40
1.0
176
     1
 90
        0
176
     1
 62
    18
420
        0
176
     1
 90
       50
176
     1
 90
        3
176
     1
 62
     5
420
      255
176
     1
290
     0
176
     1
 90
       50
176
     1
 90
       50
176
     1
 90
       50
176
     1
290
     0
176
     1
 90
       50
176
     1
 62
   256
176
     0
 40
1.0
176
     0
 90
        2
176
     1
  1
strokes_ogs.tif
176
     1
290
     0
176
     1
 40
1.0
176
     1
 40
1.0
176
     1
  0
VISUALSTYLE
  5
37
102
{ACAD_REACTORS
330
2A
102
}
330
2A
100
AcDbVisualStyle
  2
Thicken
 70
    13
177
     3
291
     1
 70
    58
 90
        2
176
     1
 90
        2
176
     1
 90
        0
176
     1
 90
        0
176
     1
 40
0.6
176
     1
 40
30.0
176
     1
 62
     7
420
 16777215
176
     1
 90
        1
176
     1
 90
        4
176
     1
 62
     7
176
     1
 62
   257
176
     1
 90
        1
176
     1
 90
        1
176
     1
 40
1.0
176
     1
 90
       12
176
     1
 62
     7
176
     1
 40
1.0
176
     1
 90
        1
176
     1
 90
        6
176
     1
 90
        2
176
     1
 62
     7
176
     1
 90
        5
176
     1
 90
        0
176
     1
 90
        0
176
     1
290
     0
176
     1
 90
        1
176
     1
 40
0.0
176
     1
 90
        0
176
     1
290
     0
176
     1
290
     1
176
     1
290
     1
176
     1
290
     0
176
     1
290
     0
176
     1
290
     0
176
     1
290
     0
176
     1
290
     0
176
     1
290
     0
176
     1
 90
       50
176
     1
 40
0.0
176
     1
 40
1.0
176
     1
 90
        0
176
     1
 62
    18
420
        0
176
     1
 90
       50
176
     1
 90
        3
176
     1
 62
     5
420
      255
176
     1
290
     0
176
     1
 90
       50
176
     1
 90
       50
176
     1
 90
       50
176
     1
290
     0
176
     1
 90
       50
176
     1
 62
   256
176
     0
 40
1.0
176
     0
 90
        2
176
     1
  1
strokes_ogs.tif
176
     1
290
     0
176
     1
 40
1.0
176
     1
 40
1.0
176
     1
  0
VISUALSTYLE
  5
30
102
{ACAD_REACTORS
330
2A
102
}
330
2A
100
AcDbVisualStyle
  2
Wireframe
 70
     5
177
     3
291
     0
 70
    58
 90
        0
176
     1
 90
        2
176
     1
 90
        0
176
     1
 90
        0
176
     1
 40
0.6
176
     1
 40
30.0
176
     1
 62
     7
420
 16777215
176
     1
 90
        1
176
     1
 90
        4
176
     1
 62
     7
176
     1
 62
   257
176
     1
 90
        1
176
     1
 90
        1
176
     1
 40
1.0
176
     1
 90
        0
176
     1
 62
   257
176
     1
 40
1.0
176
     1
 90
        1
176
     1
 90
        6
176
     1
 90
        2
176
     1
 62
     7
176
     1
 90
        3
176
     1
 90
        0
176
     1
 90
        0
176
     1
290
     0
176
     1
 90
        1
176
     1
 40
0.0
176
     1
 90
        0
176
     1
290
     0
176
     1
290
     1
176
     1
290
     1
176
     1
290
     0
176
     1
290
     0
176
     1
290
     0
176
     1
290
     0
176
     1
290
     0
176
     1
290
     0
176
     1
 90
       50
176
     1
 40
0.0
176
     1
 40
1.0
176
     1
 90
        0
176
     1
 62
    18
420
        0
176
     1
 90
       50
176
     1
 90
        3
176
     1
 62
     5
420
      255
176
     1
290
     0
176
     1
 90
       50
176
     1
 90
       50
176
     1
 90
       50
176
     1
290
     0
176
     1
 90
       50
176
     1
 62
   256
176
     0
 40
1.0
176
     0
 90
        2
176
     1
  1
strokes_ogs.tif
176
     1
290
     0
176
     1
 40
1.0
176
     1
 40
1.0
176
     1
  0
VISUALSTYLE
  5
40
102
{ACAD_REACTORS
330
2A
102
}
330
2A
100
AcDbVisualStyle
  2
X-Ray
 70
    25
177
     3
291
     0
 70
    58
 90
        2
176
     1
 90
        2
176
     1
 90
        1
176
     1
 90
        1
176
     1
 40
0.5
176
     1
 40
30.0
176
     1
 62
     7
420
 16777215
176
     1
 90
        1
176
     1
 90
        0
176
     1
 62
     7
176
     1
 62
   257
176
     1
 90
        1
176
     1
 90
        1
176
     1
 40
1.0
176
     1
 90
        8
176
     1
 62
     7
176
     1
 40
1.0
176
     1
 90
        1
176
     1
 90
        6
176
     1
 90
        2
176
     1
 62
     7
176
     1
 90
        3
176
     1
 90
        0
176
     1
 90
        0
176
     1
290
     0
176
     1
 90
       13
176
     1
 40
0.0
176
     1
 90
        0
176
     1
290
     0
176
     1
290
     1
176
     1
290
     1
176
     1
290
     0
176
     1
290
     0
176
     1
290
     0
176
     1
290
     0
176
     1
290
     0
176
     1
290
     0
176
     1
 90
       50
176
     1
 40
0.0
176
     1
 40
1.0
176
     1
 90
        0
176
     1
 62
    18
420
        0
176
     1
 90
       50
176
     1
 90
        3
176
     1
 62
     5
420
      255
176
     1
290
     0
176
     1
 90
       50
176
     1
 90
       50
176
     1
 90
       50
176
     1
290
     0
176
     1
 90
       50
176
     1
 62
   256
176
     0
 40
1.0
176
     0
 90
        2
176
     1
  1
strokes_ogs.tif
176
     1
290
     0
176
     1
 40
1.0
176
     1
 40
1.0
176
     1
  0
DICTIONARYVAR
  5
1F2
102
{ACAD_REACTORS
330
1F1
102
}
330
1F1
100
DictionaryVariables
280
     0
  1
1:1
  0
DICTIONARYVAR
  5
1F7
102
{ACAD_REACTORS
330
1F1
102
}
330
1F1
100
DictionaryVariables
280
     0
  1
Standard
  0
DICTIONARYVAR
  5
1F6
102
{ACAD_REACTORS
330
1F1
102
}
330
1F1
100
DictionaryVariables
280
     0
  1
Standard
  0
DICTIONARY
  5
1F3
330
6A
100
AcDbDictionary
280
     1
281
     1
  3
ACAD_ROUNDTRIP_2008_TABLESTYLE_CELLSTYLEMAP
360
1F4
  0
CELLSTYLEMAP
  5
1F4
102
{ACAD_REACTORS
330
1F3
102
}
330
1F3
100
AcDbCellStyleMap
 90
        3
300
CELLSTYLE
  1
TABLEFORMAT_BEGIN
 90
        5
170
     1
 91
        0
 92
    32768
 62
   257
 93
        1
300
CONTENTFORMAT
  1
CONTENTFORMAT_BEGIN
 90
        0
 91
        0
 92
        4
 93
        0
300

 40
0.0
140
1.0
 94
        5
 62
     0
340
11
144
0.25
309
CONTENTFORMAT_END
171
     1
301
MARGIN
  1
CELLMARGIN_BEGIN
 40
0.06
 40
0.06
 40
0.06
 40
0.06
 40
0.06
 40
0.06
309
CELLMARGIN_END
 94
        6
 95
        1
302
GRIDFORMAT
  1
GRIDFORMAT_BEGIN
 90
        0
 91
        1
 62
     0
 92
       -2
340
14
 93
        0
 40
0.045
309
GRIDFORMAT_END
 95
        2
302
GRIDFORMAT
  1
GRIDFORMAT_BEGIN
 90
        0
 91
        1
 62
     0
 92
       -2
340
14
 93
        0
 40
0.045
309
GRIDFORMAT_END
 95
        4
302
GRIDFORMAT
  1
GRIDFORMAT_BEGIN
 90
        0
 91
        1
 62
     0
 92
       -2
340
14
 93
        0
 40
0.045
309
GRIDFORMAT_END
 95
        8
302
GRIDFORMAT
  1
GRIDFORMAT_BEGIN
 90
        0
 91
        1
 62
     0
 92
       -2
340
14
 93
        0
 40
0.045
309
GRIDFORMAT_END
 95
       16
302
GRIDFORMAT
  1
GRIDFORMAT_BEGIN
 90
        0
 91
        1
 62
     0
 92
       -2
340
14
 93
        0
 40
0.045
309
GRIDFORMAT_END
 95
       32
302
GRIDFORMAT
  1
GRIDFORMAT_BEGIN
 90
        0
 91
        1
 62
     0
 92
       -2
340
14
 93
        0
 40
0.045
309
GRIDFORMAT_END
309
TABLEFORMAT_END
  1
CELLSTYLE_BEGIN
 90
        1
 91
        1
300
_TITLE
309
CELLSTYLE_END
300
CELLSTYLE
  1
TABLEFORMAT_BEGIN
 90
        5
170
     1
 91
        0
 92
        0
 62
   257
 93
        1
300
CONTENTFORMAT
  1
CONTENTFORMAT_BEGIN
 90
        0
 91
        0
 92
        4
 93
        0
300

 40
0.0
140
1.0
 94
        5
 62
     0
340
11
144
0.18
309
CONTENTFORMAT_END
171
     1
301
MARGIN
  1
CELLMARGIN_BEGIN
 40
0.06
 40
0.06
 40
0.06
 40
0.06
 40
0.06
 40
0.06
309
CELLMARGIN_END
 94
        6
 95
        1
302
GRIDFORMAT
  1
GRIDFORMAT_BEGIN
 90
        0
 91
        1
 62
     0
 92
       -2
340
14
 93
        0
 40
0.045
309
GRIDFORMAT_END
 95
        2
302
GRIDFORMAT
  1
GRIDFORMAT_BEGIN
 90
        0
 91
        1
 62
     0
 92
       -2
340
14
 93
        0
 40
0.045
309
GRIDFORMAT_END
 95
        4
302
GRIDFORMAT
  1
GRIDFORMAT_BEGIN
 90
        0
 91
        1
 62
     0
 92
       -2
340
14
 93
        0
 40
0.045
309
GRIDFORMAT_END
 95
        8
302
GRIDFORMAT
  1
GRIDFORMAT_BEGIN
 90
        0
 91
        1
 62
     0
 92
       -2
340
14
 93
        0
 40
0.045
309
GRIDFORMAT_END
 95
       16
302
GRIDFORMAT
  1
GRIDFORMAT_BEGIN
 90
        0
 91
        1
 62
     0
 92
       -2
340
14
 93
        0
 40
0.045
309
GRIDFORMAT_END
 95
       32
302
GRIDFORMAT
  1
GRIDFORMAT_BEGIN
 90
        0
 91
        1
 62
     0
 92
       -2
340
14
 93
        0
 40
0.045
309
GRIDFORMAT_END
309
TABLEFORMAT_END
  1
CELLSTYLE_BEGIN
 90
        2
 91
        1
300
_HEADER
309
CELLSTYLE_END
300
CELLSTYLE
  1
TABLEFORMAT_BEGIN
 90
        5
170
     1
 91
        0
 92
        0
 62
   257
 93
        1
300
CONTENTFORMAT
  1
CONTENTFORMAT_BEGIN
 90
        0
 91
        0
 92
        4
 93
        0
300

 40
0.0
140
1.0
 94
        2
 62
     0
340
11
144
0.18
309
CONTENTFORMAT_END
171
     1
301
MARGIN
  1
CELLMARGIN_BEGIN
 40
0.06
 40
0.06
 40
0.06
 40
0.06
 40
0.06
 40
0.06
309
CELLMARGIN_END
 94
        6
 95
        1
302
GRIDFORMAT
  1
GRIDFORMAT_BEGIN
 90
        0
 91
        1
 62
     0
 92
       -2
340
14
 93
        0
 40
0.045
309
GRIDFORMAT_END
 95
        2
302
GRIDFORMAT
  1
GRIDFORMAT_BEGIN
 90
        0
 91
        1
 62
     0
 92
       -2
340
14
 93
        0
 40
0.045
309
GRIDFORMAT_END
 95
        4
302
GRIDFORMAT
  1
GRIDFORMAT_BEGIN
 90
        0
 91
        1
 62
     0
 92
       -2
340
14
 93
        0
 40
0.045
309
GRIDFORMAT_END
 95
        8
302
GRIDFORMAT
  1
GRIDFORMAT_BEGIN
 90
        0
 91
        1
 62
     0
 92
       -2
340
14
 93
        0
 40
0.045
309
GRIDFORMAT_END
 95
       16
302
GRIDFORMAT
  1
GRIDFORMAT_BEGIN
 90
        0
 91
        1
 62
     0
 92
       -2
340
14
 93
        0
 40
0.045
309
GRIDFORMAT_END
 95
       32
302
GRIDFORMAT
  1
GRIDFORMAT_BEGIN
 90
        0
 91
        1
 62
     0
 92
       -2
340
14
 93
        0
 40
0.045
309
GRIDFORMAT_END
309
TABLEFORMAT_END
  1
CELLSTYLE_BEGIN
 90
        3
 91
        2
300
_DATA
309
CELLSTYLE_END
  0
ENDSEC
  0
EOF