0
SECTION
  2
HEADER
  9
$ACADVER
  1
AC1027
  9
$ACADMAINTVER
 70
     8
  9
$DWGCODEPAGE
  3
ANSI_1252
  9
$REQUIREDVERSIONS
160
                 0
  9
$COMMENTS
  1
File was created by Cadenas
  9
$CUSTOMPROPERTYTAG
  1
NN
  9
$CUSTOMPROPERTY
  1
S-2000 Flange Bearing - Square with Type E Dimensions Trident Seal Non-Expansion
  9
$CUSTOMPROPERTYTAG
  1
NT
  9
$CUSTOMPROPERTY
  1
S-2000 - E Type - Inch
  9
$CUSTOMPROPERTYTAG
  1
NB
  9
$CUSTOMPROPERTY
  1
071485
  9
$CUSTOMPROPERTYTAG
  1
NBSYN
  9
$CUSTOMPROPERTY
  1
$PN.
  9
$CUSTOMPROPERTYTAG
  1
LINA
  9
$CUSTOMPROPERTY
  1
071485
  9
$CUSTOMPROPERTYTAG
  1
SS
  9
$CUSTOMPROPERTY
  1
1-15/16
  9
$CUSTOMPROPERTYTAG
  1
TYPE
  9
$CUSTOMPROPERTY
  1
Expansion
  9
$CUSTOMPROPERTYTAG
  1
PN
  9
$CUSTOMPROPERTY
  1
071485
  9
$CUSTOMPROPERTYTAG
  1
DESCRIPTION
  9
$CUSTOMPROPERTY
  1
EF4B-S2-115RE
  9
$CUSTOMPROPERTYTAG
  1
A
  9
$CUSTOMPROPERTY
  1
2.84
  9
$CUSTOMPROPERTYTAG
  1
B
  9
$CUSTOMPROPERTY
  1
5.62
  9
$CUSTOMPROPERTYTAG
  1
C
  9
$CUSTOMPROPERTY
  1
3.63
  9
$CUSTOMPROPERTYTAG
  1
D
  9
$CUSTOMPROPERTY
  1
4.37
  9
$CUSTOMPROPERTYTAG
  1
DD
  9
$CUSTOMPROPERTY
  1
6.187
  9
$CUSTOMPROPERTYTAG
  1
F
  9
$CUSTOMPROPERTY
  1
1/2
  9
$CUSTOMPROPERTYTAG
  1
G
  9
$CUSTOMPROPERTY
  1
0.65
  9
$CUSTOMPROPERTYTAG
  1
H
  9
$CUSTOMPROPERTY
  1
1.18
  9
$CUSTOMPROPERTYTAG
  1
J
  9
$CUSTOMPROPERTY
  1
4.36
  9
$CUSTOMPROPERTYTAG
  1
L
  9
$CUSTOMPROPERTY
  1
3.26
  9
$CUSTOMPROPERTYTAG
  1
N
  9
$CUSTOMPROPERTY
  1
2.6
  9
$CUSTOMPROPERTYTAG
  1
P
  9
$CUSTOMPROPERTY
  1
0.78
  9
$CUSTOMPROPERTYTAG
  1
X
  9
$CUSTOMPROPERTY
  1
0.22
  9
$CUSTOMPROPERTYTAG
  1
Y
  9
$CUSTOMPROPERTY
  1
0.020
  9
$CUSTOMPROPERTYTAG
  1
Z
  9
$CUSTOMPROPERTY
  1
2.3
  9
$CUSTOMPROPERTYTAG
  1
CS
  9
$CUSTOMPROPERTY
  1
3/8-16
  9
$CUSTOMPROPERTYTAG
  1
TORQUE
  9
$CUSTOMPROPERTY
  1
290
  9
$CUSTOMPROPERTYTAG
  1
COMPANY
  9
$CUSTOMPROPERTY
  1
baldor
  9
$INSBASE
 10
0.0
 20
0.0
 30
0.0
  9
$EXTMIN
 10
1.000000000000000E+20
 20
1.000000000000000E+20
 30
1.000000000000000E+20
  9
$EXTMAX
 10
-1.000000000000000E+20
 20
-1.000000000000000E+20
 30
-1.000000000000000E+20
  9
$LIMMIN
 10
0.0
 20
0.0
  9
$LIMMAX
 10
12.0
 20
9.0
  9
$ORTHOMODE
 70
     0
  9
$REGENMODE
 70
     1
  9
$FILLMODE
 70
     1
  9
$QTEXTMODE
 70
     0
  9
$MIRRTEXT
 70
     1
  9
$LTSCALE
 40
1.0
  9
$ATTMODE
 70
     1
  9
$TEXTSIZE
 40
0.2
  9
$TRACEWID
 40
0.05
  9
$TEXTSTYLE
  7
Standard
  9
$CLAYER
  8
0
  9
$CELTYPE
  6
ByLayer
  9
$CECOLOR
 62
   256
  9
$CELTSCALE
 40
1.0
  9
$DISPSILH
 70
     0
  9
$DIMSCALE
 40
1.0
  9
$DIMASZ
 40
0.18
  9
$DIMEXO
 40
0.0625
  9
$DIMDLI
 40
0.38
  9
$DIMRND
 40
0.0
  9
$DIMDLE
 40
0.0
  9
$DIMEXE
 40
0.18
  9
$DIMTP
 40
0.0
  9
$DIMTM
 40
0.0
  9
$DIMTXT
 40
0.18
  9
$DIMCEN
 40
0.09
  9
$DIMTSZ
 40
0.0
  9
$DIMTOL
 70
     0
  9
$DIMLIM
 70
     0
  9
$DIMTIH
 70
     1
  9
$DIMTOH
 70
     1
  9
$DIMSE1
 70
     0
  9
$DIMSE2
 70
     0
  9
$DIMTAD
 70
     0
  9
$DIMZIN
 70
     0
  9
$DIMBLK
  1

  9
$DIMASO
 70
     1
  9
$DIMSHO
 70
     1
  9
$DIMPOST
  1

  9
$DIMAPOST
  1

  9
$DIMALT
 70
     0
  9
$DIMALTD
 70
     2
  9
$DIMALTF
 40
25.4
  9
$DIMLFAC
 40
1.0
  9
$DIMTOFL
 70
     0
  9
$DIMTVP
 40
0.0
  9
$DIMTIX
 70
     0
  9
$DIMSOXD
 70
     0
  9
$DIMSAH
 70
     0
  9
$DIMBLK1
  1

  9
$DIMBLK2
  1

  9
$DIMSTYLE
  2
Standard
  9
$DIMCLRD
 70
     0
  9
$DIMCLRE
 70
     0
  9
$DIMCLRT
 70
     0
  9
$DIMTFAC
 40
1.0
  9
$DIMGAP
 40
0.09
  9
$DIMJUST
 70
     0
  9
$DIMSD1
 70
     0
  9
$DIMSD2
 70
     0
  9
$DIMTOLJ
 70
     1
  9
$DIMTZIN
 70
     0
  9
$DIMALTZ
 70
     0
  9
$DIMALTTZ
 70
     0
  9
$DIMUPT
 70
     0
  9
$DIMDEC
 70
     4
  9
$DIMTDEC
 70
     4
  9
$DIMALTU
 70
     2
  9
$DIMALTTD
 70
     2
  9
$DIMTXSTY
  7
Standard
  9
$DIMAUNIT
 70
     0
  9
$DIMADEC
 70
     0
  9
$DIMALTRND
 40
0.0
  9
$DIMAZIN
 70
     0
  9
$DIMDSEP
 70
    46
  9
$DIMATFIT
 70
     3
  9
$DIMFRAC
 70
     0
  9
$DIMLDRBLK
  1

  9
$DIMLUNIT
 70
     2
  9
$DIMLWD
 70
    -2
  9
$DIMLWE
 70
    -2
  9
$DIMTMOVE
 70
     0
  9
$DIMFXL
 40
1.0
  9
$DIMFXLON
 70
     0
  9
$DIMJOGANG
 40
0.7853981633974483
  9
$DIMTFILL
 70
     0
  9
$DIMTFILLCLR
 70
     0
  9
$DIMARCSYM
 70
     0
  9
$DIMLTYPE
  6

  9
$DIMLTEX1
  6

  9
$DIMLTEX2
  6

  9
$DIMTXTDIRECTION
 70
     0
  9
$LUNITS
 70
     2
  9
$LUPREC
 70
     4
  9
$SKETCHINC
 40
0.1
  9
$FILLETRAD
 40
0.5
  9
$AUNITS
 70
     0
  9
$AUPREC
 70
     0
  9
$MENU
  1
.
  9
$ELEVATION
 40
0.0
  9
$PELEVATION
 40
0.0
  9
$THICKNESS
 40
0.0
  9
$LIMCHECK
 70
     0
  9
$CHAMFERA
 40
0.0
  9
$CHAMFERB
 40
0.0
  9
$CHAMFERC
 40
0.0
  9
$CHAMFERD
 40
0.0
  9
$SKPOLY
 70
     0
  9
$TDCREATE
 40
2458168.981418739
  9
$TDUCREATE
 40
2458168.939752072
  9
$TDUPDATE
 40
2458168.981418739
  9
$TDUUPDATE
 40
2458168.939752072
  9
$TDINDWG
 40
0.0000000116
  9
$TDUSRTIMER
 40
0.0000000116
  9
$USRTIMER
 70
     1
  9
$ANGBASE
 50
0.0
  9
$ANGDIR
 70
     0
  9
$PDMODE
 70
     0
  9
$PDSIZE
 40
0.0
  9
$PLINEWID
 40
0.0
  9
$SPLFRAME
 70
     0
  9
$SPLINETYPE
 70
     6
  9
$SPLINESEGS
 70
     8
  9
$HANDSEED
  5
1F7
  9
$SURFTAB1
 70
     6
  9
$SURFTAB2
 70
     6
  9
$SURFTYPE
 70
     6
  9
$SURFU
 70
     6
  9
$SURFV
 70
     6
  9
$UCSBASE
  2

  9
$UCSNAME
  2

  9
$UCSORG
 10
0.0
 20
0.0
 30
0.0
  9
$UCSXDIR
 10
1.0
 20
0.0
 30
0.0
  9
$UCSYDIR
 10
0.0
 20
1.0
 30
0.0
  9
$UCSORTHOREF
  2

  9
$UCSORTHOVIEW
 70
     0
  9
$UCSORGTOP
 10
0.0
 20
0.0
 30
0.0
  9
$UCSORGBOTTOM
 10
0.0
 20
0.0
 30
0.0
  9
$UCSORGLEFT
 10
0.0
 20
0.0
 30
0.0
  9
$UCSORGRIGHT
 10
0.0
 20
0.0
 30
0.0
  9
$UCSORGFRONT
 10
0.0
 20
0.0
 30
0.0
  9
$UCSORGBACK
 10
0.0
 20
0.0
 30
0.0
  9
$PUCSBASE
  2

  9
$PUCSNAME
  2

  9
$PUCSORG
 10
0.0
 20
0.0
 30
0.0
  9
$PUCSXDIR
 10
1.0
 20
0.0
 30
0.0
  9
$PUCSYDIR
 10
0.0
 20
1.0
 30
0.0
  9
$PUCSORTHOREF
  2

  9
$PUCSORTHOVIEW
 70
     0
  9
$PUCSORGTOP
 10
0.0
 20
0.0
 30
0.0
  9
$PUCSORGBOTTOM
 10
0.0
 20
0.0
 30
0.0
  9
$PUCSORGLEFT
 10
0.0
 20
0.0
 30
0.0
  9
$PUCSORGRIGHT
 10
0.0
 20
0.0
 30
0.0
  9
$PUCSORGFRONT
 10
0.0
 20
0.0
 30
0.0
  9
$PUCSORGBACK
 10
0.0
 20
0.0
 30
0.0
  9
$USERI1
 70
     0
  9
$USERI2
 70
     0
  9
$USERI3
 70
     0
  9
$USERI4
 70
     0
  9
$USERI5
 70
     0
  9
$USERR1
 40
0.0
  9
$USERR2
 40
0.0
  9
$USERR3
 40
0.0
  9
$USERR4
 40
0.0
  9
$USERR5
 40
0.0
  9
$WORLDVIEW
 70
     1
  9
$SHADEDGE
 70
     3
  9
$SHADEDIF
 70
    70
  9
$TILEMODE
 70
     1
  9
$MAXACTVP
 70
    64
  9
$PINSBASE
 10
0.0
 20
0.0
 30
0.0
  9
$PLIMCHECK
 70
     0
  9
$PEXTMIN
 10
1.000000000000000E+20
 20
1.000000000000000E+20
 30
1.000000000000000E+20
  9
$PEXTMAX
 10
-1.000000000000000E+20
 20
-1.000000000000000E+20
 30
-1.000000000000000E+20
  9
$PLIMMIN
 10
0.0
 20
0.0
  9
$PLIMMAX
 10
12.0
 20
9.0
  9
$UNITMODE
 70
     0
  9
$VISRETAIN
 70
     1
  9
$PLINEGEN
 70
     0
  9
$PSLTSCALE
 70
     1
  9
$TREEDEPTH
 70
  3020
  9
$CMLSTYLE
  2
Standard
  9
$CMLJUST
 70
     0
  9
$CMLSCALE
 40
1.0
  9
$PROXYGRAPHICS
 70
     1
  9
$MEASUREMENT
 70
     0
  9
$CELWEIGHT
370
    -1
  9
$ENDCAPS
280
     0
  9
$JOINSTYLE
280
     0
  9
$LWDISPLAY
290
     0
  9
$INSUNITS
 70
     1
  9
$HYPERLINKBASE
  1

  9
$STYLESHEET
  1

  9
$XEDIT
290
     1
  9
$CEPSNTYPE
380
     0
  9
$PSTYLEMODE
290
     1
  9
$FINGERPRINTGUID
  2
{2796FCF6-6694-4CA1-8D66-18F6E336273D}
  9
$VERSIONGUID
  2
{FAEB1C32-E019-11D5-929B-00C0DF256EC4}
  9
$EXTNAMES
290
     1
  9
$PSVPSCALE
 40
0.0
  9
$OLESTARTUP
290
     0
  9
$SORTENTS
280
   127
  9
$INDEXCTL
280
     0
  9
$HIDETEXT
280
     1
  9
$XCLIPFRAME
280
     2
  9
$HALOGAP
280
     0
  9
$OBSCOLOR
 70
   257
  9
$OBSLTYPE
280
     0
  9
$INTERSECTIONDISPLAY
280
     0
  9
$INTERSECTIONCOLOR
 70
   257
  9
$DIMASSOC
280
     2
  9
$PROJECTNAME
  1

  9
$CAMERADISPLAY
290
     0
  9
$LENSLENGTH
 40
50.0
  9
$CAMERAHEIGHT
 40
0.0
  9
$STEPSPERSEC
 40
2.0
  9
$STEPSIZE
 40
6.0
  9
$3DDWFPREC
 40
2.0
  9
$PSOLWIDTH
 40
0.25
  9
$PSOLHEIGHT
 40
4.0
  9
$LOFTANG1
 40
1.570796326794897
  9
$LOFTANG2
 40
1.570796326794897
  9
$LOFTMAG1
 40
0.0
  9
$LOFTMAG2
 40
0.0
  9
$LOFTPARAM
 70
     7
  9
$LOFTNORMALS
280
     1
  9
$LATITUDE
 40
37.795
  9
$LONGITUDE
 40
-122.394
  9
$NORTHDIRECTION
 40
0.0
  9
$TIMEZONE
 70
 -8000
  9
$LIGHTGLYPHDISPLAY
280
     1
  9
$TILEMODELIGHTSYNCH
280
     1
  9
$CMATERIAL
347
44
  9
$SOLIDHIST
280
     0
  9
$SHOWHIST
280
     1
  9
$DWFFRAME
280
     2
  9
$DGNFRAME
280
     2
  9
$REALWORLDSCALE
290
     1
  9
$INTERFERECOLOR
 62
   256
  9
$CSHADOW
280
     0
  9
$SHADOWPLANELOCATION
 40
0.0
  0
ENDSEC
  0
SECTION
  2
CLASSES
  0
CLASS
  1
ACDBDICTIONARYWDFLT
  2
AcDbDictionaryWithDefault
  3
ObjectDBX Classes
 90
        0
 91
        4
280
     0
281
     0
  0
CLASS
  1
VISUALSTYLE
  2
AcDbVisualStyle
  3
ObjectDBX Classes
 90
     4095
 91
        4
280
     0
281
     0
  0
CLASS
  1
MATERIAL
  2
AcDbMaterial
  3
ObjectDBX Classes
 90
     1153
 91
        4
280
     0
281
     0
  0
CLASS
  1
SCALE
  2
AcDbScale
  3
ObjectDBX Classes
 90
     1153
 91
        4
280
     0
281
     0
  0
CLASS
  1
TABLESTYLE
  2
AcDbTableStyle
  3
ObjectDBX Classes
 90
     4095
 91
        4
280
     0
281
     0
  0
CLASS
  1
MLEADERSTYLE
  2
AcDbMLeaderStyle
  3
ACDB_MLEADERSTYLE_CLASS
 90
     4095
 91
        4
280
     0
281
     0
  0
CLASS
  1
SUN
  2
AcDbSun
  3
SCENEOE
 90
     1153
 91
        4
280
     0
281
     0
  0
CLASS
  1
DICTIONARYVAR
  2
AcDbDictionaryVar
  3
ObjectDBX Classes
 90
        0
 91
        4
280
     0
281
     0
  0
CLASS
  1
CELLSTYLEMAP
  2
AcDbCellStyleMap
  3
ObjectDBX Classes
 90
     1152
 91
        4
280
     0
281
     0
  0
ENDSEC
  0
SECTION
  2
TABLES
  0
TABLE
  2
VPORT
  5
8
330
0
100
AcDbSymbolTable
 70
     1
  0
VPORT
  5
29
330
8
100
AcDbSymbolTableRecord
100
AcDbViewportTableRecord
  2
*Active
 70
     0
 10
0.0
 20
0.0
 11
1.0
 21
1.0
 12
-1.65325
 22
0.0
 13
0.0
 23
0.0
 14
0.5
 24
0.5
 15
0.5
 25
0.5
 16
0.0
 26
0.0
 36
1.0
 17
0.0
 27
0.0
 37
0.0
 40
5.732399999999999
 41
0.7034697508896801
 42
50.0
 43
0.0
 44
0.0
 50
0.0
 51
0.0
 71
     0
 72
   100
 73
     1
 74
     3
 75
     0
 76
     0
 77
     0
 78
     0
281
     0
 65
     1
110
0.0
120
0.0
130
0.0
111
1.0
121
0.0
131
0.0
112
0.0
122
1.0
132
0.0
 79
     0
146
0.0
348
2F
 60
     3
 61
     5
292
     1
282
     1
141
0.0
142
0.0
 63
   250
361
6D
  0
ENDTAB
  0
TABLE
  2
LTYPE
  5
5
330
0
100
AcDbSymbolTable
 70
     3
  0
LTYPE
  5
14
330
5
100
AcDbSymbolTableRecord
100
AcDbLinetypeTableRecord
  2
ByBlock
 70
     0
  3

 72
    65
 73
     0
 40
0.0
  0
LTYPE
  5
15
330
5
100
AcDbSymbolTableRecord
100
AcDbLinetypeTableRecord
  2
ByLayer
 70
     0
  3

 72
    65
 73
     0
 40
0.0
  0
LTYPE
  5
16
330
5
100
AcDbSymbolTableRecord
100
AcDbLinetypeTableRecord
  2
Continuous
 70
     0
  3
Solid line
 72
    65
 73
     0
 40
0.0
  0
LTYPE
  5
A7
330
5
100
AcDbSymbolTableRecord
100
AcDbLinetypeTableRecord
  2
Dashed
 70
     0
  3

 72
    65
 73
     2
 40
2.0
 49
1.0
 74
     0
 49
-1.0
 74
     0
  0
LTYPE
  5
137
330
5
100
AcDbSymbolTableRecord
100
AcDbLinetypeTableRecord
  2
Center
 70
     0
  3

 72
    65
 73
     4
 40
1.5
 49
0.45
 74
     0
 49
-0.5
 74
     0
 49
0.05
 74
     0
 49
-0.5
 74
     0
  0
ENDTAB
  0
TABLE
  2
LAYER
  5
2
330
0
100
AcDbSymbolTable
 70
     7
  0
LAYER
  5
10
330
2
100
AcDbSymbolTableRecord
100
AcDbLayerTableRecord
  2
0
 70
     0
 62
     7
  6
Continuous
370
    -3
390
F
347
46
348
0
  0
LAYER
  5
72
330
2
100
AcDbSymbolTableRecord
100
AcDbLayerTableRecord
  2
AM_6
 70
     0
 62
    -2
  6
Continuous
370
    35
390
F
347
46
348
0
  0
LAYER
  5
A8
330
2
100
AcDbSymbolTableRecord
100
AcDbLayerTableRecord
  2
AM_9
 70
     0
 62
     6
  6
Dashed
370
    25
390
F
347
46
348
0
  0
LAYER
  5
C0
330
2
100
AcDbSymbolTableRecord
100
AcDbLayerTableRecord
  2
AM_5
 70
     0
 62
     3
  6
Continuous
370
    25
390
F
347
46
348
0
  0
LAYER
  5
C5
330
2
100
AcDbSymbolTableRecord
100
AcDbLayerTableRecord
  2
AM_4
 70
     0
 62
     7
  6
Continuous
370
    50
390
F
347
46
348
0
  0
LAYER
  5
138
330
2
100
AcDbSymbolTableRecord
100
AcDbLayerTableRecord
  2
AM_7
 70
     0
 62
     7
  6
Center
370
    25
390
F
347
46
348
0
  0
LAYER
  5
1E6
330
2
100
AcDbSymbolTableRecord
100
AcDbLayerTableRecord
  2
ConnectionPoints
 70
     0
 62
     7
  6
Continuous
370
    50
390
F
347
46
348
0
  0
ENDTAB
  0
TABLE
  2
STYLE
  5
3
330
0
100
AcDbSymbolTable
 70
     1
  0
STYLE
  5
11
330
3
100
AcDbSymbolTableRecord
100
AcDbTextStyleTableRecord
  2
Standard
 70
     0
 40
0.0
 41
1.0
 50
0.0
 71
     0
 42
0.2
  3
txt
  4

  0
ENDTAB
  0
TABLE
  2
VIEW
  5
6
330
0
100
AcDbSymbolTable
 70
     0
  0
ENDTAB
  0
TABLE
  2
UCS
  5
7
330
0
100
AcDbSymbolTable
 70
     0
  0
ENDTAB
  0
TABLE
  2
APPID
  5
9
330
0
100
AcDbSymbolTable
 70
     1
  0
APPID
  5
12
330
9
100
AcDbSymbolTableRecord
100
AcDbRegAppTableRecord
  2
ACAD
 70
     0
  0
ENDTAB
  0
TABLE
  2
DIMSTYLE
  5
A
330
0
100
AcDbSymbolTable
 70
     1
100
AcDbDimStyleTable
  0
DIMSTYLE
105
27
330
A
100
AcDbSymbolTableRecord
100
AcDbDimStyleTableRecord
  2
Standard
 70
     0
178
     0
340
11
  0
ENDTAB
  0
TABLE
  2
BLOCK_RECORD
  5
1
330
0
100
AcDbSymbolTable
 70
     6
  0
BLOCK_RECORD
  5
1F
330
1
100
AcDbSymbolTableRecord
100
AcDbBlockTableRecord
  2
*Model_Space
340
22
 70
     0
280
     1
281
     0
  0
BLOCK_RECORD
  5
1B
330
1
100
AcDbSymbolTableRecord
100
AcDbBlockTableRecord
  2
*Paper_Space
340
1E
 70
     0
280
     1
281
     0
  0
BLOCK_RECORD
  5
23
330
1
100
AcDbSymbolTableRecord
100
AcDbBlockTableRecord
  2
*Paper_Space0
340
26
 70
     0
280
     1
281
     0
  0
BLOCK_RECORD
  5
6E
330
1
100
AcDbSymbolTableRecord
100
AcDbBlockTableRecord
  2
1_071485_2
340
0
102
{BLKREFS
331
6F
102
}
 70
     0
280
     1
281
     0
  0
BLOCK_RECORD
  5
8E
330
1
100
AcDbSymbolTableRecord
100
AcDbBlockTableRecord
  2
2_1_15_16CS2i_0_in_071485_2
340
0
102
{BLKREFS
331
8F
102
}
 70
     0
280
     1
281
     0
  0
BLOCK_RECORD
  5
D8
330
1
100
AcDbSymbolTableRecord
100
AcDbBlockTableRecord
  2
3_070005i_0_in_071485_2
340
0
102
{BLKREFS
331
D9
102
}
 70
     0
280
     1
281
     0
  0
BLOCK_RECORD
  5
13E
330
1
100
AcDbSymbolTableRecord
100
AcDbBlockTableRecord
  2
4_405015E_Inch_0_in_071485_2
340
0
102
{BLKREFS
331
13F
102
}
 70
     0
280
     1
281
     0
  0
BLOCK_RECORD
  5
17C
330
1
100
AcDbSymbolTableRecord
100
AcDbBlockTableRecord
  2
5_B071485_0_in_071485_2
340
0
102
{BLKREFS
331
17D
102
}
 70
     0
280
     1
281
     0
  0
ENDTAB
  0
ENDSEC
  0
SECTION
  2
BLOCKS
  0
BLOCK
  5
20
330
1F
100
AcDbEntity
  8
0
100
AcDbBlockBegin
  2
*Model_Space
 70
     0
 10
0.0
 20
0.0
 30
0.0
  3
*Model_Space
  1

  0
ENDBLK
  5
21
330
1F
100
AcDbEntity
  8
0
100
AcDbBlockEnd
  0
BLOCK
  5
1C
330
1B
100
AcDbEntity
 67
     1
  8
0
100
AcDbBlockBegin
  2
*Paper_Space
 70
     0
 10
0.0
 20
0.0
 30
0.0
  3
*Paper_Space
  1

  0
ENDBLK
  5
1D
330
1B
100
AcDbEntity
 67
     1
  8
0
100
AcDbBlockEnd
  0
BLOCK
  5
24
330
23
100
AcDbEntity
  8
0
100
AcDbBlockBegin
  2
*Paper_Space0
 70
     0
 10
0.0
 20
0.0
 30
0.0
  3
*Paper_Space0
  1

  0
ENDBLK
  5
25
330
23
100
AcDbEntity
  8
0
100
AcDbBlockEnd
  0
BLOCK
  5
70
330
6E
100
AcDbEntity
  8
0
100
AcDbBlockBegin
  2
1_071485_2
 70
     2
 10
0.0
 20
0.0
 30
0.0
  3
1_071485_2
  1

  0
ATTDEF
  5
73
330
6E
100
AcDbEntity
  8
AM_6
100
AcDbText
 10
5.149
 20
2.81
 30
0.0
 40
0.5
  1
S-2000 Flange Bearing - Square with Type E Dimensions Trident Seal Non-Expansion
100
AcDbAttributeDefinition
  3

  2
NN
 70
     8
280
     0
  0
ATTDEF
  5
74
330
6E
100
AcDbEntity
  8
AM_6
100
AcDbText
 10
5.149
 20
2.31
 30
0.0
 40
0.5
  1
S-2000 - E Type - Inch
100
AcDbAttributeDefinition
  3

  2
NT
 70
     8
280
     0
  0
ATTDEF
  5
75
330
6E
100
AcDbEntity
  8
AM_6
100
AcDbText
 10
5.149
 20
1.81
 30
0.0
 40
0.5
  1
071485
100
AcDbAttributeDefinition
  3

  2
NB
 70
     8
280
     0
  0
ATTDEF
  5
76
330
6E
100
AcDbEntity
  8
AM_6
100
AcDbText
 10
5.149
 20
1.31
 30
0.0
 40
0.5
  1
$PN.
100
AcDbAttributeDefinition
  3

  2
NBSYN
 70
     8
280
     0
  0
ATTDEF
  5
77
330
6E
100
AcDbEntity
  8
AM_6
100
AcDbText
 10
5.149
 20
0.8099999999999996
 30
0.0
 40
0.5
  1
071485
100
AcDbAttributeDefinition
  3

  2
LINA
 70
     8
280
     0
  0
ATTDEF
  5
78
330
6E
100
AcDbEntity
  8
AM_6
100
AcDbText
 10
5.149
 20
0.3099999999999996
 30
0.0
 40
0.5
  1
1-15/16
100
AcDbAttributeDefinition
  3

  2
SS
 70
     8
280
     0
  0
ATTDEF
  5
79
330
6E
100
AcDbEntity
  8
AM_6
100
AcDbText
 10
5.149
 20
-0.1900000000000004
 30
0.0
 40
0.5
  1
Expansion
100
AcDbAttributeDefinition
  3

  2
TYPE
 70
     8
280
     0
  0
ATTDEF
  5
7A
330
6E
100
AcDbEntity
  8
AM_6
100
AcDbText
 10
5.149
 20
-0.6900000000000004
 30
0.0
 40
0.5
  1
071485
100
AcDbAttributeDefinition
  3

  2
PN
 70
     8
280
     0
  0
ATTDEF
  5
7B
330
6E
100
AcDbEntity
  8
AM_6
100
AcDbText
 10
5.149
 20
-1.19
 30
0.0
 40
0.5
  1
EF4B-S2-115RE
100
AcDbAttributeDefinition
  3

  2
DESCRIPTION
 70
     8
280
     0
  0
ATTDEF
  5
7C
330
6E
100
AcDbEntity
  8
AM_6
100
AcDbText
 10
5.149
 20
-1.69
 30
0.0
 40
0.5
  1
2.84
100
AcDbAttributeDefinition
  3

  2
A
 70
     8
280
     0
  0
ATTDEF
  5
7D
330
6E
100
AcDbEntity
  8
AM_6
100
AcDbText
 10
5.149
 20
-2.19
 30
0.0
 40
0.5
  1
5.62
100
AcDbAttributeDefinition
  3

  2
B
 70
     8
280
     0
  0
ATTDEF
  5
7E
330
6E
100
AcDbEntity
  8
AM_6
100
AcDbText
 10
5.149
 20
-2.69
 30
0.0
 40
0.5
  1
3.63
100
AcDbAttributeDefinition
  3

  2
C
 70
     8
280
     0
  0
ATTDEF
  5
7F
330
6E
100
AcDbEntity
  8
AM_6
100
AcDbText
 10
5.149
 20
-3.19
 30
0.0
 40
0.5
  1
4.37
100
AcDbAttributeDefinition
  3

  2
D
 70
     8
280
     0
  0
ATTDEF
  5
80
330
6E
100
AcDbEntity
  8
AM_6
100
AcDbText
 10
5.149
 20
-3.69
 30
0.0
 40
0.5
  1
6.187
100
AcDbAttributeDefinition
  3

  2
DD
 70
     8
280
     0
  0
ATTDEF
  5
81
330
6E
100
AcDbEntity
  8
AM_6
100
AcDbText
 10
5.149
 20
-4.19
 30
0.0
 40
0.5
  1
1/2
100
AcDbAttributeDefinition
  3

  2
F
 70
     8
280
     0
  0
ATTDEF
  5
82
330
6E
100
AcDbEntity
  8
AM_6
100
AcDbText
 10
5.149
 20
-4.69
 30
0.0
 40
0.5
  1
0.65
100
AcDbAttributeDefinition
  3

  2
G
 70
     8
280
     0
  0
ATTDEF
  5
83
330
6E
100
AcDbEntity
  8
AM_6
100
AcDbText
 10
5.149
 20
-5.19
 30
0.0
 40
0.5
  1
1.18
100
AcDbAttributeDefinition
  3

  2
H
 70
     8
280
     0
  0
ATTDEF
  5
84
330
6E
100
AcDbEntity
  8
AM_6
100
AcDbText
 10
5.149
 20
-5.69
 30
0.0
 40
0.5
  1
4.36
100
AcDbAttributeDefinition
  3

  2
J
 70
     8
280
     0
  0
ATTDEF
  5
85
330
6E
100
AcDbEntity
  8
AM_6
100
AcDbText
 10
5.149
 20
-6.19
 30
0.0
 40
0.5
  1
3.26
100
AcDbAttributeDefinition
  3

  2
L
 70
     8
280
     0
  0
ATTDEF
  5
86
330
6E
100
AcDbEntity
  8
AM_6
100
AcDbText
 10
5.149
 20
-6.69
 30
0.0
 40
0.5
  1
2.6
100
AcDbAttributeDefinition
  3

  2
N
 70
     8
280
     0
  0
ATTDEF
  5
87
330
6E
100
AcDbEntity
  8
AM_6
100
AcDbText
 10
5.149
 20
-7.19
 30
0.0
 40
0.5
  1
0.78
100
AcDbAttributeDefinition
  3

  2
P
 70
     8
280
     0
  0
ATTDEF
  5
88
330
6E
100
AcDbEntity
  8
AM_6
100
AcDbText
 10
5.149
 20
-7.69
 30
0.0
 40
0.5
  1
0.22
100
AcDbAttributeDefinition
  3

  2
X
 70
     8
280
     0
  0
ATTDEF
  5
89
330
6E
100
AcDbEntity
  8
AM_6
100
AcDbText
 10
5.149
 20
-8.190000000000001
 30
0.0
 40
0.5
  1
0.020
100
AcDbAttributeDefinition
  3

  2
Y
 70
     8
280
     0
  0
ATTDEF
  5
8A
330
6E
100
AcDbEntity
  8
AM_6
100
AcDbText
 10
5.149
 20
-8.690000000000001
 30
0.0
 40
0.5
  1
2.3
100
AcDbAttributeDefinition
  3

  2
Z
 70
     8
280
     0
  0
ATTDEF
  5
8B
330
6E
100
AcDbEntity
  8
AM_6
100
AcDbText
 10
5.149
 20
-9.190000000000001
 30
0.0
 40
0.5
  1
3/8-16
100
AcDbAttributeDefinition
  3

  2
CS
 70
     8
280
     0
  0
ATTDEF
  5
8C
330
6E
100
AcDbEntity
  8
AM_6
100
AcDbText
 10
5.149
 20
-9.690000000000001
 30
0.0
 40
0.5
  1
290
100
AcDbAttributeDefinition
  3

  2
TORQUE
 70
     8
280
     0
  0
ATTDEF
  5
8D
330
6E
100
AcDbEntity
  8
AM_6
100
AcDbText
 10
5.149
 20
-10.19
 30
0.0
 40
0.5
  1
baldor
100
AcDbAttributeDefinition
  3

  2
COMPANY
 70
     8
280
     0
  0
INSERT
  5
8F
330
6E
100
AcDbEntity
  8
0
100
AcDbBlockReference
  2
2_1_15_16CS2i_0_in_071485_2
 10
0.0
 20
0.0
 30
0.0
  0
INSERT
  5
D9
330
6E
100
AcDbEntity
  8
0
100
AcDbBlockReference
  2
3_070005i_0_in_071485_2
 10
0.0
 20
0.0
 30
0.0
  0
INSERT
  5
13F
330
6E
100
AcDbEntity
  8
0
100
AcDbBlockReference
  2
4_405015E_Inch_0_in_071485_2
 10
0.0
 20
0.0
 30
0.0
  0
INSERT
  5
17D
330
6E
100
AcDbEntity
  8
0
100
AcDbBlockReference
  2
5_B071485_0_in_071485_2
 10
0.0
 20
0.0
 30
0.0
  0
ENDBLK
  5
71
330
6E
100
AcDbEntity
  8
0
100
AcDbBlockEnd
  0
BLOCK
  5
90
330
8E
100
AcDbEntity
  8
0
100
AcDbBlockBegin
  2
2_1_15_16CS2i_0_in_071485_2
 70
     2
 10
0.0
 20
0.0
 30
0.0
  3
2_1_15_16CS2i_0_in_071485_2
  1

  0
ATTDEF
  5
92
330
8E
100
AcDbEntity
  8
AM_6
100
AcDbText
 10
2.224000000000001
 20
1.71875
 30
0.0
 40
0.5
  1
S-2000 Collar -Inch
100
AcDbAttributeDefinition
  3

  2
NN
 70
     8
280
     0
  0
ATTDEF
  5
93
330
8E
100
AcDbEntity
  8
AM_6
100
AcDbText
 10
2.224000000000001
 20
1.21875
 30
0.0
 40
0.5
  1
S-2000 Bearings
100
AcDbAttributeDefinition
  3

  2
NT
 70
     8
280
     0
  0
ATTDEF
  5
94
330
8E
100
AcDbEntity
  8
AM_6
100
AcDbText
 10
2.224000000000001
 20
0.7187500000000004
 30
0.0
 40
0.5
  1
1-15/16CS2i
100
AcDbAttributeDefinition
  3

  2
NB
 70
     8
280
     0
  0
ATTDEF
  5
95
330
8E
100
AcDbEntity
  8
AM_6
100
AcDbText
 10
2.224000000000001
 20
0.2187500000000004
 30
0.0
 40
0.5
  1
$BORE.CS2i
100
AcDbAttributeDefinition
  3

  2
NBSYN
 70
     8
280
     0
  0
ATTDEF
  5
96
330
8E
100
AcDbEntity
  8
AM_6
100
AcDbText
 10
2.224000000000001
 20
-0.2812499999999996
 30
0.0
 40
0.5
  1
1-15/16CS2i
100
AcDbAttributeDefinition
  3

  2
LINA
 70
     8
280
     0
  0
ATTDEF
  5
97
330
8E
100
AcDbEntity
  8
AM_6
100
AcDbText
 10
2.224000000000001
 20
-0.7812499999999996
 30
0.0
 40
0.5
  1
1-15/16
100
AcDbAttributeDefinition
  3

  2
BORE
 70
     8
280
     0
  0
ATTDEF
  5
98
330
8E
100
AcDbEntity
  8
AM_6
100
AcDbText
 10
2.224000000000001
 20
-1.28125
 30
0.0
 40
0.5
  1
1.937500
100
AcDbAttributeDefinition
  3

  2
BORE1
 70
     8
280
     0
  0
ATTDEF
  5
99
330
8E
100
AcDbEntity
  8
AM_6
100
AcDbText
 10
2.224000000000001
 20
-1.78125
 30
0.0
 40
0.5
  1
3-7/16
100
AcDbAttributeDefinition
  3

  2
L1
 70
     8
280
     0
  0
ATTDEF
  5
9A
330
8E
100
AcDbEntity
  8
AM_6
100
AcDbText
 10
2.224000000000001
 20
-2.28125
 30
0.0
 40
0.5
  1
3.43750
100
AcDbAttributeDefinition
  3

  2
L
 70
     8
280
     0
  0
ATTDEF
  5
9B
330
8E
100
AcDbEntity
  8
AM_6
100
AcDbText
 10
2.224000000000001
 20
-2.78125
 30
0.0
 40
0.5
  1
3.34375
100
AcDbAttributeDefinition
  3

  2
L2
 70
     8
280
     0
  0
ATTDEF
  5
9C
330
8E
100
AcDbEntity
  8
AM_6
100
AcDbText
 10
2.224000000000001
 20
-3.28125
 30
0.0
 40
0.5
  1
3.50
100
AcDbAttributeDefinition
  3

  2
A
 70
     8
280
     0
  0
ATTDEF
  5
9D
330
8E
100
AcDbEntity
  8
AM_6
100
AcDbText
 10
2.224000000000001
 20
-3.78125
 30
0.0
 40
0.5
  1
1.62
100
AcDbAttributeDefinition
  3

  2
B
 70
     8
280
     0
  0
ATTDEF
  5
9E
330
8E
100
AcDbEntity
  8
AM_6
100
AcDbText
 10
2.224000000000001
 20
-4.28125
 30
0.0
 40
0.5
  1
2.31
100
AcDbAttributeDefinition
  3

  2
C
 70
     8
280
     0
  0
ATTDEF
  5
9F
330
8E
100
AcDbEntity
  8
AM_6
100
AcDbText
 10
2.224000000000001
 20
-4.78125
 30
0.0
 40
0.5
  1
3.50
100
AcDbAttributeDefinition
  3

  2
D
 70
     8
280
     0
  0
ATTDEF
  5
A0
330
8E
100
AcDbEntity
  8
AM_6
100
AcDbText
 10
2.224000000000001
 20
-5.28125
 30
0.0
 40
0.5
  1
0.41
100
AcDbAttributeDefinition
  3

  2
E
 70
     8
280
     0
  0
ATTDEF
  5
A1
330
8E
100
AcDbEntity
  8
AM_6
100
AcDbText
 10
2.224000000000001
 20
-5.78125
 30
0.0
 40
0.5
  1
0.317
100
AcDbAttributeDefinition
  3

  2
F
 70
     8
280
     0
  0
ATTDEF
  5
A2
330
8E
100
AcDbEntity
  8
AM_6
100
AcDbText
 10
2.224000000000001
 20
-6.28125
 30
0.0
 40
0.5
  1
3/8-16
100
AcDbAttributeDefinition
  3

  2
CS
 70
     8
280
     0
  0
ATTDEF
  5
A3
330
8E
100
AcDbEntity
  8
AM_6
100
AcDbText
 10
2.224000000000001
 20
-6.78125
 30
0.0
 40
0.5
  1
0.3750
100
AcDbAttributeDefinition
  3

  2
NDM
 70
     8
280
     0
  0
ATTDEF
  5
A4
330
8E
100
AcDbEntity
  8
AM_6
100
AcDbText
 10
2.224000000000001
 20
-7.28125
 30
0.0
 40
0.5
  1
0.3070
100
AcDbAttributeDefinition
  3

  2
KDM
 70
     8
280
     0
  0
ATTDEF
  5
A5
330
8E
100
AcDbEntity
  8
AM_6
100
AcDbText
 10
2.224000000000001
 20
-7.78125
 30
0.0
 40
0.5
  1
1
100
AcDbAttributeDefinition
  3

  2
DD
 70
     8
280
     0
  0
ATTDEF
  5
A6
330
8E
100
AcDbEntity
  8
AM_6
100
AcDbText
 10
2.224000000000001
 20
-8.28125
 30
0.0
 40
0.5
  1
baldor
100
AcDbAttributeDefinition
  3

  2
COMPANY
 70
     8
280
     0
  0
LINE
  5
A9
330
8E
100
AcDbEntity
  8
AM_9
100
AcDbLine
 10
-2.939349999999999
 20
1.163849999999998
 30
0.0
 11
-2.939349999999999
 21
1.6849
 31
0.0
  0
LINE
  5
AA
330
8E
100
AcDbEntity
  8
AM_9
100
AcDbLine
 10
-3.24665
 20
1.671829317052831
 30
0.0
 11
-3.24665
 21
1.163849999999998
 31
0.0
  0
LINE
  5
AB
330
8E
100
AcDbEntity
  8
AM_9
100
AcDbLine
 10
-3.24665
 20
1.163849999999998
 30
0.0
 11
-2.939349999999999
 21
1.163849999999998
 31
0.0
  0
LINE
  5
AC
330
8E
100
AcDbEntity
  8
AM_9
100
AcDbLine
 10
-3.24665
 20
1.163849999999998
 30
0.0
 11
-3.255333859590501
 21
1.155166140409497
 31
0.0
  0
LINE
  5
AD
330
8E
100
AcDbEntity
  8
AM_9
100
AcDbLine
 10
-2.930768486589466
 20
1.155268486589464
 30
0.0
 11
-2.939349999999999
 21
1.163849999999998
 31
0.0
  0
LINE
  5
AE
330
8E
100
AcDbEntity
  8
AM_9
100
AcDbLine
 10
-3.093
 20
1.6849
 30
0.0
 11
-2.939349999999999
 21
1.6849
 31
0.0
  0
LINE
  5
AF
330
8E
100
AcDbEntity
  8
AM_9
100
AcDbLine
 10
-2.939349999999999
 20
1.6849
 30
0.0
 11
-2.9055
 21
1.71875
 31
0.0
  0
LWPOLYLINE
  5
B0
330
8E
100
AcDbEntity
  8
AM_9
100
AcDbPolyline
 90
       38
 70
     0
 43
0.0
 10
-2.973270700757611
 20
0.3779306153227044
 10
-2.958573278082184
 20
0.396982385124557
 10
-2.946808271443683
 20
0.4176293360648101
 10
-2.936801432537048
 20
0.4439182519710251
 10
-2.931431658753937
 20
0.4710708270096682
 10
-2.930922827735138
 20
0.4993266874148425
 10
-2.935506840884039
 20
0.5269257457283382
 10
-2.945264255474737
 20
0.5533184649773224
 10
-2.959916029846858
 20
0.5775465560041885
 10
-2.978828571350549
 20
0.5985069496908864
 10
-3.001740925088391
 20
0.6160441469379788
 10
-3.026509356111882
 20
0.6288048404677827
 10
-3.053615795223777
 20
0.6374696658014952
 10
-3.079671165229201
 20
0.6414014566813416
 10
-3.106147638067584
 20
0.6414329664232032
 10
-3.130697315440199
 20
0.6378349976865144
 10
-3.154212472618771
 20
0.630908090442375
 10
-3.17640029802289
 20
0.620674193172453
 10
-3.196437085965838
 20
0.6075673369347369
 10
-3.215064809653994
 20
0.5906952130942349
 10
-3.23044530195454
 20
0.5713661406842145
 10
-3.243080868890706
 20
0.548212272045049
 10
-3.251404421512372
 20
0.523295179199191
 10
-3.255292849706191
 20
0.4958213139565711
 10
-3.254176650013288
 20
0.4677970280308617
 10
-3.247858942332216
 20
0.4394979658413348
 10
-3.236504583658788
 20
0.4122797271984379
 10
-3.220432303738319
 20
0.3872468336572877
 10
-3.199972829888134
 20
0.3650564070238989
 10
-3.176678283758052
 20
0.3473968064820112
 10
-3.15041106958045
 20
0.3340073621827003
 10
-3.124336514347768
 20
0.3261834974355968
 10
-3.09722461584844
 20
0.3229852316942747
 10
-3.072021520915243
 20
0.324387128498041
 10
-3.04741924203597
 20
0.3298323777881113
 10
-3.024355322039371
 20
0.3390024523154564
 10
-3.003078384257335
 20
0.3514964254536935
 10
-2.973270700757611
 20
0.3779306153227044
  0
LINE
  5
B1
330
8E
100
AcDbEntity
  8
AM_9
100
AcDbLine
 10
-3.409999999999999
 20
-1.155
 30
0.0
 11
-2.775999999999999
 21
-1.155
 31
0.0
  0
LINE
  5
B2
330
8E
100
AcDbEntity
  8
AM_9
100
AcDbLine
 10
-2.775999999999999
 20
1.155
 30
0.0
 11
-2.931141874627086
 21
1.155
 31
0.0
  0
LINE
  5
B3
330
8E
100
AcDbEntity
  8
AM_9
100
AcDbLine
 10
-3.255102342789091
 20
1.155
 30
0.0
 11
-3.409999999999999
 21
1.155
 31
0.0
  0
LWPOLYLINE
  5
B4
330
8E
100
AcDbEntity
  8
AM_9
100
AcDbPolyline
 90
       21
 70
     0
 43
0.0
 10
-3.255499999999292
 20
1.154999999999884
 10
-3.255400986662971
 20
1.15498379342257
 10
-3.251757120128049
 20
1.154393873255462
 10
-3.243131994249786
 20
1.153048235227185
 10
-3.229198885410672
 20
1.151026350938733
 10
-3.211385052348584
 20
1.148717802829725
 10
-3.188771329989636
 20
1.146240524342773
 10
-3.164815148278
 20
1.144177281125706
 10
-3.137423654001466
 20
1.142534733138016
 10
-3.111763695572541
 20
1.141696141547657
 10
-3.084641036554752
 20
1.1415500348332
 10
-3.060239733160895
 20
1.14206930960979
 10
-3.036078803751198
 20
1.143188797776558
 10
-3.01389754678549
 20
1.144743350316933
 10
-2.993242928870742
 20
1.146640022566709
 10
-2.974398942507808
 20
1.148743921308349
 10
-2.958287017588641
 20
1.150821876167579
 10
-2.94509525035304
 20
1.152712392277049
 10
-2.935858838042086
 20
1.154136323883433
 10
-2.931073151141624
 20
1.154906315782236
 10
-2.930500000000018
 20
1.154999999999997
  0
ELLIPSE
  5
B5
330
8E
100
AcDbEntity
  8
AM_9
100
AcDbEllipse
 10
-3.092999999999999
 20
0.4918642639269104
 30
0.0
 11
0.1536500000000012
 21
0.0
 31
0.0
210
0.0
220
0.0
230
1.0
 40
0.9063077870366526
 41
2.268147436109389
 42
3.141592653589793
  0
LINE
  5
B6
330
8E
100
AcDbEntity
  8
AM_9
100
AcDbLine
 10
-2.939349999999999
 20
0.4918642639269121
 30
0.0
 11
-2.939349999999999
 21
0.7120695092069046
 31
0.0
  0
LINE
  5
B7
330
8E
100
AcDbEntity
  8
AM_9
100
AcDbLine
 10
-3.24665
 20
0.7065456216338938
 30
0.0
 11
-3.24665
 21
0.4918642639269121
 31
0.0
  0
ELLIPSE
  5
B8
330
8E
100
AcDbEntity
  8
AM_9
100
AcDbEllipse
 10
-3.093000000000001
 20
0.7120695092069038
 30
0.0
 11
0.1536500000000016
 21
0.0
 31
0.0
210
0.0
220
0.0
230
1.0
 40
0.9063077870366493
 41
5.53870137371908
 42
7.0276692406401
  0
ELLIPSE
  5
B9
330
8E
100
AcDbEntity
  8
AM_9
100
AcDbEllipse
 10
-3.092999999999948
 20
0.491864263926963
 30
0.0
 11
0.1536499999999239
 21
0.0
 31
0.0
210
0.0
220
0.0
230
1.0
 40
0.9063077870366482
 41
3.141592653589793
 42
7.195070406291755
  0
LINE
  5
BA
330
8E
100
AcDbEntity
  8
AM_9
100
AcDbLine
 10
-3.093
 20
0.5728153177287234
 30
0.0
 11
-3.093
 21
0.8428289026684154
 31
0.0
  0
LWPOLYLINE
  5
BB
330
8E
100
AcDbEntity
  8
AM_9
100
AcDbPolyline
 90
       13
 70
     0
 43
0.0
 10
-2.979704922061302
 20
0.8525529617905397
 10
-2.961123123540387
 20
0.8391659542218922
 10
-2.939327849004653
 20
0.8175785154073791
 10
-2.923424811512153
 20
0.7945277981996288
 10
-2.912030813820806
 20
0.768327344412466
 10
-2.906476048069602
 20
0.7427777149904374
 10
-2.905907654116658
 20
0.7157236493827165
 10
-2.910161980617994
 20
0.6904235425830941
 10
-2.919211959468603
 20
0.6652448531997145
 10
-2.932351993982014
 20
0.6421061405004778
 10
-2.949799729506365
 20
0.6205387968669153
 10
-2.971013923217217
 20
0.601504255556413
 10
-2.979671350271268
 20
0.5952563489324052
  0
LINE
  5
BC
330
8E
100
AcDbEntity
  8
AM_9
100
AcDbLine
 10
-2.98
 20
-1.71875
 30
0.0
 11
-2.775999999999999
 21
-1.71875
 31
0.0
  0
LINE
  5
BD
330
8E
100
AcDbEntity
  8
AM_9
100
AcDbLine
 10
-2.775999999999999
 20
1.71875
 30
0.0
 11
-2.9055
 21
1.71875
 31
0.0
  0
LWPOLYLINE
  5
BE
330
8E
100
AcDbEntity
  8
AM_9
100
AcDbPolyline
 90
        8
 70
     0
 43
0.0
 10
-2.905500000000039
 20
1.718749999999996
 10
-2.905907654116658
 20
1.718709945620833
 10
-2.910161980617994
 20
1.718297037634551
 10
-2.919211959468603
 20
1.717449711877597
 10
-2.932351993982014
 20
1.716294780493615
 10
-2.949799729506365
 20
1.714899617463105
 10
-2.971013923217217
 20
1.713416876990633
 10
-2.979671350271268
 20
1.712879365020119
  0
LINE
  5
BF
330
8E
100
AcDbEntity
  8
AM_9
100
AcDbLine
 10
-2.775999999999999
 20
1.71875
 30
0.0
 11
-2.775999999999999
 21
-1.71875
 31
0.0
  0
LINE
  5
C1
330
8E
100
AcDbEntity
  8
AM_5
100
AcDbLine
 10
-3.2805
 20
1.671875
 30
0.0
 11
-3.2805
 21
1.155
 31
0.0
  0
LINE
  5
C2
330
8E
100
AcDbEntity
  8
AM_5
100
AcDbLine
 10
-3.18675
 20
1.13
 30
0.0
 11
-3.2805
 21
1.13
 31
0.0
  0
LINE
  5
C3
330
8E
100
AcDbEntity
  8
AM_5
100
AcDbLine
 10
-2.9055
 20
1.71875
 30
0.0
 11
-2.9055
 21
1.155
 31
0.0
  0
LINE
  5
C4
330
8E
100
AcDbEntity
  8
AM_5
100
AcDbLine
 10
-2.99925
 20
1.13
 30
0.0
 11
-2.9055
 21
1.13
 31
0.0
  0
ELLIPSE
  5
C6
330
8E
100
AcDbEntity
  8
AM_4
100
AcDbEllipse
 10
-3.093
 20
0.4918642639269122
 30
0.0
 11
0.1536499999999998
 21
0.0
 31
0.0
210
0.0
220
0.0
230
1.0
 40
0.9063077870366497
 41
0.9118850991121246
 42
2.268147436109391
  0
LWPOLYLINE
  5
C7
330
8E
100
AcDbEntity
  8
AM_4
100
AcDbPolyline
 90
       11
 70
     0
 43
0.0
 10
-3.24664999933858
 20
0.7065519853387418
 10
-3.245652556107899
 20
0.7223677525029673
 10
-3.240566316752
 20
0.7450798938133635
 10
-3.231357698273059
 20
0.7665635542834761
 10
-3.218211551078411
 20
0.7862473905750144
 10
-3.20156201614388
 20
0.8036135625653672
 10
-3.181752309063228
 20
0.8182307055177177
 10
-3.159434647229058
 20
0.829699244922787
 10
-3.1352034367755
 20
0.8376852193488313
 10
-3.10977282237596
 20
0.8420324150572488
 10
-3.093
 20
0.8428289026684153
  0
ELLIPSE
  5
C8
330
8E
100
AcDbEntity
  8
AM_4
100
AcDbEllipse
 10
-3.093
 20
0.7120695092069029
 30
0.0
 11
0.1536500000000016
 21
0.0
 31
0.0
210
0.0
220
0.0
230
1.0
 40
0.9063077870366507
 41
0.744483933460522
 42
1.570796326794897
  0
LINE
  5
C9
330
8E
100
AcDbEntity
  8
AM_4
100
AcDbLine
 10
-3.093
 20
-1.71875
 30
0.0
 11
-3.093
 21
0.5728153177287234
 31
0.0
  0
ELLIPSE
  5
CA
330
8E
100
AcDbEntity
  8
AM_4
100
AcDbEllipse
 10
-3.093
 20
0.7120695092069056
 30
0.0
 11
0.1536500000000003
 21
0.0
 31
0.0
210
0.0
220
0.0
230
1.0
 40
0.9063077870366535
 41
4.71238898038469
 42
5.53870137371907
  0
LINE
  5
CB
330
8E
100
AcDbEntity
  8
AM_4
100
AcDbLine
 10
-3.409999999999999
 20
1.566208333333333
 30
0.0
 11
-3.409999999999999
 21
-1.566208333333333
 31
0.0
  0
ARC
  5
CC
330
8E
100
AcDbEntity
  8
AM_4
100
AcDbCircle
 10
-3.304333333333334
 20
-1.566208333333334
 30
0.0
 40
0.1056666666666657
100
AcDbArc
 50
180.0
 51
270.0
  0
ARC
  5
CD
330
8E
100
AcDbEntity
  8
AM_4
100
AcDbCircle
 10
-3.304333333333334
 20
1.566208333333334
 30
0.0
 40
0.1056666666666657
100
AcDbArc
 50
90.0
 51
180.0
  0
LWPOLYLINE
  5
CE
330
8E
100
AcDbEntity
  8
AM_4
100
AcDbPolyline
 90
       11
 70
     0
 43
0.0
 10
-3.093
 20
0.5643205197120527
 10
-3.118732005179206
 20
0.5663866780101692
 10
-3.143737211398876
 20
0.5724584470094645
 10
-3.167288552679179
 20
0.5823953811810795
 10
-3.188752610598775
 20
0.5958305184129878
 10
-3.207541329003415
 20
0.6124404091607075
 10
-3.223107577861147
 20
0.6316444970415929
 10
-3.234980991528922
 20
0.652934049888534
 10
-3.242843985596427
 20
0.6756163970244478
 10
-3.24640603294159
 20
0.6989667970565889
 10
-3.24664999933858
 20
0.7065519853387418
  0
LWPOLYLINE
  5
CF
330
8E
100
AcDbEntity
  8
AM_4
100
AcDbPolyline
 90
       11
 70
     0
 43
0.0
 10
-3.093
 20
1.664799595484393
 10
-3.118368605699438
 20
1.664992870639431
 10
-3.143737211398876
 20
1.665572561537183
 10
-3.166973567875274
 20
1.666442252785616
 10
-3.188752610598775
 20
1.667550975401196
 10
-3.207305966665376
 20
1.668719133689162
 10
-3.223107577861147
 20
1.6698759459738
 10
-3.234852043975834
 20
1.670832036892136
 10
-3.242843985596427
 20
1.671529513094047
 10
-3.246400876683711
 20
1.671852123272968
 10
-3.246649999999953
 20
1.671874999999996
  0
LINE
  5
D0
330
8E
100
AcDbEntity
  8
AM_4
100
AcDbLine
 10
-3.304333333333333
 20
-1.671875
 30
0.0
 11
-3.093
 21
-1.671875
 31
0.0
  0
LINE
  5
D1
330
8E
100
AcDbEntity
  8
AM_4
100
AcDbLine
 10
-3.246151316279622
 20
1.671875
 30
0.0
 11
-3.304333333333333
 21
1.671875
 31
0.0
  0
LINE
  5
D2
330
8E
100
AcDbEntity
  8
AM_4
100
AcDbLine
 10
-3.304333333333333
 20
1.671875
 30
0.0
 11
-3.304333333333333
 21
-1.671875
 31
0.0
  0
LINE
  5
D3
330
8E
100
AcDbEntity
  8
AM_4
100
AcDbLine
 10
-3.093
 20
1.709483644408685
 30
0.0
 11
-3.093
 21
0.8428289026684154
 31
0.0
  0
LWPOLYLINE
  5
D4
330
8E
100
AcDbEntity
  8
AM_4
100
AcDbPolyline
 90
        5
 70
     0
 43
0.0
 10
-2.979671350271268
 20
0.5952563489324052
 10
-2.995842373331684
 20
0.5853983471201033
 10
-3.023725531611538
 20
0.5729130873073736
 10
-3.05418570963239
 20
0.564599505893966
 10
-3.093
 20
0.560924466434642
  0
LWPOLYLINE
  5
D5
330
8E
100
AcDbEntity
  8
AM_4
100
AcDbPolyline
 90
        6
 70
     0
 43
0.0
 10
-3.093
 20
0.8839935461136664
 10
-3.069456540255967
 20
0.8827704602397235
 10
-3.046255059594891
 20
0.8791269088512271
 10
-3.015497135914977
 20
0.870192284193473
 10
-2.986110789565218
 20
0.8564042619296152
 10
-2.979704922061302
 20
0.8525529617905397
  0
LINE
  5
D6
330
8E
100
AcDbEntity
  8
AM_4
100
AcDbLine
 10
-3.093
 20
-1.71875
 30
0.0
 11
-2.98
 21
-1.71875
 31
0.0
  0
LWPOLYLINE
  5
D7
330
8E
100
AcDbEntity
  8
AM_4
100
AcDbPolyline
 90
        5
 70
     0
 43
0.0
 10
-2.979671350271268
 20
1.712879365020119
 10
-2.995842373331684
 20
1.711980611192172
 10
-3.023725531611538
 20
1.710753888887781
 10
-3.05418570963239
 20
1.709882600018857
 10
-3.093
 20
1.709483644408685
  0
ENDBLK
  5
91
330
8E
100
AcDbEntity
  8
0
100
AcDbBlockEnd
  0
BLOCK
  5
DA
330
D8
100
AcDbEntity
  8
0
100
AcDbBlockBegin
  2
3_070005i_0_in_071485_2
 70
     2
 10
0.0
 20
0.0
 30
0.0
  3
3_070005i_0_in_071485_2
  1

  0
ATTDEF
  5
DC
330
D8
100
AcDbEntity
  8
AM_6
100
AcDbText
 10
4.43375
 20
1.77165
 30
0.0
 40
0.5
  1
S-2000 Insert -Inch
100
AcDbAttributeDefinition
  3

  2
NN
 70
     8
280
     0
  0
ATTDEF
  5
DD
330
D8
100
AcDbEntity
  8
AM_6
100
AcDbText
 10
4.43375
 20
1.27165
 30
0.0
 40
0.5
  1
S-2000 Bearings
100
AcDbAttributeDefinition
  3

  2
NT
 70
     8
280
     0
  0
ATTDEF
  5
DE
330
D8
100
AcDbEntity
  8
AM_6
100
AcDbText
 10
4.43375
 20
0.77165
 30
0.0
 40
0.5
  1
070005i
100
AcDbAttributeDefinition
  3

  2
NB
 70
     8
280
     0
  0
ATTDEF
  5
DF
330
D8
100
AcDbEntity
  8
AM_6
100
AcDbText
 10
4.43375
 20
0.2716499999999999
 30
0.0
 40
0.5
  1
$PN.i
100
AcDbAttributeDefinition
  3

  2
NBSYN
 70
     8
280
     0
  0
ATTDEF
  5
E0
330
D8
100
AcDbEntity
  8
AM_6
100
AcDbText
 10
4.43375
 20
-0.2283500000000001
 30
0.0
 40
0.5
  1
070005i
100
AcDbAttributeDefinition
  3

  2
LINA
 70
     8
280
     0
  0
ATTDEF
  5
E1
330
D8
100
AcDbEntity
  8
AM_6
100
AcDbText
 10
4.43375
 20
-0.72835
 30
0.0
 40
0.5
  1
1-15/16
100
AcDbAttributeDefinition
  3

  2
SS
 70
     8
280
     0
  0
ATTDEF
  5
E2
330
D8
100
AcDbEntity
  8
AM_6
100
AcDbText
 10
4.43375
 20
-1.22835
 30
0.0
 40
0.5
  1
2.31
100
AcDbAttributeDefinition
  3

  2
CC
 70
     8
280
     0
  0
ATTDEF
  5
E3
330
D8
100
AcDbEntity
  8
AM_6
100
AcDbText
 10
4.43375
 20
-1.72835
 30
0.0
 40
0.5
  1
1.937500
100
AcDbAttributeDefinition
  3

  2
SS1
 70
     8
280
     0
  0
ATTDEF
  5
E4
330
D8
100
AcDbEntity
  8
AM_6
100
AcDbText
 10
4.43375
 20
-2.22835
 30
0.0
 40
0.5
  1
070005
100
AcDbAttributeDefinition
  3

  2
PN
 70
     8
280
     0
  0
ATTDEF
  5
E5
330
D8
100
AcDbEntity
  8
AM_6
100
AcDbText
 10
4.43375
 20
-2.72835
 30
0.0
 40
0.5
  1
INS-S2-115R
100
AcDbAttributeDefinition
  3

  2
DESCRIPTION
 70
     8
280
     0
  0
ATTDEF
  5
E6
330
D8
100
AcDbEntity
  8
AM_6
100
AcDbText
 10
4.43375
 20
-3.22835
 30
0.0
 40
0.5
  1
Contact Seal
100
AcDbAttributeDefinition
  3

  2
ST
 70
     8
280
     0
  0
ATTDEF
  5
E7
330
D8
100
AcDbEntity
  8
AM_6
100
AcDbText
 10
4.43375
 20
-3.72835
 30
0.0
 40
0.5
  1
1
100
AcDbAttributeDefinition
  3

  2
ST1
 70
     8
280
     0
  0
ATTDEF
  5
E8
330
D8
100
AcDbEntity
  8
AM_6
100
AcDbText
 10
4.43375
 20
-4.22835
 30
0.0
 40
0.5
  1
3.5433
100
AcDbAttributeDefinition
  3

  2
A
 70
     8
280
     0
  0
ATTDEF
  5
E9
330
D8
100
AcDbEntity
  8
AM_6
100
AcDbText
 10
4.43375
 20
-4.72835
 30
0.0
 40
0.5
  1
61/64
100
AcDbAttributeDefinition
  3

  2
B
 70
     8
280
     0
  0
ATTDEF
  5
EA
330
D8
100
AcDbEntity
  8
AM_6
100
AcDbText
 10
4.43375
 20
-5.22835
 30
0.0
 40
0.5
  1
2-27/32
100
AcDbAttributeDefinition
  3

  2
C
 70
     8
280
     0
  0
ATTDEF
  5
EB
330
D8
100
AcDbEntity
  8
AM_6
100
AcDbText
 10
4.43375
 20
-5.72835
 30
0.0
 40
0.5
  1
0.977
100
AcDbAttributeDefinition
  3

  2
D
 70
     8
280
     0
  0
ATTDEF
  5
EC
330
D8
100
AcDbEntity
  8
AM_6
100
AcDbText
 10
4.43375
 20
-6.22835
 30
0.0
 40
0.5
  1
3-11/32
100
AcDbAttributeDefinition
  3

  2
E
 70
     8
280
     0
  0
ATTDEF
  5
ED
330
D8
100
AcDbEntity
  8
AM_6
100
AcDbText
 10
4.43375
 20
-6.72835
 30
0.0
 40
0.5
  1
0.53125
100
AcDbAttributeDefinition
  3

  2
F
 70
     8
280
     0
  0
ATTDEF
  5
EE
330
D8
100
AcDbEntity
  8
AM_6
100
AcDbText
 10
4.43375
 20
-7.22835
 30
0.0
 40
0.5
  1
1
100
AcDbAttributeDefinition
  3

  2
DD
 70
     8
280
     0
  0
ATTDEF
  5
EF
330
D8
100
AcDbEntity
  8
AM_6
100
AcDbText
 10
4.43375
 20
-7.72835
 30
0.0
 40
0.5
  1
baldor
100
AcDbAttributeDefinition
  3

  2
COMPANY
 70
     8
280
     0
  0
LINE
  5
F0
330
D8
100
AcDbEntity
  8
AM_9
100
AcDbLine
 10
-3.298
 20
1.154877756637566
 30
0.0
 11
-3.298
 21
0.96875
 31
0.0
  0
LINE
  5
F1
330
D8
100
AcDbEntity
  8
AM_9
100
AcDbLine
 10
-2.887999999999999
 20
0.96875
 30
0.0
 11
-2.887999999999999
 21
1.154962221367664
 31
0.0
  0
LINE
  5
F2
330
D8
100
AcDbEntity
  8
AM_9
100
AcDbLine
 10
-3.298
 20
0.4881240923105078
 30
0.0
 11
-3.298
 21
0.4093796815139764
 31
0.0
  0
LINE
  5
F3
330
D8
100
AcDbEntity
  8
AM_9
100
AcDbLine
 10
-2.887999999999999
 20
0.409348864830776
 30
0.0
 11
-2.887999999999999
 21
0.4881240923105079
 31
0.0
  0
LWPOLYLINE
  5
F4
330
D8
100
AcDbEntity
  8
AM_9
100
AcDbPolyline
 90
        4
 70
     0
 43
0.0
 10
-3.293381691816198
 20
0.4482175976841642
 10
-3.294153715279822
 20
0.4447857261341431
 10
-3.297939807045839
 20
0.4139080907666526
 10
-3.297999998916322
 20
0.4094305446793951
  0
LWPOLYLINE
  5
F5
330
D8
100
AcDbEntity
  8
AM_9
100
AcDbPolyline
 90
        5
 70
     0
 43
0.0
 10
-3.238160340250683
 20
0.5360060630288337
 10
-3.249558288531905
 20
0.5255160061022681
 10
-3.269623180344151
 20
0.5013190575168165
 10
-3.284678285948385
 20
0.474140388213466
 10
-3.293381691816198
 20
0.4482175976841642
  0
LWPOLYLINE
  5
F6
330
D8
100
AcDbEntity
  8
AM_9
100
AcDbPolyline
 90
        5
 70
     0
 43
0.0
 10
-3.155656935710828
 20
0.5779171041027115
 10
-3.167410510139437
 20
0.5744793289699689
 10
-3.197684066716186
 20
0.5623204337713851
 10
-3.225448712124414
 20
0.5458236567720393
 10
-3.238160340250683
 20
0.5360060630288337
  0
LWPOLYLINE
  5
F7
330
D8
100
AcDbEntity
  8
AM_9
100
AcDbPolyline
 90
        4
 70
     0
 43
0.0
 10
-2.979652535832453
 20
0.5578067357589254
 10
-3.000798434943481
 20
0.5679731851036358
 10
-3.033046348718526
 20
0.5785936452282089
 10
-3.044678778600086
 20
0.5812184397830927
  0
LWPOLYLINE
  5
F8
330
D8
100
AcDbEntity
  8
AM_9
100
AcDbPolyline
 90
        3
 70
     0
 43
0.0
 10
-2.947600675961826
 20
0.5358038198148747
 10
-2.971341342376677
 20
0.552947421118201
 10
-2.979652535832453
 20
0.5578067357589254
  0
LWPOLYLINE
  5
F9
330
D8
100
AcDbEntity
  8
AM_9
100
AcDbPolyline
 90
        6
 70
     0
 43
0.0
 10
-2.89271045408515
 20
0.4485943149320413
 10
-2.895471348570589
 20
0.4583885309759159
 10
-2.907121992397568
 20
0.4861321433266658
 10
-2.92394696560148
 20
0.5115312804343691
 10
-2.945347258118033
 20
0.5338620959593247
 10
-2.947600675961826
 20
0.5358038198148747
  0
LWPOLYLINE
  5
FA
330
D8
100
AcDbEntity
  8
AM_9
100
AcDbPolyline
 90
        3
 70
     0
 43
0.0
 10
-2.888000000500865
 20
0.409398453444428
 10
-2.889136064059494
 20
0.4288430010579504
 10
-2.89271045408515
 20
0.4485943149320413
  0
LWPOLYLINE
  5
FB
330
D8
100
AcDbEntity
  8
AM_9
100
AcDbPolyline
 90
       11
 70
     0
 43
0.0
 10
-3.297999998916322
 20
0.4094305446793951
 10
-3.295924362693866
 20
0.3829860779201023
 10
-3.288383226411992
 20
0.3523329055112975
 10
-3.275517528997691
 20
0.3229483459410855
 10
-3.257757328877597
 20
0.2955979838589718
 10
-3.235092169532937
 20
0.2707236158708055
 10
-3.208469681517259
 20
0.2495882433293515
 10
-3.178172214352252
 20
0.2327810981844399
 10
-3.145382986684229
 20
0.221126527520521
 10
-3.119419867213706
 20
0.2160601660521318
 10
-3.093
 20
0.2143466326527852
  0
LWPOLYLINE
  5
FC
330
D8
100
AcDbEntity
  8
AM_9
100
AcDbPolyline
 90
        8
 70
     0
 43
0.0
 10
-2.969379395556531
 20
0.6314176227810677
 10
-2.958918559939226
 20
0.6242252158873672
 10
-2.934969404785717
 20
0.6033408369111423
 10
-2.915245335435469
 20
0.5787257344100865
 10
-2.900555624917102
 20
0.551232841494723
 10
-2.891441907098631
 20
0.5216613630812377
 10
-2.888019874684363
 20
0.4907096659398388
 10
-2.888000000576728
 20
0.4881380287629355
  0
LINE
  5
FD
330
D8
100
AcDbEntity
  8
AM_9
100
AcDbLine
 10
-2.979708023522236
 20
0.6375974408872906
 30
0.0
 11
-2.969379395556531
 21
0.6314176227810677
 31
0.0
  0
LWPOLYLINE
  5
FE
330
D8
100
AcDbEntity
  8
AM_9
100
AcDbPolyline
 90
       10
 70
     0
 43
0.0
 10
-3.220757478856362
 20
0.6286995562887309
 10
-3.213481352391878
 20
0.6333634238699369
 10
-3.183900303144283
 20
0.648436972693003
 10
-3.151625003279319
 20
0.6590286972977397
 10
-3.117645425831918
 20
0.6649324833827778
 10
-3.083404582061243
 20
0.6659645037566182
 10
-3.049437555419073
 20
0.6622764730365414
 10
-3.016960575943977
 20
0.6539702262409812
 10
-2.986592745364521
 20
0.6412787325986631
 10
-2.979708023522236
 20
0.6375974408872906
  0
LWPOLYLINE
  5
FF
330
D8
100
AcDbEntity
  8
AM_9
100
AcDbPolyline
 90
        7
 70
     0
 43
0.0
 10
-3.297999999363772
 20
0.4881094545278523
 10
-3.296794998115517
 20
0.5081490698992479
 10
-3.290298212665202
 20
0.5379371389228211
 10
-3.278420443226721
 20
0.565963361436172
 10
-3.26133651427101
 20
0.5916166019356104
 10
-3.239639899355451
 20
0.6141873703698317
 10
-3.220757478856362
 20
0.6286995562887309
  0
LWPOLYLINE
  5
100
330
D8
100
AcDbEntity
  8
AM_9
100
AcDbPolyline
 90
        6
 70
     0
 43
0.0
 10
-2.979995599876807
 20
0.327726429448681
 10
-2.980073889191244
 20
0.3276763021680447
 10
-3.010560959345696
 20
0.3115511382649416
 10
-3.043435264890733
 20
0.3005496543899619
 10
-3.068026989680054
 20
0.296086952188345
 10
-3.093
 20
0.2945809289154055
  0
LWPOLYLINE
  5
101
330
D8
100
AcDbEntity
  8
AM_9
100
AcDbPolyline
 90
        7
 70
     0
 43
0.0
 10
-2.888000000576728
 20
0.4881380287629355
 10
-2.890407761293978
 20
0.4596740657920109
 10
-2.898363953789168
 20
0.4290386003036939
 10
-2.911702571434621
 20
0.3997597701124795
 10
-2.929976360126782
 20
0.372643524411945
 10
-2.953066196985513
 20
0.3482500085262513
 10
-2.979995599876807
 20
0.327726429448681
  0
LWPOLYLINE
  5
102
330
D8
100
AcDbEntity
  8
AM_9
100
AcDbPolyline
 90
       11
 70
     0
 43
0.0
 10
-3.093
 20
0.2143466326527852
 10
-3.059020758055889
 20
0.2171971026045974
 10
-3.026010007254815
 20
0.2255469264103231
 10
-2.994939613290676
 20
0.2391432046943243
 10
-2.966586626444857
 20
0.2574272711717
 10
-2.941411888553894
 20
0.2801846132755332
 10
-2.920465047962213
 20
0.3063918783944212
 10
-2.904254046756648
 20
0.3355575662992906
 10
-2.89342199397038
 20
0.3664847618072958
 10
-2.888423780560766
 20
0.3977455807645244
 10
-2.888000000500865
 20
0.409398453444428
  0
LWPOLYLINE
  5
103
330
D8
100
AcDbEntity
  8
AM_9
100
AcDbPolyline
 90
       11
 70
     0
 43
0.0
 10
-3.093
 20
0.9468112602308868
 10
-3.059505003627407
 20
0.9474035451073634
 10
-3.026010007254815
 20
0.9491781822334519
 10
-2.995345648858121
 20
0.9518339848928179
 10
-2.966586626444857
 20
0.9552130147321026
 10
-2.941723840198573
 20
0.9588201286082112
 10
-2.920465047962213
 20
0.9624031754803604
 10
-2.904435925789876
 20
0.965405600036959
 10
-2.89342199397038
 20
0.9676171469081968
 10
-2.888434388217628
 20
0.9686581708858375
 10
-2.888000000000972
 20
0.9687499999997943
  0
LINE
  5
104
330
D8
100
AcDbEntity
  8
AM_9
100
AcDbLine
 10
-0.5662499999999997
 20
0.96875
 30
0.0
 11
-2.887999999999999
 21
0.96875
 31
0.0
  0
LINE
  5
105
330
D8
100
AcDbEntity
  8
AM_9
100
AcDbLine
 10
-3.298
 20
0.9687500000000001
 30
0.0
 11
-3.409999999999999
 21
0.96875
 31
0.0
  0
LINE
  5
106
330
D8
100
AcDbEntity
  8
AM_9
100
AcDbLine
 10
-3.409999999999999
 20
-0.96875
 30
0.0
 11
-0.5662499999999997
 21
-0.96875
 31
0.0
  0
LINE
  5
107
330
D8
100
AcDbEntity
  8
AM_9
100
AcDbLine
 10
-3.292577267387638
 20
0.9676169945582379
 30
0.0
 11
-3.29799999999808
 21
0.9687499999995938
 31
0.0
  0
LINE
  5
108
330
D8
100
AcDbEntity
  8
AM_9
100
AcDbLine
 10
-3.079866960491782
 20
0.9469023388009459
 30
0.0
 11
-3.097449217936017
 21
0.9468217139674409
 31
0.0
  0
LWPOLYLINE
  5
109
330
D8
100
AcDbEntity
  8
AM_9
100
AcDbPolyline
 90
       11
 70
     0
 43
0.0
 10
-3.29799999999808
 20
0.9687499999995938
 10
-3.2960134541351
 20
0.9683315677286707
 10
-3.288383226411992
 20
0.9667606568655759
 10
-3.275745862267386
 20
0.9642860637154571
 10
-3.257757328877597
 20
0.9610393019637028
 10
-3.235451064148255
 20
0.9574674240813472
 10
-3.208469681517259
 20
0.9538264044624145
 10
-3.178647955376678
 20
0.950677197980579
 10
-3.145382986684229
 20
0.9482592155070048
 10
-3.119650336268895
 20
0.9471862556663526
 10
-3.093
 20
0.9468112602308868
  0
LWPOLYLINE
  5
10A
330
D8
100
AcDbEntity
  8
AM_9
100
AcDbPolyline
 90
       11
 70
     0
 43
0.0
 10
-3.093
 20
0.2945809289154055
 10
-3.127108435385009
 20
0.2974090635686094
 10
-3.160248002252064
 20
0.3057019191665715
 10
-3.191447523479571
 20
0.3192274373077653
 10
-3.219905193923415
 20
0.3374457705877584
 10
-3.245041955311809
 20
0.360055348193841
 10
-3.265924449120013
 20
0.3861162654203096
 10
-3.281999307750008
 20
0.4150579676835031
 10
-3.292705549264893
 20
0.4457796282625968
 10
-3.297613652474625
 20
0.4770156832445993
 10
-3.297999999363772
 20
0.4881094545278523
  0
LWPOLYLINE
  5
10B
330
D8
100
AcDbEntity
  8
AM_9
100
AcDbPolyline
 90
       11
 70
     0
 43
0.0
 10
-3.093
 20
1.136661779070626
 10
-3.126624001126032
 20
1.137158992160605
 10
-3.160248002252064
 20
1.138649328725439
 10
-3.19103633428095
 20
1.140881730434512
 10
-3.219905193923415
 20
1.1437241486673
 10
-3.244729194740476
 20
1.146743976891352
 10
-3.265924449120013
 20
1.149740346818994
 10
-3.281821069430812
 20
1.15223842856459
 10
-3.292705549264893
 20
1.154072054252763
 10
-3.297604431485292
 20
1.154929856477621
 10
-3.297999999999382
 20
1.15499999999989
  0
LINE
  5
10C
330
D8
100
AcDbEntity
  8
AM_9
100
AcDbLine
 10
-2.24475
 20
1.155
 30
0.0
 11
-2.888214888604288
 21
1.155
 31
0.0
  0
LINE
  5
10D
330
D8
100
AcDbEntity
  8
AM_9
100
AcDbLine
 10
-3.297309419942035
 20
1.155
 30
0.0
 11
-3.41
 21
1.155
 31
0.0
  0
LINE
  5
10E
330
D8
100
AcDbEntity
  8
AM_9
100
AcDbLine
 10
-3.41
 20
-1.155
 30
0.0
 11
-2.24475
 21
-1.155
 31
0.0
  0
LINE
  5
10F
330
D8
100
AcDbEntity
  8
AM_9
100
AcDbLine
 10
-2.898868378553237
 20
1.153120586255206
 30
0.0
 11
-2.888000000000512
 21
1.154999999999909
 31
0.0
  0
LINE
  5
110
330
D8
100
AcDbEntity
  8
AM_9
100
AcDbLine
 10
-3.105447183144449
 20
1.136729929388778
 30
0.0
 11
-3.087484740588993
 21
1.136675159439306
 31
0.0
  0
LWPOLYLINE
  5
111
330
D8
100
AcDbEntity
  8
AM_9
100
AcDbPolyline
 90
        6
 70
     0
 43
0.0
 10
-2.979995565314546
 20
1.142265294167069
 10
-2.980073889191244
 20
1.142257548236119
 10
-3.010086840693593
 20
1.139681794180362
 10
-3.043435264890733
 20
1.13774191404134
 10
-3.067834828794659
 20
1.136940317625246
 10
-3.093
 20
1.136661779070626
  0
LWPOLYLINE
  5
112
330
D8
100
AcDbEntity
  8
AM_9
100
AcDbPolyline
 90
        7
 70
     0
 43
0.0
 10
-2.888000000000512
 20
1.154999999999909
 10
-2.890313289603336
 20
1.154591660532598
 10
-2.898363953789168
 20
1.153205615007395
 10
-2.911464750620485
 20
1.151066916719998
 10
-2.929976360126782
 20
1.148292953543438
 10
-2.952698368403657
 20
1.14528797593819
 10
-2.979995565314546
 20
1.142265294167069
  0
LINE
  5
113
330
D8
100
AcDbEntity
  8
AM_9
100
AcDbLine
 10
-0.5899999999999997
 20
1.155
 30
0.0
 11
-0.841749999999999
 21
1.155
 31
0.0
  0
LINE
  5
114
330
D8
100
AcDbEntity
  8
AM_9
100
AcDbLine
 10
-0.841749999999999
 20
-1.155
 30
0.0
 11
-0.5899999999999997
 21
-1.155
 31
0.0
  0
LINE
  5
115
330
D8
100
AcDbEntity
  8
AM_9
100
AcDbLine
 10
-2.24475
 20
-1.3220075
 30
0.0
 11
-2.24475
 21
1.3220075
 31
0.0
  0
ARC
  5
116
330
D8
100
AcDbEntity
  8
AM_9
100
AcDbCircle
 10
-2.149437499999999
 20
1.3220075
 30
0.0
 40
0.0953125000000001
100
AcDbArc
 50
90.0
 51
179.9999991462263
  0
ARC
  5
117
330
D8
100
AcDbEntity
  8
AM_9
100
AcDbCircle
 10
-2.149437499999999
 20
-1.3220075
 30
0.0
 40
0.0953125000000004
100
AcDbArc
 50
179.9999991462263
 51
270.0
  0
LINE
  5
118
330
D8
100
AcDbEntity
  8
AM_9
100
AcDbLine
 10
-0.9370624999999995
 20
1.41732
 30
0.0
 11
-1.0666875
 21
1.41732
 31
0.0
  0
LINE
  5
119
330
D8
100
AcDbEntity
  8
AM_9
100
AcDbLine
 10
-1.0666875
 20
-1.41732
 30
0.0
 11
-0.9370624999999995
 21
-1.41732
 31
0.0
  0
LINE
  5
11A
330
D8
100
AcDbEntity
  8
AM_9
100
AcDbLine
 10
-0.841749999999999
 20
-1.3220075
 30
0.0
 11
-0.841749999999999
 21
1.3220075
 31
0.0
  0
LINE
  5
11B
330
D8
100
AcDbEntity
  8
AM_9
100
AcDbLine
 10
-0.9370624999999995
 20
-1.41732
 30
0.0
 11
-0.9370624999999995
 21
1.41732
 31
0.0
  0
ARC
  5
11C
330
D8
100
AcDbEntity
  8
AM_9
100
AcDbCircle
 10
-0.9370624999999987
 20
1.3220075
 30
0.0
 40
0.0953124999999997
100
AcDbArc
 50
0.0
 51
90.0
  0
ARC
  5
11D
330
D8
100
AcDbEntity
  8
AM_9
100
AcDbCircle
 10
-0.9370624999999987
 20
-1.3220075
 30
0.0
 40
0.0953124999999997
100
AcDbArc
 50
270.0
 51
0.0
  0
LINE
  5
11E
330
D8
100
AcDbEntity
  8
AM_9
100
AcDbLine
 10
-2.1494375
 20
-1.41732
 30
0.0
 11
-2.1494375
 21
1.41732
 31
0.0
  0
LINE
  5
11F
330
D8
100
AcDbEntity
  8
AM_9
100
AcDbLine
 10
-2.019812499999999
 20
1.41732
 30
0.0
 11
-2.1494375
 21
1.41732
 31
0.0
  0
LINE
  5
120
330
D8
100
AcDbEntity
  8
AM_9
100
AcDbLine
 10
-2.1494375
 20
-1.41732
 30
0.0
 11
-2.019812499999999
 21
-1.41732
 31
0.0
  0
LINE
  5
121
330
D8
100
AcDbEntity
  8
AM_9
100
AcDbLine
 10
-1.495593749999999
 20
1.700784
 30
0.0
 11
-1.59090625
 21
1.700784
 31
0.0
  0
LINE
  5
122
330
D8
100
AcDbEntity
  8
AM_9
100
AcDbLine
 10
-1.59090625
 20
-1.700784
 30
0.0
 11
-1.495593749999999
 21
-1.700784
 31
0.0
  0
LINE
  5
123
330
D8
100
AcDbEntity
  8
AM_9
100
AcDbLine
 10
-2.019812499999999
 20
-1.6763375
 30
0.0
 11
-2.019812499999999
 21
1.6763375
 31
0.0
  0
ARC
  5
124
330
D8
100
AcDbEntity
  8
AM_9
100
AcDbCircle
 10
-1.924499999999999
 20
1.6763375
 30
0.0
 40
0.0953124999999999
100
AcDbArc
 50
90.0
 51
180.0
  0
ARC
  5
125
330
D8
100
AcDbEntity
  8
AM_9
100
AcDbCircle
 10
-1.924499999999999
 20
-1.6763375
 30
0.0
 40
0.0953124999999999
100
AcDbArc
 50
180.0
 51
270.0
  0
LINE
  5
126
330
D8
100
AcDbEntity
  8
AM_9
100
AcDbLine
 10
-1.495593749999999
 20
-1.700784
 30
0.0
 11
-1.495593749999999
 21
1.700784
 31
0.0
  0
LINE
  5
127
330
D8
100
AcDbEntity
  8
AM_9
100
AcDbLine
 10
-1.495593749999999
 20
-1.700784
 30
0.0
 11
-1.454679245823607
 21
-1.77165
 31
0.0
  0
LINE
  5
128
330
D8
100
AcDbEntity
  8
AM_9
100
AcDbLine
 10
-1.454679245823607
 20
1.77165
 30
0.0
 11
-1.495593749999999
 21
1.700784
 31
0.0
  0
LINE
  5
129
330
D8
100
AcDbEntity
  8
AM_9
100
AcDbLine
 10
-1.9245
 20
-1.77165
 30
0.0
 11
-1.9245
 21
1.77165
 31
0.0
  0
LINE
  5
12A
330
D8
100
AcDbEntity
  8
AM_9
100
AcDbLine
 10
-1.631820754176392
 20
1.77165
 30
0.0
 11
-1.9245
 21
1.77165
 31
0.0
  0
LINE
  5
12B
330
D8
100
AcDbEntity
  8
AM_9
100
AcDbLine
 10
-1.9245
 20
-1.77165
 30
0.0
 11
-1.631820754176392
 21
-1.77165
 31
0.0
  0
LINE
  5
12C
330
D8
100
AcDbEntity
  8
AM_9
100
AcDbLine
 10
-1.454679245823607
 20
-1.77165
 30
0.0
 11
-1.454679245823607
 21
1.77165
 31
0.0
  0
LINE
  5
12D
330
D8
100
AcDbEntity
  8
AM_9
100
AcDbLine
 10
-1.161999999999999
 20
1.77165
 30
0.0
 11
-1.454679245823607
 21
1.77165
 31
0.0
  0
LINE
  5
12E
330
D8
100
AcDbEntity
  8
AM_9
100
AcDbLine
 10
-1.454679245823607
 20
-1.77165
 30
0.0
 11
-1.161999999999999
 21
-1.77165
 31
0.0
  0
LINE
  5
12F
330
D8
100
AcDbEntity
  8
AM_9
100
AcDbLine
 10
-1.0666875
 20
-1.676337499999999
 30
0.0
 11
-1.0666875
 21
1.676337499999999
 31
0.0
  0
LINE
  5
130
330
D8
100
AcDbEntity
  8
AM_9
100
AcDbLine
 10
-1.161999999999999
 20
-1.77165
 30
0.0
 11
-1.161999999999999
 21
1.77165
 31
0.0
  0
ARC
  5
131
330
D8
100
AcDbEntity
  8
AM_9
100
AcDbCircle
 10
-1.162
 20
1.6763375
 30
0.0
 40
0.0953125000000001
100
AcDbArc
 50
0.0
 51
90.0
  0
ARC
  5
132
330
D8
100
AcDbEntity
  8
AM_9
100
AcDbCircle
 10
-1.162
 20
-1.676337499999999
 30
0.0
 40
0.0953125000000006
100
AcDbArc
 50
270.0
 51
0.0
  0
LINE
  5
133
330
D8
100
AcDbEntity
  8
AM_9
100
AcDbLine
 10
-1.59090625
 20
-1.700784
 30
0.0
 11
-1.59090625
 21
1.700784
 31
0.0
  0
LINE
  5
134
330
D8
100
AcDbEntity
  8
AM_9
100
AcDbLine
 10
-1.631820754176392
 20
-1.77165
 30
0.0
 11
-1.631820754176392
 21
1.77165
 31
0.0
  0
LINE
  5
135
330
D8
100
AcDbEntity
  8
AM_9
100
AcDbLine
 10
-1.59090625
 20
1.700784
 30
0.0
 11
-1.631820754176392
 21
1.77165
 31
0.0
  0
LINE
  5
136
330
D8
100
AcDbEntity
  8
AM_9
100
AcDbLine
 10
-1.631820754176392
 20
-1.77165
 30
0.0
 11
-1.59090625
 21
-1.700784
 31
0.0
  0
LINE
  5
139
330
D8
100
AcDbEntity
  8
AM_7
100
AcDbLine
 10
-3.093
 20
-0.0592307692307692
 30
0.0
 11
-3.093
 21
1.7481875
 31
0.0
  0
LWPOLYLINE
  5
13A
330
D8
100
AcDbEntity
  8
AM_4
100
AcDbPolyline
 90
        5
 70
     0
 43
0.0
 10
-3.044678778600086
 20
0.5812184397830927
 10
-3.067060385800203
 20
0.584589595465975
 10
-3.101190842116225
 20
0.5857837481735078
 10
-3.135086076776438
 20
0.5823704532999637
 10
-3.155656935710828
 20
0.5779171041027115
  0
LINE
  5
13B
330
D8
100
AcDbEntity
  8
AM_4
100
AcDbLine
 10
-0.5662499999999997
 20
-1.155
 30
0.0
 11
-0.5662499999999997
 21
1.155
 31
0.0
  0
LINE
  5
13C
330
D8
100
AcDbEntity
  8
AM_4
100
AcDbLine
 10
-0.5662499999999997
 20
1.155
 30
0.0
 11
-0.5899999999999997
 21
1.155
 31
0.0
  0
LINE
  5
13D
330
D8
100
AcDbEntity
  8
AM_4
100
AcDbLine
 10
-0.5899999999999997
 20
-1.155
 30
0.0
 11
-0.5662499999999997
 21
-1.155
 31
0.0
  0
ENDBLK
  5
DB
330
D8
100
AcDbEntity
  8
0
100
AcDbBlockEnd
  0
BLOCK
  5
140
330
13E
100
AcDbEntity
  8
0
100
AcDbBlockBegin
  2
4_405015E_Inch_0_in_071485_2
 70
     2
 10
0.0
 20
0.0
 30
0.0
  3
4_405015E_Inch_0_in_071485_2
  1

  0
ATTDEF
  5
142
330
13E
100
AcDbEntity
  8
AM_6
100
AcDbText
 10
3.172590742770462
 20
2.655
 30
0.0
 40
0.5
  1
405015E -Inch
100
AcDbAttributeDefinition
  3

  2
NN
 70
     8
280
     0
  0
ATTDEF
  5
143
330
13E
100
AcDbEntity
  8
AM_6
100
AcDbText
 10
3.172590742770462
 20
2.155
 30
0.0
 40
0.5
  1
Grease Fitting
100
AcDbAttributeDefinition
  3

  2
NT
 70
     8
280
     0
  0
ATTDEF
  5
144
330
13E
100
AcDbEntity
  8
AM_6
100
AcDbText
 10
3.172590742770462
 20
1.655
 30
0.0
 40
0.5
  1
405015E-Inch
100
AcDbAttributeDefinition
  3

  2
NB
 70
     8
280
     0
  0
ATTDEF
  5
145
330
13E
100
AcDbEntity
  8
AM_6
100
AcDbText
 10
3.172590742770462
 20
1.155
 30
0.0
 40
0.5
  1
$MN.-Inch
100
AcDbAttributeDefinition
  3

  2
NBSYN
 70
     8
280
     0
  0
ATTDEF
  5
146
330
13E
100
AcDbEntity
  8
AM_6
100
AcDbText
 10
3.172590742770462
 20
0.6549999999999998
 30
0.0
 40
0.5
  1
405015E
100
AcDbAttributeDefinition
  3

  2
LINA
 70
     8
280
     0
  0
ATTDEF
  5
147
330
13E
100
AcDbEntity
  8
AM_6
100
AcDbText
 10
3.172590742770462
 20
0.1549999999999998
 30
0.0
 40
0.5
  1
405015E
100
AcDbAttributeDefinition
  3

  2
MN
 70
     8
280
     0
  0
ATTDEF
  5
148
330
13E
100
AcDbEntity
  8
AM_6
100
AcDbText
 10
3.172590742770462
 20
-0.3450000000000002
 30
0.0
 40
0.5
  1
1/8 x 27PTF
100
AcDbAttributeDefinition
  3

  2
T
 70
     8
280
     0
  0
ATTDEF
  5
149
330
13E
100
AcDbEntity
  8
AM_6
100
AcDbText
 10
3.172590742770462
 20
-0.8450000000000002
 30
0.0
 40
0.5
  1
baldor
100
AcDbAttributeDefinition
  3

  2
COMPANY
 70
     8
280
     0
  0
LINE
  5
14A
330
13E
100
AcDbEntity
  8
AM_9
100
AcDbLine
 10
-2.241902872472269
 20
2.015
 30
0.0
 11
-1.918097127527731
 21
2.015
 31
0.0
  0
LINE
  5
14B
330
13E
100
AcDbEntity
  8
AM_9
100
AcDbLine
 10
-1.918097127527731
 20
2.015
 30
0.0
 11
-1.881382373218785
 21
2.051714754308947
 31
0.0
  0
LINE
  5
14C
330
13E
100
AcDbEntity
  8
AM_9
100
AcDbLine
 10
-2.278617626781215
 20
2.051714754308947
 30
0.0
 11
-2.241902872472269
 21
2.015
 31
0.0
  0
LINE
  5
14D
330
13E
100
AcDbEntity
  8
AM_9
100
AcDbLine
 10
-2.278617626781215
 20
2.051714754308947
 30
0.0
 11
-1.881382373218785
 21
2.051714754308947
 31
0.0
  0
LINE
  5
14E
330
13E
100
AcDbEntity
  8
AM_9
100
AcDbLine
 10
-1.881382373218785
 20
2.051714754308947
 30
0.0
 11
-1.87424810277693
 21
2.28
 31
0.0
  0
LINE
  5
14F
330
13E
100
AcDbEntity
  8
AM_9
100
AcDbLine
 10
-2.285751897223069
 20
2.28
 30
0.0
 11
-2.278617626781215
 21
2.051714754308947
 31
0.0
  0
LINE
  5
150
330
13E
100
AcDbEntity
  8
AM_5
100
AcDbLine
 10
-1.911850875147652
 20
2.214870087748463
 30
0.0
 11
-1.918097127527731
 21
2.015000000000001
 31
0.0
  0
LINE
  5
151
330
13E
100
AcDbEntity
  8
AM_5
100
AcDbLine
 10
-1.87424810277693
 20
2.280000000000001
 30
0.0
 11
-1.911850875147652
 21
2.214870087748463
 31
0.0
  0
LINE
  5
152
330
13E
100
AcDbEntity
  8
AM_5
100
AcDbLine
 10
-2.283716485751556
 20
2.214870087748463
 30
0.0
 11
-1.876283514248443
 21
2.214870087748463
 31
0.0
  0
LINE
  5
153
330
13E
100
AcDbEntity
  8
AM_5
100
AcDbLine
 10
-2.248149124852348
 20
2.214870087748463
 30
0.0
 11
-2.241902872472269
 21
2.015000000000001
 31
0.0
  0
LINE
  5
154
330
13E
100
AcDbEntity
  8
AM_5
100
AcDbLine
 10
-2.285751897223069
 20
2.280000000000001
 30
0.0
 11
-2.248149124852348
 21
2.214870087748463
 31
0.0
  0
LINE
  5
155
330
13E
100
AcDbEntity
  8
AM_4
100
AcDbLine
 10
-1.975
 20
2.485
 30
0.0
 11
-1.975
 21
2.515000000000001
 31
0.0
  0
LINE
  5
156
330
13E
100
AcDbEntity
  8
AM_4
100
AcDbLine
 10
-2.185
 20
2.515000000000001
 30
0.0
 11
-2.185
 21
2.485
 31
0.0
  0
LINE
  5
157
330
13E
100
AcDbEntity
  8
AM_4
100
AcDbLine
 10
-2.29875
 20
2.38
 30
0.0
 11
-1.86125
 21
2.38
 31
0.0
  0
LINE
  5
158
330
13E
100
AcDbEntity
  8
AM_4
100
AcDbLine
 10
-1.827409257229539
 20
2.370932400303386
 30
0.0
 11
-1.86125
 21
2.38
 31
0.0
  0
LINE
  5
159
330
13E
100
AcDbEntity
  8
AM_4
100
AcDbLine
 10
-2.29875
 20
2.38
 30
0.0
 11
-2.332590742770461
 21
2.370932400303386
 31
0.0
  0
LINE
  5
15A
330
13E
100
AcDbEntity
  8
AM_4
100
AcDbLine
 10
-1.86125
 20
2.28
 30
0.0
 11
-1.827409257229539
 21
2.289067599696615
 31
0.0
  0
LINE
  5
15B
330
13E
100
AcDbEntity
  8
AM_4
100
AcDbLine
 10
-2.332590742770461
 20
2.289067599696615
 30
0.0
 11
-2.29875
 21
2.28
 31
0.0
  0
LINE
  5
15C
330
13E
100
AcDbEntity
  8
AM_4
100
AcDbLine
 10
-2.185
 20
2.485
 30
0.0
 11
-1.975
 21
2.485
 31
0.0
  0
LINE
  5
15D
330
13E
100
AcDbEntity
  8
AM_4
100
AcDbLine
 10
-2.185
 20
2.485
 30
0.0
 11
-2.198820090734897
 21
2.452753121618573
 31
0.0
  0
LINE
  5
15E
330
13E
100
AcDbEntity
  8
AM_4
100
AcDbLine
 10
-1.961179909265103
 20
2.452753121618573
 30
0.0
 11
-1.975
 21
2.485
 31
0.0
  0
LINE
  5
15F
330
13E
100
AcDbEntity
  8
AM_4
100
AcDbLine
 10
-2.182677901933187
 20
2.655
 30
0.0
 11
-1.977322098066812
 21
2.655
 31
0.0
  0
LINE
  5
160
330
13E
100
AcDbEntity
  8
AM_4
100
AcDbLine
 10
-2.182677901933187
 20
2.655
 30
0.0
 11
-2.215
 21
2.575
 31
0.0
  0
LINE
  5
161
330
13E
100
AcDbEntity
  8
AM_4
100
AcDbLine
 10
-1.945
 20
2.575
 30
0.0
 11
-1.977322098066812
 21
2.655
 31
0.0
  0
LINE
  5
162
330
13E
100
AcDbEntity
  8
AM_4
100
AcDbLine
 10
-2.215
 20
2.575
 30
0.0
 11
-1.945
 21
2.575
 31
0.0
  0
LINE
  5
163
330
13E
100
AcDbEntity
  8
AM_4
100
AcDbLine
 10
-2.185
 20
2.515000000000001
 30
0.0
 11
-1.975
 21
2.515000000000001
 31
0.0
  0
LINE
  5
164
330
13E
100
AcDbEntity
  8
AM_4
100
AcDbLine
 10
-1.975
 20
2.515000000000001
 30
0.0
 11
-1.945
 21
2.575
 31
0.0
  0
LINE
  5
165
330
13E
100
AcDbEntity
  8
AM_4
100
AcDbLine
 10
-2.215
 20
2.575
 30
0.0
 11
-2.185
 21
2.515000000000001
 31
0.0
  0
LINE
  5
166
330
13E
100
AcDbEntity
  8
AM_4
100
AcDbLine
 10
-2.198820090734897
 20
2.452753121618573
 30
0.0
 11
-1.961179909265102
 21
2.452753121618573
 31
0.0
  0
LINE
  5
167
330
13E
100
AcDbEntity
  8
AM_4
100
AcDbLine
 10
-2.198820090734898
 20
2.452753121618573
 30
0.0
 11
-2.252534053283015
 21
2.398318198540882
 31
0.0
  0
LINE
  5
168
330
13E
100
AcDbEntity
  8
AM_4
100
AcDbLine
 10
-1.907465946716985
 20
2.398318198540882
 30
0.0
 11
-1.961179909265102
 21
2.452753121618573
 31
0.0
  0
LINE
  5
169
330
13E
100
AcDbEntity
  8
AM_4
100
AcDbLine
 10
-2.252534053283015
 20
2.398318198540882
 30
0.0
 11
-1.907465946716985
 21
2.398318198540882
 31
0.0
  0
LINE
  5
16A
330
13E
100
AcDbEntity
  8
AM_4
100
AcDbLine
 10
-2.252534053283015
 20
2.398318198540882
 30
0.0
 11
-2.29375
 21
2.38
 31
0.0
  0
LINE
  5
16B
330
13E
100
AcDbEntity
  8
AM_4
100
AcDbLine
 10
-1.86625
 20
2.38
 30
0.0
 11
-1.907465946716985
 21
2.398318198540882
 31
0.0
  0
LWPOLYLINE
  5
16C
330
13E
100
AcDbEntity
  8
AM_4
100
AcDbPolyline
 90
        3
 70
     0
 43
0.0
 10
-2.332590742770461
 20
2.370932400303386
 10
-2.301158864423564
 20
2.37758547505038
 10
-2.269443057077846
 20
2.38
  0
LINE
  5
16D
330
13E
100
AcDbEntity
  8
AM_4
100
AcDbLine
 10
-2.332590742770461
 20
2.370932400303386
 30
0.0
 11
-2.332590742770461
 21
2.289067599696615
 31
0.0
  0
LWPOLYLINE
  5
16E
330
13E
100
AcDbEntity
  8
AM_4
100
AcDbPolyline
 90
        3
 70
     0
 43
0.0
 10
-2.269443057077846
 20
2.28
 10
-2.301016899924154
 20
2.282393380785035
 10
-2.332590742770461
 20
2.289067599696615
  0
LINE
  5
16F
330
13E
100
AcDbEntity
  8
AM_4
100
AcDbLine
 10
-1.827409257229539
 20
2.370932400303386
 30
0.0
 11
-1.827409257229539
 21
2.289067599696615
 31
0.0
  0
LWPOLYLINE
  5
170
330
13E
100
AcDbEntity
  8
AM_4
100
AcDbPolyline
 90
        3
 70
     0
 43
0.0
 10
-1.890556942922154
 20
2.38
 10
-1.858983100075846
 20
2.377606619214966
 10
-1.827409257229539
 20
2.370932400303386
  0
LWPOLYLINE
  5
171
330
13E
100
AcDbEntity
  8
AM_4
100
AcDbPolyline
 90
        3
 70
     0
 43
0.0
 10
-1.827409257229539
 20
2.289067599696615
 10
-1.858841135576436
 20
2.28241452494962
 10
-1.890556942922154
 20
2.28
  0
LWPOLYLINE
  5
172
330
13E
100
AcDbEntity
  8
AM_4
100
AcDbPolyline
 90
        3
 70
     0
 43
0.0
 10
-2.269443057077846
 20
2.38
 10
-2.237869214231538
 20
2.377606619214966
 10
-2.20629537138523
 20
2.370932400303386
  0
LWPOLYLINE
  5
173
330
13E
100
AcDbEntity
  8
AM_4
100
AcDbPolyline
 90
        3
 70
     0
 43
0.0
 10
-1.890556942922154
 20
2.28
 10
-1.922130785768462
 20
2.282393380785035
 10
-1.953704628614769
 20
2.289067599696615
  0
LWPOLYLINE
  5
174
330
13E
100
AcDbEntity
  8
AM_4
100
AcDbPolyline
 90
        3
 70
     0
 43
0.0
 10
-2.20629537138523
 20
2.289067599696615
 10
-2.237727249732127
 20
2.28241452494962
 10
-2.269443057077846
 20
2.28
  0
LINE
  5
175
330
13E
100
AcDbEntity
  8
AM_4
100
AcDbLine
 10
-1.953704628614769
 20
2.370932400303386
 30
0.0
 11
-1.953704628614769
 21
2.289067599696615
 31
0.0
  0
LWPOLYLINE
  5
176
330
13E
100
AcDbEntity
  8
AM_4
100
AcDbPolyline
 90
        3
 70
     0
 43
0.0
 10
-2.20629537138523
 20
2.370932400303386
 10
-2.143431614691437
 20
2.37758547505038
 10
-2.08
 20
2.38
  0
LINE
  5
177
330
13E
100
AcDbEntity
  8
AM_4
100
AcDbLine
 10
-2.20629537138523
 20
2.370932400303386
 30
0.0
 11
-2.20629537138523
 21
2.289067599696615
 31
0.0
  0
LWPOLYLINE
  5
178
330
13E
100
AcDbEntity
  8
AM_4
100
AcDbPolyline
 90
        3
 70
     0
 43
0.0
 10
-2.08
 20
2.28
 10
-2.143147685692615
 20
2.282393380785035
 10
-2.20629537138523
 20
2.289067599696615
  0
LWPOLYLINE
  5
179
330
13E
100
AcDbEntity
  8
AM_4
100
AcDbPolyline
 90
        4
 70
     0
 43
0.0
 10
-1.953704628614769
 20
2.289067599696615
 10
-1.983200367888202
 20
2.285482412517844
 10
-2.031457558752245
 20
2.281425828243072
 10
-2.08
 20
2.28
  0
LWPOLYLINE
  5
17A
330
13E
100
AcDbEntity
  8
AM_4
100
AcDbPolyline
 90
        4
 70
     0
 43
0.0
 10
-2.08
 20
2.38
 10
-2.031600183944101
 20
2.378582439282863
 10
-1.983200367888202
 20
2.374517587482157
 10
-1.953704628614769
 20
2.370932400303386
  0
LWPOLYLINE
  5
17B
330
13E
100
AcDbEntity
  8
AM_4
100
AcDbPolyline
 90
        3
 70
     0
 43
0.0
 10
-1.953704628614769
 20
2.370932400303386
 10
-1.922272750267872
 20
2.37758547505038
 10
-1.890556942922154
 20
2.38
  0
ENDBLK
  5
141
330
13E
100
AcDbEntity
  8
0
100
AcDbBlockEnd
  0
BLOCK
  5
17E
330
17C
100
AcDbEntity
  8
0
100
AcDbBlockBegin
  2
5_B071485_0_in_071485_2
 70
     2
 10
0.0
 20
0.0
 30
0.0
  3
5_B071485_0_in_071485_2
  1

  0
ATTDEF
  5
180
330
17C
100
AcDbEntity
  8
AM_6
100
AcDbText
 10
5.149
 20
2.81
 30
0.0
 40
0.5
  1
EF4S-S2 -(Contact Seal)-Housing
100
AcDbAttributeDefinition
  3

  2
NN
 70
     8
280
     0
  0
ATTDEF
  5
181
330
17C
100
AcDbEntity
  8
AM_6
100
AcDbText
 10
5.149
 20
2.31
 30
0.0
 40
0.5
  1
S-2000 -E TYpe -Inch
100
AcDbAttributeDefinition
  3

  2
NT
 70
     8
280
     0
  0
ATTDEF
  5
182
330
17C
100
AcDbEntity
  8
AM_6
100
AcDbText
 10
5.149
 20
1.81
 30
0.0
 40
0.5
  1
B071485
100
AcDbAttributeDefinition
  3

  2
NB
 70
     8
280
     0
  0
ATTDEF
  5
183
330
17C
100
AcDbEntity
  8
AM_6
100
AcDbText
 10
5.149
 20
1.31
 30
0.0
 40
0.5
  1
$PN.
100
AcDbAttributeDefinition
  3

  2
NBSYN
 70
     8
280
     0
  0
ATTDEF
  5
184
330
17C
100
AcDbEntity
  8
AM_6
100
AcDbText
 10
5.149
 20
0.8099999999999996
 30
0.0
 40
0.5
  1
B071485
100
AcDbAttributeDefinition
  3

  2
LINA
 70
     8
280
     0
  0
ATTDEF
  5
185
330
17C
100
AcDbEntity
  8
AM_6
100
AcDbText
 10
5.149
 20
0.3099999999999996
 30
0.0
 40
0.5
  1
1-15/16
100
AcDbAttributeDefinition
  3

  2
SS
 70
     8
280
     0
  0
ATTDEF
  5
186
330
17C
100
AcDbEntity
  8
AM_6
100
AcDbText
 10
5.149
 20
-0.1900000000000004
 30
0.0
 40
0.5
  1
1.937500
100
AcDbAttributeDefinition
  3

  2
SS1
 70
     8
280
     0
  0
ATTDEF
  5
187
330
17C
100
AcDbEntity
  8
AM_6
100
AcDbText
 10
5.149
 20
-0.6900000000000004
 30
0.0
 40
0.5
  1
Expansion
100
AcDbAttributeDefinition
  3

  2
TYPE
 70
     8
280
     0
  0
ATTDEF
  5
188
330
17C
100
AcDbEntity
  8
AM_6
100
AcDbText
 10
5.149
 20
-1.19
 30
0.0
 40
0.5
  1
071472
100
AcDbAttributeDefinition
  3

  2
PN1
 70
     8
280
     0
  0
ATTDEF
  5
189
330
17C
100
AcDbEntity
  8
AM_6
100
AcDbText
 10
5.149
 20
-1.69
 30
0.0
 40
0.5
  1
071485
100
AcDbAttributeDefinition
  3

  2
PN2
 70
     8
280
     0
  0
ATTDEF
  5
18A
330
17C
100
AcDbEntity
  8
AM_6
100
AcDbText
 10
5.149
 20
-2.19
 30
0.0
 40
0.5
  1
EF4B-S2-115R
100
AcDbAttributeDefinition
  3

  2
DESC1
 70
     8
280
     0
  0
ATTDEF
  5
18B
330
17C
100
AcDbEntity
  8
AM_6
100
AcDbText
 10
5.149
 20
-2.69
 30
0.0
 40
0.5
  1
EF4B-S2-115RE
100
AcDbAttributeDefinition
  3

  2
DESC2
 70
     8
280
     0
  0
ATTDEF
  5
18C
330
17C
100
AcDbEntity
  8
AM_6
100
AcDbText
 10
5.149
 20
-3.19
 30
0.0
 40
0.5
  1
Non-Expansion Type
100
AcDbAttributeDefinition
  3

  2
EF
 70
     8
280
     0
  0
ATTDEF
  5
18D
330
17C
100
AcDbEntity
  8
AM_6
100
AcDbText
 10
5.149
 20
-3.69
 30
0.0
 40
0.5
  1
1
100
AcDbAttributeDefinition
  3

  2
EF1
 70
     8
280
     0
  0
ATTDEF
  5
18E
330
17C
100
AcDbEntity
  8
AM_6
100
AcDbText
 10
5.149
 20
-4.19
 30
0.0
 40
0.5
  1
2.84
100
AcDbAttributeDefinition
  3

  2
A
 70
     8
280
     0
  0
ATTDEF
  5
18F
330
17C
100
AcDbEntity
  8
AM_6
100
AcDbText
 10
5.149
 20
-4.69
 30
0.0
 40
0.5
  1
2.8400000
100
AcDbAttributeDefinition
  3

  2
A1
 70
     8
280
     0
  0
ATTDEF
  5
190
330
17C
100
AcDbEntity
  8
AM_6
100
AcDbText
 10
5.149
 20
-5.19
 30
0.0
 40
0.5
  1
5.62
100
AcDbAttributeDefinition
  3

  2
B
 70
     8
280
     0
  0
ATTDEF
  5
191
330
17C
100
AcDbEntity
  8
AM_6
100
AcDbText
 10
5.149
 20
-5.69
 30
0.0
 40
0.5
  1
5.6200000
100
AcDbAttributeDefinition
  3

  2
B1
 70
     8
280
     0
  0
ATTDEF
  5
192
330
17C
100
AcDbEntity
  8
AM_6
100
AcDbText
 10
5.149
 20
-6.19
 30
0.0
 40
0.5
  1
3.63
100
AcDbAttributeDefinition
  3

  2
C
 70
     8
280
     0
  0
ATTDEF
  5
193
330
17C
100
AcDbEntity
  8
AM_6
100
AcDbText
 10
5.149
 20
-6.69
 30
0.0
 40
0.5
  1
3.6300000
100
AcDbAttributeDefinition
  3

  2
C1
 70
     8
280
     0
  0
ATTDEF
  5
194
330
17C
100
AcDbEntity
  8
AM_6
100
AcDbText
 10
5.149
 20
-7.19
 30
0.0
 40
0.5
  1
4.37
100
AcDbAttributeDefinition
  3

  2
D
 70
     8
280
     0
  0
ATTDEF
  5
195
330
17C
100
AcDbEntity
  8
AM_6
100
AcDbText
 10
5.149
 20
-7.69
 30
0.0
 40
0.5
  1
4.3700000
100
AcDbAttributeDefinition
  3

  2
D1
 70
     8
280
     0
  0
ATTDEF
  5
196
330
17C
100
AcDbEntity
  8
AM_6
100
AcDbText
 10
5.149
 20
-8.190000000000001
 30
0.0
 40
0.5
  1
1/2
100
AcDbAttributeDefinition
  3

  2
F
 70
     8
280
     0
  0
ATTDEF
  5
197
330
17C
100
AcDbEntity
  8
AM_6
100
AcDbText
 10
5.149
 20
-8.690000000000001
 30
0.0
 40
0.5
  1
0.5000000
100
AcDbAttributeDefinition
  3

  2
F1
 70
     8
280
     0
  0
ATTDEF
  5
198
330
17C
100
AcDbEntity
  8
AM_6
100
AcDbText
 10
5.149
 20
-9.190000000000001
 30
0.0
 40
0.5
  1
0.65
100
AcDbAttributeDefinition
  3

  2
G
 70
     8
280
     0
  0
ATTDEF
  5
199
330
17C
100
AcDbEntity
  8
AM_6
100
AcDbText
 10
5.149
 20
-9.690000000000001
 30
0.0
 40
0.5
  1
0.650000
100
AcDbAttributeDefinition
  3

  2
G1
 70
     8
280
     0
  0
ATTDEF
  5
19A
330
17C
100
AcDbEntity
  8
AM_6
100
AcDbText
 10
5.149
 20
-10.19
 30
0.0
 40
0.5
  1
1.18
100
AcDbAttributeDefinition
  3

  2
H
 70
     8
280
     0
  0
ATTDEF
  5
19B
330
17C
100
AcDbEntity
  8
AM_6
100
AcDbText
 10
5.149
 20
-10.69
 30
0.0
 40
0.5
  1
1.1800000
100
AcDbAttributeDefinition
  3

  2
H1
 70
     8
280
     0
  0
ATTDEF
  5
19C
330
17C
100
AcDbEntity
  8
AM_6
100
AcDbText
 10
5.149
 20
-11.19
 30
0.0
 40
0.5
  1
4.36
100
AcDbAttributeDefinition
  3

  2
J
 70
     8
280
     0
  0
ATTDEF
  5
19D
330
17C
100
AcDbEntity
  8
AM_6
100
AcDbText
 10
5.149
 20
-11.69
 30
0.0
 40
0.5
  1
4.3600000
100
AcDbAttributeDefinition
  3

  2
J1
 70
     8
280
     0
  0
ATTDEF
  5
19E
330
17C
100
AcDbEntity
  8
AM_6
100
AcDbText
 10
5.149
 20
-12.19
 30
0.0
 40
0.5
  1
5-3/4
100
AcDbAttributeDefinition
  3

  2
K
 70
     8
280
     0
  0
ATTDEF
  5
19F
330
17C
100
AcDbEntity
  8
AM_6
100
AcDbText
 10
5.149
 20
-12.69
 30
0.0
 40
0.5
  1
5.7500000
100
AcDbAttributeDefinition
  3

  2
K1
 70
     8
280
     0
  0
ATTDEF
  5
1A0
330
17C
100
AcDbEntity
  8
AM_6
100
AcDbText
 10
5.149
 20
-13.19
 30
0.0
 40
0.5
  1
3.26
100
AcDbAttributeDefinition
  3

  2
L
 70
     8
280
     0
  0
ATTDEF
  5
1A1
330
17C
100
AcDbEntity
  8
AM_6
100
AcDbText
 10
5.149
 20
-13.69
 30
0.0
 40
0.5
  1
3.2600000
100
AcDbAttributeDefinition
  3

  2
L1
 70
     8
280
     0
  0
ATTDEF
  5
1A2
330
17C
100
AcDbEntity
  8
AM_6
100
AcDbText
 10
5.149
 20
-14.19
 30
0.0
 40
0.5
  1
2.6
100
AcDbAttributeDefinition
  3

  2
N
 70
     8
280
     0
  0
ATTDEF
  5
1A3
330
17C
100
AcDbEntity
  8
AM_6
100
AcDbText
 10
5.149
 20
-14.69
 30
0.0
 40
0.5
  1
2.600000
100
AcDbAttributeDefinition
  3

  2
N1
 70
     8
280
     0
  0
ATTDEF
  5
1A4
330
17C
100
AcDbEntity
  8
AM_6
100
AcDbText
 10
5.149
 20
-15.19
 30
0.0
 40
0.5
  1
0.78
100
AcDbAttributeDefinition
  3

  2
P
 70
     8
280
     0
  0
ATTDEF
  5
1A5
330
17C
100
AcDbEntity
  8
AM_6
100
AcDbText
 10
5.149
 20
-15.69
 30
0.0
 40
0.5
  1
0.780000
100
AcDbAttributeDefinition
  3

  2
P1
 70
     8
280
     0
  0
ATTDEF
  5
1A6
330
17C
100
AcDbEntity
  8
AM_6
100
AcDbText
 10
5.149
 20
-16.19
 30
0.0
 40
0.5
  1
0.22
100
AcDbAttributeDefinition
  3

  2
X
 70
     8
280
     0
  0
ATTDEF
  5
1A7
330
17C
100
AcDbEntity
  8
AM_6
100
AcDbText
 10
5.149
 20
-16.69
 30
0.0
 40
0.5
  1
0.220000
100
AcDbAttributeDefinition
  3

  2
X1
 70
     8
280
     0
  0
ATTDEF
  5
1A8
330
17C
100
AcDbEntity
  8
AM_6
100
AcDbText
 10
5.149
 20
-17.19
 30
0.0
 40
0.5
  1
0.020
100
AcDbAttributeDefinition
  3

  2
Y
 70
     8
280
     0
  0
ATTDEF
  5
1A9
330
17C
100
AcDbEntity
  8
AM_6
100
AcDbText
 10
5.149
 20
-17.69
 30
0.0
 40
0.5
  1
2.3
100
AcDbAttributeDefinition
  3

  2
Z
 70
     8
280
     0
  0
ATTDEF
  5
1AA
330
17C
100
AcDbEntity
  8
AM_6
100
AcDbText
 10
5.149
 20
-18.19
 30
0.0
 40
0.5
  1
2.300000
100
AcDbAttributeDefinition
  3

  2
Z1
 70
     8
280
     0
  0
ATTDEF
  5
1AB
330
17C
100
AcDbEntity
  8
AM_6
100
AcDbText
 10
5.149
 20
-18.69
 30
0.0
 40
0.5
  1
3/8-16
100
AcDbAttributeDefinition
  3

  2
CS
 70
     8
280
     0
  0
ATTDEF
  5
1AC
330
17C
100
AcDbEntity
  8
AM_6
100
AcDbText
 10
5.149
 20
-19.19
 30
0.0
 40
0.5
  1
0.3750
100
AcDbAttributeDefinition
  3

  2
NDM
 70
     8
280
     0
  0
ATTDEF
  5
1AD
330
17C
100
AcDbEntity
  8
AM_6
100
AcDbText
 10
5.149
 20
-19.69
 30
0.0
 40
0.5
  1
0.3070
100
AcDbAttributeDefinition
  3

  2
KDM
 70
     8
280
     0
  0
ATTDEF
  5
1AE
330
17C
100
AcDbEntity
  8
AM_6
100
AcDbText
 10
5.149
 20
-20.19
 30
0.0
 40
0.5
  1
3.5433
100
AcDbAttributeDefinition
  3

  2
BORE
 70
     8
280
     0
  0
ATTDEF
  5
1AF
330
17C
100
AcDbEntity
  8
AM_6
100
AcDbText
 10
5.149
 20
-20.69
 30
0.0
 40
0.5
  1
1
100
AcDbAttributeDefinition
  3

  2
ST1
 70
     8
280
     0
  0
ATTDEF
  5
1B0
330
17C
100
AcDbEntity
  8
AM_6
100
AcDbText
 10
5.149
 20
-21.19
 30
0.0
 40
0.5
  1
baldor
100
AcDbAttributeDefinition
  3

  2
COMPANY
 70
     8
280
     0
  0
LINE
  5
1B1
330
17C
100
AcDbEntity
  8
AM_9
100
AcDbLine
 10
-1.101333333333333
 20
-2.81
 30
0.0
 11
-1.101333333333333
 21
-2.098407921507897
 31
0.0
  0
LINE
  5
1B2
330
17C
100
AcDbEntity
  8
AM_9
100
AcDbLine
 10
-1.101333333333333
 20
-2.141279792296876
 30
0.0
 11
-1.18
 21
-2.141279792296876
 31
0.0
  0
LINE
  5
1B3
330
17C
100
AcDbEntity
  8
AM_9
100
AcDbLine
 10
-1.101333333333333
 20
-2.098407921507897
 30
0.0
 11
-1.18
 21
-2.098407921507897
 31
0.0
  0
LINE
  5
1B4
330
17C
100
AcDbEntity
  8
AM_9
100
AcDbLine
 10
-1.101333333333333
 20
2.141279792296876
 30
0.0
 11
-1.18
 21
2.141279792296876
 31
0.0
  0
LINE
  5
1B5
330
17C
100
AcDbEntity
  8
AM_9
100
AcDbLine
 10
-1.18
 20
2.098407921507897
 30
0.0
 11
-1.101333333333333
 21
2.098407921507897
 31
0.0
  0
LINE
  5
1B6
330
17C
100
AcDbEntity
  8
AM_9
100
AcDbLine
 10
-0.59
 20
-2.81
 30
0.0
 11
-0.59
 21
-1.405
 31
0.0
  0
LINE
  5
1B7
330
17C
100
AcDbEntity
  8
AM_9
100
AcDbLine
 10
-0.59
 20
1.405
 30
0.0
 11
-0.59
 21
2.81
 31
0.0
  0
LINE
  5
1B8
330
17C
100
AcDbEntity
  8
AM_9
100
AcDbLine
 10
-2.98
 20
-1.77165
 30
0.0
 11
-0.59
 21
-1.77165
 31
0.0
  0
LINE
  5
1B9
330
17C
100
AcDbEntity
  8
AM_9
100
AcDbLine
 10
-0.59
 20
1.77165
 30
0.0
 11
-2.98
 21
1.77165
 31
0.0
  0
LINE
  5
1BA
330
17C
100
AcDbEntity
  8
AM_9
100
AcDbLine
 10
-1.101333333333333
 20
-2.754753555121341
 30
0.0
 11
-1.18
 21
-2.754753555121341
 31
0.0
  0
LINE
  5
1BB
330
17C
100
AcDbEntity
  8
AM_9
100
AcDbLine
 10
-1.101333333333333
 20
2.754753555121341
 30
0.0
 11
-1.18
 21
2.754753555121341
 31
0.0
  0
LINE
  5
1BC
330
17C
100
AcDbEntity
  8
AM_9
100
AcDbLine
 10
-1.101333333333333
 20
2.81
 30
0.0
 11
-1.101333333333333
 21
2.098407921507897
 31
0.0
  0
LINE
  5
1BD
330
17C
100
AcDbEntity
  8
AM_9
100
AcDbLine
 10
-1.101333333333333
 20
2.108851709189883
 30
0.0
 11
-1.18
 21
2.108851709189883
 31
0.0
  0
LINE
  5
1BE
330
17C
100
AcDbEntity
  8
AM_9
100
AcDbLine
 10
-1.101333333333333
 20
-2.108851707554886
 30
0.0
 11
-1.18
 21
-2.108851707554886
 31
0.0
  0
LINE
  5
1BF
330
17C
100
AcDbEntity
  8
AM_9
100
AcDbLine
 10
-1.18
 20
-2.18
 30
0.0
 11
-1.101333333333333
 21
-2.18
 31
0.0
  0
LINE
  5
1C0
330
17C
100
AcDbEntity
  8
AM_9
100
AcDbLine
 10
-1.101333333333333
 20
2.18
 30
0.0
 11
-1.18
 21
2.18
 31
0.0
  0
LINE
  5
1C1
330
17C
100
AcDbEntity
  8
AM_9
100
AcDbLine
 10
-1.18
 20
1.935
 30
0.0
 11
0.0000000000000001
 21
1.935
 31
0.0
  0
LINE
  5
1C2
330
17C
100
AcDbEntity
  8
AM_9
100
AcDbLine
 10
0.0000000000000001
 20
2.435
 30
0.0
 11
-1.18
 21
2.435
 31
0.0
  0
LINE
  5
1C3
330
17C
100
AcDbEntity
  8
AM_9
100
AcDbLine
 10
-1.18
 20
-2.435
 30
0.0
 11
0.0000000000000001
 21
-2.435
 31
0.0
  0
LINE
  5
1C4
330
17C
100
AcDbEntity
  8
AM_9
100
AcDbLine
 10
0.0000000000000001
 20
-1.935
 30
0.0
 11
-1.18
 21
-1.935
 31
0.0
  0
LINE
  5
1C5
330
17C
100
AcDbEntity
  8
AM_7
100
AcDbLine
 10
0.0589999999999999
 20
2.185
 30
0.0
 11
-1.239
 21
2.185
 31
0.0
  0
LINE
  5
1C6
330
17C
100
AcDbEntity
  8
AM_7
100
AcDbLine
 10
0.0589999999999999
 20
-2.185
 30
0.0
 11
-1.239
 21
-2.185
 31
0.0
  0
LINE
  5
1C7
330
17C
100
AcDbEntity
  8
AM_7
100
AcDbLine
 10
-3.552187499999999
 20
0.0
 30
0.0
 11
0.149
 21
0.0
 31
0.0
  0
LINE
  5
1C8
330
17C
100
AcDbEntity
  8
AM_7
100
AcDbLine
 10
-2.08
 20
2.687
 30
0.0
 11
-2.08
 21
1.8512325
 31
0.0
  0
LINE
  5
1C9
330
17C
100
AcDbEntity
  8
AM_4
100
AcDbLine
 10
-2.480000000000001
 20
2.280000000000001
 30
0.0
 11
-1.680001285016378
 21
2.280000000000001
 31
0.0
  0
ARC
  5
1CA
330
17C
100
AcDbEntity
  8
AM_4
100
AcDbCircle
 10
-1.679999999999999
 20
2.180000000000002
 30
0.0
 40
0.0999999999999985
100
AcDbArc
 50
0.0
 51
90.0
  0
ARC
  5
1CB
330
17C
100
AcDbEntity
  8
AM_4
100
AcDbCircle
 10
-2.48
 20
2.180000000000001
 30
0.0
 40
0.0999999999999992
100
AcDbArc
 50
90.0
 51
180.0
  0
LINE
  5
1CC
330
17C
100
AcDbEntity
  8
AM_4
100
AcDbLine
 10
-2.58
 20
2.18
 30
0.0
 11
-1.58
 21
2.18
 31
0.0
  0
LINE
  5
1CD
330
17C
100
AcDbEntity
  8
AM_4
100
AcDbLine
 10
-2.98
 20
-2.18
 30
0.0
 11
-2.98
 21
2.18
 31
0.0
  0
LINE
  5
1CE
330
17C
100
AcDbEntity
  8
AM_4
100
AcDbLine
 10
-1.101333333333333
 20
0.5523988373836821
 30
0.0
 11
-1.18
 21
0.5523988373836821
 31
0.0
  0
LINE
  5
1CF
330
17C
100
AcDbEntity
  8
AM_4
100
AcDbLine
 10
-1.101333333333333
 20
-0.552398843625488
 30
0.0
 11
-1.18
 21
-0.552398843625488
 31
0.0
  0
LWPOLYLINE
  5
1D0
330
17C
100
AcDbEntity
  8
AM_4
100
AcDbPolyline
 90
       38
 70
     0
 43
0.0
 10
-2.58
 20
2.18
 10
-2.578320040430333
 20
2.17961470527043
 10
-2.573305990084239
 20
2.178474420288885
 10
-2.56469061934347
 20
2.176539125669044
 10
-2.552655476443428
 20
2.173891257494718
 10
-2.537774360379794
 20
2.170704027809006
 10
-2.51986768794948
 20
2.1669987500924
 10
-2.498425141088222
 20
2.162748056497589
 10
-2.474072402946983
 20
2.1581689133996
 10
-2.447315046590884
 20
2.153444019232157
 10
-2.418059242663916
 20
2.148647028143641
 10
-2.385559940645439
 20
2.143774546895953
 10
-2.350839330251009
 20
2.139101199759099
 10
-2.314743295719103
 20
2.134832134781299
 10
-2.276966676279751
 20
2.1310081819563
 10
-2.23656187160651
 20
2.127655427516298
 10
-2.194944368240709
 20
2.124996990066164
 10
-2.154393192350662
 20
2.123191073433733
 10
-2.113309540835351
 20
2.122147385435484
 10
-2.070732992360847
 20
2.121907863003035
 10
-2.028227160747937
 20
2.122517473870173
 10
-1.988136195552595
 20
2.123874841579967
 10
-1.948676019906803
 20
2.12594590423828
 10
-1.909028330793086
 20
2.128764010914233
 10
-1.870603083842405
 20
2.132193018583522
 10
-1.834348764648161
 20
2.136058928787525
 10
-1.799753082048821
 20
2.140312672256354
 10
-1.766161026824189
 20
2.144970158980537
 10
-1.734769904139774
 20
2.1497869241131
 10
-1.705910098434925
 20
2.154609922080258
 10
-1.679626848996381
 20
2.15932828908542
 10
-1.655468695159176
 20
2.163937652759654
 10
-1.634402139180536
 20
2.168169147821932
 10
-1.617024626612221
 20
2.171806738999775
 10
-1.60286059328912
 20
2.174870573950646
 10
-1.59175663962412
 20
2.177332946566434
 10
-1.584275455579642
 20
2.179023364707403
 10
-1.58
 20
2.18
  0
LINE
  5
1D1
330
17C
100
AcDbEntity
  8
AM_4
100
AcDbLine
 10
-2.98
 20
-2.18
 30
0.0
 11
-1.18
 21
-2.18
 31
0.0
  0
LINE
  5
1D2
330
17C
100
AcDbEntity
  8
AM_4
100
AcDbLine
 10
-1.18
 20
2.18
 30
0.0
 11
-1.58
 21
2.18
 31
0.0
  0
LINE
  5
1D3
330
17C
100
AcDbEntity
  8
AM_4
100
AcDbLine
 10
-2.580000000000001
 20
2.18
 30
0.0
 11
-2.98
 21
2.18
 31
0.0
  0
LINE
  5
1D4
330
17C
100
AcDbEntity
  8
AM_4
100
AcDbLine
 10
-1.101333333333333
 20
-0.7934849052565154
 30
0.0
 11
-1.18
 21
-0.7934849052565154
 31
0.0
  0
LINE
  5
1D5
330
17C
100
AcDbEntity
  8
AM_4
100
AcDbLine
 10
-1.101333333333333
 20
0.793484905256515
 30
0.0
 11
-1.18
 21
0.793484905256515
 31
0.0
  0
LINE
  5
1D6
330
17C
100
AcDbEntity
  8
AM_4
100
AcDbLine
 10
0.0000000000000001
 20
-2.81
 30
0.0
 11
0.0000000000000002
 21
-1.405
 31
0.0
  0
LINE
  5
1D7
330
17C
100
AcDbEntity
  8
AM_4
100
AcDbLine
 10
-1.18
 20
-2.81
 30
0.0
 11
0.0000000000000001
 21
-2.81
 31
0.0
  0
LINE
  5
1D8
330
17C
100
AcDbEntity
  8
AM_4
100
AcDbLine
 10
0.0000000000000002
 20
1.405
 30
0.0
 11
0.0000000000000001
 21
2.81
 31
0.0
  0
LINE
  5
1D9
330
17C
100
AcDbEntity
  8
AM_4
100
AcDbLine
 10
-1.18
 20
2.81
 30
0.0
 11
0.0000000000000001
 21
2.81
 31
0.0
  0
LINE
  5
1DA
330
17C
100
AcDbEntity
  8
AM_4
100
AcDbLine
 10
-0.5899999999999997
 20
-1.405
 30
0.0
 11
0.0000000000000002
 21
-1.405
 31
0.0
  0
LINE
  5
1DB
330
17C
100
AcDbEntity
  8
AM_4
100
AcDbLine
 10
-0.5899999999999997
 20
-1.405
 30
0.0
 11
-0.5899999999999997
 21
1.405
 31
0.0
  0
LINE
  5
1DC
330
17C
100
AcDbEntity
  8
AM_4
100
AcDbLine
 10
-0.5899999999999997
 20
1.405
 30
0.0
 11
0.0000000000000002
 21
1.405
 31
0.0
  0
LINE
  5
1DD
330
17C
100
AcDbEntity
  8
AM_4
100
AcDbLine
 10
-1.18
 20
2.185
 30
0.0
 11
0.0000000000000002
 21
2.185
 31
0.0
  0
LINE
  5
1DE
330
17C
100
AcDbEntity
  8
AM_4
100
AcDbLine
 10
-1.101333333333333
 20
-1.979572434263215
 30
0.0
 11
-1.101333333333333
 21
1.979572434263213
 31
0.0
  0
LINE
  5
1DF
330
17C
100
AcDbEntity
  8
AM_4
100
AcDbLine
 10
-1.18
 20
-2.185000000000001
 30
0.0
 11
0.0000000000000002
 21
-2.185000000000001
 31
0.0
  0
LINE
  5
1E0
330
17C
100
AcDbEntity
  8
AM_4
100
AcDbLine
 10
-1.101333333333333
 20
1.979572434263213
 30
0.0
 11
-1.18
 21
1.979572434263213
 31
0.0
  0
LINE
  5
1E1
330
17C
100
AcDbEntity
  8
AM_4
100
AcDbLine
 10
-1.18
 20
0.5523988373836821
 30
0.0
 11
-1.18
 21
2.81
 31
0.0
  0
LINE
  5
1E2
330
17C
100
AcDbEntity
  8
AM_4
100
AcDbLine
 10
-1.101333333333333
 20
1.856052631578948
 30
0.0
 11
-1.18
 21
1.856052631578948
 31
0.0
  0
LINE
  5
1E3
330
17C
100
AcDbEntity
  8
AM_4
100
AcDbLine
 10
-1.18
 20
-1.979572434263215
 30
0.0
 11
-1.101333333333333
 21
-1.979572434263215
 31
0.0
  0
LINE
  5
1E4
330
17C
100
AcDbEntity
  8
AM_4
100
AcDbLine
 10
-1.101333333333333
 20
-1.856052631578949
 30
0.0
 11
-1.18
 21
-1.856052631578949
 31
0.0
  0
LINE
  5
1E5
330
17C
100
AcDbEntity
  8
AM_4
100
AcDbLine
 10
-1.18
 20
-2.81
 30
0.0
 11
-1.18
 21
-0.552398843625488
 31
0.0
  0
ENDBLK
  5
17F
330
17C
100
AcDbEntity
  8
0
100
AcDbBlockEnd
  0
ENDSEC
  0
SECTION
  2
ENTITIES
  0
INSERT
  5
6F
330
1F
100
AcDbEntity
  8
0
100
AcDbBlockReference
  2
1_071485_2
 10
0.0
 20
0.0
 30
0.0
  0
POINT
  5
1E7
330
1F
100
AcDbEntity
  8
ConnectionPoints
100
AcDbPoint
 10
-3.41
 20
0.0
 30
0.0000000000000002
  0
POINT
  5
1E8
330
1F
100
AcDbEntity
  8
ConnectionPoints
100
AcDbPoint
 10
0.3235000000000006
 20
0.0
 30
0.0
  0
POINT
  5
1E9
330
1F
100
AcDbEntity
  8
ConnectionPoints
100
AcDbPoint
 10
-3.41
 20
0.0
 30
0.0000000000000002
  0
POINT
  5
1EA
330
1F
100
AcDbEntity
  8
ConnectionPoints
100
AcDbPoint
 10
-2.08
 20
2.28
 30
0.0000000000000001
  0
POINT
  5
1EB
330
1F
100
AcDbEntity
  8
ConnectionPoints
100
AcDbPoint
 10
-2.08
 20
2.28
 30
0.0000000000000001
  0
POINT
  5
1EC
330
1F
100
AcDbEntity
  8
ConnectionPoints
100
AcDbPoint
 10
-3.41
 20
0.0
 30
0.0000000000000002
  0
POINT
  5
1ED
330
1F
100
AcDbEntity
  8
ConnectionPoints
100
AcDbPoint
 10
-3.63
 20
0.0
 30
0.0000000000000002
  0
ENDSEC
  0
SECTION
  2
OBJECTS
  0
DICTIONARY
  5
C
330
0
100
AcDbDictionary
281
     1
  3
ACAD_DETAILVIEWSTYLE
350
1F5
  3
ACAD_GROUP
350
D
  3
ACAD_LAYOUT
350
1A
  3
ACAD_MATERIAL
350
43
  3
ACAD_MLEADERSTYLE
350
6B
  3
ACAD_MLINESTYLE
350
17
  3
ACAD_PLOTSETTINGS
350
19
  3
ACAD_PLOTSTYLENAME
350
E
  3
ACAD_SCALELIST
350
47
  3
ACAD_SECTIONVIEWSTYLE
350
1F6
  3
ACAD_TABLESTYLE
350
69
  3
ACAD_VISUALSTYLE
350
2A
  3
ACDB_RECOMPOSE_DATA
350
1F2
  3
AcDbVariableDictionary
350
1EE
  0
SUN
  5
6D
330
29
100
AcDbSun
 90
        1
290
     0
 63
     7
421
 16777215
 40
1.0
291
     1
 91
  2455826
 92
 54000000
292
     0
 70
     2
 71
   256
280
     1
  0
DICTIONARY
  5
1F5
102
{ACAD_REACTORS
330
C
102
}
330
C
100
AcDbDictionary
281
     1
  0
DICTIONARY
  5
D
102
{ACAD_REACTORS
330
C
102
}
330
C
100
AcDbDictionary
281
     1
  0
DICTIONARY
  5
1A
102
{ACAD_REACTORS
330
C
102
}
330
C
100
AcDbDictionary
281
     1
  3
Layout1
350
1E
  3
Layout2
350
26
  3
Model
350
22
  0
DICTIONARY
  5
43
102
{ACAD_REACTORS
330
C
102
}
330
C
100
AcDbDictionary
281
     1
  3
ByBlock
350
45
  3
ByLayer
350
44
  3
Global
350
46
  0
DICTIONARY
  5
6B
102
{ACAD_REACTORS
330
C
102
}
330
C
100
AcDbDictionary
281
     1
  3
Standard
350
6C
  0
DICTIONARY
  5
17
102
{ACAD_REACTORS
330
C
102
}
330
C
100
AcDbDictionary
281
     1
  3
Standard
350
18
  0
DICTIONARY
  5
19
102
{ACAD_REACTORS
330
C
102
}
330
C
100
AcDbDictionary
281
     1
  0
ACDBDICTIONARYWDFLT
  5
E
102
{ACAD_REACTORS
330
C
102
}
330
C
100
AcDbDictionary
281
     1
  3
Normal
350
F
100
AcDbDictionaryWithDefault
340
F
  0
DICTIONARY
  5
47
102
{ACAD_REACTORS
330
C
102
}
330
C
100
AcDbDictionary
281
     1
  3
A0
350
48
  3
A1
350
49
  3
A2
350
4A
  3
A3
350
4B
  3
A4
350
4C
  3
A5
350
4D
  3
A6
350
4E
  3
A7
350
4F
  3
A8
350
50
  3
A9
350
51
  3
B0
350
52
  3
B1
350
53
  3
B2
350
54
  3
B3
350
55
  3
B4
350
56
  3
B5
350
57
  3
B6
350
58
  3
B7
350
59
  3
B8
350
5A
  3
B9
350
5B
  3
C0
350
5C
  3
C1
350
5D
  3
C2
350
5E
  3
C3
350
5F
  3
C4
350
60
  3
C5
350
61
  3
C6
350
62
  3
C7
350
63
  3
C8
350
64
  3
C9
350
65
  3
D0
350
66
  3
D1
350
67
  3
D2
350
68
  0
DICTIONARY
  5
1F6
102
{ACAD_REACTORS
330
C
102
}
330
C
100
AcDbDictionary
281
     1
  0
DICTIONARY
  5
69
102
{ACAD_REACTORS
330
C
102
}
330
C
100
AcDbDictionary
281
     1
  3
Standard
350
6A
  0
DICTIONARY
  5
2A
102
{ACAD_REACTORS
330
C
102
}
330
C
100
AcDbDictionary
281
     1
  3
2dWireframe
350
2F
  3
Basic
350
32
  3
Brighten
350
36
  3
ColorChange
350
3A
  3
Conceptual
350
34
  3
Dim
350
35
  3
EdgeColorOff
350
3D
  3
Facepattern
350
39
  3
Flat
350
2B
  3
FlatWithEdges
350
2C
  3
Gouraud
350
2D
  3
GouraudWithEdges
350
2E
  3
Hidden
350
31
  3
JitterOff
350
3B
  3
Linepattern
350
38
  3
OverhangOff
350
3C
  3
Realistic
350
33
  3
Shaded
350
42
  3
Shaded with edges
350
41
  3
Shades of Gray
350
3E
  3
Sketchy
350
3F
  3
Thicken
350
37
  3
Wireframe
350
30
  3
X-Ray
350
40
  0
XRECORD
  5
1F2
102
{ACAD_REACTORS
330
C
102
}
330
C
100
AcDbXrecord
280
     1
 90
        1
330
6A
  0
DICTIONARY
  5
1EE
102
{ACAD_REACTORS
330
C
102
}
330
C
100
AcDbDictionary
281
     1
  3
CANNOSCALE
350
1EF
  3
CMLEADERSTYLE
350
1F4
  3
CTABLESTYLE
350
1F3
  0
LAYOUT
  5
1E
102
{ACAD_REACTORS
330
1A
102
}
330
1A
100
AcDbPlotSettings
  1

  2
none_device
  4

  6

 40
0.0
 41
0.0
 42
0.0
 43
0.0
 44
0.0
 45
0.0
 46
0.0
 47
0.0
 48
0.0
 49
0.0
140
0.0
141
0.0
142
1.0
143
1.0
 70
   688
 72
     0
 73
     0
 74
     5
  7

 75
    16
 76
     0
 77
     2
 78
   300
147
1.0
148
0.0
149
0.0
100
AcDbLayout
  1
Layout1
 70
     1
 71
     1
 10
0.0
 20
0.0
 11
12.0
 21
9.0
 12
0.0
 22
0.0
 32
0.0
 14
1.000000000000000E+20
 24
1.000000000000000E+20
 34
1.000000000000000E+20
 15
-1.000000000000000E+20
 25
-1.000000000000000E+20
 35
-1.000000000000000E+20
146
0.0
 13
0.0
 23
0.0
 33
0.0
 16
1.0
 26
0.0
 36
0.0
 17
0.0
 27
1.0
 37
0.0
 76
     0
330
1B
  0
LAYOUT
  5
26
102
{ACAD_REACTORS
330
1A
102
}
330
1A
100
AcDbPlotSettings
  1

  2
none_device
  4

  6

 40
0.0
 41
0.0
 42
0.0
 43
0.0
 44
0.0
 45
0.0
 46
0.0
 47
0.0
 48
0.0
 49
0.0
140
0.0
141
0.0
142
1.0
143
1.0
 70
   688
 72
     0
 73
     0
 74
     5
  7

 75
    16
 76
     0
 77
     2
 78
   300
147
1.0
148
0.0
149
0.0
100
AcDbLayout
  1
Layout2
 70
     1
 71
     2
 10
0.0
 20
0.0
 11
0.0
 21
0.0
 12
0.0
 22
0.0
 32
0.0
 14
0.0
 24
0.0
 34
0.0
 15
0.0
 25
0.0
 35
0.0
146
0.0
 13
0.0
 23
0.0
 33
0.0
 16
1.0
 26
0.0
 36
0.0
 17
0.0
 27
1.0
 37
0.0
 76
     0
330
23
  0
LAYOUT
  5
22
102
{ACAD_REACTORS
330
1A
102
}
330
1A
100
AcDbPlotSettings
  1

  2
none_device
  4
Letter_(8.50_x_11.00_Inches)
  6

 40
6.35
 41
6.35
 42
6.35000508
 43
6.35000508
 44
215.9
 45
279.4
 46
0.0
 47
0.0
 48
0.0
 49
0.0
140
0.0
141
0.0
142
1.0
143
1.0
 70
  1712
 72
     0
 73
     0
 74
     0
  7

 75
     0
 76
     0
 77
     2
 78
   300
147
1.0
148
0.0
149
0.0
100
AcDbLayout
  1
Model
 70
     1
 71
     0
 10
0.0
 20
0.0
 11
12.0
 21
9.0
 12
0.0
 22
0.0
 32
0.0
 14
1.000000000000000E+20
 24
1.000000000000000E+20
 34
1.000000000000000E+20
 15
-1.000000000000000E+20
 25
-1.000000000000000E+20
 35
-1.000000000000000E+20
146
0.0
 13
0.0
 23
0.0
 33
0.0
 16
1.0
 26
0.0
 36
0.0
 17
0.0
 27
1.0
 37
0.0
 76
     0
330
1F
331
29
  0
MATERIAL
  5
45
102
{ACAD_REACTORS
330
43
102
}
330
43
100
AcDbMaterial
  1
ByBlock
 72
     1
 94
      127
  0
MATERIAL
  5
44
102
{ACAD_REACTORS
330
43
102
}
330
43
100
AcDbMaterial
  1
ByLayer
 72
     1
 94
      127
  0
MATERIAL
  5
46
102
{ACAD_REACTORS
330
43
102
}
330
43
100
AcDbMaterial
  1
Global
 72
     1
 94
      127
  0
MLEADERSTYLE
  5
6C
102
{ACAD_REACTORS
330
6B
102
}
330
6B
100
AcDbMLeaderStyle
179
     2
170
     2
171
     1
172
     0
 90
        2
 40
0.0
 41
0.0
173
     1
 91
-1056964608
340
14
 92
       -2
290
     1
 42
0.09
291
     1
 43
0.36
  3
Standard
341
0
 44
0.18
300

342
11
174
     1
178
     6
175
     1
176
     0
 93
-1056964608
 45
0.18
292
     0
297
     0
 46
0.18
343
0
 94
-1056964608
 47
1.0
 49
1.0
140
1.0
293
     1
141
0.0
294
     1
177
     0
142
1.0
295
     0
296
     0
143
0.125
271
     0
272
     9
273
     9
298
     0
  0
MLINESTYLE
  5
18
102
{ACAD_REACTORS
330
17
102
}
330
17
100
AcDbMlineStyle
  2
Standard
 70
     0
  3

 62
   256
 51
90.0
 52
90.0
 71
     2
 49
0.5
 62
   256
  6
BYLAYER
 49
-0.5
 62
   256
  6
BYLAYER
  0
ACDBPLACEHOLDER
  5
F
102
{ACAD_REACTORS
330
E
102
}
330
E
  0
SCALE
  5
48
102
{ACAD_REACTORS
330
47
102
}
330
47
100
AcDbScale
 70
     0
300
1:1
140
1.0
141
1.0
290
     1
  0
SCALE
  5
49
102
{ACAD_REACTORS
330
47
102
}
330
47
100
AcDbScale
 70
     0
300
1:2
140
1.0
141
2.0
290
     0
  0
SCALE
  5
4A
102
{ACAD_REACTORS
330
47
102
}
330
47
100
AcDbScale
 70
     0
300
1:4
140
1.0
141
4.0
290
     0
  0
SCALE
  5
4B
102
{ACAD_REACTORS
330
47
102
}
330
47
100
AcDbScale
 70
     0
300
1:5
140
1.0
141
5.0
290
     0
  0
SCALE
  5
4C
102
{ACAD_REACTORS
330
47
102
}
330
47
100
AcDbScale
 70
     0
300
1:8
140
1.0
141
8.0
290
     0
  0
SCALE
  5
4D
102
{ACAD_REACTORS
330
47
102
}
330
47
100
AcDbScale
 70
     0
300
1:10
140
1.0
141
10.0
290
     0
  0
SCALE
  5
4E
102
{ACAD_REACTORS
330
47
102
}
330
47
100
AcDbScale
 70
     0
300
1:16
140
1.0
141
16.0
290
     0
  0
SCALE
  5
4F
102
{ACAD_REACTORS
330
47
102
}
330
47
100
AcDbScale
 70
     0
300
1:20
140
1.0
141
20.0
290
     0
  0
SCALE
  5
50
102
{ACAD_REACTORS
330
47
102
}
330
47
100
AcDbScale
 70
     0
300
1:30
140
1.0
141
30.0
290
     0
  0
SCALE
  5
51
102
{ACAD_REACTORS
330
47
102
}
330
47
100
AcDbScale
 70
     0
300
1:40
140
1.0
141
40.0
290
     0
  0
SCALE
  5
52
102
{ACAD_REACTORS
330
47
102
}
330
47
100
AcDbScale
 70
     0
300
1:50
140
1.0
141
50.0
290
     0
  0
SCALE
  5
53
102
{ACAD_REACTORS
330
47
102
}
330
47
100
AcDbScale
 70
     0
300
1:100
140
1.0
141
100.0
290
     0
  0
SCALE
  5
54
102
{ACAD_REACTORS
330
47
102
}
330
47
100
AcDbScale
 70
     0
300
2:1
140
2.0
141
1.0
290
     0
  0
SCALE
  5
55
102
{ACAD_REACTORS
330
47
102
}
330
47
100
AcDbScale
 70
     0
300
4:1
140
4.0
141
1.0
290
     0
  0
SCALE
  5
56
102
{ACAD_REACTORS
330
47
102
}
330
47
100
AcDbScale
 70
     0
300
8:1
140
8.0
141
1.0
290
     0
  0
SCALE
  5
57
102
{ACAD_REACTORS
330
47
102
}
330
47
100
AcDbScale
 70
     0
300
10:1
140
10.0
141
1.0
290
     0
  0
SCALE
  5
58
102
{ACAD_REACTORS
330
47
102
}
330
47
100
AcDbScale
 70
     0
300
100:1
140
100.0
141
1.0
290
     0
  0
SCALE
  5
59
102
{ACAD_REACTORS
330
47
102
}
330
47
100
AcDbScale
 70
     0
300
1/128" = 1'-0"
140
0.0078125
141
12.0
290
     0
  0
SCALE
  5
5A
102
{ACAD_REACTORS
330
47
102
}
330
47
100
AcDbScale
 70
     0
300
1/64" = 1'-0"
140
0.015625
141
12.0
290
     0
  0
SCALE
  5
5B
102
{ACAD_REACTORS
330
47
102
}
330
47
100
AcDbScale
 70
     0
300
1/32" = 1'-0"
140
0.03125
141
12.0
290
     0
  0
SCALE
  5
5C
102
{ACAD_REACTORS
330
47
102
}
330
47
100
AcDbScale
 70
     0
300
1/16" = 1'-0"
140
0.0625
141
12.0
290
     0
  0
SCALE
  5
5D
102
{ACAD_REACTORS
330
47
102
}
330
47
100
AcDbScale
 70
     0
300
3/32" = 1'-0"
140
0.09375
141
12.0
290
     0
  0
SCALE
  5
5E
102
{ACAD_REACTORS
330
47
102
}
330
47
100
AcDbScale
 70
     0
300
1/8" = 1'-0"
140
0.125
141
12.0
290
     0
  0
SCALE
  5
5F
102
{ACAD_REACTORS
330
47
102
}
330
47
100
AcDbScale
 70
     0
300
3/16" = 1'-0"
140
0.1875
141
12.0
290
     0
  0
SCALE
  5
60
102
{ACAD_REACTORS
330
47
102
}
330
47
100
AcDbScale
 70
     0
300
1/4" = 1'-0"
140
0.25
141
12.0
290
     0
  0
SCALE
  5
61
102
{ACAD_REACTORS
330
47
102
}
330
47
100
AcDbScale
 70
     0
300
3/8" = 1'-0"
140
0.375
141
12.0
290
     0
  0
SCALE
  5
62
102
{ACAD_REACTORS
330
47
102
}
330
47
100
AcDbScale
 70
     0
300
1/2" = 1'-0"
140
0.5
141
12.0
290
     0
  0
SCALE
  5
63
102
{ACAD_REACTORS
330
47
102
}
330
47
100
AcDbScale
 70
     0
300
3/4" = 1'-0"
140
0.75
141
12.0
290
     0
  0
SCALE
  5
64
102
{ACAD_REACTORS
330
47
102
}
330
47
100
AcDbScale
 70
     0
300
1" = 1'-0"
140
1.0
141
12.0
290
     0
  0
SCALE
  5
65
102
{ACAD_REACTORS
330
47
102
}
330
47
100
AcDbScale
 70
     0
300
1-1/2" = 1'-0"
140
1.5
141
12.0
290
     0
  0
SCALE
  5
66
102
{ACAD_REACTORS
330
47
102
}
330
47
100
AcDbScale
 70
     0
300
3" = 1'-0"
140
3.0
141
12.0
290
     0
  0
SCALE
  5
67
102
{ACAD_REACTORS
330
47
102
}
330
47
100
AcDbScale
 70
     0
300
6" = 1'-0"
140
6.0
141
12.0
290
     0
  0
SCALE
  5
68
102
{ACAD_REACTORS
330
47
102
}
330
47
100
AcDbScale
 70
     0
300
1'-0" = 1'-0"
140
12.0
141
12.0
290
     0
  0
TABLESTYLE
  5
6A
102
{ACAD_REACTORS
330
69
102
}
102
{ACAD_XDICTIONARY
360
1F0
102
}
330
69
100
AcDbTableStyle
  3
Standard
 70
     0
 71
     0
 40
0.06
 41
0.06
280
     0
281
     0
  7
Standard
140
0.18
170
     2
 62
     0
 63
   257
283
     0
 90
        4
 91
        0
  1

274
    -2
284
     1
 64
     0
275
    -2
285
     1
 65
     0
276
    -2
286
     1
 66
     0
277
    -2
287
     1
 67
     0
278
    -2
288
     1
 68
     0
279
    -2
289
     1
 69
     0
  7
Standard
140
0.25
170
     5
 62
     0
 63
   257
283
     0
 90
        4
 91
        0
  1

274
    -2
284
     1
 64
     0
275
    -2
285
     1
 65
     0
276
    -2
286
     1
 66
     0
277
    -2
287
     1
 67
     0
278
    -2
288
     1
 68
     0
279
    -2
289
     1
 69
     0
  7
Standard
140
0.18
170
     5
 62
     0
 63
   257
283
     0
 90
        4
 91
        0
  1

274
    -2
284
     1
 64
     0
275
    -2
285
     1
 65
     0
276
    -2
286
     1
 66
     0
277
    -2
287
     1
 67
     0
278
    -2
288
     1
 68
     0
279
    -2
289
     1
 69
     0
  0
VISUALSTYLE
  5
2F
102
{ACAD_REACTORS
330
2A
102
}
330
2A
100
AcDbVisualStyle
  2
2dWireframe
 70
     4
177
     3
291
     0
 70
    58
 90
        0
176
     1
 90
        2
176
     1
 90
        0
176
     1
 90
        0
176
     1
 40
0.6
176
     1
 40
30.0
176
     1
 62
     7
420
 16777215
176
     1
 90
        1
176
     1
 90
        4
176
     1
 62
     7
176
     1
 62
   257
176
     1
 90
        1
176
     1
 90
        1
176
     1
 40
1.0
176
     1
 90
        0
176
     1
 62
   257
176
     1
 40
1.0
176
     1
 90
        1
176
     1
 90
        6
176
     1
 90
        2
176
     1
 62
     7
176
     1
 90
        5
176
     1
 90
        0
176
     1
 90
        0
176
     1
290
     0
176
     1
 90
        1
176
     1
 40
0.0
176
     1
 90
        0
176
     1
290
     1
176
     1
290
     1
176
     1
290
     0
176
     1
290
     0
176
     1
290
     0
176
     1
290
     0
176
     1
290
     0
176
     1
290
     0
176
     1
290
     0
176
     1
 90
       50
176
     1
 40
0.0
176
     1
 40
1.0
176
     1
 90
        0
176
     1
 62
    18
420
        0
176
     1
 90
       50
176
     1
 90
        3
176
     1
 62
     5
420
      255
176
     1
290
     0
176
     1
 90
       50
176
     1
 90
       50
176
     1
 90
       50
176
     1
290
     0
176
     1
 90
       50
176
     1
 62
   256
176
     0
 40
1.0
176
     0
 90
        2
176
     1
  1
strokes_ogs.tif
176
     1
290
     0
176
     1
 40
1.0
176
     1
 40
1.0
176
     1
  0
VISUALSTYLE
  5
32
102
{ACAD_REACTORS
330
2A
102
}
330
2A
100
AcDbVisualStyle
  2
Basic
 70
     7
177
     3
291
     1
 70
    58
 90
        1
176
     1
 90
        0
176
     1
 90
        1
176
     1
 90
        0
176
     1
 40
0.6
176
     1
 40
30.0
176
     1
 62
     7
420
 16777215
176
     1
 90
        0
176
     1
 90
        4
176
     1
 62
     7
176
     1
 62
   257
176
     1
 90
        1
176
     1
 90
        1
176
     1
 40
1.0
176
     1
 90
        8
176
     1
 62
     7
176
     1
 40
1.0
176
     1
 90
        1
176
     1
 90
        6
176
     1
 90
        2
176
     1
 62
     7
176
     1
 90
        5
176
     1
 90
        0
176
     1
 90
        0
176
     1
290
     0
176
     1
 90
        1
176
     1
 40
0.0
176
     1
 90
        0
176
     1
290
     0
176
     1
290
     1
176
     1
290
     1
176
     1
290
     0
176
     1
290
     0
176
     1
290
     0
176
     1
290
     0
176
     1
290
     0
176
     1
290
     0
176
     1
 90
       50
176
     1
 40
0.0
176
     1
 40
1.0
176
     1
 90
        0
176
     1
 62
    18
420
        0
176
     1
 90
       50
176
     1
 90
        3
176
     1
 62
     5
420
      255
176
     1
290
     0
176
     1
 90
       50
176
     1
 90
       50
176
     1
 90
       50
176
     1
290
     0
176
     1
 90
       50
176
     1
 62
   256
176
     0
 40
1.0
176
     0
 90
        2
176
     1
  1
strokes_ogs.tif
176
     1
290
     0
176
     1
 40
1.0
176
     1
 40
1.0
176
     1
  0
VISUALSTYLE
  5
36
102
{ACAD_REACTORS
330
2A
102
}
330
2A
100
AcDbVisualStyle
  2
Brighten
 70
    12
177
     3
291
     1
 70
    58
 90
        2
176
     1
 90
        2
176
     1
 90
        0
176
     1
 90
        0
176
     1
 40
0.6
176
     1
 40
30.0
176
     1
 62
     7
420
 16777215
176
     1
 90
        1
176
     1
 90
        4
176
     1
 62
     7
176
     1
 62
   257
176
     1
 90
        1
176
     1
 90
        1
176
     1
 40
1.0
176
     1
 90
        8
176
     1
 62
     7
176
     1
 40
1.0
176
     1
 90
        1
176
     1
 90
        6
176
     1
 90
        2
176
     1
 62
     7
176
     1
 90
        5
176
     1
 90
        0
176
     1
 90
        0
176
     1
290
     0
176
     1
 90
        1
176
     1
 40
50.0
176
     1
 90
        0
176
     1
290
     0
176
     1
290
     1
176
     1
290
     1
176
     1
290
     0
176
     1
290
     0
176
     1
290
     0
176
     1
290
     0
176
     1
290
     0
176
     1
290
     0
176
     1
 90
       50
176
     1
 40
0.0
176
     1
 40
1.0
176
     1
 90
        0
176
     1
 62
    18
420
        0
176
     1
 90
       50
176
     1
 90
        3
176
     1
 62
     5
420
      255
176
     1
290
     0
176
     1
 90
       50
176
     1
 90
       50
176
     1
 90
       50
176
     1
290
     0
176
     1
 90
       50
176
     1
 62
   256
176
     0
 40
1.0
176
     0
 90
        2
176
     1
  1
strokes_ogs.tif
176
     1
290
     0
176
     1
 40
1.0
176
     1
 40
1.0
176
     1
  0
VISUALSTYLE
  5
3A
102
{ACAD_REACTORS
330
2A
102
}
330
2A
100
AcDbVisualStyle
  2
ColorChange
 70
    16
177
     3
291
     1
 70
    58
 90
        2
176
     1
 90
        2
176
     1
 90
        3
176
     1
 90
        0
176
     1
 40
0.6
176
     1
 40
30.0
176
     1
 62
     8
420
  8421504
176
     1
 90
        1
176
     1
 90
        4
176
     1
 62
     7
176
     1
 62
   257
176
     1
 90
        1
176
     1
 90
        1
176
     1
 40
1.0
176
     1
 90
        8
176
     1
 62
     8
420
  8421504
176
     1
 40
1.0
176
     1
 90
        1
176
     1
 90
        6
176
     1
 90
        2
176
     1
 62
     7
176
     1
 90
        5
176
     1
 90
        0
176
     1
 90
        0
176
     1
290
     0
176
     1
 90
        1
176
     1
 40
0.0
176
     1
 90
        0
176
     1
290
     0
176
     1
290
     1
176
     1
290
     1
176
     1
290
     0
176
     1
290
     0
176
     1
290
     0
176
     1
290
     0
176
     1
290
     0
176
     1
290
     0
176
     1
 90
       50
176
     1
 40
0.0
176
     1
 40
1.0
176
     1
 90
        0
176
     1
 62
    18
420
        0
176
     1
 90
       50
176
     1
 90
        3
176
     1
 62
     5
420
      255
176
     1
290
     0
176
     1
 90
       50
176
     1
 90
       50
176
     1
 90
       50
176
     1
290
     0
176
     1
 90
       50
176
     1
 62
   256
176
     0
 40
1.0
176
     0
 90
        2
176
     1
  1
strokes_ogs.tif
176
     1
290
     0
176
     1
 40
1.0
176
     1
 40
1.0
176
     1
  0
VISUALSTYLE
  5
34
102
{ACAD_REACTORS
330
2A
102
}
330
2A
100
AcDbVisualStyle
  2
Conceptual
 70
     9
177
     3
291
     0
 70
    58
 90
        3
176
     1
 90
        2
176
     1
 90
        0
176
     1
 90
        0
176
     1
 40
0.6
176
     1
 40
30.0
176
     1
 62
     7
420
 16777215
176
     1
 90
        2
176
     1
 90
        2
176
     1
 62
     7
176
     1
 62
   257
176
     1
 90
        1
176
     1
 90
        1
176
     1
 40
179.0
176
     1
 90
        8
176
     1
 62
     7
176
     1
 40
1.0
176
     1
 90
        1
176
     1
 90
        6
176
     1
 90
        2
176
     1
 62
     7
176
     1
 90
        3
176
     1
 90
        0
176
     1
 90
        0
176
     1
290
     0
176
     1
 90
        1
176
     1
 40
0.0
176
     1
 90
        0
176
     1
290
     0
176
     1
290
     1
176
     1
290
     1
176
     1
290
     0
176
     1
290
     0
176
     1
290
     0
176
     1
290
     0
176
     1
290
     0
176
     1
290
     0
176
     1
 90
       50
176
     1
 40
0.0
176
     1
 40
1.0
176
     1
 90
        0
176
     1
 62
    18
420
        0
176
     1
 90
       50
176
     1
 90
        3
176
     1
 62
     5
420
      255
176
     1
290
     0
176
     1
 90
       50
176
     1
 90
       50
176
     1
 90
       50
176
     1
290
     0
176
     1
 90
       50
176
     1
 62
   256
176
     0
 40
1.0
176
     0
 90
        2
176
     1
  1
strokes_ogs.tif
176
     1
290
     0
176
     1
 40
1.0
176
     1
 40
1.0
176
     1
  0
VISUALSTYLE
  5
35
102
{ACAD_REACTORS
330
2A
102
}
330
2A
100
AcDbVisualStyle
  2
Dim
 70
    11
177
     3
291
     1
 70
    58
 90
        2
176
     1
 90
        2
176
     1
 90
        0
176
     1
 90
        0
176
     1
 40
0.6
176
     1
 40
30.0
176
     1
 62
     7
420
 16777215
176
     1
 90
        1
176
     1
 90
        4
176
     1
 62
     7
176
     1
 62
   257
176
     1
 90
        1
176
     1
 90
        1
176
     1
 40
1.0
176
     1
 90
        8
176
     1
 62
     7
176
     1
 40
1.0
176
     1
 90
        1
176
     1
 90
        6
176
     1
 90
        2
176
     1
 62
     7
176
     1
 90
        5
176
     1
 90
        0
176
     1
 90
        0
176
     1
290
     0
176
     1
 90
        1
176
     1
 40
-50.0
176
     1
 90
        0
176
     1
290
     0
176
     1
290
     1
176
     1
290
     1
176
     1
290
     0
176
     1
290
     0
176
     1
290
     0
176
     1
290
     0
176
     1
290
     0
176
     1
290
     0
176
     1
 90
       50
176
     1
 40
0.0
176
     1
 40
1.0
176
     1
 90
        0
176
     1
 62
    18
420
        0
176
     1
 90
       50
176
     1
 90
        3
176
     1
 62
     5
420
      255
176
     1
290
     0
176
     1
 90
       50
176
     1
 90
       50
176
     1
 90
       50
176
     1
290
     0
176
     1
 90
       50
176
     1
 62
   256
176
     0
 40
1.0
176
     0
 90
        2
176
     1
  1
strokes_ogs.tif
176
     1
290
     0
176
     1
 40
1.0
176
     1
 40
1.0
176
     1
  0
VISUALSTYLE
  5
3D
102
{ACAD_REACTORS
330
2A
102
}
330
2A
100
AcDbVisualStyle
  2
EdgeColorOff
 70
    22
177
     3
291
     1
 70
    58
 90
        2
176
     0
 90
        2
176
     0
 90
        0
176
     0
 90
        0
176
     0
 40
0.6
176
     0
 40
30.0
176
     0
 62
     7
420
 16777215
176
     0
 90
        1
176
     0
 90
        4
176
     0
 62
     7
176
     0
 62
   257
176
     0
 90
        1
176
     0
 90
        1
176
     0
 40
1.0
176
     0
 90
        8
176
     2
 62
     7
176
     0
 40
1.0
176
     0
 90
        1
176
     0
 90
        6
176
     0
 90
        2
176
     0
 62
     7
176
     0
 90
        5
176
     0
 90
        0
176
     0
 90
        0
176
     0
290
     0
176
     0
 90
        1
176
     0
 40
0.0
176
     0
 90
        0
176
     0
290
     0
176
     0
290
     1
176
     0
290
     1
176
     0
290
     0
176
     0
290
     0
176
     0
290
     0
176
     0
290
     0
176
     0
290
     0
176
     0
290
     0
176
     0
 90
       50
176
     0
 40
0.0
176
     0
 40
1.0
176
     0
 90
        0
176
     0
 62
    18
420
        0
176
     0
 90
       50
176
     0
 90
        3
176
     0
 62
     5
420
      255
176
     0
290
     0
176
     0
 90
       50
176
     0
 90
       50
176
     0
 90
       50
176
     0
290
     0
176
     0
 90
       50
176
     0
 62
   256
176
     0
 40
1.0
176
     0
 90
        2
176
     0
  1
strokes_ogs.tif
176
     0
290
     0
176
     0
 40
1.0
176
     0
 40
1.0
176
     0
  0
VISUALSTYLE
  5
39
102
{ACAD_REACTORS
330
2A
102
}
330
2A
100
AcDbVisualStyle
  2
Facepattern
 70
    15
177
     3
291
     1
 70
    58
 90
        2
176
     1
 90
        2
176
     1
 90
        0
176
     1
 90
        0
176
     1
 40
0.6
176
     1
 40
30.0
176
     1
 62
     7
420
 16777215
176
     1
 90
        1
176
     1
 90
        4
176
     1
 62
     7
176
     1
 62
   257
176
     1
 90
        1
176
     1
 90
        1
176
     1
 40
1.0
176
     1
 90
        8
176
     1
 62
     7
176
     1
 40
1.0
176
     1
 90
        1
176
     1
 90
        6
176
     1
 90
        2
176
     1
 62
     7
176
     1
 90
        5
176
     1
 90
        0
176
     1
 90
        0
176
     1
290
     0
176
     1
 90
        1
176
     1
 40
0.0
176
     1
 90
        0
176
     1
290
     0
176
     1
290
     1
176
     1
290
     1
176
     1
290
     0
176
     1
290
     0
176
     1
290
     0
176
     1
290
     0
176
     1
290
     0
176
     1
290
     0
176
     1
 90
       50
176
     1
 40
0.0
176
     1
 40
1.0
176
     1
 90
        0
176
     1
 62
    18
420
        0
176
     1
 90
       50
176
     1
 90
        3
176
     1
 62
     5
420
      255
176
     1
290
     0
176
     1
 90
       50
176
     1
 90
       50
176
     1
 90
       50
176
     1
290
     0
176
     1
 90
       50
176
     1
 62
   256
176
     0
 40
1.0
176
     0
 90
        2
176
     1
  1
strokes_ogs.tif
176
     1
290
     0
176
     1
 40
1.0
176
     1
 40
1.0
176
     1
  0
VISUALSTYLE
  5
2B
102
{ACAD_REACTORS
330
2A
102
}
330
2A
100
AcDbVisualStyle
  2
Flat
 70
     0
177
     3
291
     1
 70
    58
 90
        2
176
     1
 90
        1
176
     1
 90
        1
176
     1
 90
        2
176
     1
 40
0.6
176
     1
 40
30.0
176
     1
 62
     7
420
 16777215
176
     1
 90
        0
176
     1
 90
        0
176
     1
 62
     7
176
     1
 62
   257
176
     1
 90
        1
176
     1
 90
        1
176
     1
 40
1.0
176
     1
 90
        8
176
     1
 62
     7
176
     1
 40
1.0
176
     1
 90
        1
176
     1
 90
        6
176
     1
 90
        2
176
     1
 62
     7
176
     1
 90
        5
176
     1
 90
        0
176
     1
 90
        0
176
     1
290
     0
176
     1
 90
       13
176
     1
 40
0.0
176
     1
 90
        0
176
     1
290
     0
176
     1
290
     1
176
     1
290
     1
176
     1
290
     0
176
     1
290
     0
176
     1
290
     0
176
     1
290
     0
176
     1
290
     0
176
     1
290
     0
176
     1
 90
       50
176
     1
 40
0.0
176
     1
 40
1.0
176
     1
 90
        0
176
     1
 62
    18
420
        0
176
     1
 90
       50
176
     1
 90
        3
176
     1
 62
     5
420
      255
176
     1
290
     0
176
     1
 90
       50
176
     1
 90
       50
176
     1
 90
       50
176
     1
290
     0
176
     1
 90
       50
176
     1
 62
   256
176
     0
 40
1.0
176
     0
 90
        2
176
     1
  1
strokes_ogs.tif
176
     1
290
     0
176
     1
 40
1.0
176
     1
 40
1.0
176
     1
  0
VISUALSTYLE
  5
2C
102
{ACAD_REACTORS
330
2A
102
}
330
2A
100
AcDbVisualStyle
  2
FlatWithEdges
 70
     1
177
     3
291
     1
 70
    58
 90
        2
176
     1
 90
        1
176
     1
 90
        1
176
     1
 90
        2
176
     1
 40
0.6
176
     1
 40
30.0
176
     1
 62
     7
420
 16777215
176
     1
 90
        1
176
     1
 90
        0
176
     1
 62
     7
176
     1
 62
   257
176
     1
 90
        1
176
     1
 90
        1
176
     1
 40
1.0
176
     1
 90
        0
176
     1
 62
   257
176
     1
 40
1.0
176
     1
 90
        1
176
     1
 90
        6
176
     1
 90
        2
176
     1
 62
     7
176
     1
 90
        5
176
     1
 90
        0
176
     1
 90
        0
176
     1
290
     0
176
     1
 90
       13
176
     1
 40
0.0
176
     1
 90
        0
176
     1
290
     0
176
     1
290
     1
176
     1
290
     1
176
     1
290
     0
176
     1
290
     0
176
     1
290
     0
176
     1
290
     0
176
     1
290
     0
176
     1
290
     0
176
     1
 90
       50
176
     1
 40
0.0
176
     1
 40
1.0
176
     1
 90
        0
176
     1
 62
    18
420
        0
176
     1
 90
       50
176
     1
 90
        3
176
     1
 62
     5
420
      255
176
     1
290
     0
176
     1
 90
       50
176
     1
 90
       50
176
     1
 90
       50
176
     1
290
     0
176
     1
 90
       50
176
     1
 62
   256
176
     0
 40
1.0
176
     0
 90
        2
176
     1
  1
strokes_ogs.tif
176
     1
290
     0
176
     1
 40
1.0
176
     1
 40
1.0
176
     1
  0
VISUALSTYLE
  5
2D
102
{ACAD_REACTORS
330
2A
102
}
330
2A
100
AcDbVisualStyle
  2
Gouraud
 70
     2
177
     3
291
     1
 70
    58
 90
        2
176
     1
 90
        2
176
     1
 90
        1
176
     1
 90
        2
176
     1
 40
0.6
176
     1
 40
30.0
176
     1
 62
     7
420
 16777215
176
     1
 90
        0
176
     1
 90
        0
176
     1
 62
     7
176
     1
 62
   257
176
     1
 90
        1
176
     1
 90
        1
176
     1
 40
1.0
176
     1
 90
        0
176
     1
 62
     7
176
     1
 40
1.0
176
     1
 90
        1
176
     1
 90
        6
176
     1
 90
        2
176
     1
 62
     7
176
     1
 90
        5
176
     1
 90
        0
176
     1
 90
        0
176
     1
290
     0
176
     1
 90
       13
176
     1
 40
0.0
176
     1
 90
        0
176
     1
290
     0
176
     1
290
     1
176
     1
290
     1
176
     1
290
     0
176
     1
290
     0
176
     1
290
     0
176
     1
290
     0
176
     1
290
     0
176
     1
290
     0
176
     1
 90
       50
176
     1
 40
0.0
176
     1
 40
1.0
176
     1
 90
        0
176
     1
 62
    18
420
        0
176
     1
 90
       50
176
     1
 90
        3
176
     1
 62
     5
420
      255
176
     1
290
     0
176
     1
 90
       50
176
     1
 90
       50
176
     1
 90
       50
176
     1
290
     0
176
     1
 90
       50
176
     1
 62
   256
176
     0
 40
1.0
176
     0
 90
        2
176
     1
  1
strokes_ogs.tif
176
     1
290
     0
176
     1
 40
1.0
176
     1
 40
1.0
176
     1
  0
VISUALSTYLE
  5
2E
102
{ACAD_REACTORS
330
2A
102
}
330
2A
100
AcDbVisualStyle
  2
GouraudWithEdges
 70
     3
177
     3
291
     1
 70
    58
 90
        2
176
     1
 90
        2
176
     1
 90
        1
176
     1
 90
        2
176
     1
 40
0.6
176
     1
 40
30.0
176
     1
 62
     7
420
 16777215
176
     1
 90
        1
176
     1
 90
        0
176
     1
 62
     7
176
     1
 62
   257
176
     1
 90
        1
176
     1
 90
        1
176
     1
 40
1.0
176
     1
 90
        0
176
     1
 62
   257
176
     1
 40
1.0
176
     1
 90
        1
176
     1
 90
        6
176
     1
 90
        2
176
     1
 62
     7
176
     1
 90
        5
176
     1
 90
        0
176
     1
 90
        0
176
     1
290
     0
176
     1
 90
       13
176
     1
 40
0.0
176
     1
 90
        0
176
     1
290
     0
176
     1
290
     1
176
     1
290
     1
176
     1
290
     0
176
     1
290
     0
176
     1
290
     0
176
     1
290
     0
176
     1
290
     0
176
     1
290
     0
176
     1
 90
       50
176
     1
 40
0.0
176
     1
 40
1.0
176
     1
 90
        0
176
     1
 62
    18
420
        0
176
     1
 90
       50
176
     1
 90
        3
176
     1
 62
     5
420
      255
176
     1
290
     0
176
     1
 90
       50
176
     1
 90
       50
176
     1
 90
       50
176
     1
290
     0
176
     1
 90
       50
176
     1
 62
   256
176
     0
 40
1.0
176
     0
 90
        2
176
     1
  1
strokes_ogs.tif
176
     1
290
     0
176
     1
 40
1.0
176
     1
 40
1.0
176
     1
  0
VISUALSTYLE
  5
31
102
{ACAD_REACTORS
330
2A
102
}
330
2A
100
AcDbVisualStyle
  2
Hidden
 70
     6
177
     3
291
     0
 70
    58
 90
        1
176
     1
 90
        2
176
     1
 90
        2
176
     1
 90
        0
176
     1
 40
0.6
176
     1
 40
30.0
176
     1
 62
     7
420
 16777215
176
     1
 90
        2
176
     1
 90
        2
176
     1
 62
     7
176
     1
 62
   257
176
     1
 90
        2
176
     1
 90
        1
176
     1
 40
40.0
176
     1
 90
        0
176
     1
 62
   257
176
     1
 40
1.0
176
     1
 90
        1
176
     1
 90
        6
176
     1
 90
        2
176
     1
 62
     7
176
     1
 90
        3
176
     1
 90
        0
176
     1
 90
        0
176
     1
290
     0
176
     1
 90
        1
176
     1
 40
0.0
176
     1
 90
        0
176
     1
290
     0
176
     1
290
     1
176
     1
290
     1
176
     1
290
     0
176
     1
290
     0
176
     1
290
     0
176
     1
290
     0
176
     1
290
     0
176
     1
290
     0
176
     1
 90
       50
176
     1
 40
0.0
176
     1
 40
1.0
176
     1
 90
        0
176
     1
 62
    18
420
        0
176
     1
 90
       50
176
     1
 90
        3
176
     1
 62
     5
420
      255
176
     1
290
     0
176
     1
 90
       50
176
     1
 90
       50
176
     1
 90
       50
176
     1
290
     0
176
     1
 90
       50
176
     1
 62
   256
176
     0
 40
1.0
176
     0
 90
        2
176
     1
  1
strokes_ogs.tif
176
     1
290
     0
176
     1
 40
1.0
176
     1
 40
1.0
176
     1
  0
VISUALSTYLE
  5
3B
102
{ACAD_REACTORS
330
2A
102
}
330
2A
100
AcDbVisualStyle
  2
JitterOff
 70
    20
177
     3
291
     1
 70
    58
 90
        2
176
     0
 90
        2
176
     0
 90
        0
176
     0
 90
        0
176
     0
 40
0.6
176
     0
 40
30.0
176
     0
 62
     7
420
 16777215
176
     0
 90
        1
176
     0
 90
        4
176
     0
 62
     7
176
     0
 62
   257
176
     0
 90
        1
176
     0
 90
        1
176
     0
 40
1.0
176
     0
 90
       10
176
     2
 62
     7
176
     0
 40
1.0
176
     0
 90
        1
176
     0
 90
        6
176
     0
 90
        2
176
     0
 62
     7
176
     0
 90
        5
176
     0
 90
        0
176
     0
 90
        0
176
     0
290
     0
176
     0
 90
        1
176
     0
 40
0.0
176
     0
 90
        0
176
     0
290
     0
176
     0
290
     1
176
     0
290
     1
176
     0
290
     0
176
     0
290
     0
176
     0
290
     0
176
     0
290
     0
176
     0
290
     0
176
     0
290
     0
176
     0
 90
       50
176
     0
 40
0.0
176
     0
 40
1.0
176
     0
 90
        0
176
     0
 62
    18
420
        0
176
     0
 90
       50
176
     0
 90
        3
176
     0
 62
     5
420
      255
176
     0
290
     0
176
     0
 90
       50
176
     0
 90
       50
176
     0
 90
       50
176
     0
290
     0
176
     0
 90
       50
176
     0
 62
   256
176
     0
 40
1.0
176
     0
 90
        2
176
     0
  1
strokes_ogs.tif
176
     0
290
     0
176
     0
 40
1.0
176
     0
 40
1.0
176
     0
  0
VISUALSTYLE
  5
38
102
{ACAD_REACTORS
330
2A
102
}
330
2A
100
AcDbVisualStyle
  2
Linepattern
 70
    14
177
     3
291
     1
 70
    58
 90
        2
176
     1
 90
        2
176
     1
 90
        0
176
     1
 90
        0
176
     1
 40
0.6
176
     1
 40
30.0
176
     1
 62
     7
420
 16777215
176
     1
 90
        1
176
     1
 90
        4
176
     1
 62
     7
176
     1
 62
   257
176
     1
 90
        7
176
     1
 90
        7
176
     1
 40
1.0
176
     1
 90
        8
176
     1
 62
     7
176
     1
 40
1.0
176
     1
 90
        1
176
     1
 90
        6
176
     1
 90
        2
176
     1
 62
     7
176
     1
 90
        5
176
     1
 90
        0
176
     1
 90
        0
176
     1
290
     0
176
     1
 90
        1
176
     1
 40
0.0
176
     1
 90
        0
176
     1
290
     0
176
     1
290
     1
176
     1
290
     1
176
     1
290
     0
176
     1
290
     0
176
     1
290
     0
176
     1
290
     0
176
     1
290
     0
176
     1
290
     0
176
     1
 90
       50
176
     1
 40
0.0
176
     1
 40
1.0
176
     1
 90
        0
176
     1
 62
    18
420
        0
176
     1
 90
       50
176
     1
 90
        3
176
     1
 62
     5
420
      255
176
     1
290
     0
176
     1
 90
       50
176
     1
 90
       50
176
     1
 90
       50
176
     1
290
     0
176
     1
 90
       50
176
     1
 62
   256
176
     0
 40
1.0
176
     0
 90
        2
176
     1
  1
strokes_ogs.tif
176
     1
290
     0
176
     1
 40
1.0
176
     1
 40
1.0
176
     1
  0
VISUALSTYLE
  5
3C
102
{ACAD_REACTORS
330
2A
102
}
330
2A
100
AcDbVisualStyle
  2
OverhangOff
 70
    21
177
     3
291
     1
 70
    58
 90
        2
176
     0
 90
        2
176
     0
 90
        0
176
     0
 90
        0
176
     0
 40
0.6
176
     0
 40
30.0
176
     0
 62
     7
420
 16777215
176
     0
 90
        1
176
     0
 90
        4
176
     0
 62
     7
176
     0
 62
   257
176
     0
 90
        1
176
     0
 90
        1
176
     0
 40
1.0
176
     0
 90
        9
176
     2
 62
     7
176
     0
 40
1.0
176
     0
 90
        1
176
     0
 90
        6
176
     0
 90
        2
176
     0
 62
     7
176
     0
 90
        5
176
     0
 90
        0
176
     0
 90
        0
176
     0
290
     0
176
     0
 90
        1
176
     0
 40
0.0
176
     0
 90
        0
176
     0
290
     0
176
     0
290
     1
176
     0
290
     1
176
     0
290
     0
176
     0
290
     0
176
     0
290
     0
176
     0
290
     0
176
     0
290
     0
176
     0
290
     0
176
     0
 90
       50
176
     0
 40
0.0
176
     0
 40
1.0
176
     0
 90
        0
176
     0
 62
    18
420
        0
176
     0
 90
       50
176
     0
 90
        3
176
     0
 62
     5
420
      255
176
     0
290
     0
176
     0
 90
       50
176
     0
 90
       50
176
     0
 90
       50
176
     0
290
     0
176
     0
 90
       50
176
     0
 62
   256
176
     0
 40
1.0
176
     0
 90
        2
176
     0
  1
strokes_ogs.tif
176
     0
290
     0
176
     0
 40
1.0
176
     0
 40
1.0
176
     0
  0
VISUALSTYLE
  5
33
102
{ACAD_REACTORS
330
2A
102
}
330
2A
100
AcDbVisualStyle
  2
Realistic
 70
     8
177
     3
291
     0
 70
    58
 90
        2
176
     1
 90
        3
176
     1
 90
        0
176
     1
 90
        2
176
     1
 40
0.6
176
     1
 40
30.0
176
     1
 62
     7
420
 16777215
176
     1
 90
        0
176
     1
 90
        0
176
     1
 62
     7
176
     1
 62
   257
176
     1
 90
        1
176
     1
 90
        1
176
     1
 40
1.0
176
     1
 90
        8
176
     1
 62
   257
176
     1
 40
1.0
176
     1
 90
        1
176
     1
 90
        6
176
     1
 90
        2
176
     1
 62
     7
176
     1
 90
        3
176
     1
 90
        0
176
     1
 90
        0
176
     1
290
     0
176
     1
 90
       13
176
     1
 40
0.0
176
     1
 90
        0
176
     1
290
     0
176
     1
290
     1
176
     1
290
     1
176
     1
290
     0
176
     1
290
     0
176
     1
290
     0
176
     1
290
     0
176
     1
290
     0
176
     1
290
     0
176
     1
 90
       50
176
     1
 40
0.0
176
     1
 40
1.0
176
     1
 90
        0
176
     1
 62
    18
420
        0
176
     1
 90
       50
176
     1
 90
        3
176
     1
 62
     5
420
      255
176
     1
290
     0
176
     1
 90
       50
176
     1
 90
       50
176
     1
 90
       50
176
     1
290
     0
176
     1
 90
       50
176
     1
 62
   256
176
     0
 40
1.0
176
     0
 90
        2
176
     1
  1
strokes_ogs.tif
176
     1
290
     0
176
     1
 40
1.0
176
     1
 40
1.0
176
     1
  0
VISUALSTYLE
  5
42
102
{ACAD_REACTORS
330
2A
102
}
330
2A
100
AcDbVisualStyle
  2
Shaded
 70
    27
177
     3
291
     0
 70
    58
 90
        2
176
     1
 90
        2
176
     1
 90
        1
176
     1
 90
        2
176
     1
 40
0.6
176
     1
 40
30.0
176
     1
 62
     7
420
 16777215
176
     1
 90
        0
176
     1
 90
        4
176
     1
 62
     7
176
     1
 62
   257
176
     1
 90
        1
176
     1
 90
        1
176
     1
 40
1.0
176
     1
 90
        8
176
     1
 62
   257
176
     1
 40
1.0
176
     1
 90
        1
176
     1
 90
        6
176
     1
 90
        2
176
     1
 62
     8
420
  7895160
176
     1
 90
        3
176
     1
 90
        0
176
     1
 90
        0
176
     1
290
     0
176
     1
 90
        5
176
     1
 40
0.0
176
     1
 90
        0
176
     1
290
     0
176
     1
290
     1
176
     1
290
     1
176
     1
290
     0
176
     1
290
     0
176
     1
290
     0
176
     1
290
     0
176
     1
290
     0
176
     1
290
     0
176
     1
 90
       50
176
     1
 40
0.0
176
     1
 40
1.0
176
     1
 90
        0
176
     1
 62
    18
420
        0
176
     1
 90
       50
176
     1
 90
        3
176
     1
 62
     5
420
      255
176
     1
290
     0
176
     1
 90
       50
176
     1
 90
       50
176
     1
 90
       50
176
     1
290
     0
176
     1
 90
       50
176
     1
 62
   256
176
     0
 40
1.0
176
     0
 90
        2
176
     1
  1
strokes_ogs.tif
176
     1
290
     0
176
     1
 40
1.0
176
     1
 40
1.0
176
     1
  0
VISUALSTYLE
  5
41
102
{ACAD_REACTORS
330
2A
102
}
330
2A
100
AcDbVisualStyle
  2
Shaded with edges
 70
    26
177
     3
291
     0
 70
    58
 90
        2
176
     1
 90
        2
176
     1
 90
        1
176
     1
 90
        2
176
     1
 40
0.6
176
     1
 40
30.0
176
     1
 62
     7
420
 16777215
176
     1
 90
        1
176
     1
 90
       10
176
     1
 62
     7
176
     1
 62
   257
176
     1
 90
        2
176
     1
 90
        1
176
     1
 40
1.0
176
     1
 90
        8
176
     1
 62
   257
176
     1
 40
1.0
176
     1
 90
        1
176
     1
 90
        6
176
     1
 90
        2
176
     1
 62
     7
176
     1
 90
        3
176
     1
 90
        0
176
     1
 90
        0
176
     1
290
     0
176
     1
 90
        5
176
     1
 40
0.0
176
     1
 90
        0
176
     1
290
     0
176
     1
290
     1
176
     1
290
     1
176
     1
290
     0
176
     1
290
     0
176
     1
290
     0
176
     1
290
     0
176
     1
290
     0
176
     1
290
     0
176
     1
 90
       50
176
     1
 40
0.0
176
     1
 40
1.0
176
     1
 90
        0
176
     1
 62
    18
420
        0
176
     1
 90
       50
176
     1
 90
        3
176
     1
 62
     5
420
      255
176
     1
290
     0
176
     1
 90
       50
176
     1
 90
       50
176
     1
 90
       50
176
     1
290
     0
176
     1
 90
       50
176
     1
 62
   256
176
     0
 40
1.0
176
     0
 90
        2
176
     1
  1
strokes_ogs.tif
176
     1
290
     0
176
     1
 40
1.0
176
     1
 40
1.0
176
     1
  0
VISUALSTYLE
  5
3E
102
{ACAD_REACTORS
330
2A
102
}
330
2A
100
AcDbVisualStyle
  2
Shades of Gray
 70
    23
177
     3
291
     0
 70
    58
 90
        2
176
     1
 90
        2
176
     1
 90
        3
176
     1
 90
        0
176
     1
 40
0.6
176
     1
 40
30.0
176
     1
 62
     7
420
 16777215
176
     1
 90
        2
176
     1
 90
        2
176
     1
 62
     7
176
     1
 62
     7
176
     1
 90
        1
176
     1
 90
        1
176
     1
 40
40.0
176
     1
 90
        8
176
     1
 62
     7
176
     1
 40
1.0
176
     1
 90
        1
176
     1
 90
        6
176
     1
 90
        2
176
     1
 62
     7
176
     1
 90
        3
176
     1
 90
        0
176
     1
 90
        0
176
     1
290
     0
176
     1
 90
        1
176
     1
 40
0.0
176
     1
 90
        0
176
     1
290
     0
176
     1
290
     1
176
     1
290
     1
176
     1
290
     0
176
     1
290
     0
176
     1
290
     0
176
     1
290
     0
176
     1
290
     0
176
     1
290
     0
176
     1
 90
       50
176
     1
 40
0.0
176
     1
 40
1.0
176
     1
 90
        0
176
     1
 62
    18
420
        0
176
     1
 90
       50
176
     1
 90
        3
176
     1
 62
     5
420
      255
176
     1
290
     0
176
     1
 90
       50
176
     1
 90
       50
176
     1
 90
       50
176
     1
290
     0
176
     1
 90
       50
176
     1
 62
   256
176
     0
 40
1.0
176
     0
 90
        2
176
     1
  1
strokes_ogs.tif
176
     1
290
     0
176
     1
 40
1.0
176
     1
 40
1.0
176
     1
  0
VISUALSTYLE
  5
3F
102
{ACAD_REACTORS
330
2A
102
}
330
2A
100
AcDbVisualStyle
  2
Sketchy
 70
    24
177
     3
291
     0
 70
    58
 90
        1
176
     1
 90
        2
176
     1
 90
        2
176
     1
 90
        0
176
     1
 40
0.6
176
     1
 40
30.0
176
     1
 62
     7
420
 16777215
176
     1
 90
        2
176
     1
 90
        2
176
     1
 62
     7
176
     1
 62
     7
176
     1
 90
        1
176
     1
 90
        1
176
     1
 40
40.0
176
     1
 90
       11
176
     1
 62
     7
176
     1
 40
1.0
176
     1
 90
        1
176
     1
 90
        6
176
     1
 90
        2
176
     1
 62
     7
176
     1
 90
        6
176
     1
 90
        0
176
     1
 90
        0
176
     1
290
     0
176
     1
 90
        1
176
     1
 40
0.0
176
     1
 90
        0
176
     1
290
     0
176
     1
290
     1
176
     1
290
     1
176
     1
290
     0
176
     1
290
     0
176
     1
290
     0
176
     1
290
     0
176
     1
290
     0
176
     1
290
     0
176
     1
 90
       50
176
     1
 40
0.0
176
     1
 40
1.0
176
     1
 90
        0
176
     1
 62
    18
420
        0
176
     1
 90
       50
176
     1
 90
        3
176
     1
 62
     5
420
      255
176
     1
290
     0
176
     1
 90
       50
176
     1
 90
       50
176
     1
 90
       50
176
     1
290
     0
176
     1
 90
       50
176
     1
 62
   256
176
     0
 40
1.0
176
     0
 90
        2
176
     1
  1
strokes_ogs.tif
176
     1
290
     0
176
     1
 40
1.0
176
     1
 40
1.0
176
     1
  0
VISUALSTYLE
  5
37
102
{ACAD_REACTORS
330
2A
102
}
330
2A
100
AcDbVisualStyle
  2
Thicken
 70
    13
177
     3
291
     1
 70
    58
 90
        2
176
     1
 90
        2
176
     1
 90
        0
176
     1
 90
        0
176
     1
 40
0.6
176
     1
 40
30.0
176
     1
 62
     7
420
 16777215
176
     1
 90
        1
176
     1
 90
        4
176
     1
 62
     7
176
     1
 62
   257
176
     1
 90
        1
176
     1
 90
        1
176
     1
 40
1.0
176
     1
 90
       12
176
     1
 62
     7
176
     1
 40
1.0
176
     1
 90
        1
176
     1
 90
        6
176
     1
 90
        2
176
     1
 62
     7
176
     1
 90
        5
176
     1
 90
        0
176
     1
 90
        0
176
     1
290
     0
176
     1
 90
        1
176
     1
 40
0.0
176
     1
 90
        0
176
     1
290
     0
176
     1
290
     1
176
     1
290
     1
176
     1
290
     0
176
     1
290
     0
176
     1
290
     0
176
     1
290
     0
176
     1
290
     0
176
     1
290
     0
176
     1
 90
       50
176
     1
 40
0.0
176
     1
 40
1.0
176
     1
 90
        0
176
     1
 62
    18
420
        0
176
     1
 90
       50
176
     1
 90
        3
176
     1
 62
     5
420
      255
176
     1
290
     0
176
     1
 90
       50
176
     1
 90
       50
176
     1
 90
       50
176
     1
290
     0
176
     1
 90
       50
176
     1
 62
   256
176
     0
 40
1.0
176
     0
 90
        2
176
     1
  1
strokes_ogs.tif
176
     1
290
     0
176
     1
 40
1.0
176
     1
 40
1.0
176
     1
  0
VISUALSTYLE
  5
30
102
{ACAD_REACTORS
330
2A
102
}
330
2A
100
AcDbVisualStyle
  2
Wireframe
 70
     5
177
     3
291
     0
 70
    58
 90
        0
176
     1
 90
        2
176
     1
 90
        0
176
     1
 90
        0
176
     1
 40
0.6
176
     1
 40
30.0
176
     1
 62
     7
420
 16777215
176
     1
 90
        1
176
     1
 90
        4
176
     1
 62
     7
176
     1
 62
   257
176
     1
 90
        1
176
     1
 90
        1
176
     1
 40
1.0
176
     1
 90
        0
176
     1
 62
   257
176
     1
 40
1.0
176
     1
 90
        1
176
     1
 90
        6
176
     1
 90
        2
176
     1
 62
     7
176
     1
 90
        3
176
     1
 90
        0
176
     1
 90
        0
176
     1
290
     0
176
     1
 90
        1
176
     1
 40
0.0
176
     1
 90
        0
176
     1
290
     0
176
     1
290
     1
176
     1
290
     1
176
     1
290
     0
176
     1
290
     0
176
     1
290
     0
176
     1
290
     0
176
     1
290
     0
176
     1
290
     0
176
     1
 90
       50
176
     1
 40
0.0
176
     1
 40
1.0
176
     1
 90
        0
176
     1
 62
    18
420
        0
176
     1
 90
       50
176
     1
 90
        3
176
     1
 62
     5
420
      255
176
     1
290
     0
176
     1
 90
       50
176
     1
 90
       50
176
     1
 90
       50
176
     1
290
     0
176
     1
 90
       50
176
     1
 62
   256
176
     0
 40
1.0
176
     0
 90
        2
176
     1
  1
strokes_ogs.tif
176
     1
290
     0
176
     1
 40
1.0
176
     1
 40
1.0
176
     1
  0
VISUALSTYLE
  5
40
102
{ACAD_REACTORS
330
2A
102
}
330
2A
100
AcDbVisualStyle
  2
X-Ray
 70
    25
177
     3
291
     0
 70
    58
 90
        2
176
     1
 90
        2
176
     1
 90
        1
176
     1
 90
        1
176
     1
 40
0.5
176
     1
 40
30.0
176
     1
 62
     7
420
 16777215
176
     1
 90
        1
176
     1
 90
        0
176
     1
 62
     7
176
     1
 62
   257
176
     1
 90
        1
176
     1
 90
        1
176
     1
 40
1.0
176
     1
 90
        8
176
     1
 62
     7
176
     1
 40
1.0
176
     1
 90
        1
176
     1
 90
        6
176
     1
 90
        2
176
     1
 62
     7
176
     1
 90
        3
176
     1
 90
        0
176
     1
 90
        0
176
     1
290
     0
176
     1
 90
       13
176
     1
 40
0.0
176
     1
 90
        0
176
     1
290
     0
176
     1
290
     1
176
     1
290
     1
176
     1
290
     0
176
     1
290
     0
176
     1
290
     0
176
     1
290
     0
176
     1
290
     0
176
     1
290
     0
176
     1
 90
       50
176
     1
 40
0.0
176
     1
 40
1.0
176
     1
 90
        0
176
     1
 62
    18
420
        0
176
     1
 90
       50
176
     1
 90
        3
176
     1
 62
     5
420
      255
176
     1
290
     0
176
     1
 90
       50
176
     1
 90
       50
176
     1
 90
       50
176
     1
290
     0
176
     1
 90
       50
176
     1
 62
   256
176
     0
 40
1.0
176
     0
 90
        2
176
     1
  1
strokes_ogs.tif
176
     1
290
     0
176
     1
 40
1.0
176
     1
 40
1.0
176
     1
  0
DICTIONARYVAR
  5
1EF
102
{ACAD_REACTORS
330
1EE
102
}
330
1EE
100
DictionaryVariables
280
     0
  1
1:1
  0
DICTIONARYVAR
  5
1F4
102
{ACAD_REACTORS
330
1EE
102
}
330
1EE
100
DictionaryVariables
280
     0
  1
Standard
  0
DICTIONARYVAR
  5
1F3
102
{ACAD_REACTORS
330
1EE
102
}
330
1EE
100
DictionaryVariables
280
     0
  1
Standard
  0
DICTIONARY
  5
1F0
330
6A
100
AcDbDictionary
280
     1
281
     1
  3
ACAD_ROUNDTRIP_2008_TABLESTYLE_CELLSTYLEMAP
360
1F1
  0
CELLSTYLEMAP
  5
1F1
102
{ACAD_REACTORS
330
1F0
102
}
330
1F0
100
AcDbCellStyleMap
 90
        3
300
CELLSTYLE
  1
TABLEFORMAT_BEGIN
 90
        5
170
     1
 91
        0
 92
    32768
 62
   257
 93
        1
300
CONTENTFORMAT
  1
CONTENTFORMAT_BEGIN
 90
        0
 91
        0
 92
        4
 93
        0
300

 40
0.0
140
1.0
 94
        5
 62
     0
340
11
144
0.25
309
CONTENTFORMAT_END
171
     1
301
MARGIN
  1
CELLMARGIN_BEGIN
 40
0.06
 40
0.06
 40
0.06
 40
0.06
 40
0.06
 40
0.06
309
CELLMARGIN_END
 94
        6
 95
        1
302
GRIDFORMAT
  1
GRIDFORMAT_BEGIN
 90
        0
 91
        1
 62
     0
 92
       -2
340
14
 93
        0
 40
0.045
309
GRIDFORMAT_END
 95
        2
302
GRIDFORMAT
  1
GRIDFORMAT_BEGIN
 90
        0
 91
        1
 62
     0
 92
       -2
340
14
 93
        0
 40
0.045
309
GRIDFORMAT_END
 95
        4
302
GRIDFORMAT
  1
GRIDFORMAT_BEGIN
 90
        0
 91
        1
 62
     0
 92
       -2
340
14
 93
        0
 40
0.045
309
GRIDFORMAT_END
 95
        8
302
GRIDFORMAT
  1
GRIDFORMAT_BEGIN
 90
        0
 91
        1
 62
     0
 92
       -2
340
14
 93
        0
 40
0.045
309
GRIDFORMAT_END
 95
       16
302
GRIDFORMAT
  1
GRIDFORMAT_BEGIN
 90
        0
 91
        1
 62
     0
 92
       -2
340
14
 93
        0
 40
0.045
309
GRIDFORMAT_END
 95
       32
302
GRIDFORMAT
  1
GRIDFORMAT_BEGIN
 90
        0
 91
        1
 62
     0
 92
       -2
340
14
 93
        0
 40
0.045
309
GRIDFORMAT_END
309
TABLEFORMAT_END
  1
CELLSTYLE_BEGIN
 90
        1
 91
        1
300
_TITLE
309
CELLSTYLE_END
300
CELLSTYLE
  1
TABLEFORMAT_BEGIN
 90
        5
170
     1
 91
        0
 92
        0
 62
   257
 93
        1
300
CONTENTFORMAT
  1
CONTENTFORMAT_BEGIN
 90
        0
 91
        0
 92
        4
 93
        0
300

 40
0.0
140
1.0
 94
        5
 62
     0
340
11
144
0.18
309
CONTENTFORMAT_END
171
     1
301
MARGIN
  1
CELLMARGIN_BEGIN
 40
0.06
 40
0.06
 40
0.06
 40
0.06
 40
0.06
 40
0.06
309
CELLMARGIN_END
 94
        6
 95
        1
302
GRIDFORMAT
  1
GRIDFORMAT_BEGIN
 90
        0
 91
        1
 62
     0
 92
       -2
340
14
 93
        0
 40
0.045
309
GRIDFORMAT_END
 95
        2
302
GRIDFORMAT
  1
GRIDFORMAT_BEGIN
 90
        0
 91
        1
 62
     0
 92
       -2
340
14
 93
        0
 40
0.045
309
GRIDFORMAT_END
 95
        4
302
GRIDFORMAT
  1
GRIDFORMAT_BEGIN
 90
        0
 91
        1
 62
     0
 92
       -2
340
14
 93
        0
 40
0.045
309
GRIDFORMAT_END
 95
        8
302
GRIDFORMAT
  1
GRIDFORMAT_BEGIN
 90
        0
 91
        1
 62
     0
 92
       -2
340
14
 93
        0
 40
0.045
309
GRIDFORMAT_END
 95
       16
302
GRIDFORMAT
  1
GRIDFORMAT_BEGIN
 90
        0
 91
        1
 62
     0
 92
       -2
340
14
 93
        0
 40
0.045
309
GRIDFORMAT_END
 95
       32
302
GRIDFORMAT
  1
GRIDFORMAT_BEGIN
 90
        0
 91
        1
 62
     0
 92
       -2
340
14
 93
        0
 40
0.045
309
GRIDFORMAT_END
309
TABLEFORMAT_END
  1
CELLSTYLE_BEGIN
 90
        2
 91
        1
300
_HEADER
309
CELLSTYLE_END
300
CELLSTYLE
  1
TABLEFORMAT_BEGIN
 90
        5
170
     1
 91
        0
 92
        0
 62
   257
 93
        1
300
CONTENTFORMAT
  1
CONTENTFORMAT_BEGIN
 90
        0
 91
        0
 92
        4
 93
        0
300

 40
0.0
140
1.0
 94
        2
 62
     0
340
11
144
0.18
309
CONTENTFORMAT_END
171
     1
301
MARGIN
  1
CELLMARGIN_BEGIN
 40
0.06
 40
0.06
 40
0.06
 40
0.06
 40
0.06
 40
0.06
309
CELLMARGIN_END
 94
        6
 95
        1
302
GRIDFORMAT
  1
GRIDFORMAT_BEGIN
 90
        0
 91
        1
 62
     0
 92
       -2
340
14
 93
        0
 40
0.045
309
GRIDFORMAT_END
 95
        2
302
GRIDFORMAT
  1
GRIDFORMAT_BEGIN
 90
        0
 91
        1
 62
     0
 92
       -2
340
14
 93
        0
 40
0.045
309
GRIDFORMAT_END
 95
        4
302
GRIDFORMAT
  1
GRIDFORMAT_BEGIN
 90
        0
 91
        1
 62
     0
 92
       -2
340
14
 93
        0
 40
0.045
309
GRIDFORMAT_END
 95
        8
302
GRIDFORMAT
  1
GRIDFORMAT_BEGIN
 90
        0
 91
        1
 62
     0
 92
       -2
340
14
 93
        0
 40
0.045
309
GRIDFORMAT_END
 95
       16
302
GRIDFORMAT
  1
GRIDFORMAT_BEGIN
 90
        0
 91
        1
 62
     0
 92
       -2
340
14
 93
        0
 40
0.045
309
GRIDFORMAT_END
 95
       32
302
GRIDFORMAT
  1
GRIDFORMAT_BEGIN
 90
        0
 91
        1
 62
     0
 92
       -2
340
14
 93
        0
 40
0.045
309
GRIDFORMAT_END
309
TABLEFORMAT_END
  1
CELLSTYLE_BEGIN
 90
        3
 91
        2
300
_DATA
309
CELLSTYLE_END
  0
ENDSEC
  0
EOF