0
SECTION
  2
HEADER
  9
$ACADVER
  1
AC1027
  9
$ACADMAINTVER
 70
     8
  9
$DWGCODEPAGE
  3
ANSI_1252
  9
$REQUIREDVERSIONS
160
                 0
  9
$COMMENTS
  1
File was created by Cadenas
  9
$CUSTOMPROPERTYTAG
  1
NN
  9
$CUSTOMPROPERTY
  1
S-2000 Flange Bearing - Square with Type E Dimensions Trident Seal Non-Expansion
  9
$CUSTOMPROPERTYTAG
  1
NT
  9
$CUSTOMPROPERTY
  1
S-2000 - E Type - Inch
  9
$CUSTOMPROPERTYTAG
  1
NB
  9
$CUSTOMPROPERTY
  1
071480
  9
$CUSTOMPROPERTYTAG
  1
NBSYN
  9
$CUSTOMPROPERTY
  1
$PN.
  9
$CUSTOMPROPERTYTAG
  1
LINA
  9
$CUSTOMPROPERTY
  1
071480
  9
$CUSTOMPROPERTYTAG
  1
SS
  9
$CUSTOMPROPERTY
  1
3-15/16
  9
$CUSTOMPROPERTYTAG
  1
TYPE
  9
$CUSTOMPROPERTY
  1
Non-Expansion
  9
$CUSTOMPROPERTYTAG
  1
PN
  9
$CUSTOMPROPERTY
  1
071480
  9
$CUSTOMPROPERTYTAG
  1
DESCRIPTION
  9
$CUSTOMPROPERTY
  1
EF4B-S2-315R
  9
$CUSTOMPROPERTYTAG
  1
A
  9
$CUSTOMPROPERTY
  1
4.48
  9
$CUSTOMPROPERTYTAG
  1
B
  9
$CUSTOMPROPERTY
  1
10.25
  9
$CUSTOMPROPERTYTAG
  1
C
  9
$CUSTOMPROPERTY
  1
6.5
  9
$CUSTOMPROPERTYTAG
  1
D
  9
$CUSTOMPROPERTY
  1
7.75
  9
$CUSTOMPROPERTYTAG
  1
DD
  9
$CUSTOMPROPERTY
  1
10.960
  9
$CUSTOMPROPERTYTAG
  1
F
  9
$CUSTOMPROPERTY
  1
7/8
  9
$CUSTOMPROPERTYTAG
  1
G
  9
$CUSTOMPROPERTY
  1
1
  9
$CUSTOMPROPERTYTAG
  1
H
  9
$CUSTOMPROPERTY
  1
2.12
  9
$CUSTOMPROPERTYTAG
  1
J
  9
$CUSTOMPROPERTY
  1
8.27
  9
$CUSTOMPROPERTYTAG
  1
L
  9
$CUSTOMPROPERTY
  1
6
  9
$CUSTOMPROPERTYTAG
  1
N
  9
$CUSTOMPROPERTY
  1
4.58
  9
$CUSTOMPROPERTYTAG
  1
P
  9
$CUSTOMPROPERTY
  1
2.02
  9
$CUSTOMPROPERTYTAG
  1
X
  9
$CUSTOMPROPERTY
  1
0.31
  9
$CUSTOMPROPERTYTAG
  1
Y
  9
$CUSTOMPROPERTY
  1
0.025
  9
$CUSTOMPROPERTYTAG
  1
Z
  9
$CUSTOMPROPERTY
  1
4.5
  9
$CUSTOMPROPERTYTAG
  1
CS
  9
$CUSTOMPROPERTY
  1
5/8-11
  9
$CUSTOMPROPERTYTAG
  1
TORQUE
  9
$CUSTOMPROPERTY
  1
1325
  9
$CUSTOMPROPERTYTAG
  1
COMPANY
  9
$CUSTOMPROPERTY
  1
baldor
  9
$INSBASE
 10
0.0
 20
0.0
 30
0.0
  9
$EXTMIN
 10
1.000000000000000E+20
 20
1.000000000000000E+20
 30
1.000000000000000E+20
  9
$EXTMAX
 10
-1.000000000000000E+20
 20
-1.000000000000000E+20
 30
-1.000000000000000E+20
  9
$LIMMIN
 10
0.0
 20
0.0
  9
$LIMMAX
 10
12.0
 20
9.0
  9
$ORTHOMODE
 70
     0
  9
$REGENMODE
 70
     1
  9
$FILLMODE
 70
     1
  9
$QTEXTMODE
 70
     0
  9
$MIRRTEXT
 70
     1
  9
$LTSCALE
 40
1.0
  9
$ATTMODE
 70
     1
  9
$TEXTSIZE
 40
0.2
  9
$TRACEWID
 40
0.05
  9
$TEXTSTYLE
  7
Standard
  9
$CLAYER
  8
0
  9
$CELTYPE
  6
ByLayer
  9
$CECOLOR
 62
   256
  9
$CELTSCALE
 40
1.0
  9
$DISPSILH
 70
     0
  9
$DIMSCALE
 40
1.0
  9
$DIMASZ
 40
0.18
  9
$DIMEXO
 40
0.0625
  9
$DIMDLI
 40
0.38
  9
$DIMRND
 40
0.0
  9
$DIMDLE
 40
0.0
  9
$DIMEXE
 40
0.18
  9
$DIMTP
 40
0.0
  9
$DIMTM
 40
0.0
  9
$DIMTXT
 40
0.18
  9
$DIMCEN
 40
0.09
  9
$DIMTSZ
 40
0.0
  9
$DIMTOL
 70
     0
  9
$DIMLIM
 70
     0
  9
$DIMTIH
 70
     1
  9
$DIMTOH
 70
     1
  9
$DIMSE1
 70
     0
  9
$DIMSE2
 70
     0
  9
$DIMTAD
 70
     0
  9
$DIMZIN
 70
     0
  9
$DIMBLK
  1

  9
$DIMASO
 70
     1
  9
$DIMSHO
 70
     1
  9
$DIMPOST
  1

  9
$DIMAPOST
  1

  9
$DIMALT
 70
     0
  9
$DIMALTD
 70
     2
  9
$DIMALTF
 40
25.4
  9
$DIMLFAC
 40
1.0
  9
$DIMTOFL
 70
     0
  9
$DIMTVP
 40
0.0
  9
$DIMTIX
 70
     0
  9
$DIMSOXD
 70
     0
  9
$DIMSAH
 70
     0
  9
$DIMBLK1
  1

  9
$DIMBLK2
  1

  9
$DIMSTYLE
  2
Standard
  9
$DIMCLRD
 70
     0
  9
$DIMCLRE
 70
     0
  9
$DIMCLRT
 70
     0
  9
$DIMTFAC
 40
1.0
  9
$DIMGAP
 40
0.09
  9
$DIMJUST
 70
     0
  9
$DIMSD1
 70
     0
  9
$DIMSD2
 70
     0
  9
$DIMTOLJ
 70
     1
  9
$DIMTZIN
 70
     0
  9
$DIMALTZ
 70
     0
  9
$DIMALTTZ
 70
     0
  9
$DIMUPT
 70
     0
  9
$DIMDEC
 70
     4
  9
$DIMTDEC
 70
     4
  9
$DIMALTU
 70
     2
  9
$DIMALTTD
 70
     2
  9
$DIMTXSTY
  7
Standard
  9
$DIMAUNIT
 70
     0
  9
$DIMADEC
 70
     0
  9
$DIMALTRND
 40
0.0
  9
$DIMAZIN
 70
     0
  9
$DIMDSEP
 70
    46
  9
$DIMATFIT
 70
     3
  9
$DIMFRAC
 70
     0
  9
$DIMLDRBLK
  1

  9
$DIMLUNIT
 70
     2
  9
$DIMLWD
 70
    -2
  9
$DIMLWE
 70
    -2
  9
$DIMTMOVE
 70
     0
  9
$DIMFXL
 40
1.0
  9
$DIMFXLON
 70
     0
  9
$DIMJOGANG
 40
0.7853981633974483
  9
$DIMTFILL
 70
     0
  9
$DIMTFILLCLR
 70
     0
  9
$DIMARCSYM
 70
     0
  9
$DIMLTYPE
  6

  9
$DIMLTEX1
  6

  9
$DIMLTEX2
  6

  9
$DIMTXTDIRECTION
 70
     0
  9
$LUNITS
 70
     2
  9
$LUPREC
 70
     4
  9
$SKETCHINC
 40
0.1
  9
$FILLETRAD
 40
0.5
  9
$AUNITS
 70
     0
  9
$AUPREC
 70
     0
  9
$MENU
  1
.
  9
$ELEVATION
 40
0.0
  9
$PELEVATION
 40
0.0
  9
$THICKNESS
 40
0.0
  9
$LIMCHECK
 70
     0
  9
$CHAMFERA
 40
0.0
  9
$CHAMFERB
 40
0.0
  9
$CHAMFERC
 40
0.0
  9
$CHAMFERD
 40
0.0
  9
$SKPOLY
 70
     0
  9
$TDCREATE
 40
2458168.97597294
  9
$TDUCREATE
 40
2458168.934306273
  9
$TDUPDATE
 40
2458168.975973113
  9
$TDUUPDATE
 40
2458168.934306447
  9
$TDINDWG
 40
0.0000000116
  9
$TDUSRTIMER
 40
0.0000000116
  9
$USRTIMER
 70
     1
  9
$ANGBASE
 50
0.0
  9
$ANGDIR
 70
     0
  9
$PDMODE
 70
     0
  9
$PDSIZE
 40
0.0
  9
$PLINEWID
 40
0.0
  9
$SPLFRAME
 70
     0
  9
$SPLINETYPE
 70
     6
  9
$SPLINESEGS
 70
     8
  9
$HANDSEED
  5
1C7
  9
$SURFTAB1
 70
     6
  9
$SURFTAB2
 70
     6
  9
$SURFTYPE
 70
     6
  9
$SURFU
 70
     6
  9
$SURFV
 70
     6
  9
$UCSBASE
  2

  9
$UCSNAME
  2

  9
$UCSORG
 10
0.0
 20
0.0
 30
0.0
  9
$UCSXDIR
 10
1.0
 20
0.0
 30
0.0
  9
$UCSYDIR
 10
0.0
 20
1.0
 30
0.0
  9
$UCSORTHOREF
  2

  9
$UCSORTHOVIEW
 70
     0
  9
$UCSORGTOP
 10
0.0
 20
0.0
 30
0.0
  9
$UCSORGBOTTOM
 10
0.0
 20
0.0
 30
0.0
  9
$UCSORGLEFT
 10
0.0
 20
0.0
 30
0.0
  9
$UCSORGRIGHT
 10
0.0
 20
0.0
 30
0.0
  9
$UCSORGFRONT
 10
0.0
 20
0.0
 30
0.0
  9
$UCSORGBACK
 10
0.0
 20
0.0
 30
0.0
  9
$PUCSBASE
  2

  9
$PUCSNAME
  2

  9
$PUCSORG
 10
0.0
 20
0.0
 30
0.0
  9
$PUCSXDIR
 10
1.0
 20
0.0
 30
0.0
  9
$PUCSYDIR
 10
0.0
 20
1.0
 30
0.0
  9
$PUCSORTHOREF
  2

  9
$PUCSORTHOVIEW
 70
     0
  9
$PUCSORGTOP
 10
0.0
 20
0.0
 30
0.0
  9
$PUCSORGBOTTOM
 10
0.0
 20
0.0
 30
0.0
  9
$PUCSORGLEFT
 10
0.0
 20
0.0
 30
0.0
  9
$PUCSORGRIGHT
 10
0.0
 20
0.0
 30
0.0
  9
$PUCSORGFRONT
 10
0.0
 20
0.0
 30
0.0
  9
$PUCSORGBACK
 10
0.0
 20
0.0
 30
0.0
  9
$USERI1
 70
     0
  9
$USERI2
 70
     0
  9
$USERI3
 70
     0
  9
$USERI4
 70
     0
  9
$USERI5
 70
     0
  9
$USERR1
 40
0.0
  9
$USERR2
 40
0.0
  9
$USERR3
 40
0.0
  9
$USERR4
 40
0.0
  9
$USERR5
 40
0.0
  9
$WORLDVIEW
 70
     1
  9
$SHADEDGE
 70
     3
  9
$SHADEDIF
 70
    70
  9
$TILEMODE
 70
     1
  9
$MAXACTVP
 70
    64
  9
$PINSBASE
 10
0.0
 20
0.0
 30
0.0
  9
$PLIMCHECK
 70
     0
  9
$PEXTMIN
 10
1.000000000000000E+20
 20
1.000000000000000E+20
 30
1.000000000000000E+20
  9
$PEXTMAX
 10
-1.000000000000000E+20
 20
-1.000000000000000E+20
 30
-1.000000000000000E+20
  9
$PLIMMIN
 10
0.0
 20
0.0
  9
$PLIMMAX
 10
12.0
 20
9.0
  9
$UNITMODE
 70
     0
  9
$VISRETAIN
 70
     1
  9
$PLINEGEN
 70
     0
  9
$PSLTSCALE
 70
     1
  9
$TREEDEPTH
 70
  3020
  9
$CMLSTYLE
  2
Standard
  9
$CMLJUST
 70
     0
  9
$CMLSCALE
 40
1.0
  9
$PROXYGRAPHICS
 70
     1
  9
$MEASUREMENT
 70
     0
  9
$CELWEIGHT
370
    -1
  9
$ENDCAPS
280
     0
  9
$JOINSTYLE
280
     0
  9
$LWDISPLAY
290
     0
  9
$INSUNITS
 70
     1
  9
$HYPERLINKBASE
  1

  9
$STYLESHEET
  1

  9
$XEDIT
290
     1
  9
$CEPSNTYPE
380
     0
  9
$PSTYLEMODE
290
     1
  9
$FINGERPRINTGUID
  2
{AD465AF2-20C0-4698-A0BE-746ABD3E26B9}
  9
$VERSIONGUID
  2
{FAEB1C32-E019-11D5-929B-00C0DF256EC4}
  9
$EXTNAMES
290
     1
  9
$PSVPSCALE
 40
0.0
  9
$OLESTARTUP
290
     0
  9
$SORTENTS
280
   127
  9
$INDEXCTL
280
     0
  9
$HIDETEXT
280
     1
  9
$XCLIPFRAME
280
     2
  9
$HALOGAP
280
     0
  9
$OBSCOLOR
 70
   257
  9
$OBSLTYPE
280
     0
  9
$INTERSECTIONDISPLAY
280
     0
  9
$INTERSECTIONCOLOR
 70
   257
  9
$DIMASSOC
280
     2
  9
$PROJECTNAME
  1

  9
$CAMERADISPLAY
290
     0
  9
$LENSLENGTH
 40
50.0
  9
$CAMERAHEIGHT
 40
0.0
  9
$STEPSPERSEC
 40
2.0
  9
$STEPSIZE
 40
6.0
  9
$3DDWFPREC
 40
2.0
  9
$PSOLWIDTH
 40
0.25
  9
$PSOLHEIGHT
 40
4.0
  9
$LOFTANG1
 40
1.570796326794897
  9
$LOFTANG2
 40
1.570796326794897
  9
$LOFTMAG1
 40
0.0
  9
$LOFTMAG2
 40
0.0
  9
$LOFTPARAM
 70
     7
  9
$LOFTNORMALS
280
     1
  9
$LATITUDE
 40
37.795
  9
$LONGITUDE
 40
-122.394
  9
$NORTHDIRECTION
 40
0.0
  9
$TIMEZONE
 70
 -8000
  9
$LIGHTGLYPHDISPLAY
280
     1
  9
$TILEMODELIGHTSYNCH
280
     1
  9
$CMATERIAL
347
44
  9
$SOLIDHIST
280
     0
  9
$SHOWHIST
280
     1
  9
$DWFFRAME
280
     2
  9
$DGNFRAME
280
     2
  9
$REALWORLDSCALE
290
     1
  9
$INTERFERECOLOR
 62
   256
  9
$CSHADOW
280
     0
  9
$SHADOWPLANELOCATION
 40
0.0
  0
ENDSEC
  0
SECTION
  2
CLASSES
  0
CLASS
  1
ACDBDICTIONARYWDFLT
  2
AcDbDictionaryWithDefault
  3
ObjectDBX Classes
 90
        0
 91
        4
280
     0
281
     0
  0
CLASS
  1
VISUALSTYLE
  2
AcDbVisualStyle
  3
ObjectDBX Classes
 90
     4095
 91
        4
280
     0
281
     0
  0
CLASS
  1
MATERIAL
  2
AcDbMaterial
  3
ObjectDBX Classes
 90
     1153
 91
        4
280
     0
281
     0
  0
CLASS
  1
SCALE
  2
AcDbScale
  3
ObjectDBX Classes
 90
     1153
 91
        4
280
     0
281
     0
  0
CLASS
  1
TABLESTYLE
  2
AcDbTableStyle
  3
ObjectDBX Classes
 90
     4095
 91
        4
280
     0
281
     0
  0
CLASS
  1
MLEADERSTYLE
  2
AcDbMLeaderStyle
  3
ACDB_MLEADERSTYLE_CLASS
 90
     4095
 91
        4
280
     0
281
     0
  0
CLASS
  1
SUN
  2
AcDbSun
  3
SCENEOE
 90
     1153
 91
        4
280
     0
281
     0
  0
CLASS
  1
DICTIONARYVAR
  2
AcDbDictionaryVar
  3
ObjectDBX Classes
 90
        0
 91
        4
280
     0
281
     0
  0
CLASS
  1
CELLSTYLEMAP
  2
AcDbCellStyleMap
  3
ObjectDBX Classes
 90
     1152
 91
        4
280
     0
281
     0
  0
ENDSEC
  0
SECTION
  2
TABLES
  0
TABLE
  2
VPORT
  5
8
330
0
100
AcDbSymbolTable
 70
     1
  0
VPORT
  5
29
330
8
100
AcDbSymbolTableRecord
100
AcDbViewportTableRecord
  2
*Active
 70
     0
 10
0.0
 20
0.0
 11
1.0
 21
1.0
 12
0.0
 22
-3.224609375
 13
0.0
 23
0.0
 14
0.5
 24
0.5
 15
0.5
 25
0.5
 16
0.0
 26
0.0
 36
1.0
 17
0.0
 27
0.0
 37
0.0
 40
7.139203125000001
 41
1.464449157272017
 42
50.0
 43
0.0
 44
0.0
 50
0.0
 51
0.0
 71
     0
 72
   100
 73
     1
 74
     3
 75
     0
 76
     0
 77
     0
 78
     0
281
     0
 65
     1
110
0.0
120
0.0
130
0.0
111
1.0
121
0.0
131
0.0
112
0.0
122
1.0
132
0.0
 79
     0
146
0.0
348
2F
 60
     3
 61
     5
292
     1
282
     1
141
0.0
142
0.0
 63
   250
361
6D
  0
ENDTAB
  0
TABLE
  2
LTYPE
  5
5
330
0
100
AcDbSymbolTable
 70
     3
  0
LTYPE
  5
14
330
5
100
AcDbSymbolTableRecord
100
AcDbLinetypeTableRecord
  2
ByBlock
 70
     0
  3

 72
    65
 73
     0
 40
0.0
  0
LTYPE
  5
15
330
5
100
AcDbSymbolTableRecord
100
AcDbLinetypeTableRecord
  2
ByLayer
 70
     0
  3

 72
    65
 73
     0
 40
0.0
  0
LTYPE
  5
16
330
5
100
AcDbSymbolTableRecord
100
AcDbLinetypeTableRecord
  2
Continuous
 70
     0
  3
Solid line
 72
    65
 73
     0
 40
0.0
  0
LTYPE
  5
A7
330
5
100
AcDbSymbolTableRecord
100
AcDbLinetypeTableRecord
  2
Dashed
 70
     0
  3

 72
    65
 73
     2
 40
2.0
 49
1.0
 74
     0
 49
-1.0
 74
     0
  0
LTYPE
  5
BD
330
5
100
AcDbSymbolTableRecord
100
AcDbLinetypeTableRecord
  2
Center
 70
     0
  3

 72
    65
 73
     4
 40
1.5
 49
0.45
 74
     0
 49
-0.5
 74
     0
 49
0.05
 74
     0
 49
-0.5
 74
     0
  0
ENDTAB
  0
TABLE
  2
LAYER
  5
2
330
0
100
AcDbSymbolTable
 70
     7
  0
LAYER
  5
10
330
2
100
AcDbSymbolTableRecord
100
AcDbLayerTableRecord
  2
0
 70
     0
 62
     7
  6
Continuous
370
    -3
390
F
347
46
348
0
  0
LAYER
  5
72
330
2
100
AcDbSymbolTableRecord
100
AcDbLayerTableRecord
  2
AM_6
 70
     0
 62
    -2
  6
Continuous
370
    35
390
F
347
46
348
0
  0
LAYER
  5
A8
330
2
100
AcDbSymbolTableRecord
100
AcDbLayerTableRecord
  2
AM_9
 70
     0
 62
     6
  6
Dashed
370
    25
390
F
347
46
348
0
  0
LAYER
  5
BE
330
2
100
AcDbSymbolTableRecord
100
AcDbLayerTableRecord
  2
AM_7
 70
     0
 62
     7
  6
Center
370
    25
390
F
347
46
348
0
  0
LAYER
  5
C0
330
2
100
AcDbSymbolTableRecord
100
AcDbLayerTableRecord
  2
AM_4
 70
     0
 62
     7
  6
Continuous
370
    50
390
F
347
46
348
0
  0
LAYER
  5
DD
330
2
100
AcDbSymbolTableRecord
100
AcDbLayerTableRecord
  2
AM_5
 70
     0
 62
     3
  6
Continuous
370
    25
390
F
347
46
348
0
  0
LAYER
  5
1B6
330
2
100
AcDbSymbolTableRecord
100
AcDbLayerTableRecord
  2
ConnectionPoints
 70
     0
 62
     7
  6
Continuous
370
    50
390
F
347
46
348
0
  0
ENDTAB
  0
TABLE
  2
STYLE
  5
3
330
0
100
AcDbSymbolTable
 70
     1
  0
STYLE
  5
11
330
3
100
AcDbSymbolTableRecord
100
AcDbTextStyleTableRecord
  2
Standard
 70
     0
 40
0.0
 41
1.0
 50
0.0
 71
     0
 42
0.2
  3
txt
  4

  0
ENDTAB
  0
TABLE
  2
VIEW
  5
6
330
0
100
AcDbSymbolTable
 70
     0
  0
ENDTAB
  0
TABLE
  2
UCS
  5
7
330
0
100
AcDbSymbolTable
 70
     0
  0
ENDTAB
  0
TABLE
  2
APPID
  5
9
330
0
100
AcDbSymbolTable
 70
     1
  0
APPID
  5
12
330
9
100
AcDbSymbolTableRecord
100
AcDbRegAppTableRecord
  2
ACAD
 70
     0
  0
ENDTAB
  0
TABLE
  2
DIMSTYLE
  5
A
330
0
100
AcDbSymbolTable
 70
     1
100
AcDbDimStyleTable
  0
DIMSTYLE
105
27
330
A
100
AcDbSymbolTableRecord
100
AcDbDimStyleTableRecord
  2
Standard
 70
     0
178
     0
340
11
  0
ENDTAB
  0
TABLE
  2
BLOCK_RECORD
  5
1
330
0
100
AcDbSymbolTable
 70
     6
  0
BLOCK_RECORD
  5
1F
330
1
100
AcDbSymbolTableRecord
100
AcDbBlockTableRecord
  2
*Model_Space
340
22
 70
     0
280
     1
281
     0
  0
BLOCK_RECORD
  5
1B
330
1
100
AcDbSymbolTableRecord
100
AcDbBlockTableRecord
  2
*Paper_Space
340
1E
 70
     0
280
     1
281
     0
  0
BLOCK_RECORD
  5
23
330
1
100
AcDbSymbolTableRecord
100
AcDbBlockTableRecord
  2
*Paper_Space0
340
26
 70
     0
280
     1
281
     0
  0
BLOCK_RECORD
  5
6E
330
1
100
AcDbSymbolTableRecord
100
AcDbBlockTableRecord
  2
1_071480_4
340
0
102
{BLKREFS
331
6F
102
}
 70
     0
280
     1
281
     0
  0
BLOCK_RECORD
  5
8E
330
1
100
AcDbSymbolTableRecord
100
AcDbBlockTableRecord
  2
2_3_15_16CS2i_0_in_071480_4
340
0
102
{BLKREFS
331
8F
102
}
 70
     0
280
     1
281
     0
  0
BLOCK_RECORD
  5
DF
330
1
100
AcDbSymbolTableRecord
100
AcDbBlockTableRecord
  2
3_070013i_0_in_071480_4
340
0
102
{BLKREFS
331
E0
102
}
 70
     0
280
     1
281
     0
  0
BLOCK_RECORD
  5
12D
330
1
100
AcDbSymbolTableRecord
100
AcDbBlockTableRecord
  2
4_405015E_Inch_0_in_071480_4
340
0
102
{BLKREFS
331
12E
102
}
 70
     0
280
     1
281
     0
  0
BLOCK_RECORD
  5
14A
330
1
100
AcDbSymbolTableRecord
100
AcDbBlockTableRecord
  2
5_B071480_0_in_071480_4
340
0
102
{BLKREFS
331
14B
102
}
 70
     0
280
     1
281
     0
  0
ENDTAB
  0
ENDSEC
  0
SECTION
  2
BLOCKS
  0
BLOCK
  5
20
330
1F
100
AcDbEntity
  8
0
100
AcDbBlockBegin
  2
*Model_Space
 70
     0
 10
0.0
 20
0.0
 30
0.0
  3
*Model_Space
  1

  0
ENDBLK
  5
21
330
1F
100
AcDbEntity
  8
0
100
AcDbBlockEnd
  0
BLOCK
  5
1C
330
1B
100
AcDbEntity
 67
     1
  8
0
100
AcDbBlockBegin
  2
*Paper_Space
 70
     0
 10
0.0
 20
0.0
 30
0.0
  3
*Paper_Space
  1

  0
ENDBLK
  5
1D
330
1B
100
AcDbEntity
 67
     1
  8
0
100
AcDbBlockEnd
  0
BLOCK
  5
24
330
23
100
AcDbEntity
  8
0
100
AcDbBlockBegin
  2
*Paper_Space0
 70
     0
 10
0.0
 20
0.0
 30
0.0
  3
*Paper_Space0
  1

  0
ENDBLK
  5
25
330
23
100
AcDbEntity
  8
0
100
AcDbBlockEnd
  0
BLOCK
  5
70
330
6E
100
AcDbEntity
  8
0
100
AcDbBlockBegin
  2
1_071480_4
 70
     2
 10
0.0
 20
0.0
 30
0.0
  3
1_071480_4
  1

  0
ATTDEF
  5
73
330
6E
100
AcDbEntity
  8
AM_6
100
AcDbText
 10
10.125
 20
0.275
 30
0.0
 40
0.5
  1
S-2000 Flange Bearing - Square with Type E Dimensions Trident Seal Non-Expansion
100
AcDbAttributeDefinition
  3

  2
NN
 70
     8
280
     0
  0
ATTDEF
  5
74
330
6E
100
AcDbEntity
  8
AM_6
100
AcDbText
 10
10.125
 20
-0.225
 30
0.0
 40
0.5
  1
S-2000 - E Type - Inch
100
AcDbAttributeDefinition
  3

  2
NT
 70
     8
280
     0
  0
ATTDEF
  5
75
330
6E
100
AcDbEntity
  8
AM_6
100
AcDbText
 10
10.125
 20
-0.725
 30
0.0
 40
0.5
  1
071480
100
AcDbAttributeDefinition
  3

  2
NB
 70
     8
280
     0
  0
ATTDEF
  5
76
330
6E
100
AcDbEntity
  8
AM_6
100
AcDbText
 10
10.125
 20
-1.225
 30
0.0
 40
0.5
  1
$PN.
100
AcDbAttributeDefinition
  3

  2
NBSYN
 70
     8
280
     0
  0
ATTDEF
  5
77
330
6E
100
AcDbEntity
  8
AM_6
100
AcDbText
 10
10.125
 20
-1.725
 30
0.0
 40
0.5
  1
071480
100
AcDbAttributeDefinition
  3

  2
LINA
 70
     8
280
     0
  0
ATTDEF
  5
78
330
6E
100
AcDbEntity
  8
AM_6
100
AcDbText
 10
10.125
 20
-2.225
 30
0.0
 40
0.5
  1
3-15/16
100
AcDbAttributeDefinition
  3

  2
SS
 70
     8
280
     0
  0
ATTDEF
  5
79
330
6E
100
AcDbEntity
  8
AM_6
100
AcDbText
 10
10.125
 20
-2.725
 30
0.0
 40
0.5
  1
Non-Expansion
100
AcDbAttributeDefinition
  3

  2
TYPE
 70
     8
280
     0
  0
ATTDEF
  5
7A
330
6E
100
AcDbEntity
  8
AM_6
100
AcDbText
 10
10.125
 20
-3.225
 30
0.0
 40
0.5
  1
071480
100
AcDbAttributeDefinition
  3

  2
PN
 70
     8
280
     0
  0
ATTDEF
  5
7B
330
6E
100
AcDbEntity
  8
AM_6
100
AcDbText
 10
10.125
 20
-3.725
 30
0.0
 40
0.5
  1
EF4B-S2-315R
100
AcDbAttributeDefinition
  3

  2
DESCRIPTION
 70
     8
280
     0
  0
ATTDEF
  5
7C
330
6E
100
AcDbEntity
  8
AM_6
100
AcDbText
 10
10.125
 20
-4.225
 30
0.0
 40
0.5
  1
4.48
100
AcDbAttributeDefinition
  3

  2
A
 70
     8
280
     0
  0
ATTDEF
  5
7D
330
6E
100
AcDbEntity
  8
AM_6
100
AcDbText
 10
10.125
 20
-4.725
 30
0.0
 40
0.5
  1
10.25
100
AcDbAttributeDefinition
  3

  2
B
 70
     8
280
     0
  0
ATTDEF
  5
7E
330
6E
100
AcDbEntity
  8
AM_6
100
AcDbText
 10
10.125
 20
-5.225
 30
0.0
 40
0.5
  1
6.5
100
AcDbAttributeDefinition
  3

  2
C
 70
     8
280
     0
  0
ATTDEF
  5
7F
330
6E
100
AcDbEntity
  8
AM_6
100
AcDbText
 10
10.125
 20
-5.725
 30
0.0
 40
0.5
  1
7.75
100
AcDbAttributeDefinition
  3

  2
D
 70
     8
280
     0
  0
ATTDEF
  5
80
330
6E
100
AcDbEntity
  8
AM_6
100
AcDbText
 10
10.125
 20
-6.225
 30
0.0
 40
0.5
  1
10.960
100
AcDbAttributeDefinition
  3

  2
DD
 70
     8
280
     0
  0
ATTDEF
  5
81
330
6E
100
AcDbEntity
  8
AM_6
100
AcDbText
 10
10.125
 20
-6.725
 30
0.0
 40
0.5
  1
7/8
100
AcDbAttributeDefinition
  3

  2
F
 70
     8
280
     0
  0
ATTDEF
  5
82
330
6E
100
AcDbEntity
  8
AM_6
100
AcDbText
 10
10.125
 20
-7.225
 30
0.0
 40
0.5
  1
1
100
AcDbAttributeDefinition
  3

  2
G
 70
     8
280
     0
  0
ATTDEF
  5
83
330
6E
100
AcDbEntity
  8
AM_6
100
AcDbText
 10
10.125
 20
-7.725
 30
0.0
 40
0.5
  1
2.12
100
AcDbAttributeDefinition
  3

  2
H
 70
     8
280
     0
  0
ATTDEF
  5
84
330
6E
100
AcDbEntity
  8
AM_6
100
AcDbText
 10
10.125
 20
-8.225
 30
0.0
 40
0.5
  1
8.27
100
AcDbAttributeDefinition
  3

  2
J
 70
     8
280
     0
  0
ATTDEF
  5
85
330
6E
100
AcDbEntity
  8
AM_6
100
AcDbText
 10
10.125
 20
-8.725
 30
0.0
 40
0.5
  1
6
100
AcDbAttributeDefinition
  3

  2
L
 70
     8
280
     0
  0
ATTDEF
  5
86
330
6E
100
AcDbEntity
  8
AM_6
100
AcDbText
 10
10.125
 20
-9.225
 30
0.0
 40
0.5
  1
4.58
100
AcDbAttributeDefinition
  3

  2
N
 70
     8
280
     0
  0
ATTDEF
  5
87
330
6E
100
AcDbEntity
  8
AM_6
100
AcDbText
 10
10.125
 20
-9.725
 30
0.0
 40
0.5
  1
2.02
100
AcDbAttributeDefinition
  3

  2
P
 70
     8
280
     0
  0
ATTDEF
  5
88
330
6E
100
AcDbEntity
  8
AM_6
100
AcDbText
 10
10.125
 20
-10.225
 30
0.0
 40
0.5
  1
0.31
100
AcDbAttributeDefinition
  3

  2
X
 70
     8
280
     0
  0
ATTDEF
  5
89
330
6E
100
AcDbEntity
  8
AM_6
100
AcDbText
 10
10.125
 20
-10.725
 30
0.0
 40
0.5
  1
0.025
100
AcDbAttributeDefinition
  3

  2
Y
 70
     8
280
     0
  0
ATTDEF
  5
8A
330
6E
100
AcDbEntity
  8
AM_6
100
AcDbText
 10
10.125
 20
-11.225
 30
0.0
 40
0.5
  1
4.5
100
AcDbAttributeDefinition
  3

  2
Z
 70
     8
280
     0
  0
ATTDEF
  5
8B
330
6E
100
AcDbEntity
  8
AM_6
100
AcDbText
 10
10.125
 20
-11.725
 30
0.0
 40
0.5
  1
5/8-11
100
AcDbAttributeDefinition
  3

  2
CS
 70
     8
280
     0
  0
ATTDEF
  5
8C
330
6E
100
AcDbEntity
  8
AM_6
100
AcDbText
 10
10.125
 20
-12.225
 30
0.0
 40
0.5
  1
1325
100
AcDbAttributeDefinition
  3

  2
TORQUE
 70
     8
280
     0
  0
ATTDEF
  5
8D
330
6E
100
AcDbEntity
  8
AM_6
100
AcDbText
 10
10.125
 20
-12.725
 30
0.0
 40
0.5
  1
baldor
100
AcDbAttributeDefinition
  3

  2
COMPANY
 70
     8
280
     0
  0
INSERT
  5
8F
330
6E
100
AcDbEntity
  8
0
100
AcDbBlockReference
  2
2_3_15_16CS2i_0_in_071480_4
 10
0.0
 20
0.0
 30
0.0
  0
INSERT
  5
E0
330
6E
100
AcDbEntity
  8
0
100
AcDbBlockReference
  2
3_070013i_0_in_071480_4
 10
0.0
 20
0.0
 30
0.0
  0
INSERT
  5
12E
330
6E
100
AcDbEntity
  8
0
100
AcDbBlockReference
  2
4_405015E_Inch_0_in_071480_4
 10
0.0
 20
0.0
 30
0.0
  0
INSERT
  5
14B
330
6E
100
AcDbEntity
  8
0
100
AcDbBlockReference
  2
5_B071480_0_in_071480_4
 10
0.0
 20
0.0
 30
0.0
  0
ENDBLK
  5
71
330
6E
100
AcDbEntity
  8
0
100
AcDbBlockEnd
  0
BLOCK
  5
90
330
8E
100
AcDbEntity
  8
0
100
AcDbBlockBegin
  2
2_3_15_16CS2i_0_in_071480_4
 70
     2
 10
0.0
 20
0.0
 30
0.0
  3
2_3_15_16CS2i_0_in_071480_4
  1

  0
ATTDEF
  5
92
330
8E
100
AcDbEntity
  8
AM_6
100
AcDbText
 10
8.0
 20
-5.489999999999999
 30
0.0
 40
0.5
  1
S-2000 Collar -Inch
100
AcDbAttributeDefinition
  3

  2
NN
 70
     8
280
     0
  0
ATTDEF
  5
93
330
8E
100
AcDbEntity
  8
AM_6
100
AcDbText
 10
8.0
 20
-5.989999999999999
 30
0.0
 40
0.5
  1
S-2000 Bearings
100
AcDbAttributeDefinition
  3

  2
NT
 70
     8
280
     0
  0
ATTDEF
  5
94
330
8E
100
AcDbEntity
  8
AM_6
100
AcDbText
 10
8.0
 20
-6.489999999999999
 30
0.0
 40
0.5
  1
3-15/16CS2i
100
AcDbAttributeDefinition
  3

  2
NB
 70
     8
280
     0
  0
ATTDEF
  5
95
330
8E
100
AcDbEntity
  8
AM_6
100
AcDbText
 10
8.0
 20
-6.989999999999999
 30
0.0
 40
0.5
  1
$BORE.CS2i
100
AcDbAttributeDefinition
  3

  2
NBSYN
 70
     8
280
     0
  0
ATTDEF
  5
96
330
8E
100
AcDbEntity
  8
AM_6
100
AcDbText
 10
8.0
 20
-7.489999999999999
 30
0.0
 40
0.5
  1
3-15/16CS2i
100
AcDbAttributeDefinition
  3

  2
LINA
 70
     8
280
     0
  0
ATTDEF
  5
97
330
8E
100
AcDbEntity
  8
AM_6
100
AcDbText
 10
8.0
 20
-7.989999999999999
 30
0.0
 40
0.5
  1
3-15/16
100
AcDbAttributeDefinition
  3

  2
BORE
 70
     8
280
     0
  0
ATTDEF
  5
98
330
8E
100
AcDbEntity
  8
AM_6
100
AcDbText
 10
8.0
 20
-8.489999999999998
 30
0.0
 40
0.5
  1
3.937500
100
AcDbAttributeDefinition
  3

  2
BORE1
 70
     8
280
     0
  0
ATTDEF
  5
99
330
8E
100
AcDbEntity
  8
AM_6
100
AcDbText
 10
8.0
 20
-8.989999999999998
 30
0.0
 40
0.5
  1
6
100
AcDbAttributeDefinition
  3

  2
L1
 70
     8
280
     0
  0
ATTDEF
  5
9A
330
8E
100
AcDbEntity
  8
AM_6
100
AcDbText
 10
8.0
 20
-9.489999999999998
 30
0.0
 40
0.5
  1
6.00000
100
AcDbAttributeDefinition
  3

  2
L
 70
     8
280
     0
  0
ATTDEF
  5
9B
330
8E
100
AcDbEntity
  8
AM_6
100
AcDbText
 10
8.0
 20
-9.989999999999998
 30
0.0
 40
0.5
  1
6.00000
100
AcDbAttributeDefinition
  3

  2
L2
 70
     8
280
     0
  0
ATTDEF
  5
9C
330
8E
100
AcDbEntity
  8
AM_6
100
AcDbText
 10
8.0
 20
-10.49
 30
0.0
 40
0.5
  1
6.25
100
AcDbAttributeDefinition
  3

  2
A
 70
     8
280
     0
  0
ATTDEF
  5
9D
330
8E
100
AcDbEntity
  8
AM_6
100
AcDbText
 10
8.0
 20
-10.99
 30
0.0
 40
0.5
  1
3.12
100
AcDbAttributeDefinition
  3

  2
B
 70
     8
280
     0
  0
ATTDEF
  5
9E
330
8E
100
AcDbEntity
  8
AM_6
100
AcDbText
 10
8.0
 20
-11.49
 30
0.0
 40
0.5
  1
4.50
100
AcDbAttributeDefinition
  3

  2
C
 70
     8
280
     0
  0
ATTDEF
  5
9F
330
8E
100
AcDbEntity
  8
AM_6
100
AcDbText
 10
8.0
 20
-11.99
 30
0.0
 40
0.5
  1
6.38
100
AcDbAttributeDefinition
  3

  2
D
 70
     8
280
     0
  0
ATTDEF
  5
A0
330
8E
100
AcDbEntity
  8
AM_6
100
AcDbText
 10
8.0
 20
-12.49
 30
0.0
 40
0.5
  1
0.66
100
AcDbAttributeDefinition
  3

  2
E
 70
     8
280
     0
  0
ATTDEF
  5
A1
330
8E
100
AcDbEntity
  8
AM_6
100
AcDbText
 10
8.0
 20
-12.99
 30
0.0
 40
0.5
  1
0.505
100
AcDbAttributeDefinition
  3

  2
F
 70
     8
280
     0
  0
ATTDEF
  5
A2
330
8E
100
AcDbEntity
  8
AM_6
100
AcDbText
 10
8.0
 20
-13.49
 30
0.0
 40
0.5
  1
5/8-11
100
AcDbAttributeDefinition
  3

  2
CS
 70
     8
280
     0
  0
ATTDEF
  5
A3
330
8E
100
AcDbEntity
  8
AM_6
100
AcDbText
 10
8.0
 20
-13.99
 30
0.0
 40
0.5
  1
0.6250
100
AcDbAttributeDefinition
  3

  2
NDM
 70
     8
280
     0
  0
ATTDEF
  5
A4
330
8E
100
AcDbEntity
  8
AM_6
100
AcDbText
 10
8.0
 20
-14.49
 30
0.0
 40
0.5
  1
0.5270
100
AcDbAttributeDefinition
  3

  2
KDM
 70
     8
280
     0
  0
ATTDEF
  5
A5
330
8E
100
AcDbEntity
  8
AM_6
100
AcDbText
 10
8.0
 20
-14.99
 30
0.0
 40
0.5
  1
2
100
AcDbAttributeDefinition
  3

  2
DD
 70
     8
280
     0
  0
ATTDEF
  5
A6
330
8E
100
AcDbEntity
  8
AM_6
100
AcDbText
 10
8.0
 20
-15.49
 30
0.0
 40
0.5
  1
baldor
100
AcDbAttributeDefinition
  3

  2
COMPANY
 70
     8
280
     0
  0
LINE
  5
A9
330
8E
100
AcDbEntity
  8
AM_9
100
AcDbLine
 10
2.09790860523088
 20
-5.762078865920447
 30
0.0
 11
2.090072594686855
 21
-5.752305115083503
 31
0.0
  0
LINE
  5
AA
330
8E
100
AcDbEntity
  8
AM_9
100
AcDbLine
 10
2.090202939865653
 20
-6.237532307123471
 30
0.0
 11
2.09790860523088
 21
-6.227921134079552
 31
0.0
  0
LWPOLYLINE
  5
AB
330
8E
100
AcDbEntity
  8
AM_9
100
AcDbPolyline
 90
       26
 70
     0
 43
0.0
 10
2.089974291498122
 20
-5.752182503833249
 10
2.088480180615775
 20
-5.750359313984087
 10
2.070707186623837
 20
-5.734108572602767
 10
2.051235819505739
 20
-5.725525839022779
 10
2.029775768239221
 20
-5.724982978911709
 10
2.007561980939881
 20
-5.732801822298492
 10
1.985100534938405
 20
-5.7490951142986
 10
1.963415148688138
 20
-5.773381185166672
 10
1.943777574578607
 20
-5.80458884653854
 10
1.926706528307501
 20
-5.842250357517011
 10
1.913787830998972
 20
-5.883137637236524
 10
1.904772698179146
 20
-5.927795473323702
 10
1.900490200621653
 20
-5.971444316209666
 10
1.900337713668679
 20
-6.015820447616848
 10
1.904123335254844
 20
-6.057520023580484
 10
1.911465068447466
 20
-6.097492995204235
 10
1.92216707421251
 20
-6.135078911131669
 10
1.935604930807596
 20
-6.168991935643686
 10
1.952187588474347
 20
-6.200042125346483
 10
1.970504617805664
 20
-6.225590758007779
 10
1.99121768772588
 20
-6.246188683155975
 10
2.01240657652872
 20
-6.259606347972985
 10
2.034328586901402
 20
-6.265595235730553
 10
2.055378710883308
 20
-6.263348926536564
 10
2.075283835930663
 20
-6.252562895888699
 10
2.089978241654082
 20
-6.237812569970033
  0
LWPOLYLINE
  5
AC
330
8E
100
AcDbEntity
  8
AM_9
100
AcDbPolyline
 90
       13
 70
     0
 43
0.0
 10
2.089978241654082
 20
-6.237812569970033
 10
2.093248015323252
 20
-6.233536016522359
 10
2.108741995161097
 20
-6.206839356576488
 10
2.121705361583141
 20
-6.17304501513362
 10
2.131542920164773
 20
-6.134596931006786
 10
2.138717048774657
 20
-6.091392751805567
 10
2.142873560255341
 20
-6.04796272900591
 10
2.144565813751815
 20
-6.002836869066099
 10
2.143858278703619
 20
-5.96018222178112
 10
2.140961602448765
 20
-5.91852168124918
 10
2.135943316907871
 20
-5.87937271577886
 10
2.12887022227915
 20
-5.84328022980055
 10
2.113541727828296
 20
-5.794082972374699
  0
LINE
  5
AD
330
8E
100
AcDbEntity
  8
AM_9
100
AcDbLine
 10
2.046020039494807
 20
-6.258299999999999
 30
0.0
 11
2.674333017987747
 21
-6.258299999999999
 31
0.0
  0
LINE
  5
AE
330
8E
100
AcDbEntity
  8
AM_9
100
AcDbLine
 10
2.674333017987747
 20
-5.731699999999999
 30
0.0
 11
2.046020039494807
 21
-5.731699999999999
 31
0.0
  0
ELLIPSE
  5
AF
330
8E
100
AcDbEntity
  8
AM_9
100
AcDbEllipse
 10
2.674333017987747
 20
-5.994999999999999
 30
0.0
 11
-4.836742533232489E-17
 21
-0.263300000000001
 31
0.0
210
0.0
220
0.0
230
1.0
 40
0.4226182617406981
 41
3.468827880140816
 42
5.925765914248942
  0
LINE
  5
B0
330
8E
100
AcDbEntity
  8
AM_9
100
AcDbLine
 10
2.622444452251672
 20
-6.22792113407955
 30
0.0
 11
2.65472395323312
 21
-6.268182922646712
 31
0.0
  0
LINE
  5
B1
330
8E
100
AcDbEntity
  8
AM_9
100
AcDbLine
 10
2.653418428136464
 20
-5.723445441293637
 30
0.0
 11
2.622444452251672
 21
-5.762078865920449
 31
0.0
  0
LWPOLYLINE
  5
B2
330
8E
100
AcDbEntity
  8
AM_9
100
AcDbPolyline
 90
       39
 70
     0
 43
0.0
 10
-0.2014674474065467
 20
-5.800735211364562
 10
-0.229735735680614
 20
-5.830439735924681
 10
-0.2537533579054705
 20
-5.864840353049987
 10
-0.2734317043856334
 20
-5.906135796202667
 10
-0.2858097120107891
 20
-5.951774836284429
 10
-0.2895404355017283
 20
-5.994535921085054
 10
-0.2857395366228411
 20
-6.03862715521264
 10
-0.2752385706158141
 20
-6.078863902850181
 10
-0.2578801168263565
 20
-6.117880977350694
 10
-0.2344921550702038
 20
-6.153590902897187
 10
-0.2050387686865359
 20
-6.185967199008949
 10
-0.1695631338298023
 20
-6.214330235923444
 10
-0.1290229167026693
 20
-6.237328153422487
 10
-0.0837394506217018
 20
-6.254201068495304
 10
-0.0350231494639944
 20
-6.263834159892085
 10
0.0151041759514524
 20
-6.26546260744046
 10
0.0662201632149352
 20
-6.258618068610811
 10
0.1145139571743325
 20
-6.243646827757242
 10
0.1608653651617134
 20
-6.220000172924427
 10
0.2004862293331476
 20
-6.190151131989309
 10
0.2352610533937078
 20
-6.152593089846569
 10
0.260570297677559
 20
-6.112827705802229
 10
0.2788768325671614
 20
-6.067643841859465
 10
0.2877851052778569
 20
-6.02470132048927
 10
0.2890600055978164
 20
-5.979439621316518
 10
0.2830497067018713
 20
-5.938120692678948
 10
0.2699287906576929
 20
-5.897248441284868
 10
0.2507191399295257
 20
-5.85980722837866
 10
0.2251762956592337
 20
-5.825021789540424
 10
0.1935578944982601
 20
-5.793819443424513
 10
0.1564955422752519
 20
-5.767313639702127
 10
0.1140352191890704
 20
-5.746160028593249
 10
0.0675112616376606
 20
-5.73166998964712
 10
0.0182919817445267
 20
-5.724710563360625
 10
-0.0328014473202251
 20
-5.725919465138445
 10
-0.0824725208459753
 20
-5.735442175541579
 10
-0.1311922493566856
 20
-5.753696355065426
 10
-0.1676812724784267
 20
-5.774405345489851
 10
-0.2014674474065467
 20
-5.80073521136456
  0
LINE
  5
B3
330
8E
100
AcDbEntity
  8
AM_9
100
AcDbLine
 10
2.095193586080228
 20
-5.759205043917951
 30
0.0
 11
2.089974291498122
 21
-5.752182503833249
 31
0.0
  0
LWPOLYLINE
  5
B4
330
8E
100
AcDbEntity
  8
AM_9
100
AcDbPolyline
 90
        3
 70
     0
 43
0.0
 10
2.113541727828296
 20
-5.794082972374699
 10
2.101812553264939
 20
-5.769763396888955
 10
2.095193586080228
 20
-5.759205043917951
  0
LINE
  5
B5
330
8E
100
AcDbEntity
  8
AM_9
100
AcDbLine
 10
2.25
 20
-6.5
 30
0.0
 11
2.25
 21
-5.489999999999999
 31
0.0
  0
LINE
  5
B6
330
8E
100
AcDbEntity
  8
AM_9
100
AcDbLine
 10
-2.25
 20
-5.489999999999999
 30
0.0
 11
-2.25
 21
-6.5
 31
0.0
  0
LINE
  5
B7
330
8E
100
AcDbEntity
  8
AM_9
100
AcDbLine
 10
-2.857142857142857
 20
-5.489999999999999
 30
0.0
 11
2.857142857142857
 21
-5.489999999999999
 31
0.0
  0
LINE
  5
B8
330
8E
100
AcDbEntity
  8
AM_9
100
AcDbLine
 10
2.857142857142857
 20
-5.5
 30
0.0
 11
2.857142857142857
 21
-5.489999999999999
 31
0.0
  0
LINE
  5
B9
330
8E
100
AcDbEntity
  8
AM_9
100
AcDbLine
 10
-2.857142857142857
 20
-5.489999999999999
 30
0.0
 11
-2.857142857142857
 21
-5.5
 31
0.0
  0
LINE
  5
BA
330
8E
100
AcDbEntity
  8
AM_9
100
AcDbLine
 10
0.1493562326912613
 20
-5.724745141648022
 30
0.0
 11
-0.1493562326913244
 21
-5.724745141648022
 31
0.0
  0
LINE
  5
BB
330
8E
100
AcDbEntity
  8
AM_9
100
AcDbLine
 10
2.778672397794978
 20
-5.724745141648022
 30
0.0
 11
2.654714414549192
 21
-5.724745141648022
 31
0.0
  0
ELLIPSE
  5
BC
330
8E
100
AcDbEntity
  8
AM_9
100
AcDbEllipse
 10
2.046020039494806
 20
-5.994999999999999
 30
0.0
 11
-4.836742533232473E-17
 21
-0.2633000000000001
 31
0.0
210
0.0
220
0.0
230
1.0
 40
0.4226182617406978
 41
0.0
 42
6.283185307179586
  0
LINE
  5
BF
330
8E
100
AcDbEntity
  8
AM_7
100
AcDbLine
 10
-0.276465
 20
-5.995
 30
0.0
 11
0.276465
 21
-5.995
 31
0.0
  0
ELLIPSE
  5
C1
330
8E
100
AcDbEntity
  8
AM_4
100
AcDbEllipse
 10
2.674333017987747
 20
-5.994999999999999
 30
0.0
 11
-4.836742533232473E-17
 21
-0.2633000000000001
 31
0.0
210
0.0
220
0.0
230
1.0
 40
0.4226182617406995
 41
5.925765914248937
 42
9.752013187320403
  0
LWPOLYLINE
  5
C2
330
8E
100
AcDbEntity
  8
AM_4
100
AcDbPolyline
 90
        5
 70
     0
 43
0.0
 10
2.65336958822677
 20
-5.723506364652987
 10
2.667977914178306
 20
-5.713331410424741
 10
2.695529133191132
 20
-5.709285354536923
 10
2.73209275016101
 20
-5.713297327016094
 10
2.778672397794976
 20
-5.724745141648018
  0
LWPOLYLINE
  5
C3
330
8E
100
AcDbEntity
  8
AM_4
100
AcDbPolyline
 90
       15
 70
     0
 43
0.0
 10
2.654870598315193
 20
-6.268365829421572
 10
2.652511250162792
 20
-6.265359289742344
 10
2.633912953695401
 20
-6.236788753259089
 10
2.617330446593713
 20
-6.202321356389244
 10
2.602749248351492
 20
-6.160978732907753
 10
2.591431315399275
 20
-6.115441433730955
 10
2.583551324603338
 20
-6.064661063952347
 10
2.579920435008144
 20
-6.012021954526157
 10
2.580816728522081
 20
-5.957497392702432
 10
2.586295154514985
 20
-5.904023282560687
 10
2.596272572353213
 20
-5.852931617791961
 10
2.61028461463495
 20
-5.805961344280544
 10
2.627480641534377
 20
-5.765411540818162
 10
2.647383349836009
 20
-5.731623133971536
 10
2.65243105491469
 20
-5.724745141648021
  0
LINE
  5
C4
330
8E
100
AcDbEntity
  8
AM_4
100
AcDbLine
 10
2.857142857142857
 20
-5.508646922183507
 30
0.0
 11
2.857142857142857
 21
-5.5
 31
0.0
  0
LINE
  5
C5
330
8E
100
AcDbEntity
  8
AM_4
100
AcDbLine
 10
-2.857142857142857
 20
-5.5
 30
0.0
 11
-2.857142857142857
 21
-5.508646922183507
 31
0.0
  0
LINE
  5
C6
330
8E
100
AcDbEntity
  8
AM_4
100
AcDbLine
 10
-2.857142857142857
 20
-5.508646922183507
 30
0.0
 11
2.857142857142857
 21
-5.508646922183507
 31
0.0
  0
LINE
  5
C7
330
8E
100
AcDbEntity
  8
AM_4
100
AcDbLine
 10
-2.857142857142857
 20
-5.508646922183507
 30
0.0
 11
-2.926829268292683
 21
-5.578333333333333
 31
0.0
  0
LINE
  5
C8
330
8E
100
AcDbEntity
  8
AM_4
100
AcDbLine
 10
2.926829268292683
 20
-5.578333333333333
 30
0.0
 11
2.857142857142857
 21
-5.508646922183507
 31
0.0
  0
LINE
  5
C9
330
8E
100
AcDbEntity
  8
AM_4
100
AcDbLine
 10
-2.926829268292683
 20
-5.578333333333333
 30
0.0
 11
2.926829268292683
 21
-5.578333333333333
 31
0.0
  0
LINE
  5
CA
330
8E
100
AcDbEntity
  8
AM_4
100
AcDbLine
 10
2.926829268292683
 20
-5.6825
 30
0.0
 11
2.926829268292683
 21
-5.578333333333333
 31
0.0
  0
LINE
  5
CB
330
8E
100
AcDbEntity
  8
AM_4
100
AcDbLine
 10
-2.926829268292683
 20
-5.578333333333333
 30
0.0
 11
-2.926829268292683
 21
-5.6825
 31
0.0
  0
LINE
  5
CC
330
8E
100
AcDbEntity
  8
AM_4
100
AcDbLine
 10
-2.831666666666667
 20
-6.5
 30
0.0
 11
2.831666666647974
 21
-6.5
 31
0.0
  0
ARC
  5
CD
330
8E
100
AcDbEntity
  8
AM_4
100
AcDbCircle
 10
2.831666666666665
 20
-6.331666666666665
 30
0.0
 40
0.1683333333333348
100
AcDbArc
 50
270.0
 51
0.0
  0
ARC
  5
CE
330
8E
100
AcDbEntity
  8
AM_4
100
AcDbCircle
 10
-2.831666666666666
 20
-6.331666666666667
 30
0.0
 40
0.1683333333333334
100
AcDbArc
 50
180.0
 51
270.0
  0
LINE
  5
CF
330
8E
100
AcDbEntity
  8
AM_4
100
AcDbLine
 10
-3.0
 20
-6.331666666666666
 30
0.0
 11
3.0
 21
-6.331666666666666
 31
0.0
  0
LWPOLYLINE
  5
D0
330
8E
100
AcDbEntity
  8
AM_4
100
AcDbPolyline
 90
       20
 70
     0
 43
0.0
 10
2.778672397794977
 20
-5.724745141647948
 10
2.790217998437151
 20
-5.746452326167852
 10
2.802308294962809
 20
-5.77751466800057
 10
2.812342156992842
 20
-5.81315216784804
 10
2.821151126861398
 20
-5.858081113992194
 10
2.827238826686251
 20
-5.906541961948553
 10
2.830656794345898
 20
-5.959248817362393
 10
2.831151266923335
 20
-6.01292586277216
 10
2.828618976794678
 20
-6.067156937865601
 10
2.823040774210795
 20
-6.119340812245213
 10
2.814408296013799
 20
-6.167766196844068
 10
2.802759354324742
 20
-6.211140279055363
 10
2.788555888026537
 20
-6.247031454375199
 10
2.771723317427048
 20
-6.275521007225606
 10
2.753453832501721
 20
-6.29465882138417
 10
2.73345009519435
 20
-6.305352412953041
 10
2.713199559451878
 20
-6.307146021657972
 10
2.692427284052877
 20
-6.300778938395099
 10
2.672096848377084
 20
-6.286661024005841
 10
2.654870598315193
 20
-6.268365829421572
  0
LINE
  5
D1
330
8E
100
AcDbEntity
  8
AM_4
100
AcDbLine
 10
3.0
 20
-6.331666666666666
 30
0.0
 11
3.0
 21
-5.724745141648022
 31
0.0
  0
LINE
  5
D2
330
8E
100
AcDbEntity
  8
AM_4
100
AcDbLine
 10
-3.0
 20
-5.724745141648022
 30
0.0
 11
-3.0
 21
-6.331666666666666
 31
0.0
  0
LINE
  5
D3
330
8E
100
AcDbEntity
  8
AM_4
100
AcDbLine
 10
0.1493562326912613
 20
-5.724745141647983
 30
0.0
 11
2.65243105491469
 21
-5.724745141648021
 31
0.0
  0
LINE
  5
D4
330
8E
100
AcDbEntity
  8
AM_4
100
AcDbLine
 10
2.65243105491469
 20
-5.724745141648022
 30
0.0
 11
2.65336958822677
 21
-5.723506364652987
 31
0.0
  0
LINE
  5
D5
330
8E
100
AcDbEntity
  8
AM_4
100
AcDbLine
 10
2.778672397794978
 20
-5.724745141648012
 30
0.0
 11
3.0
 21
-5.724745141648022
 31
0.0
  0
LINE
  5
D6
330
8E
100
AcDbEntity
  8
AM_4
100
AcDbLine
 10
-2.926829268292683
 20
-5.6825
 30
0.0
 11
2.926829268292683
 21
-5.6825
 31
0.0
  0
LINE
  5
D7
330
8E
100
AcDbEntity
  8
AM_4
100
AcDbLine
 10
-2.926829268292683
 20
-5.6825
 30
0.0
 11
-3.0
 21
-5.724745141648022
 31
0.0
  0
LINE
  5
D8
330
8E
100
AcDbEntity
  8
AM_4
100
AcDbLine
 10
3.0
 20
-5.724745141648022
 30
0.0
 11
2.926829268292683
 21
-5.6825
 31
0.0
  0
LINE
  5
D9
330
8E
100
AcDbEntity
  8
AM_4
100
AcDbLine
 10
-3.0
 20
-5.724745141648022
 30
0.0
 11
-0.1493562326913244
 21
-5.724745141648021
 31
0.0
  0
LWPOLYLINE
  5
DA
330
8E
100
AcDbEntity
  8
AM_4
100
AcDbPolyline
 90
       33
 70
     0
 43
0.0
 10
0.1493562326912613
 20
-5.724745141647983
 10
0.1613860015179049
 20
-5.732484006632576
 10
0.1989764844905714
 20
-5.762664958800033
 10
0.2320972207226811
 20
-5.799428551198745
 10
0.2594387939156211
 20
-5.841867307863414
 10
0.280149419091754
 20
-5.889401140104653
 10
0.293112361331371
 20
-5.940442771813925
 10
0.2976926644473602
 20
-5.994381691648928
 10
0.2933562636213561
 20
-6.048095824239786
 10
0.2797256622728502
 20
-6.101827675890445
 10
0.2578541372549977
 20
-6.15105126479883
 10
0.2269462068212475
 20
-6.197120778962603
 10
0.1905255780059908
 20
-6.235016375650637
 10
0.1466468659635599
 20
-6.266886618165171
 10
0.101434002529659
 20
-6.288765676987254
 10
0.0515107695924945
 20
-6.302776987821323
 10
0.0038493037295137
 20
-6.307473821966354
 10
-0.0453642885866422
 20
-6.30384311582029
 10
-0.0908502648909633
 20
-6.292564123520329
 10
-0.1350533676658825
 20
-6.273433449712219
 10
-0.1751017703983928
 20
-6.247636571702577
 10
-0.2114193038160966
 20
-6.214890687048852
 10
-0.2425173359329117
 20
-6.176111639665392
 10
-0.2676526439764082
 20
-6.131690320257428
 10
-0.2856593943975833
 20
-6.082870814788353
 10
-0.2957772871532122
 20
-6.030362284379946
 10
-0.2971844171032154
 20
-5.976754997410896
 10
-0.2894745734090309
 20
-5.922146941020062
 10
-0.2730798526932277
 20
-5.870683372953395
 10
-0.2474261459626467
 20
-5.821353573302442
 10
-0.22251668252969
 20
-5.787524516241088
 10
-0.1926505329044896
 20
-5.756860745092535
 10
-0.1493562326913244
 20
-5.724745141648021
  0
LWPOLYLINE
  5
DB
330
8E
100
AcDbEntity
  8
AM_4
100
AcDbPolyline
 90
        5
 70
     0
 43
0.0
 10
-0.1493562326913244
 20
-5.724745141648021
 10
-0.0760697940912032
 20
-5.71333141042474
 10
0.0020698409902697
 20
-5.709285354536923
 10
0.0757478832551036
 20
-5.713297327016093
 10
0.1493562326912613
 20
-5.724745141647983
  0
CIRCLE
  5
DC
330
8E
100
AcDbEntity
  8
AM_4
100
AcDbCircle
 10
0.0
 20
-5.995
 30
0.0
 40
0.2633
  0
CIRCLE
  5
DE
330
8E
100
AcDbEntity
  8
AM_5
100
AcDbCircle
 10
0.0000000000000008
 20
-5.994999999999999
 30
0.0
 40
0.3125000000000006
  0
ENDBLK
  5
91
330
8E
100
AcDbEntity
  8
0
100
AcDbBlockEnd
  0
BLOCK
  5
E1
330
DF
100
AcDbEntity
  8
0
100
AcDbBlockBegin
  2
3_070013i_0_in_071480_4
 70
     2
 10
0.0
 20
0.0
 30
0.0
  3
3_070013i_0_in_071480_4
  1

  0
ATTDEF
  5
E3
330
DF
100
AcDbEntity
  8
AM_6
100
AcDbText
 10
8.5433
 20
-2.015625
 30
0.0
 40
0.5
  1
S-2000 Insert -Inch
100
AcDbAttributeDefinition
  3

  2
NN
 70
     8
280
     0
  0
ATTDEF
  5
E4
330
DF
100
AcDbEntity
  8
AM_6
100
AcDbText
 10
8.5433
 20
-2.515625
 30
0.0
 40
0.5
  1
S-2000 Bearings
100
AcDbAttributeDefinition
  3

  2
NT
 70
     8
280
     0
  0
ATTDEF
  5
E5
330
DF
100
AcDbEntity
  8
AM_6
100
AcDbText
 10
8.5433
 20
-3.015625
 30
0.0
 40
0.5
  1
070013i
100
AcDbAttributeDefinition
  3

  2
NB
 70
     8
280
     0
  0
ATTDEF
  5
E6
330
DF
100
AcDbEntity
  8
AM_6
100
AcDbText
 10
8.5433
 20
-3.515625
 30
0.0
 40
0.5
  1
$PN.i
100
AcDbAttributeDefinition
  3

  2
NBSYN
 70
     8
280
     0
  0
ATTDEF
  5
E7
330
DF
100
AcDbEntity
  8
AM_6
100
AcDbText
 10
8.5433
 20
-4.015625
 30
0.0
 40
0.5
  1
070013i
100
AcDbAttributeDefinition
  3

  2
LINA
 70
     8
280
     0
  0
ATTDEF
  5
E8
330
DF
100
AcDbEntity
  8
AM_6
100
AcDbText
 10
8.5433
 20
-4.515625
 30
0.0
 40
0.5
  1
3-15/16
100
AcDbAttributeDefinition
  3

  2
SS
 70
     8
280
     0
  0
ATTDEF
  5
E9
330
DF
100
AcDbEntity
  8
AM_6
100
AcDbText
 10
8.5433
 20
-5.015625
 30
0.0
 40
0.5
  1
4.50
100
AcDbAttributeDefinition
  3

  2
CC
 70
     8
280
     0
  0
ATTDEF
  5
EA
330
DF
100
AcDbEntity
  8
AM_6
100
AcDbText
 10
8.5433
 20
-5.515625
 30
0.0
 40
0.5
  1
3.937500
100
AcDbAttributeDefinition
  3

  2
SS1
 70
     8
280
     0
  0
ATTDEF
  5
EB
330
DF
100
AcDbEntity
  8
AM_6
100
AcDbText
 10
8.5433
 20
-6.015625
 30
0.0
 40
0.5
  1
070013
100
AcDbAttributeDefinition
  3

  2
PN
 70
     8
280
     0
  0
ATTDEF
  5
EC
330
DF
100
AcDbEntity
  8
AM_6
100
AcDbText
 10
8.5433
 20
-6.515625
 30
0.0
 40
0.5
  1
INS-S2-315R
100
AcDbAttributeDefinition
  3

  2
DESCRIPTION
 70
     8
280
     0
  0
ATTDEF
  5
ED
330
DF
100
AcDbEntity
  8
AM_6
100
AcDbText
 10
8.5433
 20
-7.015625
 30
0.0
 40
0.5
  1
Contact Seal
100
AcDbAttributeDefinition
  3

  2
ST
 70
     8
280
     0
  0
ATTDEF
  5
EE
330
DF
100
AcDbEntity
  8
AM_6
100
AcDbText
 10
8.5433
 20
-7.515625
 30
0.0
 40
0.5
  1
1
100
AcDbAttributeDefinition
  3

  2
ST1
 70
     8
280
     0
  0
ATTDEF
  5
EF
330
DF
100
AcDbEntity
  8
AM_6
100
AcDbText
 10
8.5433
 20
-8.015625
 30
0.0
 40
0.5
  1
7.0866
100
AcDbAttributeDefinition
  3

  2
A
 70
     8
280
     0
  0
ATTDEF
  5
F0
330
DF
100
AcDbEntity
  8
AM_6
100
AcDbText
 10
8.5433
 20
-8.515625
 30
0.0
 40
0.5
  1
1-7/8
100
AcDbAttributeDefinition
  3

  2
B
 70
     8
280
     0
  0
ATTDEF
  5
F1
330
DF
100
AcDbEntity
  8
AM_6
100
AcDbText
 10
8.5433
 20
-9.015625
 30
0.0
 40
0.5
  1
4-31/64
100
AcDbAttributeDefinition
  3

  2
C
 70
     8
280
     0
  0
ATTDEF
  5
F2
330
DF
100
AcDbEntity
  8
AM_6
100
AcDbText
 10
8.5433
 20
-9.515625
 30
0.0
 40
0.5
  1
1.646
100
AcDbAttributeDefinition
  3

  2
D
 70
     8
280
     0
  0
ATTDEF
  5
F3
330
DF
100
AcDbEntity
  8
AM_6
100
AcDbText
 10
8.5433
 20
-10.015625
 30
0.0
 40
0.5
  1
6
100
AcDbAttributeDefinition
  3

  2
E
 70
     8
280
     0
  0
ATTDEF
  5
F4
330
DF
100
AcDbEntity
  8
AM_6
100
AcDbText
 10
8.5433
 20
-10.515625
 30
0.0
 40
0.5
  1
0.34375
100
AcDbAttributeDefinition
  3

  2
F
 70
     8
280
     0
  0
ATTDEF
  5
F5
330
DF
100
AcDbEntity
  8
AM_6
100
AcDbText
 10
8.5433
 20
-11.015625
 30
0.0
 40
0.5
  1
2
100
AcDbAttributeDefinition
  3

  2
DD
 70
     8
280
     0
  0
ATTDEF
  5
F6
330
DF
100
AcDbEntity
  8
AM_6
100
AcDbText
 10
8.5433
 20
-11.515625
 30
0.0
 40
0.5
  1
baldor
100
AcDbAttributeDefinition
  3

  2
COMPANY
 70
     8
280
     0
  0
LINE
  5
F7
330
DF
100
AcDbEntity
  8
AM_9
100
AcDbLine
 10
2.039192520832462
 20
-5.665
 30
0.0
 11
1.784126112694714
 21
-5.665
 31
0.0
  0
LINE
  5
F8
330
DF
100
AcDbEntity
  8
AM_9
100
AcDbLine
 10
1.784249267244133
 20
-6.325
 30
0.0
 11
2.039192520832462
 21
-6.325
 31
0.0
  0
LWPOLYLINE
  5
F9
330
DF
100
AcDbEntity
  8
AM_9
100
AcDbPolyline
 90
       21
 70
     0
 43
0.0
 10
1.784304748548791
 20
-5.665000001081875
 10
1.768783386045301
 20
-5.666968884608025
 10
1.744463704136843
 20
-5.677494766874515
 10
1.720049200667906
 20
-5.696710374747981
 10
1.696320599136341
 20
-5.724318949521049
 10
1.674324850107115
 20
-5.759367910331735
 10
1.654801067982797
 20
-5.80154318460304
 10
1.638888465591551
 20
-5.849210447890907
 10
1.627418757519156
 20
-5.901177766116869
 10
1.62092678966454
 20
-5.955863381715791
 10
1.61983424946571
 20
-6.011030226482792
 10
1.623994959449863
 20
-6.0657403203112
 10
1.633203819766625
 20
-6.118081954210203
 10
1.646921575744193
 20
-6.167003868682407
 10
1.664729989666717
 20
-6.211511507390497
 10
1.685638930246543
 20
-6.249994020120581
 10
1.709018353926043
 20
-6.281603061897489
 10
1.733659250062025
 20
-6.305098461516363
 10
1.75848134264691
 20
-6.319620617014139
 10
1.782718368953424
 20
-6.324979038394185
 10
1.784284494808594
 20
-6.324999999318832
  0
LWPOLYLINE
  5
FA
330
DF
100
AcDbEntity
  8
AM_9
100
AcDbPolyline
 90
        3
 70
     0
 43
0.0
 10
1.891850419753431
 20
-6.119252157487158
 10
1.895939712628778
 20
-6.073621342220627
 10
1.898513016825742
 20
-5.995
  0
LWPOLYLINE
  5
FB
330
DF
100
AcDbEntity
  8
AM_9
100
AcDbPolyline
 90
        9
 70
     0
 43
0.0
 10
1.784284494808594
 20
-6.324999999318832
 10
1.805295108590339
 20
-6.320979543602194
 10
1.825963439594656
 20
-6.307997818446589
 10
1.844234353345708
 20
-6.286328327738502
 10
1.859926893270822
 20
-6.256698055650594
 10
1.873020669481772
 20
-6.219356265431268
 10
1.883348530328451
 20
-6.175725872719704
 10
1.890977735809883
 20
-6.126573403038649
 10
1.891850419753431
 20
-6.119252157487158
  0
LWPOLYLINE
  5
FC
330
DF
100
AcDbEntity
  8
AM_9
100
AcDbPolyline
 90
       21
 70
     0
 43
0.0
 10
2.039204388092252
 20
-6.324999998805264
 10
2.023493950407833
 20
-6.322974039456844
 10
1.999291247186104
 20
-6.312316269347094
 10
1.975144590271775
 20
-6.292914660889279
 10
1.951835081291387
 20
-6.265097285822627
 10
1.930342800480956
 20
-6.229810786466519
 10
1.91141856376626
 20
-6.187508931055774
 10
1.896070627987425
 20
-6.139749495644122
 10
1.885073581336419
 20
-6.087758232267907
 10
1.878904571652315
 20
-6.033096912303111
 10
1.877948576949944
 20
-5.977836268224654
 10
1.882083930714479
 20
-5.92306330734216
 10
1.891134098132501
 20
-5.870604226687894
 10
1.904589995108458
 20
-5.821612749819562
 10
1.922027092075405
 20
-5.777188754082995
 10
1.942530527435977
 20
-5.738845228979192
 10
1.965453489742377
 20
-5.707511746803393
 10
1.989692611944469
 20
-5.684309699709473
 10
2.01423960695658
 20
-5.670074294062983
 10
2.038336778583334
 20
-5.665006200298957
 10
2.0391871085529
 20
-5.665000000248493
  0
LINE
  5
FD
330
DF
100
AcDbEntity
  8
AM_9
100
AcDbLine
 10
2.156526868051834
 20
-5.981657350600543
 30
0.0
 11
2.156604663928396
 21
-5.995
 31
0.0
  0
LWPOLYLINE
  5
FE
330
DF
100
AcDbEntity
  8
AM_9
100
AcDbPolyline
 90
       10
 70
     0
 43
0.0
 10
2.0391871085529
 20
-5.665000000248493
 10
2.060995331218779
 20
-5.669308630939521
 10
2.081885467056235
 20
-5.682630468604248
 10
2.100507010398975
 20
-5.704684465591985
 10
2.11662611560824
 20
-5.734730272438296
 10
2.130146378222674
 20
-5.772402875115725
 10
2.140883490866904
 20
-5.816326728268981
 10
2.148836041188578
 20
-5.865622882027202
 10
2.154006109881
 20
-5.918634936451605
 10
2.156526868051834
 20
-5.981657350600543
  0
LWPOLYLINE
  5
FF
330
DF
100
AcDbEntity
  8
AM_9
100
AcDbPolyline
 90
        9
 70
     0
 43
0.0
 10
1.891682080335658
 20
-5.869280293036642
 10
1.88719850708381
 20
-5.836364052999512
 10
1.8782458633211
 20
-5.790511141892519
 10
1.86644312148431
 20
-5.750063087178227
 10
1.85186573545095
 20
-5.71647418670843
 10
1.83441570072778
 20
-5.690653470618384
 10
1.814418661600808
 20
-5.673470654594451
 10
1.792406544971975
 20
-5.66560692020731
 10
1.784304748548791
 20
-5.665000001081875
  0
LWPOLYLINE
  5
100
330
DF
100
AcDbEntity
  8
AM_9
100
AcDbPolyline
 90
        4
 70
     0
 43
0.0
 10
1.898513016825742
 20
-5.995
 10
1.897265675935013
 20
-5.940040506710481
 10
1.893519334374493
 20
-5.886640830395146
 10
1.891682080335658
 20
-5.869280293036642
  0
LINE
  5
101
330
DF
100
AcDbEntity
  8
AM_9
100
AcDbLine
 10
-1.96875
 20
-2.015625
 30
0.0
 11
-1.96875
 21
-6.5
 31
0.0
  0
LINE
  5
102
330
DF
100
AcDbEntity
  8
AM_9
100
AcDbLine
 10
1.96875
 20
-6.5
 30
0.0
 11
1.96875
 21
-2.015625
 31
0.0
  0
LWPOLYLINE
  5
103
330
DF
100
AcDbEntity
  8
AM_9
100
AcDbPolyline
 90
       11
 70
     0
 43
0.0
 10
2.156258844041135
 20
-6.023102004413611
 10
2.155260891266976
 20
-6.050062261214316
 10
2.151239812495228
 20
-6.103564345510763
 10
2.144489230104766
 20
-6.153943696294787
 10
2.134999278504681
 20
-6.199879477737553
 10
2.122627873209079
 20
-6.240296235998819
 10
2.10750075307563
 20
-6.27383300116073
 10
2.089607565801016
 20
-6.299546066386122
 10
2.069305931869675
 20
-6.316629471052651
 10
2.047117043138596
 20
-6.324421562493002
 10
2.039204388092252
 20
-6.324999998805264
  0
LINE
  5
104
330
DF
100
AcDbEntity
  8
AM_9
100
AcDbLine
 10
2.156604663928396
 20
-5.995
 30
0.0
 11
2.156258844041135
 21
-6.023102004413611
 31
0.0
  0
LWPOLYLINE
  5
105
330
DF
100
AcDbEntity
  8
AM_9
100
AcDbPolyline
 90
       38
 70
     0
 43
0.0
 10
0.3300000000000002
 20
-5.995
 10
0.325504908904543
 20
-6.049282172755381
 10
0.3116308439224524
 20
-6.103564345510763
 10
0.2895666932252116
 20
-6.153275488230541
 10
0.2586975059833156
 20
-6.199879477737553
 10
0.2213073632187999
 20
-6.239791852366745
 10
0.1764997378573132
 20
-6.27383300116073
 10
0.1277643244134047
 20
-6.299263499958812
 10
0.0738544741392965
 20
-6.316629471052651
 10
0.0197516239306237
 20
-6.32440836867345
 10
-0.0365106757313633
 20
-6.322974039456844
 10
-0.089748817015879
 20
-6.31256125368856
 10
-0.1419396168348563
 20
-6.292914660889279
 10
-0.1889263935206993
 20
-6.26556758459073
 10
-0.2318704262276136
 20
-6.229810786466519
 10
-0.267550794762139
 20
-6.188174978250673
 10
-0.2965595783493973
 20
-6.139749495644122
 10
-0.3164621419989999
 20
-6.088550588888606
 10
-0.3277935711281859
 20
-6.033096912303111
 10
-0.3295939238549732
 20
-5.978634018273192
 10
-0.3220638325696498
 20
-5.92306330734216
 10
-0.3059429904575708
 20
-5.871311332007015
 10
-0.2807790260594015
 20
-5.821612749819562
 10
-0.248403763560051
 20
-5.777754585205574
 10
-0.2080498336535678
 20
-5.738845228979192
 10
-0.1626707200052014
 20
-5.707879403641972
 10
-0.1112274125626499
 20
-5.684309699709473
 10
-0.0582579230021328
 20
-5.670183106339159
 10
-0.0020229085169295
 20
-5.665006200298957
 10
0.0521694781490273
 20
-5.669149811186707
 10
0.1064202793437352
 20
-5.682630468604248
 10
0.1561649211386651
 20
-5.704289633129889
 10
0.2028784584793471
 20
-5.734730272438296
 10
0.2430678463639259
 20
-5.771800488208413
 10
0.2774452413881582
 20
-5.816326728268981
 10
0.3032560016853085
 20
-5.864862390363738
 10
0.3210426405779291
 20
-5.918634936451604
 10
0.33
 20
-5.995
  0
LINE
  5
106
330
DF
100
AcDbEntity
  8
AM_9
100
AcDbLine
 10
-2.25
 20
-5.14625
 30
0.0
 11
-2.25
 21
-6.5
 31
0.0
  0
LINE
  5
107
330
DF
100
AcDbEntity
  8
AM_9
100
AcDbLine
 10
2.25
 20
-6.5
 30
0.0
 11
2.25
 21
-5.14625
 31
0.0
  0
LINE
  5
108
330
DF
100
AcDbEntity
  8
AM_9
100
AcDbLine
 10
-2.25
 20
-2.015625
 30
0.0
 11
-2.25
 21
-2.177
 31
0.0
  0
LINE
  5
109
330
DF
100
AcDbEntity
  8
AM_9
100
AcDbLine
 10
2.25
 20
-2.177
 30
0.0
 11
2.25
 21
-2.015625
 31
0.0
  0
LINE
  5
10A
330
DF
100
AcDbEntity
  8
AM_9
100
AcDbLine
 10
2.25
 20
-2.015625
 30
0.0
 11
-2.25
 21
-2.015625
 31
0.0
  0
LINE
  5
10B
330
DF
100
AcDbEntity
  8
AM_9
100
AcDbLine
 10
2.647139999999999
 20
-2.177
 30
0.0
 11
-2.647139999999999
 21
-2.177
 31
0.0
  0
ARC
  5
10C
330
DF
100
AcDbEntity
  8
AM_9
100
AcDbCircle
 10
-2.647140000000001
 20
-2.364499999999999
 30
0.0
 40
0.1874999999999987
100
AcDbArc
 50
90.0
 51
180.0
  0
ARC
  5
10D
330
DF
100
AcDbEntity
  8
AM_9
100
AcDbCircle
 10
2.647140000000001
 20
-2.364499999999999
 30
0.0
 40
0.1874999999999987
100
AcDbArc
 50
0.0
 51
90.0
  0
LINE
  5
10E
330
DF
100
AcDbEntity
  8
AM_9
100
AcDbLine
 10
-2.834639999999999
 20
-2.3645
 30
0.0
 11
-2.834639999999999
 21
-2.724125
 31
0.0
  0
LINE
  5
10F
330
DF
100
AcDbEntity
  8
AM_9
100
AcDbLine
 10
2.834639999999999
 20
-2.724125
 30
0.0
 11
2.834639999999999
 21
-2.3645
 31
0.0
  0
LINE
  5
110
330
DF
100
AcDbEntity
  8
AM_9
100
AcDbLine
 10
2.834639999999999
 20
-2.3645
 30
0.0
 11
-2.834639999999999
 21
-2.3645
 31
0.0
  0
LINE
  5
111
330
DF
100
AcDbEntity
  8
AM_9
100
AcDbLine
 10
2.64714
 20
-5.14625
 30
0.0
 11
-2.64714
 21
-5.14625
 31
0.0
  0
ARC
  5
112
330
DF
100
AcDbEntity
  8
AM_9
100
AcDbCircle
 10
-2.647139999999999
 20
-4.958749999999999
 30
0.0
 40
0.1875000000000004
100
AcDbArc
 50
180.0
 51
270.0
  0
ARC
  5
113
330
DF
100
AcDbEntity
  8
AM_9
100
AcDbCircle
 10
2.647139999999999
 20
-4.958749999999999
 30
0.0
 40
0.1875000000000009
100
AcDbArc
 50
270.0
 51
0.0
  0
LINE
  5
114
330
DF
100
AcDbEntity
  8
AM_9
100
AcDbLine
 10
-2.834639999999999
 20
-4.599125
 30
0.0
 11
-2.834639999999999
 21
-4.958749999999999
 31
0.0
  0
LINE
  5
115
330
DF
100
AcDbEntity
  8
AM_9
100
AcDbLine
 10
2.834639999999999
 20
-4.958749999999999
 30
0.0
 11
2.834639999999999
 21
-4.599125
 31
0.0
  0
LINE
  5
116
330
DF
100
AcDbEntity
  8
AM_9
100
AcDbLine
 10
2.834639999999999
 20
-4.958749999999999
 30
0.0
 11
-2.834639999999999
 21
-4.958749999999999
 31
0.0
  0
LINE
  5
117
330
DF
100
AcDbEntity
  8
AM_9
100
AcDbLine
 10
-3.401567999999999
 20
-3.567874999999999
 30
0.0
 11
-3.401567999999999
 21
-3.755375000000001
 31
0.0
  0
LINE
  5
118
330
DF
100
AcDbEntity
  8
AM_9
100
AcDbLine
 10
3.401567999999999
 20
-3.755375000000001
 30
0.0
 11
3.401567999999999
 21
-3.567874999999999
 31
0.0
  0
LINE
  5
119
330
DF
100
AcDbEntity
  8
AM_9
100
AcDbLine
 10
-3.5433
 20
-3.837204008352785
 30
0.0
 11
-3.5433
 21
-4.411625
 31
0.0
  0
LINE
  5
11A
330
DF
100
AcDbEntity
  8
AM_9
100
AcDbLine
 10
3.5433
 20
-4.411625
 30
0.0
 11
3.5433
 21
-3.837204008352785
 31
0.0
  0
LINE
  5
11B
330
DF
100
AcDbEntity
  8
AM_9
100
AcDbLine
 10
-3.401567999999999
 20
-3.755375000000001
 30
0.0
 11
-3.5433
 21
-3.837204008352785
 31
0.0
  0
LINE
  5
11C
330
DF
100
AcDbEntity
  8
AM_9
100
AcDbLine
 10
3.543299999999999
 20
-3.837204008352785
 30
0.0
 11
3.401567999999999
 21
-3.755375000000001
 31
0.0
  0
LINE
  5
11D
330
DF
100
AcDbEntity
  8
AM_9
100
AcDbLine
 10
3.401567999999999
 20
-3.755375000000001
 30
0.0
 11
-3.401567999999999
 21
-3.755375000000001
 31
0.0
  0
LINE
  5
11E
330
DF
100
AcDbEntity
  8
AM_9
100
AcDbLine
 10
3.543299999999999
 20
-3.837204008352785
 30
0.0
 11
-3.5433
 21
-3.837204008352785
 31
0.0
  0
LINE
  5
11F
330
DF
100
AcDbEntity
  8
AM_9
100
AcDbLine
 10
-3.5433
 20
-2.911625
 30
0.0
 11
-3.5433
 21
-3.486045991647215
 31
0.0
  0
LINE
  5
120
330
DF
100
AcDbEntity
  8
AM_9
100
AcDbLine
 10
3.5433
 20
-3.486045991647215
 30
0.0
 11
3.5433
 21
-2.911625
 31
0.0
  0
LINE
  5
121
330
DF
100
AcDbEntity
  8
AM_9
100
AcDbLine
 10
3.401567999999999
 20
-3.567874999999999
 30
0.0
 11
3.5433
 21
-3.486045991647215
 31
0.0
  0
LINE
  5
122
330
DF
100
AcDbEntity
  8
AM_9
100
AcDbLine
 10
-3.543299999999999
 20
-3.486045991647215
 30
0.0
 11
-3.401567999999999
 21
-3.567874999999999
 31
0.0
  0
LINE
  5
123
330
DF
100
AcDbEntity
  8
AM_9
100
AcDbLine
 10
3.5433
 20
-3.486045991647215
 30
0.0
 11
-3.543299999999999
 21
-3.486045991647215
 31
0.0
  0
LINE
  5
124
330
DF
100
AcDbEntity
  8
AM_9
100
AcDbLine
 10
3.401567999999999
 20
-3.567874999999999
 30
0.0
 11
-3.401567999999999
 21
-3.567874999999999
 31
0.0
  0
LINE
  5
125
330
DF
100
AcDbEntity
  8
AM_9
100
AcDbLine
 10
3.3558
 20
-4.599125
 30
0.0
 11
-3.3558
 21
-4.599125
 31
0.0
  0
ARC
  5
126
330
DF
100
AcDbEntity
  8
AM_9
100
AcDbCircle
 10
-3.3558
 20
-4.411625
 30
0.0
 40
0.1874999999999996
100
AcDbArc
 50
180.0
 51
270.0
  0
ARC
  5
127
330
DF
100
AcDbEntity
  8
AM_9
100
AcDbCircle
 10
3.3558
 20
-4.411625
 30
0.0
 40
0.1875
100
AcDbArc
 50
270.0
 51
0.0
  0
LINE
  5
128
330
DF
100
AcDbEntity
  8
AM_9
100
AcDbLine
 10
3.5433
 20
-4.411625
 30
0.0
 11
-3.5433
 21
-4.411625
 31
0.0
  0
LINE
  5
129
330
DF
100
AcDbEntity
  8
AM_9
100
AcDbLine
 10
3.3558
 20
-2.724125
 30
0.0
 11
-3.3558
 21
-2.724125
 31
0.0
  0
ARC
  5
12A
330
DF
100
AcDbEntity
  8
AM_9
100
AcDbCircle
 10
-3.355799999999999
 20
-2.911625000000001
 30
0.0
 40
0.1875000000000009
100
AcDbArc
 50
90.0
 51
180.0
  0
ARC
  5
12B
330
DF
100
AcDbEntity
  8
AM_9
100
AcDbCircle
 10
3.355799999999999
 20
-2.911625000000001
 30
0.0
 40
0.1875000000000004
100
AcDbArc
 50
0.0
 51
90.0
  0
LINE
  5
12C
330
DF
100
AcDbEntity
  8
AM_9
100
AcDbLine
 10
3.5433
 20
-2.911625
 30
0.0
 11
-3.5433
 21
-2.911625
 31
0.0
  0
ENDBLK
  5
E2
330
DF
100
AcDbEntity
  8
0
100
AcDbBlockEnd
  0
BLOCK
  5
12F
330
12D
100
AcDbEntity
  8
0
100
AcDbBlockBegin
  2
4_405015E_Inch_0_in_071480_4
 70
     2
 10
0.0
 20
0.0
 30
0.0
  3
4_405015E_Inch_0_in_071480_4
  1

  0
ATTDEF
  5
131
330
12D
100
AcDbEntity
  8
AM_6
100
AcDbText
 10
5.21875
 20
-3.557409257229539
 30
0.0
 40
0.5
  1
405015E -Inch
100
AcDbAttributeDefinition
  3

  2
NN
 70
     8
280
     0
  0
ATTDEF
  5
132
330
12D
100
AcDbEntity
  8
AM_6
100
AcDbText
 10
5.21875
 20
-4.057409257229539
 30
0.0
 40
0.5
  1
Grease Fitting
100
AcDbAttributeDefinition
  3

  2
NT
 70
     8
280
     0
  0
ATTDEF
  5
133
330
12D
100
AcDbEntity
  8
AM_6
100
AcDbText
 10
5.21875
 20
-4.557409257229539
 30
0.0
 40
0.5
  1
405015E-Inch
100
AcDbAttributeDefinition
  3

  2
NB
 70
     8
280
     0
  0
ATTDEF
  5
134
330
12D
100
AcDbEntity
  8
AM_6
100
AcDbText
 10
5.21875
 20
-5.057409257229539
 30
0.0
 40
0.5
  1
$MN.-Inch
100
AcDbAttributeDefinition
  3

  2
NBSYN
 70
     8
280
     0
  0
ATTDEF
  5
135
330
12D
100
AcDbEntity
  8
AM_6
100
AcDbText
 10
5.21875
 20
-5.557409257229539
 30
0.0
 40
0.5
  1
405015E
100
AcDbAttributeDefinition
  3

  2
LINA
 70
     8
280
     0
  0
ATTDEF
  5
136
330
12D
100
AcDbEntity
  8
AM_6
100
AcDbText
 10
5.21875
 20
-6.057409257229539
 30
0.0
 40
0.5
  1
405015E
100
AcDbAttributeDefinition
  3

  2
MN
 70
     8
280
     0
  0
ATTDEF
  5
137
330
12D
100
AcDbEntity
  8
AM_6
100
AcDbText
 10
5.21875
 20
-6.557409257229539
 30
0.0
 40
0.5
  1
1/8 x 27PTF
100
AcDbAttributeDefinition
  3

  2
T
 70
     8
280
     0
  0
ATTDEF
  5
138
330
12D
100
AcDbEntity
  8
AM_6
100
AcDbText
 10
5.21875
 20
-7.057409257229539
 30
0.0
 40
0.5
  1
baldor
100
AcDbAttributeDefinition
  3

  2
COMPANY
 70
     8
280
     0
  0
CIRCLE
  5
139
330
12D
100
AcDbEntity
  8
AM_9
100
AcDbCircle
 10
0.0
 20
-3.81
 30
0.0
 40
0.161902872472269
  0
CIRCLE
  5
13A
330
12D
100
AcDbEntity
  8
AM_9
100
AcDbCircle
 10
0.0
 20
-3.81
 30
0.0
 40
0.1986176267812154
  0
CIRCLE
  5
13B
330
12D
100
AcDbEntity
  8
AM_9
100
AcDbCircle
 10
0.0
 20
-3.81
 30
0.0
 40
0.2057518972230696
  0
CIRCLE
  5
13C
330
12D
100
AcDbEntity
  8
AM_9
100
AcDbCircle
 10
0.0
 20
-3.81
 30
0.0
 40
0.1188200907348975
  0
CIRCLE
  5
13D
330
12D
100
AcDbEntity
  8
AM_9
100
AcDbCircle
 10
0.0
 20
-3.81
 30
0.0
 40
0.105
  0
LINE
  5
13E
330
12D
100
AcDbEntity
  8
AM_4
100
AcDbLine
 10
0.21875
 20
-3.683704628614769
 30
0.0
 11
0.0
 21
-3.557409257229539
 31
0.0
  0
LINE
  5
13F
330
12D
100
AcDbEntity
  8
AM_4
100
AcDbLine
 10
0.21875
 20
-3.936295371385231
 30
0.0
 11
0.21875
 21
-3.683704628614769
 31
0.0
  0
LINE
  5
140
330
12D
100
AcDbEntity
  8
AM_4
100
AcDbLine
 10
0.0
 20
-3.557409257229539
 30
0.0
 11
-0.21875
 21
-3.683704628614769
 31
0.0
  0
LINE
  5
141
330
12D
100
AcDbEntity
  8
AM_4
100
AcDbLine
 10
0.0
 20
-4.062590742770461
 30
0.0
 11
0.21875
 21
-3.936295371385231
 31
0.0
  0
LINE
  5
142
330
12D
100
AcDbEntity
  8
AM_4
100
AcDbLine
 10
-0.21875
 20
-3.683704628614769
 30
0.0
 11
-0.21875
 21
-3.936295371385231
 31
0.0
  0
LINE
  5
143
330
12D
100
AcDbEntity
  8
AM_4
100
AcDbLine
 10
-0.21875
 20
-3.936295371385231
 30
0.0
 11
0.0
 21
-4.062590742770461
 31
0.0
  0
CIRCLE
  5
144
330
12D
100
AcDbEntity
  8
AM_4
100
AcDbCircle
 10
0.0
 20
-3.81
 30
0.0
 40
0.1725340532830154
  0
CIRCLE
  5
145
330
12D
100
AcDbEntity
  8
AM_4
100
AcDbCircle
 10
0.0
 20
-3.81
 30
0.0
 40
0.1026779019331875
  0
CIRCLE
  5
146
330
12D
100
AcDbEntity
  8
AM_4
100
AcDbCircle
 10
0.0
 20
-3.81
 30
0.0
 40
0.135
  0
ARC
  5
147
330
12D
100
AcDbEntity
  8
AM_5
100
AcDbCircle
 10
-0.0000000000000001
 20
-3.81
 30
0.0
 40
0.2025000049999999
100
AcDbArc
 50
74.99999999999996
 51
15.00000000000007
  0
CIRCLE
  5
148
330
12D
100
AcDbEntity
  8
AM_4
100
AcDbCircle
 10
-0.000000000000001
 20
-3.810000000000001
 30
0.0
 40
0.2187499999999989
  0
CIRCLE
  5
149
330
12D
100
AcDbEntity
  8
AM_4
100
AcDbCircle
 10
-0.0000000000000008
 20
-3.81
 30
0.0
 40
0.2137499999999992
  0
ENDBLK
  5
130
330
12D
100
AcDbEntity
  8
0
100
AcDbBlockEnd
  0
BLOCK
  5
14C
330
14A
100
AcDbEntity
  8
0
100
AcDbBlockBegin
  2
5_B071480_0_in_071480_4
 70
     2
 10
0.0
 20
0.0
 30
0.0
  3
5_B071480_0_in_071480_4
  1

  0
ATTDEF
  5
14E
330
14A
100
AcDbEntity
  8
AM_6
100
AcDbText
 10
10.125
 20
0.275
 30
0.0
 40
0.5
  1
EF4S-S2 -(Contact Seal)-Housing
100
AcDbAttributeDefinition
  3

  2
NN
 70
     8
280
     0
  0
ATTDEF
  5
14F
330
14A
100
AcDbEntity
  8
AM_6
100
AcDbText
 10
10.125
 20
-0.225
 30
0.0
 40
0.5
  1
S-2000 -E TYpe -Inch
100
AcDbAttributeDefinition
  3

  2
NT
 70
     8
280
     0
  0
ATTDEF
  5
150
330
14A
100
AcDbEntity
  8
AM_6
100
AcDbText
 10
10.125
 20
-0.725
 30
0.0
 40
0.5
  1
B071480
100
AcDbAttributeDefinition
  3

  2
NB
 70
     8
280
     0
  0
ATTDEF
  5
151
330
14A
100
AcDbEntity
  8
AM_6
100
AcDbText
 10
10.125
 20
-1.225
 30
0.0
 40
0.5
  1
$PN.
100
AcDbAttributeDefinition
  3

  2
NBSYN
 70
     8
280
     0
  0
ATTDEF
  5
152
330
14A
100
AcDbEntity
  8
AM_6
100
AcDbText
 10
10.125
 20
-1.725
 30
0.0
 40
0.5
  1
B071480
100
AcDbAttributeDefinition
  3

  2
LINA
 70
     8
280
     0
  0
ATTDEF
  5
153
330
14A
100
AcDbEntity
  8
AM_6
100
AcDbText
 10
10.125
 20
-2.225
 30
0.0
 40
0.5
  1
3-15/16
100
AcDbAttributeDefinition
  3

  2
SS
 70
     8
280
     0
  0
ATTDEF
  5
154
330
14A
100
AcDbEntity
  8
AM_6
100
AcDbText
 10
10.125
 20
-2.725
 30
0.0
 40
0.5
  1
3.937500
100
AcDbAttributeDefinition
  3

  2
SS1
 70
     8
280
     0
  0
ATTDEF
  5
155
330
14A
100
AcDbEntity
  8
AM_6
100
AcDbText
 10
10.125
 20
-3.225
 30
0.0
 40
0.5
  1
Non-Expansion
100
AcDbAttributeDefinition
  3

  2
TYPE
 70
     8
280
     0
  0
ATTDEF
  5
156
330
14A
100
AcDbEntity
  8
AM_6
100
AcDbText
 10
10.125
 20
-3.725
 30
0.0
 40
0.5
  1
071480
100
AcDbAttributeDefinition
  3

  2
PN1
 70
     8
280
     0
  0
ATTDEF
  5
157
330
14A
100
AcDbEntity
  8
AM_6
100
AcDbText
 10
10.125
 20
-4.225
 30
0.0
 40
0.5
  1
071493
100
AcDbAttributeDefinition
  3

  2
PN2
 70
     8
280
     0
  0
ATTDEF
  5
158
330
14A
100
AcDbEntity
  8
AM_6
100
AcDbText
 10
10.125
 20
-4.725
 30
0.0
 40
0.5
  1
EF4B-S2-315R
100
AcDbAttributeDefinition
  3

  2
DESC1
 70
     8
280
     0
  0
ATTDEF
  5
159
330
14A
100
AcDbEntity
  8
AM_6
100
AcDbText
 10
10.125
 20
-5.225
 30
0.0
 40
0.5
  1
EF4B-S2-315RE
100
AcDbAttributeDefinition
  3

  2
DESC2
 70
     8
280
     0
  0
ATTDEF
  5
15A
330
14A
100
AcDbEntity
  8
AM_6
100
AcDbText
 10
10.125
 20
-5.725
 30
0.0
 40
0.5
  1
Non-Expansion Type
100
AcDbAttributeDefinition
  3

  2
EF
 70
     8
280
     0
  0
ATTDEF
  5
15B
330
14A
100
AcDbEntity
  8
AM_6
100
AcDbText
 10
10.125
 20
-6.225
 30
0.0
 40
0.5
  1
1
100
AcDbAttributeDefinition
  3

  2
EF1
 70
     8
280
     0
  0
ATTDEF
  5
15C
330
14A
100
AcDbEntity
  8
AM_6
100
AcDbText
 10
10.125
 20
-6.725
 30
0.0
 40
0.5
  1
4.48
100
AcDbAttributeDefinition
  3

  2
A
 70
     8
280
     0
  0
ATTDEF
  5
15D
330
14A
100
AcDbEntity
  8
AM_6
100
AcDbText
 10
10.125
 20
-7.225
 30
0.0
 40
0.5
  1
4.4800000
100
AcDbAttributeDefinition
  3

  2
A1
 70
     8
280
     0
  0
ATTDEF
  5
15E
330
14A
100
AcDbEntity
  8
AM_6
100
AcDbText
 10
10.125
 20
-7.725
 30
0.0
 40
0.5
  1
10.25
100
AcDbAttributeDefinition
  3

  2
B
 70
     8
280
     0
  0
ATTDEF
  5
15F
330
14A
100
AcDbEntity
  8
AM_6
100
AcDbText
 10
10.125
 20
-8.225
 30
0.0
 40
0.5
  1
10.2500000
100
AcDbAttributeDefinition
  3

  2
B1
 70
     8
280
     0
  0
ATTDEF
  5
160
330
14A
100
AcDbEntity
  8
AM_6
100
AcDbText
 10
10.125
 20
-8.725
 30
0.0
 40
0.5
  1
6.5
100
AcDbAttributeDefinition
  3

  2
C
 70
     8
280
     0
  0
ATTDEF
  5
161
330
14A
100
AcDbEntity
  8
AM_6
100
AcDbText
 10
10.125
 20
-9.225
 30
0.0
 40
0.5
  1
6.5000000
100
AcDbAttributeDefinition
  3

  2
C1
 70
     8
280
     0
  0
ATTDEF
  5
162
330
14A
100
AcDbEntity
  8
AM_6
100
AcDbText
 10
10.125
 20
-9.725
 30
0.0
 40
0.5
  1
7.75
100
AcDbAttributeDefinition
  3

  2
D
 70
     8
280
     0
  0
ATTDEF
  5
163
330
14A
100
AcDbEntity
  8
AM_6
100
AcDbText
 10
10.125
 20
-10.225
 30
0.0
 40
0.5
  1
7.7500000
100
AcDbAttributeDefinition
  3

  2
D1
 70
     8
280
     0
  0
ATTDEF
  5
164
330
14A
100
AcDbEntity
  8
AM_6
100
AcDbText
 10
10.125
 20
-10.725
 30
0.0
 40
0.5
  1
7/8
100
AcDbAttributeDefinition
  3

  2
F
 70
     8
280
     0
  0
ATTDEF
  5
165
330
14A
100
AcDbEntity
  8
AM_6
100
AcDbText
 10
10.125
 20
-11.225
 30
0.0
 40
0.5
  1
0.8750000
100
AcDbAttributeDefinition
  3

  2
F1
 70
     8
280
     0
  0
ATTDEF
  5
166
330
14A
100
AcDbEntity
  8
AM_6
100
AcDbText
 10
10.125
 20
-11.725
 30
0.0
 40
0.5
  1
1
100
AcDbAttributeDefinition
  3

  2
G
 70
     8
280
     0
  0
ATTDEF
  5
167
330
14A
100
AcDbEntity
  8
AM_6
100
AcDbText
 10
10.125
 20
-12.225
 30
0.0
 40
0.5
  1
1.000000
100
AcDbAttributeDefinition
  3

  2
G1
 70
     8
280
     0
  0
ATTDEF
  5
168
330
14A
100
AcDbEntity
  8
AM_6
100
AcDbText
 10
10.125
 20
-12.725
 30
0.0
 40
0.5
  1
2.12
100
AcDbAttributeDefinition
  3

  2
H
 70
     8
280
     0
  0
ATTDEF
  5
169
330
14A
100
AcDbEntity
  8
AM_6
100
AcDbText
 10
10.125
 20
-13.225
 30
0.0
 40
0.5
  1
2.1200000
100
AcDbAttributeDefinition
  3

  2
H1
 70
     8
280
     0
  0
ATTDEF
  5
16A
330
14A
100
AcDbEntity
  8
AM_6
100
AcDbText
 10
10.125
 20
-13.725
 30
0.0
 40
0.5
  1
8.27
100
AcDbAttributeDefinition
  3

  2
J
 70
     8
280
     0
  0
ATTDEF
  5
16B
330
14A
100
AcDbEntity
  8
AM_6
100
AcDbText
 10
10.125
 20
-14.225
 30
0.0
 40
0.5
  1
8.2700000
100
AcDbAttributeDefinition
  3

  2
J1
 70
     8
280
     0
  0
ATTDEF
  5
16C
330
14A
100
AcDbEntity
  8
AM_6
100
AcDbText
 10
10.125
 20
-14.725
 30
0.0
 40
0.5
  1
10-3/4
100
AcDbAttributeDefinition
  3

  2
K
 70
     8
280
     0
  0
ATTDEF
  5
16D
330
14A
100
AcDbEntity
  8
AM_6
100
AcDbText
 10
10.125
 20
-15.225
 30
0.0
 40
0.5
  1
10.7500000
100
AcDbAttributeDefinition
  3

  2
K1
 70
     8
280
     0
  0
ATTDEF
  5
16E
330
14A
100
AcDbEntity
  8
AM_6
100
AcDbText
 10
10.125
 20
-15.725
 30
0.0
 40
0.5
  1
6
100
AcDbAttributeDefinition
  3

  2
L
 70
     8
280
     0
  0
ATTDEF
  5
16F
330
14A
100
AcDbEntity
  8
AM_6
100
AcDbText
 10
10.125
 20
-16.225
 30
0.0
 40
0.5
  1
6.0000000
100
AcDbAttributeDefinition
  3

  2
L1
 70
     8
280
     0
  0
ATTDEF
  5
170
330
14A
100
AcDbEntity
  8
AM_6
100
AcDbText
 10
10.125
 20
-16.725
 30
0.0
 40
0.5
  1
4.58
100
AcDbAttributeDefinition
  3

  2
N
 70
     8
280
     0
  0
ATTDEF
  5
171
330
14A
100
AcDbEntity
  8
AM_6
100
AcDbText
 10
10.125
 20
-17.225
 30
0.0
 40
0.5
  1
4.580000
100
AcDbAttributeDefinition
  3

  2
N1
 70
     8
280
     0
  0
ATTDEF
  5
172
330
14A
100
AcDbEntity
  8
AM_6
100
AcDbText
 10
10.125
 20
-17.725
 30
0.0
 40
0.5
  1
2.02
100
AcDbAttributeDefinition
  3

  2
P
 70
     8
280
     0
  0
ATTDEF
  5
173
330
14A
100
AcDbEntity
  8
AM_6
100
AcDbText
 10
10.125
 20
-18.225
 30
0.0
 40
0.5
  1
2.020000
100
AcDbAttributeDefinition
  3

  2
P1
 70
     8
280
     0
  0
ATTDEF
  5
174
330
14A
100
AcDbEntity
  8
AM_6
100
AcDbText
 10
10.125
 20
-18.725
 30
0.0
 40
0.5
  1
0.31
100
AcDbAttributeDefinition
  3

  2
X
 70
     8
280
     0
  0
ATTDEF
  5
175
330
14A
100
AcDbEntity
  8
AM_6
100
AcDbText
 10
10.125
 20
-19.225
 30
0.0
 40
0.5
  1
0.310000
100
AcDbAttributeDefinition
  3

  2
X1
 70
     8
280
     0
  0
ATTDEF
  5
176
330
14A
100
AcDbEntity
  8
AM_6
100
AcDbText
 10
10.125
 20
-19.725
 30
0.0
 40
0.5
  1
0.025
100
AcDbAttributeDefinition
  3

  2
Y
 70
     8
280
     0
  0
ATTDEF
  5
177
330
14A
100
AcDbEntity
  8
AM_6
100
AcDbText
 10
10.125
 20
-20.225
 30
0.0
 40
0.5
  1
4.5
100
AcDbAttributeDefinition
  3

  2
Z
 70
     8
280
     0
  0
ATTDEF
  5
178
330
14A
100
AcDbEntity
  8
AM_6
100
AcDbText
 10
10.125
 20
-20.725
 30
0.0
 40
0.5
  1
4.500000
100
AcDbAttributeDefinition
  3

  2
Z1
 70
     8
280
     0
  0
ATTDEF
  5
179
330
14A
100
AcDbEntity
  8
AM_6
100
AcDbText
 10
10.125
 20
-21.225
 30
0.0
 40
0.5
  1
5/8-11
100
AcDbAttributeDefinition
  3

  2
CS
 70
     8
280
     0
  0
ATTDEF
  5
17A
330
14A
100
AcDbEntity
  8
AM_6
100
AcDbText
 10
10.125
 20
-21.725
 30
0.0
 40
0.5
  1
0.6250
100
AcDbAttributeDefinition
  3

  2
NDM
 70
     8
280
     0
  0
ATTDEF
  5
17B
330
14A
100
AcDbEntity
  8
AM_6
100
AcDbText
 10
10.125
 20
-22.225
 30
0.0
 40
0.5
  1
0.5270
100
AcDbAttributeDefinition
  3

  2
KDM
 70
     8
280
     0
  0
ATTDEF
  5
17C
330
14A
100
AcDbEntity
  8
AM_6
100
AcDbText
 10
10.125
 20
-22.725
 30
0.0
 40
0.5
  1
7.0866
100
AcDbAttributeDefinition
  3

  2
BORE
 70
     8
280
     0
  0
ATTDEF
  5
17D
330
14A
100
AcDbEntity
  8
AM_6
100
AcDbText
 10
10.125
 20
-23.225
 30
0.0
 40
0.5
  1
1
100
AcDbAttributeDefinition
  3

  2
ST1
 70
     8
280
     0
  0
ATTDEF
  5
17E
330
14A
100
AcDbEntity
  8
AM_6
100
AcDbText
 10
10.125
 20
-23.725
 30
0.0
 40
0.5
  1
baldor
100
AcDbAttributeDefinition
  3

  2
COMPANY
 70
     8
280
     0
  0
LINE
  5
17F
330
14A
100
AcDbEntity
  8
AM_9
100
AcDbLine
 10
4.008825104121443
 20
-1.978666666666667
 30
0.0
 11
4.008825104121443
 21
-2.12
 31
0.0
  0
LINE
  5
180
330
14A
100
AcDbEntity
  8
AM_9
100
AcDbLine
 10
3.953895519673062
 20
-1.978666666666667
 30
0.0
 11
3.953895519673062
 21
-2.12
 31
0.0
  0
LINE
  5
181
330
14A
100
AcDbEntity
  8
AM_9
100
AcDbLine
 10
-4.008825104121442
 20
-1.978666666666667
 30
0.0
 11
-4.008825104121442
 21
-2.12
 31
0.0
  0
LINE
  5
182
330
14A
100
AcDbEntity
  8
AM_9
100
AcDbLine
 10
-3.953895519673062
 20
-2.12
 30
0.0
 11
-3.953895519673062
 21
-1.978666666666667
 31
0.0
  0
LINE
  5
183
330
14A
100
AcDbEntity
  8
AM_9
100
AcDbLine
 10
-3.953895519673062
 20
-1.978666666666667
 30
0.0
 11
-5.125
 21
-1.978666666666667
 31
0.0
  0
LINE
  5
184
330
14A
100
AcDbEntity
  8
AM_9
100
AcDbLine
 10
5.125
 20
-1.06
 30
0.0
 11
2.5625
 21
-1.06
 31
0.0
  0
LINE
  5
185
330
14A
100
AcDbEntity
  8
AM_9
100
AcDbLine
 10
2.858787587859581
 20
0.0000000000000002
 30
0.0
 11
2.858787587859581
 21
-0.0908571428571432
 31
0.0
  0
LINE
  5
186
330
14A
100
AcDbEntity
  8
AM_9
100
AcDbLine
 10
-2.5625
 20
-1.06
 30
0.0
 11
-5.125
 21
-1.06
 31
0.0
  0
LINE
  5
187
330
14A
100
AcDbEntity
  8
AM_9
100
AcDbLine
 10
-2.858787587859581
 20
-0.0908571428571432
 30
0.0
 11
-2.858787587859581
 21
0.0000000000000002
 31
0.0
  0
LWPOLYLINE
  5
188
330
14A
100
AcDbEntity
  8
AM_9
100
AcDbPolyline
 90
       10
 70
     0
 43
0.0
 10
-2.858787587859581
 20
-0.0908571428571432
 10
-2.849585935978486
 20
-0.1443010204439356
 10
-2.835546173889854
 20
-0.1746794704106954
 10
-2.815566828954944
 20
-0.2029770064335969
 10
-2.792171219868275
 20
-0.2268246415941335
 10
-2.765109344498862
 20
-0.2475831209548414
 10
-2.720163954012308
 20
-0.2721343258275692
 10
-2.670458382441789
 20
-0.2895607589439196
 10
-2.619651909891932
 20
-0.2995307437618881
 10
-2.567062693527367
 20
-0.3028571428571836
  0
LINE
  5
189
330
14A
100
AcDbEntity
  8
AM_9
100
AcDbLine
 10
-2.858787587859581
 20
-0.0908571428571432
 30
0.0
 11
-2.5625
 21
-0.0908571428571431
 31
0.0
  0
LWPOLYLINE
  5
18A
330
14A
100
AcDbEntity
  8
AM_9
100
AcDbPolyline
 90
       10
 70
     0
 43
0.0
 10
2.567062693527369
 20
-0.3028571428571427
 10
2.62185794363604
 20
-0.2992418237131065
 10
2.676653193744707
 20
-0.28783973346434
 10
2.72646240021986
 20
-0.2692722548459473
 10
2.773662394795757
 20
-0.2416256441719374
 10
2.800952453001587
 20
-0.2186815739159828
 10
2.824867390164805
 20
-0.1910891629221781
 10
2.840346960243971
 20
-0.1658625173019475
 10
2.851751781837998
 20
-0.1376840657146192
 10
2.858787587859581
 20
-0.0908571428571432
  0
LINE
  5
18B
330
14A
100
AcDbEntity
  8
AM_9
100
AcDbLine
 10
2.5625
 20
-0.0908571428571431
 30
0.0
 11
2.858787587859581
 21
-0.0908571428571432
 31
0.0
  0
LINE
  5
18C
330
14A
100
AcDbEntity
  8
AM_9
100
AcDbLine
 10
5.014507110242683
 20
-1.978666666666667
 30
0.0
 11
5.014507110242683
 21
-2.12
 31
0.0
  0
LINE
  5
18D
330
14A
100
AcDbEntity
  8
AM_9
100
AcDbLine
 10
-5.014507110242682
 20
-1.978666666666667
 30
0.0
 11
-5.014507110242682
 21
-2.12
 31
0.0
  0
LINE
  5
18E
330
14A
100
AcDbEntity
  8
AM_9
100
AcDbLine
 10
3.953895519673062
 20
-1.978666666666667
 30
0.0
 11
5.125
 21
-1.978666666666667
 31
0.0
  0
LINE
  5
18F
330
14A
100
AcDbEntity
  8
AM_9
100
AcDbLine
 10
3.5433
 20
-5.5
 30
0.0
 11
3.5433
 21
-1.06
 31
0.0
  0
LINE
  5
190
330
14A
100
AcDbEntity
  8
AM_9
100
AcDbLine
 10
-3.5433
 20
-1.06
 30
0.0
 11
-3.5433
 21
-5.5
 31
0.0
  0
LINE
  5
191
330
14A
100
AcDbEntity
  8
AM_9
100
AcDbLine
 10
3.970232777524337
 20
-1.978666666666667
 30
0.0
 11
3.970232777524337
 21
-2.12
 31
0.0
  0
LINE
  5
192
330
14A
100
AcDbEntity
  8
AM_9
100
AcDbLine
 10
-3.970232769326514
 20
-1.978666666666667
 30
0.0
 11
-3.970232769326514
 21
-2.12
 31
0.0
  0
LINE
  5
193
330
14A
100
AcDbEntity
  8
AM_9
100
AcDbLine
 10
4.135
 20
-2.12
 30
0.0
 11
4.135
 21
-1.978666666666667
 31
0.0
  0
LINE
  5
194
330
14A
100
AcDbEntity
  8
AM_9
100
AcDbLine
 10
-4.135
 20
-1.978666666666667
 30
0.0
 11
-4.135
 21
-2.12
 31
0.0
  0
LINE
  5
195
330
14A
100
AcDbEntity
  8
AM_9
100
AcDbLine
 10
4.3125
 20
-2.12
 30
0.0
 11
4.3125
 21
0.0000000000000002
 31
0.0
  0
LINE
  5
196
330
14A
100
AcDbEntity
  8
AM_9
100
AcDbLine
 10
3.4375
 20
0.0000000000000002
 30
0.0
 11
3.4375
 21
-2.12
 31
0.0
  0
LINE
  5
197
330
14A
100
AcDbEntity
  8
AM_9
100
AcDbLine
 10
-3.4375
 20
-2.12
 30
0.0
 11
-3.4375
 21
0.0000000000000002
 31
0.0
  0
LINE
  5
198
330
14A
100
AcDbEntity
  8
AM_9
100
AcDbLine
 10
-4.312499999999999
 20
0.0000000000000002
 30
0.0
 11
-4.312499999999999
 21
-2.12
 31
0.0
  0
LINE
  5
199
330
14A
100
AcDbEntity
  8
AM_7
100
AcDbLine
 10
3.874999999999998
 20
0.1059999999999998
 30
0.0
 11
3.874999999999998
 21
-2.226
 31
0.0
  0
LINE
  5
19A
330
14A
100
AcDbEntity
  8
AM_7
100
AcDbLine
 10
-3.875
 20
0.1059999999999998
 30
0.0
 11
-3.875
 21
-2.226
 31
0.0
  0
LINE
  5
19B
330
14A
100
AcDbEntity
  8
AM_7
100
AcDbLine
 10
0.0
 20
-6.72421875
 30
0.0
 11
0.0
 21
0.275
 31
0.0
  0
LINE
  5
19C
330
14A
100
AcDbEntity
  8
AM_7
100
AcDbLine
 10
-0.5250000000000001
 20
-3.81
 30
0.0
 11
0.5250000000000008
 21
-3.81
 31
0.0
  0
LINE
  5
19D
330
14A
100
AcDbEntity
  8
AM_4
100
AcDbLine
 10
4.135
 20
-5.5
 30
0.0
 11
-4.135
 21
-5.5
 31
0.0
  0
LINE
  5
19E
330
14A
100
AcDbEntity
  8
AM_4
100
AcDbLine
 10
1.155628295502462
 20
-1.978666666666667
 30
0.0
 11
1.155628295502462
 21
-2.12
 31
0.0
  0
LINE
  5
19F
330
14A
100
AcDbEntity
  8
AM_4
100
AcDbLine
 10
-1.155628267338326
 20
-1.978666666666667
 30
0.0
 11
-1.155628267338326
 21
-2.12
 31
0.0
  0
LINE
  5
1A0
330
14A
100
AcDbEntity
  8
AM_4
100
AcDbLine
 10
4.135
 20
-5.5
 30
0.0
 11
4.135
 21
-2.12
 31
0.0
  0
LINE
  5
1A1
330
14A
100
AcDbEntity
  8
AM_4
100
AcDbLine
 10
-4.135
 20
-2.12
 30
0.0
 11
-4.135
 21
-5.5
 31
0.0
  0
CIRCLE
  5
1A2
330
14A
100
AcDbEntity
  8
AM_4
100
AcDbCircle
 10
0.0
 20
-3.81
 30
0.0
 40
0.4000000000000017
  0
LINE
  5
1A3
330
14A
100
AcDbEntity
  8
AM_4
100
AcDbLine
 10
1.475212932298113
 20
-1.978666666666667
 30
0.0
 11
1.475212932298113
 21
-2.12
 31
0.0
  0
LINE
  5
1A4
330
14A
100
AcDbEntity
  8
AM_4
100
AcDbLine
 10
-1.475212932298112
 20
-1.978666666666667
 30
0.0
 11
-1.475212932298112
 21
-2.12
 31
0.0
  0
LINE
  5
1A5
330
14A
100
AcDbEntity
  8
AM_4
100
AcDbLine
 10
5.125
 20
0.0000000000000002
 30
0.0
 11
2.5625
 21
0.0000000000000003
 31
0.0
  0
LINE
  5
1A6
330
14A
100
AcDbEntity
  8
AM_4
100
AcDbLine
 10
5.125
 20
-2.12
 30
0.0
 11
5.125
 21
0.0000000000000002
 31
0.0
  0
LINE
  5
1A7
330
14A
100
AcDbEntity
  8
AM_4
100
AcDbLine
 10
-2.5625
 20
0.0000000000000003
 30
0.0
 11
-5.125
 21
0.0000000000000002
 31
0.0
  0
LINE
  5
1A8
330
14A
100
AcDbEntity
  8
AM_4
100
AcDbLine
 10
-5.125
 20
-2.12
 30
0.0
 11
-5.125
 21
0.0000000000000002
 31
0.0
  0
LINE
  5
1A9
330
14A
100
AcDbEntity
  8
AM_4
100
AcDbLine
 10
3.217105263157896
 20
-1.978666666666667
 30
0.0
 11
3.217105263157896
 21
-2.12
 31
0.0
  0
LINE
  5
1AA
330
14A
100
AcDbEntity
  8
AM_4
100
AcDbLine
 10
5.125
 20
-2.12
 30
0.0
 11
1.155628295502462
 21
-2.12
 31
0.0
  0
LINE
  5
1AB
330
14A
100
AcDbEntity
  8
AM_4
100
AcDbLine
 10
2.5625
 20
-1.06
 30
0.0
 11
-2.5625
 21
-1.06
 31
0.0
  0
LINE
  5
1AC
330
14A
100
AcDbEntity
  8
AM_4
100
AcDbLine
 10
2.5625
 20
-1.06
 30
0.0
 11
2.5625
 21
0.0000000000000003
 31
0.0
  0
LINE
  5
1AD
330
14A
100
AcDbEntity
  8
AM_4
100
AcDbLine
 10
-2.5625
 20
-1.06
 30
0.0
 11
-2.5625
 21
0.0000000000000003
 31
0.0
  0
LINE
  5
1AE
330
14A
100
AcDbEntity
  8
AM_4
100
AcDbLine
 10
-3.875
 20
-2.12
 30
0.0
 11
-3.875
 21
0.0000000000000003
 31
0.0
  0
LINE
  5
1AF
330
14A
100
AcDbEntity
  8
AM_4
100
AcDbLine
 10
3.464144868526425
 20
-1.978666666666667
 30
0.0
 11
-3.464144868526415
 21
-1.978666666666667
 31
0.0
  0
LINE
  5
1B0
330
14A
100
AcDbEntity
  8
AM_4
100
AcDbLine
 10
3.464144868526425
 20
-2.12
 30
0.0
 11
3.464144868526425
 21
-1.978666666666667
 31
0.0
  0
LINE
  5
1B1
330
14A
100
AcDbEntity
  8
AM_4
100
AcDbLine
 10
3.875
 20
-2.12
 30
0.0
 11
3.875
 21
0.0000000000000003
 31
0.0
  0
LINE
  5
1B2
330
14A
100
AcDbEntity
  8
AM_4
100
AcDbLine
 10
-3.464144868526415
 20
-1.978666666666667
 30
0.0
 11
-3.464144868526415
 21
-2.12
 31
0.0
  0
LINE
  5
1B3
330
14A
100
AcDbEntity
  8
AM_4
100
AcDbLine
 10
-1.155628267338326
 20
-2.12
 30
0.0
 11
-5.125
 21
-2.12
 31
0.0
  0
LINE
  5
1B4
330
14A
100
AcDbEntity
  8
AM_4
100
AcDbLine
 10
-3.217105263157893
 20
-1.978666666666667
 30
0.0
 11
-3.217105263157893
 21
-2.12
 31
0.0
  0
CIRCLE
  5
1B5
330
14A
100
AcDbEntity
  8
AM_4
100
AcDbCircle
 10
0.0000000000000003
 20
-3.81
 30
0.0
 40
0.5000000000000004
  0
ENDBLK
  5
14D
330
14A
100
AcDbEntity
  8
0
100
AcDbBlockEnd
  0
ENDSEC
  0
SECTION
  2
ENTITIES
  0
INSERT
  5
6F
330
1F
100
AcDbEntity
  8
0
100
AcDbBlockReference
  2
1_071480_4
 10
0.0
 20
0.0
 30
0.0
  0
POINT
  5
1B7
330
1F
100
AcDbEntity
  8
ConnectionPoints
100
AcDbPoint
 10
0.0
 20
-6.5
 30
0.0000000000000004
  0
POINT
  5
1B8
330
1F
100
AcDbEntity
  8
ConnectionPoints
100
AcDbPoint
 10
0.0
 20
-0.8232499999999998
 30
0.0000000000000001
  0
POINT
  5
1B9
330
1F
100
AcDbEntity
  8
ConnectionPoints
100
AcDbPoint
 10
0.0
 20
-6.5
 30
0.0000000000000004
  0
POINT
  5
1BA
330
1F
100
AcDbEntity
  8
ConnectionPoints
100
AcDbPoint
 10
0.0
 20
-3.81
 30
4.234999999999999
  0
POINT
  5
1BB
330
1F
100
AcDbEntity
  8
ConnectionPoints
100
AcDbPoint
 10
0.0
 20
-3.81
 30
4.234999999999999
  0
POINT
  5
1BC
330
1F
100
AcDbEntity
  8
ConnectionPoints
100
AcDbPoint
 10
0.0
 20
-6.19
 30
0.0000000000000004
  0
POINT
  5
1BD
330
1F
100
AcDbEntity
  8
ConnectionPoints
100
AcDbPoint
 10
0.0
 20
-6.5
 30
0.0000000000000004
  0
ENDSEC
  0
SECTION
  2
OBJECTS
  0
DICTIONARY
  5
C
330
0
100
AcDbDictionary
281
     1
  3
ACAD_DETAILVIEWSTYLE
350
1C5
  3
ACAD_GROUP
350
D
  3
ACAD_LAYOUT
350
1A
  3
ACAD_MATERIAL
350
43
  3
ACAD_MLEADERSTYLE
350
6B
  3
ACAD_MLINESTYLE
350
17
  3
ACAD_PLOTSETTINGS
350
19
  3
ACAD_PLOTSTYLENAME
350
E
  3
ACAD_SCALELIST
350
47
  3
ACAD_SECTIONVIEWSTYLE
350
1C6
  3
ACAD_TABLESTYLE
350
69
  3
ACAD_VISUALSTYLE
350
2A
  3
ACDB_RECOMPOSE_DATA
350
1C2
  3
AcDbVariableDictionary
350
1BE
  0
SUN
  5
6D
330
29
100
AcDbSun
 90
        1
290
     0
 63
     7
421
 16777215
 40
1.0
291
     1
 91
  2455826
 92
 54000000
292
     0
 70
     2
 71
   256
280
     1
  0
DICTIONARY
  5
1C5
102
{ACAD_REACTORS
330
C
102
}
330
C
100
AcDbDictionary
281
     1
  0
DICTIONARY
  5
D
102
{ACAD_REACTORS
330
C
102
}
330
C
100
AcDbDictionary
281
     1
  0
DICTIONARY
  5
1A
102
{ACAD_REACTORS
330
C
102
}
330
C
100
AcDbDictionary
281
     1
  3
Layout1
350
1E
  3
Layout2
350
26
  3
Model
350
22
  0
DICTIONARY
  5
43
102
{ACAD_REACTORS
330
C
102
}
330
C
100
AcDbDictionary
281
     1
  3
ByBlock
350
45
  3
ByLayer
350
44
  3
Global
350
46
  0
DICTIONARY
  5
6B
102
{ACAD_REACTORS
330
C
102
}
330
C
100
AcDbDictionary
281
     1
  3
Standard
350
6C
  0
DICTIONARY
  5
17
102
{ACAD_REACTORS
330
C
102
}
330
C
100
AcDbDictionary
281
     1
  3
Standard
350
18
  0
DICTIONARY
  5
19
102
{ACAD_REACTORS
330
C
102
}
330
C
100
AcDbDictionary
281
     1
  0
ACDBDICTIONARYWDFLT
  5
E
102
{ACAD_REACTORS
330
C
102
}
330
C
100
AcDbDictionary
281
     1
  3
Normal
350
F
100
AcDbDictionaryWithDefault
340
F
  0
DICTIONARY
  5
47
102
{ACAD_REACTORS
330
C
102
}
330
C
100
AcDbDictionary
281
     1
  3
A0
350
48
  3
A1
350
49
  3
A2
350
4A
  3
A3
350
4B
  3
A4
350
4C
  3
A5
350
4D
  3
A6
350
4E
  3
A7
350
4F
  3
A8
350
50
  3
A9
350
51
  3
B0
350
52
  3
B1
350
53
  3
B2
350
54
  3
B3
350
55
  3
B4
350
56
  3
B5
350
57
  3
B6
350
58
  3
B7
350
59
  3
B8
350
5A
  3
B9
350
5B
  3
C0
350
5C
  3
C1
350
5D
  3
C2
350
5E
  3
C3
350
5F
  3
C4
350
60
  3
C5
350
61
  3
C6
350
62
  3
C7
350
63
  3
C8
350
64
  3
C9
350
65
  3
D0
350
66
  3
D1
350
67
  3
D2
350
68
  0
DICTIONARY
  5
1C6
102
{ACAD_REACTORS
330
C
102
}
330
C
100
AcDbDictionary
281
     1
  0
DICTIONARY
  5
69
102
{ACAD_REACTORS
330
C
102
}
330
C
100
AcDbDictionary
281
     1
  3
Standard
350
6A
  0
DICTIONARY
  5
2A
102
{ACAD_REACTORS
330
C
102
}
330
C
100
AcDbDictionary
281
     1
  3
2dWireframe
350
2F
  3
Basic
350
32
  3
Brighten
350
36
  3
ColorChange
350
3A
  3
Conceptual
350
34
  3
Dim
350
35
  3
EdgeColorOff
350
3D
  3
Facepattern
350
39
  3
Flat
350
2B
  3
FlatWithEdges
350
2C
  3
Gouraud
350
2D
  3
GouraudWithEdges
350
2E
  3
Hidden
350
31
  3
JitterOff
350
3B
  3
Linepattern
350
38
  3
OverhangOff
350
3C
  3
Realistic
350
33
  3
Shaded
350
42
  3
Shaded with edges
350
41
  3
Shades of Gray
350
3E
  3
Sketchy
350
3F
  3
Thicken
350
37
  3
Wireframe
350
30
  3
X-Ray
350
40
  0
XRECORD
  5
1C2
102
{ACAD_REACTORS
330
C
102
}
330
C
100
AcDbXrecord
280
     1
 90
        1
330
6A
  0
DICTIONARY
  5
1BE
102
{ACAD_REACTORS
330
C
102
}
330
C
100
AcDbDictionary
281
     1
  3
CANNOSCALE
350
1BF
  3
CMLEADERSTYLE
350
1C4
  3
CTABLESTYLE
350
1C3
  0
LAYOUT
  5
1E
102
{ACAD_REACTORS
330
1A
102
}
330
1A
100
AcDbPlotSettings
  1

  2
none_device
  4

  6

 40
0.0
 41
0.0
 42
0.0
 43
0.0
 44
0.0
 45
0.0
 46
0.0
 47
0.0
 48
0.0
 49
0.0
140
0.0
141
0.0
142
1.0
143
1.0
 70
   688
 72
     0
 73
     0
 74
     5
  7

 75
    16
 76
     0
 77
     2
 78
   300
147
1.0
148
0.0
149
0.0
100
AcDbLayout
  1
Layout1
 70
     1
 71
     1
 10
0.0
 20
0.0
 11
12.0
 21
9.0
 12
0.0
 22
0.0
 32
0.0
 14
1.000000000000000E+20
 24
1.000000000000000E+20
 34
1.000000000000000E+20
 15
-1.000000000000000E+20
 25
-1.000000000000000E+20
 35
-1.000000000000000E+20
146
0.0
 13
0.0
 23
0.0
 33
0.0
 16
1.0
 26
0.0
 36
0.0
 17
0.0
 27
1.0
 37
0.0
 76
     0
330
1B
  0
LAYOUT
  5
26
102
{ACAD_REACTORS
330
1A
102
}
330
1A
100
AcDbPlotSettings
  1

  2
none_device
  4

  6

 40
0.0
 41
0.0
 42
0.0
 43
0.0
 44
0.0
 45
0.0
 46
0.0
 47
0.0
 48
0.0
 49
0.0
140
0.0
141
0.0
142
1.0
143
1.0
 70
   688
 72
     0
 73
     0
 74
     5
  7

 75
    16
 76
     0
 77
     2
 78
   300
147
1.0
148
0.0
149
0.0
100
AcDbLayout
  1
Layout2
 70
     1
 71
     2
 10
0.0
 20
0.0
 11
0.0
 21
0.0
 12
0.0
 22
0.0
 32
0.0
 14
0.0
 24
0.0
 34
0.0
 15
0.0
 25
0.0
 35
0.0
146
0.0
 13
0.0
 23
0.0
 33
0.0
 16
1.0
 26
0.0
 36
0.0
 17
0.0
 27
1.0
 37
0.0
 76
     0
330
23
  0
LAYOUT
  5
22
102
{ACAD_REACTORS
330
1A
102
}
330
1A
100
AcDbPlotSettings
  1

  2
none_device
  4
Letter_(8.50_x_11.00_Inches)
  6

 40
6.35
 41
6.35
 42
6.35000508
 43
6.35000508
 44
215.9
 45
279.4
 46
0.0
 47
0.0
 48
0.0
 49
0.0
140
0.0
141
0.0
142
1.0
143
1.0
 70
  1712
 72
     0
 73
     0
 74
     0
  7

 75
     0
 76
     0
 77
     2
 78
   300
147
1.0
148
0.0
149
0.0
100
AcDbLayout
  1
Model
 70
     1
 71
     0
 10
0.0
 20
0.0
 11
12.0
 21
9.0
 12
0.0
 22
0.0
 32
0.0
 14
1.000000000000000E+20
 24
1.000000000000000E+20
 34
1.000000000000000E+20
 15
-1.000000000000000E+20
 25
-1.000000000000000E+20
 35
-1.000000000000000E+20
146
0.0
 13
0.0
 23
0.0
 33
0.0
 16
1.0
 26
0.0
 36
0.0
 17
0.0
 27
1.0
 37
0.0
 76
     0
330
1F
331
29
  0
MATERIAL
  5
45
102
{ACAD_REACTORS
330
43
102
}
330
43
100
AcDbMaterial
  1
ByBlock
 72
     1
 94
      127
  0
MATERIAL
  5
44
102
{ACAD_REACTORS
330
43
102
}
330
43
100
AcDbMaterial
  1
ByLayer
 72
     1
 94
      127
  0
MATERIAL
  5
46
102
{ACAD_REACTORS
330
43
102
}
330
43
100
AcDbMaterial
  1
Global
 72
     1
 94
      127
  0
MLEADERSTYLE
  5
6C
102
{ACAD_REACTORS
330
6B
102
}
330
6B
100
AcDbMLeaderStyle
179
     2
170
     2
171
     1
172
     0
 90
        2
 40
0.0
 41
0.0
173
     1
 91
-1056964608
340
14
 92
       -2
290
     1
 42
0.09
291
     1
 43
0.36
  3
Standard
341
0
 44
0.18
300

342
11
174
     1
178
     6
175
     1
176
     0
 93
-1056964608
 45
0.18
292
     0
297
     0
 46
0.18
343
0
 94
-1056964608
 47
1.0
 49
1.0
140
1.0
293
     1
141
0.0
294
     1
177
     0
142
1.0
295
     0
296
     0
143
0.125
271
     0
272
     9
273
     9
298
     0
  0
MLINESTYLE
  5
18
102
{ACAD_REACTORS
330
17
102
}
330
17
100
AcDbMlineStyle
  2
Standard
 70
     0
  3

 62
   256
 51
90.0
 52
90.0
 71
     2
 49
0.5
 62
   256
  6
BYLAYER
 49
-0.5
 62
   256
  6
BYLAYER
  0
ACDBPLACEHOLDER
  5
F
102
{ACAD_REACTORS
330
E
102
}
330
E
  0
SCALE
  5
48
102
{ACAD_REACTORS
330
47
102
}
330
47
100
AcDbScale
 70
     0
300
1:1
140
1.0
141
1.0
290
     1
  0
SCALE
  5
49
102
{ACAD_REACTORS
330
47
102
}
330
47
100
AcDbScale
 70
     0
300
1:2
140
1.0
141
2.0
290
     0
  0
SCALE
  5
4A
102
{ACAD_REACTORS
330
47
102
}
330
47
100
AcDbScale
 70
     0
300
1:4
140
1.0
141
4.0
290
     0
  0
SCALE
  5
4B
102
{ACAD_REACTORS
330
47
102
}
330
47
100
AcDbScale
 70
     0
300
1:5
140
1.0
141
5.0
290
     0
  0
SCALE
  5
4C
102
{ACAD_REACTORS
330
47
102
}
330
47
100
AcDbScale
 70
     0
300
1:8
140
1.0
141
8.0
290
     0
  0
SCALE
  5
4D
102
{ACAD_REACTORS
330
47
102
}
330
47
100
AcDbScale
 70
     0
300
1:10
140
1.0
141
10.0
290
     0
  0
SCALE
  5
4E
102
{ACAD_REACTORS
330
47
102
}
330
47
100
AcDbScale
 70
     0
300
1:16
140
1.0
141
16.0
290
     0
  0
SCALE
  5
4F
102
{ACAD_REACTORS
330
47
102
}
330
47
100
AcDbScale
 70
     0
300
1:20
140
1.0
141
20.0
290
     0
  0
SCALE
  5
50
102
{ACAD_REACTORS
330
47
102
}
330
47
100
AcDbScale
 70
     0
300
1:30
140
1.0
141
30.0
290
     0
  0
SCALE
  5
51
102
{ACAD_REACTORS
330
47
102
}
330
47
100
AcDbScale
 70
     0
300
1:40
140
1.0
141
40.0
290
     0
  0
SCALE
  5
52
102
{ACAD_REACTORS
330
47
102
}
330
47
100
AcDbScale
 70
     0
300
1:50
140
1.0
141
50.0
290
     0
  0
SCALE
  5
53
102
{ACAD_REACTORS
330
47
102
}
330
47
100
AcDbScale
 70
     0
300
1:100
140
1.0
141
100.0
290
     0
  0
SCALE
  5
54
102
{ACAD_REACTORS
330
47
102
}
330
47
100
AcDbScale
 70
     0
300
2:1
140
2.0
141
1.0
290
     0
  0
SCALE
  5
55
102
{ACAD_REACTORS
330
47
102
}
330
47
100
AcDbScale
 70
     0
300
4:1
140
4.0
141
1.0
290
     0
  0
SCALE
  5
56
102
{ACAD_REACTORS
330
47
102
}
330
47
100
AcDbScale
 70
     0
300
8:1
140
8.0
141
1.0
290
     0
  0
SCALE
  5
57
102
{ACAD_REACTORS
330
47
102
}
330
47
100
AcDbScale
 70
     0
300
10:1
140
10.0
141
1.0
290
     0
  0
SCALE
  5
58
102
{ACAD_REACTORS
330
47
102
}
330
47
100
AcDbScale
 70
     0
300
100:1
140
100.0
141
1.0
290
     0
  0
SCALE
  5
59
102
{ACAD_REACTORS
330
47
102
}
330
47
100
AcDbScale
 70
     0
300
1/128" = 1'-0"
140
0.0078125
141
12.0
290
     0
  0
SCALE
  5
5A
102
{ACAD_REACTORS
330
47
102
}
330
47
100
AcDbScale
 70
     0
300
1/64" = 1'-0"
140
0.015625
141
12.0
290
     0
  0
SCALE
  5
5B
102
{ACAD_REACTORS
330
47
102
}
330
47
100
AcDbScale
 70
     0
300
1/32" = 1'-0"
140
0.03125
141
12.0
290
     0
  0
SCALE
  5
5C
102
{ACAD_REACTORS
330
47
102
}
330
47
100
AcDbScale
 70
     0
300
1/16" = 1'-0"
140
0.0625
141
12.0
290
     0
  0
SCALE
  5
5D
102
{ACAD_REACTORS
330
47
102
}
330
47
100
AcDbScale
 70
     0
300
3/32" = 1'-0"
140
0.09375
141
12.0
290
     0
  0
SCALE
  5
5E
102
{ACAD_REACTORS
330
47
102
}
330
47
100
AcDbScale
 70
     0
300
1/8" = 1'-0"
140
0.125
141
12.0
290
     0
  0
SCALE
  5
5F
102
{ACAD_REACTORS
330
47
102
}
330
47
100
AcDbScale
 70
     0
300
3/16" = 1'-0"
140
0.1875
141
12.0
290
     0
  0
SCALE
  5
60
102
{ACAD_REACTORS
330
47
102
}
330
47
100
AcDbScale
 70
     0
300
1/4" = 1'-0"
140
0.25
141
12.0
290
     0
  0
SCALE
  5
61
102
{ACAD_REACTORS
330
47
102
}
330
47
100
AcDbScale
 70
     0
300
3/8" = 1'-0"
140
0.375
141
12.0
290
     0
  0
SCALE
  5
62
102
{ACAD_REACTORS
330
47
102
}
330
47
100
AcDbScale
 70
     0
300
1/2" = 1'-0"
140
0.5
141
12.0
290
     0
  0
SCALE
  5
63
102
{ACAD_REACTORS
330
47
102
}
330
47
100
AcDbScale
 70
     0
300
3/4" = 1'-0"
140
0.75
141
12.0
290
     0
  0
SCALE
  5
64
102
{ACAD_REACTORS
330
47
102
}
330
47
100
AcDbScale
 70
     0
300
1" = 1'-0"
140
1.0
141
12.0
290
     0
  0
SCALE
  5
65
102
{ACAD_REACTORS
330
47
102
}
330
47
100
AcDbScale
 70
     0
300
1-1/2" = 1'-0"
140
1.5
141
12.0
290
     0
  0
SCALE
  5
66
102
{ACAD_REACTORS
330
47
102
}
330
47
100
AcDbScale
 70
     0
300
3" = 1'-0"
140
3.0
141
12.0
290
     0
  0
SCALE
  5
67
102
{ACAD_REACTORS
330
47
102
}
330
47
100
AcDbScale
 70
     0
300
6" = 1'-0"
140
6.0
141
12.0
290
     0
  0
SCALE
  5
68
102
{ACAD_REACTORS
330
47
102
}
330
47
100
AcDbScale
 70
     0
300
1'-0" = 1'-0"
140
12.0
141
12.0
290
     0
  0
TABLESTYLE
  5
6A
102
{ACAD_REACTORS
330
69
102
}
102
{ACAD_XDICTIONARY
360
1C0
102
}
330
69
100
AcDbTableStyle
  3
Standard
 70
     0
 71
     0
 40
0.06
 41
0.06
280
     0
281
     0
  7
Standard
140
0.18
170
     2
 62
     0
 63
   257
283
     0
 90
        4
 91
        0
  1

274
    -2
284
     1
 64
     0
275
    -2
285
     1
 65
     0
276
    -2
286
     1
 66
     0
277
    -2
287
     1
 67
     0
278
    -2
288
     1
 68
     0
279
    -2
289
     1
 69
     0
  7
Standard
140
0.25
170
     5
 62
     0
 63
   257
283
     0
 90
        4
 91
        0
  1

274
    -2
284
     1
 64
     0
275
    -2
285
     1
 65
     0
276
    -2
286
     1
 66
     0
277
    -2
287
     1
 67
     0
278
    -2
288
     1
 68
     0
279
    -2
289
     1
 69
     0
  7
Standard
140
0.18
170
     5
 62
     0
 63
   257
283
     0
 90
        4
 91
        0
  1

274
    -2
284
     1
 64
     0
275
    -2
285
     1
 65
     0
276
    -2
286
     1
 66
     0
277
    -2
287
     1
 67
     0
278
    -2
288
     1
 68
     0
279
    -2
289
     1
 69
     0
  0
VISUALSTYLE
  5
2F
102
{ACAD_REACTORS
330
2A
102
}
330
2A
100
AcDbVisualStyle
  2
2dWireframe
 70
     4
177
     3
291
     0
 70
    58
 90
        0
176
     1
 90
        2
176
     1
 90
        0
176
     1
 90
        0
176
     1
 40
0.6
176
     1
 40
30.0
176
     1
 62
     7
420
 16777215
176
     1
 90
        1
176
     1
 90
        4
176
     1
 62
     7
176
     1
 62
   257
176
     1
 90
        1
176
     1
 90
        1
176
     1
 40
1.0
176
     1
 90
        0
176
     1
 62
   257
176
     1
 40
1.0
176
     1
 90
        1
176
     1
 90
        6
176
     1
 90
        2
176
     1
 62
     7
176
     1
 90
        5
176
     1
 90
        0
176
     1
 90
        0
176
     1
290
     0
176
     1
 90
        1
176
     1
 40
0.0
176
     1
 90
        0
176
     1
290
     1
176
     1
290
     1
176
     1
290
     0
176
     1
290
     0
176
     1
290
     0
176
     1
290
     0
176
     1
290
     0
176
     1
290
     0
176
     1
290
     0
176
     1
 90
       50
176
     1
 40
0.0
176
     1
 40
1.0
176
     1
 90
        0
176
     1
 62
    18
420
        0
176
     1
 90
       50
176
     1
 90
        3
176
     1
 62
     5
420
      255
176
     1
290
     0
176
     1
 90
       50
176
     1
 90
       50
176
     1
 90
       50
176
     1
290
     0
176
     1
 90
       50
176
     1
 62
   256
176
     0
 40
1.0
176
     0
 90
        2
176
     1
  1
strokes_ogs.tif
176
     1
290
     0
176
     1
 40
1.0
176
     1
 40
1.0
176
     1
  0
VISUALSTYLE
  5
32
102
{ACAD_REACTORS
330
2A
102
}
330
2A
100
AcDbVisualStyle
  2
Basic
 70
     7
177
     3
291
     1
 70
    58
 90
        1
176
     1
 90
        0
176
     1
 90
        1
176
     1
 90
        0
176
     1
 40
0.6
176
     1
 40
30.0
176
     1
 62
     7
420
 16777215
176
     1
 90
        0
176
     1
 90
        4
176
     1
 62
     7
176
     1
 62
   257
176
     1
 90
        1
176
     1
 90
        1
176
     1
 40
1.0
176
     1
 90
        8
176
     1
 62
     7
176
     1
 40
1.0
176
     1
 90
        1
176
     1
 90
        6
176
     1
 90
        2
176
     1
 62
     7
176
     1
 90
        5
176
     1
 90
        0
176
     1
 90
        0
176
     1
290
     0
176
     1
 90
        1
176
     1
 40
0.0
176
     1
 90
        0
176
     1
290
     0
176
     1
290
     1
176
     1
290
     1
176
     1
290
     0
176
     1
290
     0
176
     1
290
     0
176
     1
290
     0
176
     1
290
     0
176
     1
290
     0
176
     1
 90
       50
176
     1
 40
0.0
176
     1
 40
1.0
176
     1
 90
        0
176
     1
 62
    18
420
        0
176
     1
 90
       50
176
     1
 90
        3
176
     1
 62
     5
420
      255
176
     1
290
     0
176
     1
 90
       50
176
     1
 90
       50
176
     1
 90
       50
176
     1
290
     0
176
     1
 90
       50
176
     1
 62
   256
176
     0
 40
1.0
176
     0
 90
        2
176
     1
  1
strokes_ogs.tif
176
     1
290
     0
176
     1
 40
1.0
176
     1
 40
1.0
176
     1
  0
VISUALSTYLE
  5
36
102
{ACAD_REACTORS
330
2A
102
}
330
2A
100
AcDbVisualStyle
  2
Brighten
 70
    12
177
     3
291
     1
 70
    58
 90
        2
176
     1
 90
        2
176
     1
 90
        0
176
     1
 90
        0
176
     1
 40
0.6
176
     1
 40
30.0
176
     1
 62
     7
420
 16777215
176
     1
 90
        1
176
     1
 90
        4
176
     1
 62
     7
176
     1
 62
   257
176
     1
 90
        1
176
     1
 90
        1
176
     1
 40
1.0
176
     1
 90
        8
176
     1
 62
     7
176
     1
 40
1.0
176
     1
 90
        1
176
     1
 90
        6
176
     1
 90
        2
176
     1
 62
     7
176
     1
 90
        5
176
     1
 90
        0
176
     1
 90
        0
176
     1
290
     0
176
     1
 90
        1
176
     1
 40
50.0
176
     1
 90
        0
176
     1
290
     0
176
     1
290
     1
176
     1
290
     1
176
     1
290
     0
176
     1
290
     0
176
     1
290
     0
176
     1
290
     0
176
     1
290
     0
176
     1
290
     0
176
     1
 90
       50
176
     1
 40
0.0
176
     1
 40
1.0
176
     1
 90
        0
176
     1
 62
    18
420
        0
176
     1
 90
       50
176
     1
 90
        3
176
     1
 62
     5
420
      255
176
     1
290
     0
176
     1
 90
       50
176
     1
 90
       50
176
     1
 90
       50
176
     1
290
     0
176
     1
 90
       50
176
     1
 62
   256
176
     0
 40
1.0
176
     0
 90
        2
176
     1
  1
strokes_ogs.tif
176
     1
290
     0
176
     1
 40
1.0
176
     1
 40
1.0
176
     1
  0
VISUALSTYLE
  5
3A
102
{ACAD_REACTORS
330
2A
102
}
330
2A
100
AcDbVisualStyle
  2
ColorChange
 70
    16
177
     3
291
     1
 70
    58
 90
        2
176
     1
 90
        2
176
     1
 90
        3
176
     1
 90
        0
176
     1
 40
0.6
176
     1
 40
30.0
176
     1
 62
     8
420
  8421504
176
     1
 90
        1
176
     1
 90
        4
176
     1
 62
     7
176
     1
 62
   257
176
     1
 90
        1
176
     1
 90
        1
176
     1
 40
1.0
176
     1
 90
        8
176
     1
 62
     8
420
  8421504
176
     1
 40
1.0
176
     1
 90
        1
176
     1
 90
        6
176
     1
 90
        2
176
     1
 62
     7
176
     1
 90
        5
176
     1
 90
        0
176
     1
 90
        0
176
     1
290
     0
176
     1
 90
        1
176
     1
 40
0.0
176
     1
 90
        0
176
     1
290
     0
176
     1
290
     1
176
     1
290
     1
176
     1
290
     0
176
     1
290
     0
176
     1
290
     0
176
     1
290
     0
176
     1
290
     0
176
     1
290
     0
176
     1
 90
       50
176
     1
 40
0.0
176
     1
 40
1.0
176
     1
 90
        0
176
     1
 62
    18
420
        0
176
     1
 90
       50
176
     1
 90
        3
176
     1
 62
     5
420
      255
176
     1
290
     0
176
     1
 90
       50
176
     1
 90
       50
176
     1
 90
       50
176
     1
290
     0
176
     1
 90
       50
176
     1
 62
   256
176
     0
 40
1.0
176
     0
 90
        2
176
     1
  1
strokes_ogs.tif
176
     1
290
     0
176
     1
 40
1.0
176
     1
 40
1.0
176
     1
  0
VISUALSTYLE
  5
34
102
{ACAD_REACTORS
330
2A
102
}
330
2A
100
AcDbVisualStyle
  2
Conceptual
 70
     9
177
     3
291
     0
 70
    58
 90
        3
176
     1
 90
        2
176
     1
 90
        0
176
     1
 90
        0
176
     1
 40
0.6
176
     1
 40
30.0
176
     1
 62
     7
420
 16777215
176
     1
 90
        2
176
     1
 90
        2
176
     1
 62
     7
176
     1
 62
   257
176
     1
 90
        1
176
     1
 90
        1
176
     1
 40
179.0
176
     1
 90
        8
176
     1
 62
     7
176
     1
 40
1.0
176
     1
 90
        1
176
     1
 90
        6
176
     1
 90
        2
176
     1
 62
     7
176
     1
 90
        3
176
     1
 90
        0
176
     1
 90
        0
176
     1
290
     0
176
     1
 90
        1
176
     1
 40
0.0
176
     1
 90
        0
176
     1
290
     0
176
     1
290
     1
176
     1
290
     1
176
     1
290
     0
176
     1
290
     0
176
     1
290
     0
176
     1
290
     0
176
     1
290
     0
176
     1
290
     0
176
     1
 90
       50
176
     1
 40
0.0
176
     1
 40
1.0
176
     1
 90
        0
176
     1
 62
    18
420
        0
176
     1
 90
       50
176
     1
 90
        3
176
     1
 62
     5
420
      255
176
     1
290
     0
176
     1
 90
       50
176
     1
 90
       50
176
     1
 90
       50
176
     1
290
     0
176
     1
 90
       50
176
     1
 62
   256
176
     0
 40
1.0
176
     0
 90
        2
176
     1
  1
strokes_ogs.tif
176
     1
290
     0
176
     1
 40
1.0
176
     1
 40
1.0
176
     1
  0
VISUALSTYLE
  5
35
102
{ACAD_REACTORS
330
2A
102
}
330
2A
100
AcDbVisualStyle
  2
Dim
 70
    11
177
     3
291
     1
 70
    58
 90
        2
176
     1
 90
        2
176
     1
 90
        0
176
     1
 90
        0
176
     1
 40
0.6
176
     1
 40
30.0
176
     1
 62
     7
420
 16777215
176
     1
 90
        1
176
     1
 90
        4
176
     1
 62
     7
176
     1
 62
   257
176
     1
 90
        1
176
     1
 90
        1
176
     1
 40
1.0
176
     1
 90
        8
176
     1
 62
     7
176
     1
 40
1.0
176
     1
 90
        1
176
     1
 90
        6
176
     1
 90
        2
176
     1
 62
     7
176
     1
 90
        5
176
     1
 90
        0
176
     1
 90
        0
176
     1
290
     0
176
     1
 90
        1
176
     1
 40
-50.0
176
     1
 90
        0
176
     1
290
     0
176
     1
290
     1
176
     1
290
     1
176
     1
290
     0
176
     1
290
     0
176
     1
290
     0
176
     1
290
     0
176
     1
290
     0
176
     1
290
     0
176
     1
 90
       50
176
     1
 40
0.0
176
     1
 40
1.0
176
     1
 90
        0
176
     1
 62
    18
420
        0
176
     1
 90
       50
176
     1
 90
        3
176
     1
 62
     5
420
      255
176
     1
290
     0
176
     1
 90
       50
176
     1
 90
       50
176
     1
 90
       50
176
     1
290
     0
176
     1
 90
       50
176
     1
 62
   256
176
     0
 40
1.0
176
     0
 90
        2
176
     1
  1
strokes_ogs.tif
176
     1
290
     0
176
     1
 40
1.0
176
     1
 40
1.0
176
     1
  0
VISUALSTYLE
  5
3D
102
{ACAD_REACTORS
330
2A
102
}
330
2A
100
AcDbVisualStyle
  2
EdgeColorOff
 70
    22
177
     3
291
     1
 70
    58
 90
        2
176
     0
 90
        2
176
     0
 90
        0
176
     0
 90
        0
176
     0
 40
0.6
176
     0
 40
30.0
176
     0
 62
     7
420
 16777215
176
     0
 90
        1
176
     0
 90
        4
176
     0
 62
     7
176
     0
 62
   257
176
     0
 90
        1
176
     0
 90
        1
176
     0
 40
1.0
176
     0
 90
        8
176
     2
 62
     7
176
     0
 40
1.0
176
     0
 90
        1
176
     0
 90
        6
176
     0
 90
        2
176
     0
 62
     7
176
     0
 90
        5
176
     0
 90
        0
176
     0
 90
        0
176
     0
290
     0
176
     0
 90
        1
176
     0
 40
0.0
176
     0
 90
        0
176
     0
290
     0
176
     0
290
     1
176
     0
290
     1
176
     0
290
     0
176
     0
290
     0
176
     0
290
     0
176
     0
290
     0
176
     0
290
     0
176
     0
290
     0
176
     0
 90
       50
176
     0
 40
0.0
176
     0
 40
1.0
176
     0
 90
        0
176
     0
 62
    18
420
        0
176
     0
 90
       50
176
     0
 90
        3
176
     0
 62
     5
420
      255
176
     0
290
     0
176
     0
 90
       50
176
     0
 90
       50
176
     0
 90
       50
176
     0
290
     0
176
     0
 90
       50
176
     0
 62
   256
176
     0
 40
1.0
176
     0
 90
        2
176
     0
  1
strokes_ogs.tif
176
     0
290
     0
176
     0
 40
1.0
176
     0
 40
1.0
176
     0
  0
VISUALSTYLE
  5
39
102
{ACAD_REACTORS
330
2A
102
}
330
2A
100
AcDbVisualStyle
  2
Facepattern
 70
    15
177
     3
291
     1
 70
    58
 90
        2
176
     1
 90
        2
176
     1
 90
        0
176
     1
 90
        0
176
     1
 40
0.6
176
     1
 40
30.0
176
     1
 62
     7
420
 16777215
176
     1
 90
        1
176
     1
 90
        4
176
     1
 62
     7
176
     1
 62
   257
176
     1
 90
        1
176
     1
 90
        1
176
     1
 40
1.0
176
     1
 90
        8
176
     1
 62
     7
176
     1
 40
1.0
176
     1
 90
        1
176
     1
 90
        6
176
     1
 90
        2
176
     1
 62
     7
176
     1
 90
        5
176
     1
 90
        0
176
     1
 90
        0
176
     1
290
     0
176
     1
 90
        1
176
     1
 40
0.0
176
     1
 90
        0
176
     1
290
     0
176
     1
290
     1
176
     1
290
     1
176
     1
290
     0
176
     1
290
     0
176
     1
290
     0
176
     1
290
     0
176
     1
290
     0
176
     1
290
     0
176
     1
 90
       50
176
     1
 40
0.0
176
     1
 40
1.0
176
     1
 90
        0
176
     1
 62
    18
420
        0
176
     1
 90
       50
176
     1
 90
        3
176
     1
 62
     5
420
      255
176
     1
290
     0
176
     1
 90
       50
176
     1
 90
       50
176
     1
 90
       50
176
     1
290
     0
176
     1
 90
       50
176
     1
 62
   256
176
     0
 40
1.0
176
     0
 90
        2
176
     1
  1
strokes_ogs.tif
176
     1
290
     0
176
     1
 40
1.0
176
     1
 40
1.0
176
     1
  0
VISUALSTYLE
  5
2B
102
{ACAD_REACTORS
330
2A
102
}
330
2A
100
AcDbVisualStyle
  2
Flat
 70
     0
177
     3
291
     1
 70
    58
 90
        2
176
     1
 90
        1
176
     1
 90
        1
176
     1
 90
        2
176
     1
 40
0.6
176
     1
 40
30.0
176
     1
 62
     7
420
 16777215
176
     1
 90
        0
176
     1
 90
        0
176
     1
 62
     7
176
     1
 62
   257
176
     1
 90
        1
176
     1
 90
        1
176
     1
 40
1.0
176
     1
 90
        8
176
     1
 62
     7
176
     1
 40
1.0
176
     1
 90
        1
176
     1
 90
        6
176
     1
 90
        2
176
     1
 62
     7
176
     1
 90
        5
176
     1
 90
        0
176
     1
 90
        0
176
     1
290
     0
176
     1
 90
       13
176
     1
 40
0.0
176
     1
 90
        0
176
     1
290
     0
176
     1
290
     1
176
     1
290
     1
176
     1
290
     0
176
     1
290
     0
176
     1
290
     0
176
     1
290
     0
176
     1
290
     0
176
     1
290
     0
176
     1
 90
       50
176
     1
 40
0.0
176
     1
 40
1.0
176
     1
 90
        0
176
     1
 62
    18
420
        0
176
     1
 90
       50
176
     1
 90
        3
176
     1
 62
     5
420
      255
176
     1
290
     0
176
     1
 90
       50
176
     1
 90
       50
176
     1
 90
       50
176
     1
290
     0
176
     1
 90
       50
176
     1
 62
   256
176
     0
 40
1.0
176
     0
 90
        2
176
     1
  1
strokes_ogs.tif
176
     1
290
     0
176
     1
 40
1.0
176
     1
 40
1.0
176
     1
  0
VISUALSTYLE
  5
2C
102
{ACAD_REACTORS
330
2A
102
}
330
2A
100
AcDbVisualStyle
  2
FlatWithEdges
 70
     1
177
     3
291
     1
 70
    58
 90
        2
176
     1
 90
        1
176
     1
 90
        1
176
     1
 90
        2
176
     1
 40
0.6
176
     1
 40
30.0
176
     1
 62
     7
420
 16777215
176
     1
 90
        1
176
     1
 90
        0
176
     1
 62
     7
176
     1
 62
   257
176
     1
 90
        1
176
     1
 90
        1
176
     1
 40
1.0
176
     1
 90
        0
176
     1
 62
   257
176
     1
 40
1.0
176
     1
 90
        1
176
     1
 90
        6
176
     1
 90
        2
176
     1
 62
     7
176
     1
 90
        5
176
     1
 90
        0
176
     1
 90
        0
176
     1
290
     0
176
     1
 90
       13
176
     1
 40
0.0
176
     1
 90
        0
176
     1
290
     0
176
     1
290
     1
176
     1
290
     1
176
     1
290
     0
176
     1
290
     0
176
     1
290
     0
176
     1
290
     0
176
     1
290
     0
176
     1
290
     0
176
     1
 90
       50
176
     1
 40
0.0
176
     1
 40
1.0
176
     1
 90
        0
176
     1
 62
    18
420
        0
176
     1
 90
       50
176
     1
 90
        3
176
     1
 62
     5
420
      255
176
     1
290
     0
176
     1
 90
       50
176
     1
 90
       50
176
     1
 90
       50
176
     1
290
     0
176
     1
 90
       50
176
     1
 62
   256
176
     0
 40
1.0
176
     0
 90
        2
176
     1
  1
strokes_ogs.tif
176
     1
290
     0
176
     1
 40
1.0
176
     1
 40
1.0
176
     1
  0
VISUALSTYLE
  5
2D
102
{ACAD_REACTORS
330
2A
102
}
330
2A
100
AcDbVisualStyle
  2
Gouraud
 70
     2
177
     3
291
     1
 70
    58
 90
        2
176
     1
 90
        2
176
     1
 90
        1
176
     1
 90
        2
176
     1
 40
0.6
176
     1
 40
30.0
176
     1
 62
     7
420
 16777215
176
     1
 90
        0
176
     1
 90
        0
176
     1
 62
     7
176
     1
 62
   257
176
     1
 90
        1
176
     1
 90
        1
176
     1
 40
1.0
176
     1
 90
        0
176
     1
 62
     7
176
     1
 40
1.0
176
     1
 90
        1
176
     1
 90
        6
176
     1
 90
        2
176
     1
 62
     7
176
     1
 90
        5
176
     1
 90
        0
176
     1
 90
        0
176
     1
290
     0
176
     1
 90
       13
176
     1
 40
0.0
176
     1
 90
        0
176
     1
290
     0
176
     1
290
     1
176
     1
290
     1
176
     1
290
     0
176
     1
290
     0
176
     1
290
     0
176
     1
290
     0
176
     1
290
     0
176
     1
290
     0
176
     1
 90
       50
176
     1
 40
0.0
176
     1
 40
1.0
176
     1
 90
        0
176
     1
 62
    18
420
        0
176
     1
 90
       50
176
     1
 90
        3
176
     1
 62
     5
420
      255
176
     1
290
     0
176
     1
 90
       50
176
     1
 90
       50
176
     1
 90
       50
176
     1
290
     0
176
     1
 90
       50
176
     1
 62
   256
176
     0
 40
1.0
176
     0
 90
        2
176
     1
  1
strokes_ogs.tif
176
     1
290
     0
176
     1
 40
1.0
176
     1
 40
1.0
176
     1
  0
VISUALSTYLE
  5
2E
102
{ACAD_REACTORS
330
2A
102
}
330
2A
100
AcDbVisualStyle
  2
GouraudWithEdges
 70
     3
177
     3
291
     1
 70
    58
 90
        2
176
     1
 90
        2
176
     1
 90
        1
176
     1
 90
        2
176
     1
 40
0.6
176
     1
 40
30.0
176
     1
 62
     7
420
 16777215
176
     1
 90
        1
176
     1
 90
        0
176
     1
 62
     7
176
     1
 62
   257
176
     1
 90
        1
176
     1
 90
        1
176
     1
 40
1.0
176
     1
 90
        0
176
     1
 62
   257
176
     1
 40
1.0
176
     1
 90
        1
176
     1
 90
        6
176
     1
 90
        2
176
     1
 62
     7
176
     1
 90
        5
176
     1
 90
        0
176
     1
 90
        0
176
     1
290
     0
176
     1
 90
       13
176
     1
 40
0.0
176
     1
 90
        0
176
     1
290
     0
176
     1
290
     1
176
     1
290
     1
176
     1
290
     0
176
     1
290
     0
176
     1
290
     0
176
     1
290
     0
176
     1
290
     0
176
     1
290
     0
176
     1
 90
       50
176
     1
 40
0.0
176
     1
 40
1.0
176
     1
 90
        0
176
     1
 62
    18
420
        0
176
     1
 90
       50
176
     1
 90
        3
176
     1
 62
     5
420
      255
176
     1
290
     0
176
     1
 90
       50
176
     1
 90
       50
176
     1
 90
       50
176
     1
290
     0
176
     1
 90
       50
176
     1
 62
   256
176
     0
 40
1.0
176
     0
 90
        2
176
     1
  1
strokes_ogs.tif
176
     1
290
     0
176
     1
 40
1.0
176
     1
 40
1.0
176
     1
  0
VISUALSTYLE
  5
31
102
{ACAD_REACTORS
330
2A
102
}
330
2A
100
AcDbVisualStyle
  2
Hidden
 70
     6
177
     3
291
     0
 70
    58
 90
        1
176
     1
 90
        2
176
     1
 90
        2
176
     1
 90
        0
176
     1
 40
0.6
176
     1
 40
30.0
176
     1
 62
     7
420
 16777215
176
     1
 90
        2
176
     1
 90
        2
176
     1
 62
     7
176
     1
 62
   257
176
     1
 90
        2
176
     1
 90
        1
176
     1
 40
40.0
176
     1
 90
        0
176
     1
 62
   257
176
     1
 40
1.0
176
     1
 90
        1
176
     1
 90
        6
176
     1
 90
        2
176
     1
 62
     7
176
     1
 90
        3
176
     1
 90
        0
176
     1
 90
        0
176
     1
290
     0
176
     1
 90
        1
176
     1
 40
0.0
176
     1
 90
        0
176
     1
290
     0
176
     1
290
     1
176
     1
290
     1
176
     1
290
     0
176
     1
290
     0
176
     1
290
     0
176
     1
290
     0
176
     1
290
     0
176
     1
290
     0
176
     1
 90
       50
176
     1
 40
0.0
176
     1
 40
1.0
176
     1
 90
        0
176
     1
 62
    18
420
        0
176
     1
 90
       50
176
     1
 90
        3
176
     1
 62
     5
420
      255
176
     1
290
     0
176
     1
 90
       50
176
     1
 90
       50
176
     1
 90
       50
176
     1
290
     0
176
     1
 90
       50
176
     1
 62
   256
176
     0
 40
1.0
176
     0
 90
        2
176
     1
  1
strokes_ogs.tif
176
     1
290
     0
176
     1
 40
1.0
176
     1
 40
1.0
176
     1
  0
VISUALSTYLE
  5
3B
102
{ACAD_REACTORS
330
2A
102
}
330
2A
100
AcDbVisualStyle
  2
JitterOff
 70
    20
177
     3
291
     1
 70
    58
 90
        2
176
     0
 90
        2
176
     0
 90
        0
176
     0
 90
        0
176
     0
 40
0.6
176
     0
 40
30.0
176
     0
 62
     7
420
 16777215
176
     0
 90
        1
176
     0
 90
        4
176
     0
 62
     7
176
     0
 62
   257
176
     0
 90
        1
176
     0
 90
        1
176
     0
 40
1.0
176
     0
 90
       10
176
     2
 62
     7
176
     0
 40
1.0
176
     0
 90
        1
176
     0
 90
        6
176
     0
 90
        2
176
     0
 62
     7
176
     0
 90
        5
176
     0
 90
        0
176
     0
 90
        0
176
     0
290
     0
176
     0
 90
        1
176
     0
 40
0.0
176
     0
 90
        0
176
     0
290
     0
176
     0
290
     1
176
     0
290
     1
176
     0
290
     0
176
     0
290
     0
176
     0
290
     0
176
     0
290
     0
176
     0
290
     0
176
     0
290
     0
176
     0
 90
       50
176
     0
 40
0.0
176
     0
 40
1.0
176
     0
 90
        0
176
     0
 62
    18
420
        0
176
     0
 90
       50
176
     0
 90
        3
176
     0
 62
     5
420
      255
176
     0
290
     0
176
     0
 90
       50
176
     0
 90
       50
176
     0
 90
       50
176
     0
290
     0
176
     0
 90
       50
176
     0
 62
   256
176
     0
 40
1.0
176
     0
 90
        2
176
     0
  1
strokes_ogs.tif
176
     0
290
     0
176
     0
 40
1.0
176
     0
 40
1.0
176
     0
  0
VISUALSTYLE
  5
38
102
{ACAD_REACTORS
330
2A
102
}
330
2A
100
AcDbVisualStyle
  2
Linepattern
 70
    14
177
     3
291
     1
 70
    58
 90
        2
176
     1
 90
        2
176
     1
 90
        0
176
     1
 90
        0
176
     1
 40
0.6
176
     1
 40
30.0
176
     1
 62
     7
420
 16777215
176
     1
 90
        1
176
     1
 90
        4
176
     1
 62
     7
176
     1
 62
   257
176
     1
 90
        7
176
     1
 90
        7
176
     1
 40
1.0
176
     1
 90
        8
176
     1
 62
     7
176
     1
 40
1.0
176
     1
 90
        1
176
     1
 90
        6
176
     1
 90
        2
176
     1
 62
     7
176
     1
 90
        5
176
     1
 90
        0
176
     1
 90
        0
176
     1
290
     0
176
     1
 90
        1
176
     1
 40
0.0
176
     1
 90
        0
176
     1
290
     0
176
     1
290
     1
176
     1
290
     1
176
     1
290
     0
176
     1
290
     0
176
     1
290
     0
176
     1
290
     0
176
     1
290
     0
176
     1
290
     0
176
     1
 90
       50
176
     1
 40
0.0
176
     1
 40
1.0
176
     1
 90
        0
176
     1
 62
    18
420
        0
176
     1
 90
       50
176
     1
 90
        3
176
     1
 62
     5
420
      255
176
     1
290
     0
176
     1
 90
       50
176
     1
 90
       50
176
     1
 90
       50
176
     1
290
     0
176
     1
 90
       50
176
     1
 62
   256
176
     0
 40
1.0
176
     0
 90
        2
176
     1
  1
strokes_ogs.tif
176
     1
290
     0
176
     1
 40
1.0
176
     1
 40
1.0
176
     1
  0
VISUALSTYLE
  5
3C
102
{ACAD_REACTORS
330
2A
102
}
330
2A
100
AcDbVisualStyle
  2
OverhangOff
 70
    21
177
     3
291
     1
 70
    58
 90
        2
176
     0
 90
        2
176
     0
 90
        0
176
     0
 90
        0
176
     0
 40
0.6
176
     0
 40
30.0
176
     0
 62
     7
420
 16777215
176
     0
 90
        1
176
     0
 90
        4
176
     0
 62
     7
176
     0
 62
   257
176
     0
 90
        1
176
     0
 90
        1
176
     0
 40
1.0
176
     0
 90
        9
176
     2
 62
     7
176
     0
 40
1.0
176
     0
 90
        1
176
     0
 90
        6
176
     0
 90
        2
176
     0
 62
     7
176
     0
 90
        5
176
     0
 90
        0
176
     0
 90
        0
176
     0
290
     0
176
     0
 90
        1
176
     0
 40
0.0
176
     0
 90
        0
176
     0
290
     0
176
     0
290
     1
176
     0
290
     1
176
     0
290
     0
176
     0
290
     0
176
     0
290
     0
176
     0
290
     0
176
     0
290
     0
176
     0
290
     0
176
     0
 90
       50
176
     0
 40
0.0
176
     0
 40
1.0
176
     0
 90
        0
176
     0
 62
    18
420
        0
176
     0
 90
       50
176
     0
 90
        3
176
     0
 62
     5
420
      255
176
     0
290
     0
176
     0
 90
       50
176
     0
 90
       50
176
     0
 90
       50
176
     0
290
     0
176
     0
 90
       50
176
     0
 62
   256
176
     0
 40
1.0
176
     0
 90
        2
176
     0
  1
strokes_ogs.tif
176
     0
290
     0
176
     0
 40
1.0
176
     0
 40
1.0
176
     0
  0
VISUALSTYLE
  5
33
102
{ACAD_REACTORS
330
2A
102
}
330
2A
100
AcDbVisualStyle
  2
Realistic
 70
     8
177
     3
291
     0
 70
    58
 90
        2
176
     1
 90
        3
176
     1
 90
        0
176
     1
 90
        2
176
     1
 40
0.6
176
     1
 40
30.0
176
     1
 62
     7
420
 16777215
176
     1
 90
        0
176
     1
 90
        0
176
     1
 62
     7
176
     1
 62
   257
176
     1
 90
        1
176
     1
 90
        1
176
     1
 40
1.0
176
     1
 90
        8
176
     1
 62
   257
176
     1
 40
1.0
176
     1
 90
        1
176
     1
 90
        6
176
     1
 90
        2
176
     1
 62
     7
176
     1
 90
        3
176
     1
 90
        0
176
     1
 90
        0
176
     1
290
     0
176
     1
 90
       13
176
     1
 40
0.0
176
     1
 90
        0
176
     1
290
     0
176
     1
290
     1
176
     1
290
     1
176
     1
290
     0
176
     1
290
     0
176
     1
290
     0
176
     1
290
     0
176
     1
290
     0
176
     1
290
     0
176
     1
 90
       50
176
     1
 40
0.0
176
     1
 40
1.0
176
     1
 90
        0
176
     1
 62
    18
420
        0
176
     1
 90
       50
176
     1
 90
        3
176
     1
 62
     5
420
      255
176
     1
290
     0
176
     1
 90
       50
176
     1
 90
       50
176
     1
 90
       50
176
     1
290
     0
176
     1
 90
       50
176
     1
 62
   256
176
     0
 40
1.0
176
     0
 90
        2
176
     1
  1
strokes_ogs.tif
176
     1
290
     0
176
     1
 40
1.0
176
     1
 40
1.0
176
     1
  0
VISUALSTYLE
  5
42
102
{ACAD_REACTORS
330
2A
102
}
330
2A
100
AcDbVisualStyle
  2
Shaded
 70
    27
177
     3
291
     0
 70
    58
 90
        2
176
     1
 90
        2
176
     1
 90
        1
176
     1
 90
        2
176
     1
 40
0.6
176
     1
 40
30.0
176
     1
 62
     7
420
 16777215
176
     1
 90
        0
176
     1
 90
        4
176
     1
 62
     7
176
     1
 62
   257
176
     1
 90
        1
176
     1
 90
        1
176
     1
 40
1.0
176
     1
 90
        8
176
     1
 62
   257
176
     1
 40
1.0
176
     1
 90
        1
176
     1
 90
        6
176
     1
 90
        2
176
     1
 62
     8
420
  7895160
176
     1
 90
        3
176
     1
 90
        0
176
     1
 90
        0
176
     1
290
     0
176
     1
 90
        5
176
     1
 40
0.0
176
     1
 90
        0
176
     1
290
     0
176
     1
290
     1
176
     1
290
     1
176
     1
290
     0
176
     1
290
     0
176
     1
290
     0
176
     1
290
     0
176
     1
290
     0
176
     1
290
     0
176
     1
 90
       50
176
     1
 40
0.0
176
     1
 40
1.0
176
     1
 90
        0
176
     1
 62
    18
420
        0
176
     1
 90
       50
176
     1
 90
        3
176
     1
 62
     5
420
      255
176
     1
290
     0
176
     1
 90
       50
176
     1
 90
       50
176
     1
 90
       50
176
     1
290
     0
176
     1
 90
       50
176
     1
 62
   256
176
     0
 40
1.0
176
     0
 90
        2
176
     1
  1
strokes_ogs.tif
176
     1
290
     0
176
     1
 40
1.0
176
     1
 40
1.0
176
     1
  0
VISUALSTYLE
  5
41
102
{ACAD_REACTORS
330
2A
102
}
330
2A
100
AcDbVisualStyle
  2
Shaded with edges
 70
    26
177
     3
291
     0
 70
    58
 90
        2
176
     1
 90
        2
176
     1
 90
        1
176
     1
 90
        2
176
     1
 40
0.6
176
     1
 40
30.0
176
     1
 62
     7
420
 16777215
176
     1
 90
        1
176
     1
 90
       10
176
     1
 62
     7
176
     1
 62
   257
176
     1
 90
        2
176
     1
 90
        1
176
     1
 40
1.0
176
     1
 90
        8
176
     1
 62
   257
176
     1
 40
1.0
176
     1
 90
        1
176
     1
 90
        6
176
     1
 90
        2
176
     1
 62
     7
176
     1
 90
        3
176
     1
 90
        0
176
     1
 90
        0
176
     1
290
     0
176
     1
 90
        5
176
     1
 40
0.0
176
     1
 90
        0
176
     1
290
     0
176
     1
290
     1
176
     1
290
     1
176
     1
290
     0
176
     1
290
     0
176
     1
290
     0
176
     1
290
     0
176
     1
290
     0
176
     1
290
     0
176
     1
 90
       50
176
     1
 40
0.0
176
     1
 40
1.0
176
     1
 90
        0
176
     1
 62
    18
420
        0
176
     1
 90
       50
176
     1
 90
        3
176
     1
 62
     5
420
      255
176
     1
290
     0
176
     1
 90
       50
176
     1
 90
       50
176
     1
 90
       50
176
     1
290
     0
176
     1
 90
       50
176
     1
 62
   256
176
     0
 40
1.0
176
     0
 90
        2
176
     1
  1
strokes_ogs.tif
176
     1
290
     0
176
     1
 40
1.0
176
     1
 40
1.0
176
     1
  0
VISUALSTYLE
  5
3E
102
{ACAD_REACTORS
330
2A
102
}
330
2A
100
AcDbVisualStyle
  2
Shades of Gray
 70
    23
177
     3
291
     0
 70
    58
 90
        2
176
     1
 90
        2
176
     1
 90
        3
176
     1
 90
        0
176
     1
 40
0.6
176
     1
 40
30.0
176
     1
 62
     7
420
 16777215
176
     1
 90
        2
176
     1
 90
        2
176
     1
 62
     7
176
     1
 62
     7
176
     1
 90
        1
176
     1
 90
        1
176
     1
 40
40.0
176
     1
 90
        8
176
     1
 62
     7
176
     1
 40
1.0
176
     1
 90
        1
176
     1
 90
        6
176
     1
 90
        2
176
     1
 62
     7
176
     1
 90
        3
176
     1
 90
        0
176
     1
 90
        0
176
     1
290
     0
176
     1
 90
        1
176
     1
 40
0.0
176
     1
 90
        0
176
     1
290
     0
176
     1
290
     1
176
     1
290
     1
176
     1
290
     0
176
     1
290
     0
176
     1
290
     0
176
     1
290
     0
176
     1
290
     0
176
     1
290
     0
176
     1
 90
       50
176
     1
 40
0.0
176
     1
 40
1.0
176
     1
 90
        0
176
     1
 62
    18
420
        0
176
     1
 90
       50
176
     1
 90
        3
176
     1
 62
     5
420
      255
176
     1
290
     0
176
     1
 90
       50
176
     1
 90
       50
176
     1
 90
       50
176
     1
290
     0
176
     1
 90
       50
176
     1
 62
   256
176
     0
 40
1.0
176
     0
 90
        2
176
     1
  1
strokes_ogs.tif
176
     1
290
     0
176
     1
 40
1.0
176
     1
 40
1.0
176
     1
  0
VISUALSTYLE
  5
3F
102
{ACAD_REACTORS
330
2A
102
}
330
2A
100
AcDbVisualStyle
  2
Sketchy
 70
    24
177
     3
291
     0
 70
    58
 90
        1
176
     1
 90
        2
176
     1
 90
        2
176
     1
 90
        0
176
     1
 40
0.6
176
     1
 40
30.0
176
     1
 62
     7
420
 16777215
176
     1
 90
        2
176
     1
 90
        2
176
     1
 62
     7
176
     1
 62
     7
176
     1
 90
        1
176
     1
 90
        1
176
     1
 40
40.0
176
     1
 90
       11
176
     1
 62
     7
176
     1
 40
1.0
176
     1
 90
        1
176
     1
 90
        6
176
     1
 90
        2
176
     1
 62
     7
176
     1
 90
        6
176
     1
 90
        0
176
     1
 90
        0
176
     1
290
     0
176
     1
 90
        1
176
     1
 40
0.0
176
     1
 90
        0
176
     1
290
     0
176
     1
290
     1
176
     1
290
     1
176
     1
290
     0
176
     1
290
     0
176
     1
290
     0
176
     1
290
     0
176
     1
290
     0
176
     1
290
     0
176
     1
 90
       50
176
     1
 40
0.0
176
     1
 40
1.0
176
     1
 90
        0
176
     1
 62
    18
420
        0
176
     1
 90
       50
176
     1
 90
        3
176
     1
 62
     5
420
      255
176
     1
290
     0
176
     1
 90
       50
176
     1
 90
       50
176
     1
 90
       50
176
     1
290
     0
176
     1
 90
       50
176
     1
 62
   256
176
     0
 40
1.0
176
     0
 90
        2
176
     1
  1
strokes_ogs.tif
176
     1
290
     0
176
     1
 40
1.0
176
     1
 40
1.0
176
     1
  0
VISUALSTYLE
  5
37
102
{ACAD_REACTORS
330
2A
102
}
330
2A
100
AcDbVisualStyle
  2
Thicken
 70
    13
177
     3
291
     1
 70
    58
 90
        2
176
     1
 90
        2
176
     1
 90
        0
176
     1
 90
        0
176
     1
 40
0.6
176
     1
 40
30.0
176
     1
 62
     7
420
 16777215
176
     1
 90
        1
176
     1
 90
        4
176
     1
 62
     7
176
     1
 62
   257
176
     1
 90
        1
176
     1
 90
        1
176
     1
 40
1.0
176
     1
 90
       12
176
     1
 62
     7
176
     1
 40
1.0
176
     1
 90
        1
176
     1
 90
        6
176
     1
 90
        2
176
     1
 62
     7
176
     1
 90
        5
176
     1
 90
        0
176
     1
 90
        0
176
     1
290
     0
176
     1
 90
        1
176
     1
 40
0.0
176
     1
 90
        0
176
     1
290
     0
176
     1
290
     1
176
     1
290
     1
176
     1
290
     0
176
     1
290
     0
176
     1
290
     0
176
     1
290
     0
176
     1
290
     0
176
     1
290
     0
176
     1
 90
       50
176
     1
 40
0.0
176
     1
 40
1.0
176
     1
 90
        0
176
     1
 62
    18
420
        0
176
     1
 90
       50
176
     1
 90
        3
176
     1
 62
     5
420
      255
176
     1
290
     0
176
     1
 90
       50
176
     1
 90
       50
176
     1
 90
       50
176
     1
290
     0
176
     1
 90
       50
176
     1
 62
   256
176
     0
 40
1.0
176
     0
 90
        2
176
     1
  1
strokes_ogs.tif
176
     1
290
     0
176
     1
 40
1.0
176
     1
 40
1.0
176
     1
  0
VISUALSTYLE
  5
30
102
{ACAD_REACTORS
330
2A
102
}
330
2A
100
AcDbVisualStyle
  2
Wireframe
 70
     5
177
     3
291
     0
 70
    58
 90
        0
176
     1
 90
        2
176
     1
 90
        0
176
     1
 90
        0
176
     1
 40
0.6
176
     1
 40
30.0
176
     1
 62
     7
420
 16777215
176
     1
 90
        1
176
     1
 90
        4
176
     1
 62
     7
176
     1
 62
   257
176
     1
 90
        1
176
     1
 90
        1
176
     1
 40
1.0
176
     1
 90
        0
176
     1
 62
   257
176
     1
 40
1.0
176
     1
 90
        1
176
     1
 90
        6
176
     1
 90
        2
176
     1
 62
     7
176
     1
 90
        3
176
     1
 90
        0
176
     1
 90
        0
176
     1
290
     0
176
     1
 90
        1
176
     1
 40
0.0
176
     1
 90
        0
176
     1
290
     0
176
     1
290
     1
176
     1
290
     1
176
     1
290
     0
176
     1
290
     0
176
     1
290
     0
176
     1
290
     0
176
     1
290
     0
176
     1
290
     0
176
     1
 90
       50
176
     1
 40
0.0
176
     1
 40
1.0
176
     1
 90
        0
176
     1
 62
    18
420
        0
176
     1
 90
       50
176
     1
 90
        3
176
     1
 62
     5
420
      255
176
     1
290
     0
176
     1
 90
       50
176
     1
 90
       50
176
     1
 90
       50
176
     1
290
     0
176
     1
 90
       50
176
     1
 62
   256
176
     0
 40
1.0
176
     0
 90
        2
176
     1
  1
strokes_ogs.tif
176
     1
290
     0
176
     1
 40
1.0
176
     1
 40
1.0
176
     1
  0
VISUALSTYLE
  5
40
102
{ACAD_REACTORS
330
2A
102
}
330
2A
100
AcDbVisualStyle
  2
X-Ray
 70
    25
177
     3
291
     0
 70
    58
 90
        2
176
     1
 90
        2
176
     1
 90
        1
176
     1
 90
        1
176
     1
 40
0.5
176
     1
 40
30.0
176
     1
 62
     7
420
 16777215
176
     1
 90
        1
176
     1
 90
        0
176
     1
 62
     7
176
     1
 62
   257
176
     1
 90
        1
176
     1
 90
        1
176
     1
 40
1.0
176
     1
 90
        8
176
     1
 62
     7
176
     1
 40
1.0
176
     1
 90
        1
176
     1
 90
        6
176
     1
 90
        2
176
     1
 62
     7
176
     1
 90
        3
176
     1
 90
        0
176
     1
 90
        0
176
     1
290
     0
176
     1
 90
       13
176
     1
 40
0.0
176
     1
 90
        0
176
     1
290
     0
176
     1
290
     1
176
     1
290
     1
176
     1
290
     0
176
     1
290
     0
176
     1
290
     0
176
     1
290
     0
176
     1
290
     0
176
     1
290
     0
176
     1
 90
       50
176
     1
 40
0.0
176
     1
 40
1.0
176
     1
 90
        0
176
     1
 62
    18
420
        0
176
     1
 90
       50
176
     1
 90
        3
176
     1
 62
     5
420
      255
176
     1
290
     0
176
     1
 90
       50
176
     1
 90
       50
176
     1
 90
       50
176
     1
290
     0
176
     1
 90
       50
176
     1
 62
   256
176
     0
 40
1.0
176
     0
 90
        2
176
     1
  1
strokes_ogs.tif
176
     1
290
     0
176
     1
 40
1.0
176
     1
 40
1.0
176
     1
  0
DICTIONARYVAR
  5
1BF
102
{ACAD_REACTORS
330
1BE
102
}
330
1BE
100
DictionaryVariables
280
     0
  1
1:1
  0
DICTIONARYVAR
  5
1C4
102
{ACAD_REACTORS
330
1BE
102
}
330
1BE
100
DictionaryVariables
280
     0
  1
Standard
  0
DICTIONARYVAR
  5
1C3
102
{ACAD_REACTORS
330
1BE
102
}
330
1BE
100
DictionaryVariables
280
     0
  1
Standard
  0
DICTIONARY
  5
1C0
330
6A
100
AcDbDictionary
280
     1
281
     1
  3
ACAD_ROUNDTRIP_2008_TABLESTYLE_CELLSTYLEMAP
360
1C1
  0
CELLSTYLEMAP
  5
1C1
102
{ACAD_REACTORS
330
1C0
102
}
330
1C0
100
AcDbCellStyleMap
 90
        3
300
CELLSTYLE
  1
TABLEFORMAT_BEGIN
 90
        5
170
     1
 91
        0
 92
    32768
 62
   257
 93
        1
300
CONTENTFORMAT
  1
CONTENTFORMAT_BEGIN
 90
        0
 91
        0
 92
        4
 93
        0
300

 40
0.0
140
1.0
 94
        5
 62
     0
340
11
144
0.25
309
CONTENTFORMAT_END
171
     1
301
MARGIN
  1
CELLMARGIN_BEGIN
 40
0.06
 40
0.06
 40
0.06
 40
0.06
 40
0.06
 40
0.06
309
CELLMARGIN_END
 94
        6
 95
        1
302
GRIDFORMAT
  1
GRIDFORMAT_BEGIN
 90
        0
 91
        1
 62
     0
 92
       -2
340
14
 93
        0
 40
0.045
309
GRIDFORMAT_END
 95
        2
302
GRIDFORMAT
  1
GRIDFORMAT_BEGIN
 90
        0
 91
        1
 62
     0
 92
       -2
340
14
 93
        0
 40
0.045
309
GRIDFORMAT_END
 95
        4
302
GRIDFORMAT
  1
GRIDFORMAT_BEGIN
 90
        0
 91
        1
 62
     0
 92
       -2
340
14
 93
        0
 40
0.045
309
GRIDFORMAT_END
 95
        8
302
GRIDFORMAT
  1
GRIDFORMAT_BEGIN
 90
        0
 91
        1
 62
     0
 92
       -2
340
14
 93
        0
 40
0.045
309
GRIDFORMAT_END
 95
       16
302
GRIDFORMAT
  1
GRIDFORMAT_BEGIN
 90
        0
 91
        1
 62
     0
 92
       -2
340
14
 93
        0
 40
0.045
309
GRIDFORMAT_END
 95
       32
302
GRIDFORMAT
  1
GRIDFORMAT_BEGIN
 90
        0
 91
        1
 62
     0
 92
       -2
340
14
 93
        0
 40
0.045
309
GRIDFORMAT_END
309
TABLEFORMAT_END
  1
CELLSTYLE_BEGIN
 90
        1
 91
        1
300
_TITLE
309
CELLSTYLE_END
300
CELLSTYLE
  1
TABLEFORMAT_BEGIN
 90
        5
170
     1
 91
        0
 92
        0
 62
   257
 93
        1
300
CONTENTFORMAT
  1
CONTENTFORMAT_BEGIN
 90
        0
 91
        0
 92
        4
 93
        0
300

 40
0.0
140
1.0
 94
        5
 62
     0
340
11
144
0.18
309
CONTENTFORMAT_END
171
     1
301
MARGIN
  1
CELLMARGIN_BEGIN
 40
0.06
 40
0.06
 40
0.06
 40
0.06
 40
0.06
 40
0.06
309
CELLMARGIN_END
 94
        6
 95
        1
302
GRIDFORMAT
  1
GRIDFORMAT_BEGIN
 90
        0
 91
        1
 62
     0
 92
       -2
340
14
 93
        0
 40
0.045
309
GRIDFORMAT_END
 95
        2
302
GRIDFORMAT
  1
GRIDFORMAT_BEGIN
 90
        0
 91
        1
 62
     0
 92
       -2
340
14
 93
        0
 40
0.045
309
GRIDFORMAT_END
 95
        4
302
GRIDFORMAT
  1
GRIDFORMAT_BEGIN
 90
        0
 91
        1
 62
     0
 92
       -2
340
14
 93
        0
 40
0.045
309
GRIDFORMAT_END
 95
        8
302
GRIDFORMAT
  1
GRIDFORMAT_BEGIN
 90
        0
 91
        1
 62
     0
 92
       -2
340
14
 93
        0
 40
0.045
309
GRIDFORMAT_END
 95
       16
302
GRIDFORMAT
  1
GRIDFORMAT_BEGIN
 90
        0
 91
        1
 62
     0
 92
       -2
340
14
 93
        0
 40
0.045
309
GRIDFORMAT_END
 95
       32
302
GRIDFORMAT
  1
GRIDFORMAT_BEGIN
 90
        0
 91
        1
 62
     0
 92
       -2
340
14
 93
        0
 40
0.045
309
GRIDFORMAT_END
309
TABLEFORMAT_END
  1
CELLSTYLE_BEGIN
 90
        2
 91
        1
300
_HEADER
309
CELLSTYLE_END
300
CELLSTYLE
  1
TABLEFORMAT_BEGIN
 90
        5
170
     1
 91
        0
 92
        0
 62
   257
 93
        1
300
CONTENTFORMAT
  1
CONTENTFORMAT_BEGIN
 90
        0
 91
        0
 92
        4
 93
        0
300

 40
0.0
140
1.0
 94
        2
 62
     0
340
11
144
0.18
309
CONTENTFORMAT_END
171
     1
301
MARGIN
  1
CELLMARGIN_BEGIN
 40
0.06
 40
0.06
 40
0.06
 40
0.06
 40
0.06
 40
0.06
309
CELLMARGIN_END
 94
        6
 95
        1
302
GRIDFORMAT
  1
GRIDFORMAT_BEGIN
 90
        0
 91
        1
 62
     0
 92
       -2
340
14
 93
        0
 40
0.045
309
GRIDFORMAT_END
 95
        2
302
GRIDFORMAT
  1
GRIDFORMAT_BEGIN
 90
        0
 91
        1
 62
     0
 92
       -2
340
14
 93
        0
 40
0.045
309
GRIDFORMAT_END
 95
        4
302
GRIDFORMAT
  1
GRIDFORMAT_BEGIN
 90
        0
 91
        1
 62
     0
 92
       -2
340
14
 93
        0
 40
0.045
309
GRIDFORMAT_END
 95
        8
302
GRIDFORMAT
  1
GRIDFORMAT_BEGIN
 90
        0
 91
        1
 62
     0
 92
       -2
340
14
 93
        0
 40
0.045
309
GRIDFORMAT_END
 95
       16
302
GRIDFORMAT
  1
GRIDFORMAT_BEGIN
 90
        0
 91
        1
 62
     0
 92
       -2
340
14
 93
        0
 40
0.045
309
GRIDFORMAT_END
 95
       32
302
GRIDFORMAT
  1
GRIDFORMAT_BEGIN
 90
        0
 91
        1
 62
     0
 92
       -2
340
14
 93
        0
 40
0.045
309
GRIDFORMAT_END
309
TABLEFORMAT_END
  1
CELLSTYLE_BEGIN
 90
        3
 91
        2
300
_DATA
309
CELLSTYLE_END
  0
ENDSEC
  0
EOF