0
SECTION
  2
HEADER
  9
$ACADVER
  1
AC1027
  9
$ACADMAINTVER
 70
     8
  9
$DWGCODEPAGE
  3
ANSI_1252
  9
$REQUIREDVERSIONS
160
                 0
  9
$COMMENTS
  1
File was created by Cadenas
  9
$CUSTOMPROPERTYTAG
  1
NN
  9
$CUSTOMPROPERTY
  1
S-2000 Flange Bearing - Square with Type E Dimensions Trident Seal Non-Expansion
  9
$CUSTOMPROPERTYTAG
  1
NT
  9
$CUSTOMPROPERTY
  1
S-2000 - E Type - Inch
  9
$CUSTOMPROPERTYTAG
  1
NB
  9
$CUSTOMPROPERTY
  1
071479
  9
$CUSTOMPROPERTYTAG
  1
NBSYN
  9
$CUSTOMPROPERTY
  1
$PN.
  9
$CUSTOMPROPERTYTAG
  1
LINA
  9
$CUSTOMPROPERTY
  1
071479
  9
$CUSTOMPROPERTYTAG
  1
SS
  9
$CUSTOMPROPERTY
  1
3-7/16
  9
$CUSTOMPROPERTYTAG
  1
TYPE
  9
$CUSTOMPROPERTY
  1
Non-Expansion
  9
$CUSTOMPROPERTYTAG
  1
PN
  9
$CUSTOMPROPERTY
  1
071479
  9
$CUSTOMPROPERTYTAG
  1
DESCRIPTION
  9
$CUSTOMPROPERTY
  1
EF4B-S2-307R
  9
$CUSTOMPROPERTYTAG
  1
A
  9
$CUSTOMPROPERTY
  1
4.01
  9
$CUSTOMPROPERTYTAG
  1
B
  9
$CUSTOMPROPERTY
  1
9.25
  9
$CUSTOMPROPERTYTAG
  1
C
  9
$CUSTOMPROPERTY
  1
5.25
  9
$CUSTOMPROPERTYTAG
  1
D
  9
$CUSTOMPROPERTY
  1
7
  9
$CUSTOMPROPERTYTAG
  1
DD
  9
$CUSTOMPROPERTY
  1
9.899
  9
$CUSTOMPROPERTYTAG
  1
F
  9
$CUSTOMPROPERTY
  1
3/4
  9
$CUSTOMPROPERTYTAG
  1
G
  9
$CUSTOMPROPERTY
  1
0.96
  9
$CUSTOMPROPERTYTAG
  1
H
  9
$CUSTOMPROPERTY
  1
1.87
  9
$CUSTOMPROPERTYTAG
  1
J
  9
$CUSTOMPROPERTY
  1
7.44
  9
$CUSTOMPROPERTYTAG
  1
L
  9
$CUSTOMPROPERTY
  1
5.5
  9
$CUSTOMPROPERTYTAG
  1
N
  9
$CUSTOMPROPERTY
  1
4.15
  9
$CUSTOMPROPERTYTAG
  1
P
  9
$CUSTOMPROPERTY
  1
1.24
  9
$CUSTOMPROPERTYTAG
  1
X
  9
$CUSTOMPROPERTY
  1
0.25
  9
$CUSTOMPROPERTYTAG
  1
Y
  9
$CUSTOMPROPERTY
  1
0.025
  9
$CUSTOMPROPERTYTAG
  1
Z
  9
$CUSTOMPROPERTY
  1
4.05
  9
$CUSTOMPROPERTYTAG
  1
CS
  9
$CUSTOMPROPERTY
  1
1/2-13
  9
$CUSTOMPROPERTYTAG
  1
TORQUE
  9
$CUSTOMPROPERTY
  1
620
  9
$CUSTOMPROPERTYTAG
  1
COMPANY
  9
$CUSTOMPROPERTY
  1
baldor
  9
$INSBASE
 10
0.0
 20
0.0
 30
0.0
  9
$EXTMIN
 10
1.000000000000000E+20
 20
1.000000000000000E+20
 30
1.000000000000000E+20
  9
$EXTMAX
 10
-1.000000000000000E+20
 20
-1.000000000000000E+20
 30
-1.000000000000000E+20
  9
$LIMMIN
 10
0.0
 20
0.0
  9
$LIMMAX
 10
12.0
 20
9.0
  9
$ORTHOMODE
 70
     0
  9
$REGENMODE
 70
     1
  9
$FILLMODE
 70
     1
  9
$QTEXTMODE
 70
     0
  9
$MIRRTEXT
 70
     1
  9
$LTSCALE
 40
1.0
  9
$ATTMODE
 70
     1
  9
$TEXTSIZE
 40
0.2
  9
$TRACEWID
 40
0.05
  9
$TEXTSTYLE
  7
Standard
  9
$CLAYER
  8
0
  9
$CELTYPE
  6
ByLayer
  9
$CECOLOR
 62
   256
  9
$CELTSCALE
 40
1.0
  9
$DISPSILH
 70
     0
  9
$DIMSCALE
 40
1.0
  9
$DIMASZ
 40
0.18
  9
$DIMEXO
 40
0.0625
  9
$DIMDLI
 40
0.38
  9
$DIMRND
 40
0.0
  9
$DIMDLE
 40
0.0
  9
$DIMEXE
 40
0.18
  9
$DIMTP
 40
0.0
  9
$DIMTM
 40
0.0
  9
$DIMTXT
 40
0.18
  9
$DIMCEN
 40
0.09
  9
$DIMTSZ
 40
0.0
  9
$DIMTOL
 70
     0
  9
$DIMLIM
 70
     0
  9
$DIMTIH
 70
     1
  9
$DIMTOH
 70
     1
  9
$DIMSE1
 70
     0
  9
$DIMSE2
 70
     0
  9
$DIMTAD
 70
     0
  9
$DIMZIN
 70
     0
  9
$DIMBLK
  1

  9
$DIMASO
 70
     1
  9
$DIMSHO
 70
     1
  9
$DIMPOST
  1

  9
$DIMAPOST
  1

  9
$DIMALT
 70
     0
  9
$DIMALTD
 70
     2
  9
$DIMALTF
 40
25.4
  9
$DIMLFAC
 40
1.0
  9
$DIMTOFL
 70
     0
  9
$DIMTVP
 40
0.0
  9
$DIMTIX
 70
     0
  9
$DIMSOXD
 70
     0
  9
$DIMSAH
 70
     0
  9
$DIMBLK1
  1

  9
$DIMBLK2
  1

  9
$DIMSTYLE
  2
Standard
  9
$DIMCLRD
 70
     0
  9
$DIMCLRE
 70
     0
  9
$DIMCLRT
 70
     0
  9
$DIMTFAC
 40
1.0
  9
$DIMGAP
 40
0.09
  9
$DIMJUST
 70
     0
  9
$DIMSD1
 70
     0
  9
$DIMSD2
 70
     0
  9
$DIMTOLJ
 70
     1
  9
$DIMTZIN
 70
     0
  9
$DIMALTZ
 70
     0
  9
$DIMALTTZ
 70
     0
  9
$DIMUPT
 70
     0
  9
$DIMDEC
 70
     4
  9
$DIMTDEC
 70
     4
  9
$DIMALTU
 70
     2
  9
$DIMALTTD
 70
     2
  9
$DIMTXSTY
  7
Standard
  9
$DIMAUNIT
 70
     0
  9
$DIMADEC
 70
     0
  9
$DIMALTRND
 40
0.0
  9
$DIMAZIN
 70
     0
  9
$DIMDSEP
 70
    46
  9
$DIMATFIT
 70
     3
  9
$DIMFRAC
 70
     0
  9
$DIMLDRBLK
  1

  9
$DIMLUNIT
 70
     2
  9
$DIMLWD
 70
    -2
  9
$DIMLWE
 70
    -2
  9
$DIMTMOVE
 70
     0
  9
$DIMFXL
 40
1.0
  9
$DIMFXLON
 70
     0
  9
$DIMJOGANG
 40
0.7853981633974483
  9
$DIMTFILL
 70
     0
  9
$DIMTFILLCLR
 70
     0
  9
$DIMARCSYM
 70
     0
  9
$DIMLTYPE
  6

  9
$DIMLTEX1
  6

  9
$DIMLTEX2
  6

  9
$DIMTXTDIRECTION
 70
     0
  9
$LUNITS
 70
     2
  9
$LUPREC
 70
     4
  9
$SKETCHINC
 40
0.1
  9
$FILLETRAD
 40
0.5
  9
$AUNITS
 70
     0
  9
$AUPREC
 70
     0
  9
$MENU
  1
.
  9
$ELEVATION
 40
0.0
  9
$PELEVATION
 40
0.0
  9
$THICKNESS
 40
0.0
  9
$LIMCHECK
 70
     0
  9
$CHAMFERA
 40
0.0
  9
$CHAMFERB
 40
0.0
  9
$CHAMFERC
 40
0.0
  9
$CHAMFERD
 40
0.0
  9
$SKPOLY
 70
     0
  9
$TDCREATE
 40
2458168.981789988
  9
$TDUCREATE
 40
2458168.940123322
  9
$TDUPDATE
 40
2458168.981789988
  9
$TDUUPDATE
 40
2458168.940123322
  9
$TDINDWG
 40
0.0000000116
  9
$TDUSRTIMER
 40
0.0000000116
  9
$USRTIMER
 70
     1
  9
$ANGBASE
 50
0.0
  9
$ANGDIR
 70
     0
  9
$PDMODE
 70
     0
  9
$PDSIZE
 40
0.0
  9
$PLINEWID
 40
0.0
  9
$SPLFRAME
 70
     0
  9
$SPLINETYPE
 70
     6
  9
$SPLINESEGS
 70
     8
  9
$HANDSEED
  5
1FD
  9
$SURFTAB1
 70
     6
  9
$SURFTAB2
 70
     6
  9
$SURFTYPE
 70
     6
  9
$SURFU
 70
     6
  9
$SURFV
 70
     6
  9
$UCSBASE
  2

  9
$UCSNAME
  2

  9
$UCSORG
 10
0.0
 20
0.0
 30
0.0
  9
$UCSXDIR
 10
1.0
 20
0.0
 30
0.0
  9
$UCSYDIR
 10
0.0
 20
1.0
 30
0.0
  9
$UCSORTHOREF
  2

  9
$UCSORTHOVIEW
 70
     0
  9
$UCSORGTOP
 10
0.0
 20
0.0
 30
0.0
  9
$UCSORGBOTTOM
 10
0.0
 20
0.0
 30
0.0
  9
$UCSORGLEFT
 10
0.0
 20
0.0
 30
0.0
  9
$UCSORGRIGHT
 10
0.0
 20
0.0
 30
0.0
  9
$UCSORGFRONT
 10
0.0
 20
0.0
 30
0.0
  9
$UCSORGBACK
 10
0.0
 20
0.0
 30
0.0
  9
$PUCSBASE
  2

  9
$PUCSNAME
  2

  9
$PUCSORG
 10
0.0
 20
0.0
 30
0.0
  9
$PUCSXDIR
 10
1.0
 20
0.0
 30
0.0
  9
$PUCSYDIR
 10
0.0
 20
1.0
 30
0.0
  9
$PUCSORTHOREF
  2

  9
$PUCSORTHOVIEW
 70
     0
  9
$PUCSORGTOP
 10
0.0
 20
0.0
 30
0.0
  9
$PUCSORGBOTTOM
 10
0.0
 20
0.0
 30
0.0
  9
$PUCSORGLEFT
 10
0.0
 20
0.0
 30
0.0
  9
$PUCSORGRIGHT
 10
0.0
 20
0.0
 30
0.0
  9
$PUCSORGFRONT
 10
0.0
 20
0.0
 30
0.0
  9
$PUCSORGBACK
 10
0.0
 20
0.0
 30
0.0
  9
$USERI1
 70
     0
  9
$USERI2
 70
     0
  9
$USERI3
 70
     0
  9
$USERI4
 70
     0
  9
$USERI5
 70
     0
  9
$USERR1
 40
0.0
  9
$USERR2
 40
0.0
  9
$USERR3
 40
0.0
  9
$USERR4
 40
0.0
  9
$USERR5
 40
0.0
  9
$WORLDVIEW
 70
     1
  9
$SHADEDGE
 70
     3
  9
$SHADEDIF
 70
    70
  9
$TILEMODE
 70
     1
  9
$MAXACTVP
 70
    64
  9
$PINSBASE
 10
0.0
 20
0.0
 30
0.0
  9
$PLIMCHECK
 70
     0
  9
$PEXTMIN
 10
1.000000000000000E+20
 20
1.000000000000000E+20
 30
1.000000000000000E+20
  9
$PEXTMAX
 10
-1.000000000000000E+20
 20
-1.000000000000000E+20
 30
-1.000000000000000E+20
  9
$PLIMMIN
 10
0.0
 20
0.0
  9
$PLIMMAX
 10
12.0
 20
9.0
  9
$UNITMODE
 70
     0
  9
$VISRETAIN
 70
     1
  9
$PLINEGEN
 70
     0
  9
$PSLTSCALE
 70
     1
  9
$TREEDEPTH
 70
  3020
  9
$CMLSTYLE
  2
Standard
  9
$CMLJUST
 70
     0
  9
$CMLSCALE
 40
1.0
  9
$PROXYGRAPHICS
 70
     1
  9
$MEASUREMENT
 70
     0
  9
$CELWEIGHT
370
    -1
  9
$ENDCAPS
280
     0
  9
$JOINSTYLE
280
     0
  9
$LWDISPLAY
290
     0
  9
$INSUNITS
 70
     1
  9
$HYPERLINKBASE
  1

  9
$STYLESHEET
  1

  9
$XEDIT
290
     1
  9
$CEPSNTYPE
380
     0
  9
$PSTYLEMODE
290
     1
  9
$FINGERPRINTGUID
  2
{E420DA44-40F6-443B-849A-28D70253C357}
  9
$VERSIONGUID
  2
{FAEB1C32-E019-11D5-929B-00C0DF256EC4}
  9
$EXTNAMES
290
     1
  9
$PSVPSCALE
 40
0.0
  9
$OLESTARTUP
290
     0
  9
$SORTENTS
280
   127
  9
$INDEXCTL
280
     0
  9
$HIDETEXT
280
     1
  9
$XCLIPFRAME
280
     2
  9
$HALOGAP
280
     0
  9
$OBSCOLOR
 70
   257
  9
$OBSLTYPE
280
     0
  9
$INTERSECTIONDISPLAY
280
     0
  9
$INTERSECTIONCOLOR
 70
   257
  9
$DIMASSOC
280
     2
  9
$PROJECTNAME
  1

  9
$CAMERADISPLAY
290
     0
  9
$LENSLENGTH
 40
50.0
  9
$CAMERAHEIGHT
 40
0.0
  9
$STEPSPERSEC
 40
2.0
  9
$STEPSIZE
 40
6.0
  9
$3DDWFPREC
 40
2.0
  9
$PSOLWIDTH
 40
0.25
  9
$PSOLHEIGHT
 40
4.0
  9
$LOFTANG1
 40
1.570796326794897
  9
$LOFTANG2
 40
1.570796326794897
  9
$LOFTMAG1
 40
0.0
  9
$LOFTMAG2
 40
0.0
  9
$LOFTPARAM
 70
     7
  9
$LOFTNORMALS
280
     1
  9
$LATITUDE
 40
37.795
  9
$LONGITUDE
 40
-122.394
  9
$NORTHDIRECTION
 40
0.0
  9
$TIMEZONE
 70
 -8000
  9
$LIGHTGLYPHDISPLAY
280
     1
  9
$TILEMODELIGHTSYNCH
280
     1
  9
$CMATERIAL
347
44
  9
$SOLIDHIST
280
     0
  9
$SHOWHIST
280
     1
  9
$DWFFRAME
280
     2
  9
$DGNFRAME
280
     2
  9
$REALWORLDSCALE
290
     1
  9
$INTERFERECOLOR
 62
   256
  9
$CSHADOW
280
     0
  9
$SHADOWPLANELOCATION
 40
0.0
  0
ENDSEC
  0
SECTION
  2
CLASSES
  0
CLASS
  1
ACDBDICTIONARYWDFLT
  2
AcDbDictionaryWithDefault
  3
ObjectDBX Classes
 90
        0
 91
        4
280
     0
281
     0
  0
CLASS
  1
VISUALSTYLE
  2
AcDbVisualStyle
  3
ObjectDBX Classes
 90
     4095
 91
        4
280
     0
281
     0
  0
CLASS
  1
MATERIAL
  2
AcDbMaterial
  3
ObjectDBX Classes
 90
     1153
 91
        4
280
     0
281
     0
  0
CLASS
  1
SCALE
  2
AcDbScale
  3
ObjectDBX Classes
 90
     1153
 91
        4
280
     0
281
     0
  0
CLASS
  1
TABLESTYLE
  2
AcDbTableStyle
  3
ObjectDBX Classes
 90
     4095
 91
        4
280
     0
281
     0
  0
CLASS
  1
MLEADERSTYLE
  2
AcDbMLeaderStyle
  3
ACDB_MLEADERSTYLE_CLASS
 90
     4095
 91
        4
280
     0
281
     0
  0
CLASS
  1
SUN
  2
AcDbSun
  3
SCENEOE
 90
     1153
 91
        4
280
     0
281
     0
  0
CLASS
  1
DICTIONARYVAR
  2
AcDbDictionaryVar
  3
ObjectDBX Classes
 90
        0
 91
        4
280
     0
281
     0
  0
CLASS
  1
CELLSTYLEMAP
  2
AcDbCellStyleMap
  3
ObjectDBX Classes
 90
     1152
 91
        4
280
     0
281
     0
  0
ENDSEC
  0
SECTION
  2
TABLES
  0
TABLE
  2
VPORT
  5
8
330
0
100
AcDbSymbolTable
 70
     1
  0
VPORT
  5
29
330
8
100
AcDbSymbolTableRecord
100
AcDbViewportTableRecord
  2
*Active
 70
     0
 10
0.0
 20
0.0
 11
1.0
 21
1.0
 12
-2.617750000000001
 22
0.0
 13
0.0
 23
0.0
 14
0.5
 24
0.5
 15
0.5
 25
0.5
 16
0.0
 26
0.0
 36
1.0
 17
0.0
 27
0.0
 37
0.0
 40
9.435
 41
0.612378378378378
 42
50.0
 43
0.0
 44
0.0
 50
0.0
 51
0.0
 71
     0
 72
   100
 73
     1
 74
     3
 75
     0
 76
     0
 77
     0
 78
     0
281
     0
 65
     1
110
0.0
120
0.0
130
0.0
111
1.0
121
0.0
131
0.0
112
0.0
122
1.0
132
0.0
 79
     0
146
0.0
348
2F
 60
     3
 61
     5
292
     1
282
     1
141
0.0
142
0.0
 63
   250
361
6D
  0
ENDTAB
  0
TABLE
  2
LTYPE
  5
5
330
0
100
AcDbSymbolTable
 70
     3
  0
LTYPE
  5
14
330
5
100
AcDbSymbolTableRecord
100
AcDbLinetypeTableRecord
  2
ByBlock
 70
     0
  3

 72
    65
 73
     0
 40
0.0
  0
LTYPE
  5
15
330
5
100
AcDbSymbolTableRecord
100
AcDbLinetypeTableRecord
  2
ByLayer
 70
     0
  3

 72
    65
 73
     0
 40
0.0
  0
LTYPE
  5
16
330
5
100
AcDbSymbolTableRecord
100
AcDbLinetypeTableRecord
  2
Continuous
 70
     0
  3
Solid line
 72
    65
 73
     0
 40
0.0
  0
LTYPE
  5
A7
330
5
100
AcDbSymbolTableRecord
100
AcDbLinetypeTableRecord
  2
Dashed
 70
     0
  3

 72
    65
 73
     2
 40
2.0
 49
1.0
 74
     0
 49
-1.0
 74
     0
  0
LTYPE
  5
139
330
5
100
AcDbSymbolTableRecord
100
AcDbLinetypeTableRecord
  2
Center
 70
     0
  3

 72
    65
 73
     4
 40
1.5
 49
0.45
 74
     0
 49
-0.5
 74
     0
 49
0.05
 74
     0
 49
-0.5
 74
     0
  0
ENDTAB
  0
TABLE
  2
LAYER
  5
2
330
0
100
AcDbSymbolTable
 70
     7
  0
LAYER
  5
10
330
2
100
AcDbSymbolTableRecord
100
AcDbLayerTableRecord
  2
0
 70
     0
 62
     7
  6
Continuous
370
    -3
390
F
347
46
348
0
  0
LAYER
  5
72
330
2
100
AcDbSymbolTableRecord
100
AcDbLayerTableRecord
  2
AM_6
 70
     0
 62
    -2
  6
Continuous
370
    35
390
F
347
46
348
0
  0
LAYER
  5
A8
330
2
100
AcDbSymbolTableRecord
100
AcDbLayerTableRecord
  2
AM_9
 70
     0
 62
     6
  6
Dashed
370
    25
390
F
347
46
348
0
  0
LAYER
  5
BC
330
2
100
AcDbSymbolTableRecord
100
AcDbLayerTableRecord
  2
AM_5
 70
     0
 62
     3
  6
Continuous
370
    25
390
F
347
46
348
0
  0
LAYER
  5
C1
330
2
100
AcDbSymbolTableRecord
100
AcDbLayerTableRecord
  2
AM_4
 70
     0
 62
     7
  6
Continuous
370
    50
390
F
347
46
348
0
  0
LAYER
  5
13A
330
2
100
AcDbSymbolTableRecord
100
AcDbLayerTableRecord
  2
AM_7
 70
     0
 62
     7
  6
Center
370
    25
390
F
347
46
348
0
  0
LAYER
  5
1EC
330
2
100
AcDbSymbolTableRecord
100
AcDbLayerTableRecord
  2
ConnectionPoints
 70
     0
 62
     7
  6
Continuous
370
    50
390
F
347
46
348
0
  0
ENDTAB
  0
TABLE
  2
STYLE
  5
3
330
0
100
AcDbSymbolTable
 70
     1
  0
STYLE
  5
11
330
3
100
AcDbSymbolTableRecord
100
AcDbTextStyleTableRecord
  2
Standard
 70
     0
 40
0.0
 41
1.0
 50
0.0
 71
     0
 42
0.2
  3
txt
  4

  0
ENDTAB
  0
TABLE
  2
VIEW
  5
6
330
0
100
AcDbSymbolTable
 70
     0
  0
ENDTAB
  0
TABLE
  2
UCS
  5
7
330
0
100
AcDbSymbolTable
 70
     0
  0
ENDTAB
  0
TABLE
  2
APPID
  5
9
330
0
100
AcDbSymbolTable
 70
     1
  0
APPID
  5
12
330
9
100
AcDbSymbolTableRecord
100
AcDbRegAppTableRecord
  2
ACAD
 70
     0
  0
ENDTAB
  0
TABLE
  2
DIMSTYLE
  5
A
330
0
100
AcDbSymbolTable
 70
     1
100
AcDbDimStyleTable
  0
DIMSTYLE
105
27
330
A
100
AcDbSymbolTableRecord
100
AcDbDimStyleTableRecord
  2
Standard
 70
     0
178
     0
340
11
  0
ENDTAB
  0
TABLE
  2
BLOCK_RECORD
  5
1
330
0
100
AcDbSymbolTable
 70
     6
  0
BLOCK_RECORD
  5
1F
330
1
100
AcDbSymbolTableRecord
100
AcDbBlockTableRecord
  2
*Model_Space
340
22
 70
     0
280
     1
281
     0
  0
BLOCK_RECORD
  5
1B
330
1
100
AcDbSymbolTableRecord
100
AcDbBlockTableRecord
  2
*Paper_Space
340
1E
 70
     0
280
     1
281
     0
  0
BLOCK_RECORD
  5
23
330
1
100
AcDbSymbolTableRecord
100
AcDbBlockTableRecord
  2
*Paper_Space0
340
26
 70
     0
280
     1
281
     0
  0
BLOCK_RECORD
  5
6E
330
1
100
AcDbSymbolTableRecord
100
AcDbBlockTableRecord
  2
1_071479_2
340
0
102
{BLKREFS
331
6F
102
}
 70
     0
280
     1
281
     0
  0
BLOCK_RECORD
  5
8E
330
1
100
AcDbSymbolTableRecord
100
AcDbBlockTableRecord
  2
2_3_7_16CS2i_0_in_071479_2
340
0
102
{BLKREFS
331
8F
102
}
 70
     0
280
     1
281
     0
  0
BLOCK_RECORD
  5
DD
330
1
100
AcDbSymbolTableRecord
100
AcDbBlockTableRecord
  2
3_070012i_0_in_071479_2
340
0
102
{BLKREFS
331
DE
102
}
 70
     0
280
     1
281
     0
  0
BLOCK_RECORD
  5
13E
330
1
100
AcDbSymbolTableRecord
100
AcDbBlockTableRecord
  2
4_405015E_Inch_0_in_071479_2
340
0
102
{BLKREFS
331
13F
102
}
 70
     0
280
     1
281
     0
  0
BLOCK_RECORD
  5
17C
330
1
100
AcDbSymbolTableRecord
100
AcDbBlockTableRecord
  2
5_B071479_0_in_071479_2
340
0
102
{BLKREFS
331
17D
102
}
 70
     0
280
     1
281
     0
  0
ENDTAB
  0
ENDSEC
  0
SECTION
  2
BLOCKS
  0
BLOCK
  5
20
330
1F
100
AcDbEntity
  8
0
100
AcDbBlockBegin
  2
*Model_Space
 70
     0
 10
0.0
 20
0.0
 30
0.0
  3
*Model_Space
  1

  0
ENDBLK
  5
21
330
1F
100
AcDbEntity
  8
0
100
AcDbBlockEnd
  0
BLOCK
  5
1C
330
1B
100
AcDbEntity
 67
     1
  8
0
100
AcDbBlockBegin
  2
*Paper_Space
 70
     0
 10
0.0
 20
0.0
 30
0.0
  3
*Paper_Space
  1

  0
ENDBLK
  5
1D
330
1B
100
AcDbEntity
 67
     1
  8
0
100
AcDbBlockEnd
  0
BLOCK
  5
24
330
23
100
AcDbEntity
  8
0
100
AcDbBlockBegin
  2
*Paper_Space0
 70
     0
 10
0.0
 20
0.0
 30
0.0
  3
*Paper_Space0
  1

  0
ENDBLK
  5
25
330
23
100
AcDbEntity
  8
0
100
AcDbBlockEnd
  0
BLOCK
  5
70
330
6E
100
AcDbEntity
  8
0
100
AcDbBlockBegin
  2
1_071479_2
 70
     2
 10
0.0
 20
0.0
 30
0.0
  3
1_071479_2
  1

  0
ATTDEF
  5
73
330
6E
100
AcDbEntity
  8
AM_6
100
AcDbText
 10
5.2145
 20
4.625
 30
0.0
 40
0.5
  1
S-2000 Flange Bearing - Square with Type E Dimensions Trident Seal Non-Expansion
100
AcDbAttributeDefinition
  3

  2
NN
 70
     8
280
     0
  0
ATTDEF
  5
74
330
6E
100
AcDbEntity
  8
AM_6
100
AcDbText
 10
5.2145
 20
4.125
 30
0.0
 40
0.5
  1
S-2000 - E Type - Inch
100
AcDbAttributeDefinition
  3

  2
NT
 70
     8
280
     0
  0
ATTDEF
  5
75
330
6E
100
AcDbEntity
  8
AM_6
100
AcDbText
 10
5.2145
 20
3.625
 30
0.0
 40
0.5
  1
071479
100
AcDbAttributeDefinition
  3

  2
NB
 70
     8
280
     0
  0
ATTDEF
  5
76
330
6E
100
AcDbEntity
  8
AM_6
100
AcDbText
 10
5.2145
 20
3.125
 30
0.0
 40
0.5
  1
$PN.
100
AcDbAttributeDefinition
  3

  2
NBSYN
 70
     8
280
     0
  0
ATTDEF
  5
77
330
6E
100
AcDbEntity
  8
AM_6
100
AcDbText
 10
5.2145
 20
2.625
 30
0.0
 40
0.5
  1
071479
100
AcDbAttributeDefinition
  3

  2
LINA
 70
     8
280
     0
  0
ATTDEF
  5
78
330
6E
100
AcDbEntity
  8
AM_6
100
AcDbText
 10
5.2145
 20
2.125
 30
0.0
 40
0.5
  1
3-7/16
100
AcDbAttributeDefinition
  3

  2
SS
 70
     8
280
     0
  0
ATTDEF
  5
79
330
6E
100
AcDbEntity
  8
AM_6
100
AcDbText
 10
5.2145
 20
1.625
 30
0.0
 40
0.5
  1
Non-Expansion
100
AcDbAttributeDefinition
  3

  2
TYPE
 70
     8
280
     0
  0
ATTDEF
  5
7A
330
6E
100
AcDbEntity
  8
AM_6
100
AcDbText
 10
5.2145
 20
1.125
 30
0.0
 40
0.5
  1
071479
100
AcDbAttributeDefinition
  3

  2
PN
 70
     8
280
     0
  0
ATTDEF
  5
7B
330
6E
100
AcDbEntity
  8
AM_6
100
AcDbText
 10
5.2145
 20
0.625
 30
0.0
 40
0.5
  1
EF4B-S2-307R
100
AcDbAttributeDefinition
  3

  2
DESCRIPTION
 70
     8
280
     0
  0
ATTDEF
  5
7C
330
6E
100
AcDbEntity
  8
AM_6
100
AcDbText
 10
5.2145
 20
0.125
 30
0.0
 40
0.5
  1
4.01
100
AcDbAttributeDefinition
  3

  2
A
 70
     8
280
     0
  0
ATTDEF
  5
7D
330
6E
100
AcDbEntity
  8
AM_6
100
AcDbText
 10
5.2145
 20
-0.375
 30
0.0
 40
0.5
  1
9.25
100
AcDbAttributeDefinition
  3

  2
B
 70
     8
280
     0
  0
ATTDEF
  5
7E
330
6E
100
AcDbEntity
  8
AM_6
100
AcDbText
 10
5.2145
 20
-0.875
 30
0.0
 40
0.5
  1
5.25
100
AcDbAttributeDefinition
  3

  2
C
 70
     8
280
     0
  0
ATTDEF
  5
7F
330
6E
100
AcDbEntity
  8
AM_6
100
AcDbText
 10
5.2145
 20
-1.375
 30
0.0
 40
0.5
  1
7
100
AcDbAttributeDefinition
  3

  2
D
 70
     8
280
     0
  0
ATTDEF
  5
80
330
6E
100
AcDbEntity
  8
AM_6
100
AcDbText
 10
5.2145
 20
-1.875
 30
0.0
 40
0.5
  1
9.899
100
AcDbAttributeDefinition
  3

  2
DD
 70
     8
280
     0
  0
ATTDEF
  5
81
330
6E
100
AcDbEntity
  8
AM_6
100
AcDbText
 10
5.2145
 20
-2.375
 30
0.0
 40
0.5
  1
3/4
100
AcDbAttributeDefinition
  3

  2
F
 70
     8
280
     0
  0
ATTDEF
  5
82
330
6E
100
AcDbEntity
  8
AM_6
100
AcDbText
 10
5.2145
 20
-2.875
 30
0.0
 40
0.5
  1
0.96
100
AcDbAttributeDefinition
  3

  2
G
 70
     8
280
     0
  0
ATTDEF
  5
83
330
6E
100
AcDbEntity
  8
AM_6
100
AcDbText
 10
5.2145
 20
-3.375
 30
0.0
 40
0.5
  1
1.87
100
AcDbAttributeDefinition
  3

  2
H
 70
     8
280
     0
  0
ATTDEF
  5
84
330
6E
100
AcDbEntity
  8
AM_6
100
AcDbText
 10
5.2145
 20
-3.875
 30
0.0
 40
0.5
  1
7.44
100
AcDbAttributeDefinition
  3

  2
J
 70
     8
280
     0
  0
ATTDEF
  5
85
330
6E
100
AcDbEntity
  8
AM_6
100
AcDbText
 10
5.2145
 20
-4.375
 30
0.0
 40
0.5
  1
5.5
100
AcDbAttributeDefinition
  3

  2
L
 70
     8
280
     0
  0
ATTDEF
  5
86
330
6E
100
AcDbEntity
  8
AM_6
100
AcDbText
 10
5.2145
 20
-4.875
 30
0.0
 40
0.5
  1
4.15
100
AcDbAttributeDefinition
  3

  2
N
 70
     8
280
     0
  0
ATTDEF
  5
87
330
6E
100
AcDbEntity
  8
AM_6
100
AcDbText
 10
5.2145
 20
-5.375
 30
0.0
 40
0.5
  1
1.24
100
AcDbAttributeDefinition
  3

  2
P
 70
     8
280
     0
  0
ATTDEF
  5
88
330
6E
100
AcDbEntity
  8
AM_6
100
AcDbText
 10
5.2145
 20
-5.875
 30
0.0
 40
0.5
  1
0.25
100
AcDbAttributeDefinition
  3

  2
X
 70
     8
280
     0
  0
ATTDEF
  5
89
330
6E
100
AcDbEntity
  8
AM_6
100
AcDbText
 10
5.2145
 20
-6.375
 30
0.0
 40
0.5
  1
0.025
100
AcDbAttributeDefinition
  3

  2
Y
 70
     8
280
     0
  0
ATTDEF
  5
8A
330
6E
100
AcDbEntity
  8
AM_6
100
AcDbText
 10
5.2145
 20
-6.875
 30
0.0
 40
0.5
  1
4.05
100
AcDbAttributeDefinition
  3

  2
Z
 70
     8
280
     0
  0
ATTDEF
  5
8B
330
6E
100
AcDbEntity
  8
AM_6
100
AcDbText
 10
5.2145
 20
-7.375
 30
0.0
 40
0.5
  1
1/2-13
100
AcDbAttributeDefinition
  3

  2
CS
 70
     8
280
     0
  0
ATTDEF
  5
8C
330
6E
100
AcDbEntity
  8
AM_6
100
AcDbText
 10
5.2145
 20
-7.875
 30
0.0
 40
0.5
  1
620
100
AcDbAttributeDefinition
  3

  2
TORQUE
 70
     8
280
     0
  0
ATTDEF
  5
8D
330
6E
100
AcDbEntity
  8
AM_6
100
AcDbText
 10
5.2145
 20
-8.375
 30
0.0
 40
0.5
  1
baldor
100
AcDbAttributeDefinition
  3

  2
COMPANY
 70
     8
280
     0
  0
INSERT
  5
8F
330
6E
100
AcDbEntity
  8
0
100
AcDbBlockReference
  2
2_3_7_16CS2i_0_in_071479_2
 10
0.0
 20
0.0
 30
0.0
  0
INSERT
  5
DE
330
6E
100
AcDbEntity
  8
0
100
AcDbBlockReference
  2
3_070012i_0_in_071479_2
 10
0.0
 20
0.0
 30
0.0
  0
INSERT
  5
13F
330
6E
100
AcDbEntity
  8
0
100
AcDbBlockReference
  2
4_405015E_Inch_0_in_071479_2
 10
0.0
 20
0.0
 30
0.0
  0
INSERT
  5
17D
330
6E
100
AcDbEntity
  8
0
100
AcDbBlockReference
  2
5_B071479_0_in_071479_2
 10
0.0
 20
0.0
 30
0.0
  0
ENDBLK
  5
71
330
6E
100
AcDbEntity
  8
0
100
AcDbBlockEnd
  0
BLOCK
  5
90
330
8E
100
AcDbEntity
  8
0
100
AcDbBlockBegin
  2
2_3_7_16CS2i_0_in_071479_2
 70
     2
 10
0.0
 20
0.0
 30
0.0
  3
2_3_7_16CS2i_0_in_071479_2
  1

  0
ATTDEF
  5
92
330
8E
100
AcDbEntity
  8
AM_6
100
AcDbText
 10
0.6340000000000003
 20
2.75
 30
0.0
 40
0.5
  1
S-2000 Collar -Inch
100
AcDbAttributeDefinition
  3

  2
NN
 70
     8
280
     0
  0
ATTDEF
  5
93
330
8E
100
AcDbEntity
  8
AM_6
100
AcDbText
 10
0.6340000000000003
 20
2.25
 30
0.0
 40
0.5
  1
S-2000 Bearings
100
AcDbAttributeDefinition
  3

  2
NT
 70
     8
280
     0
  0
ATTDEF
  5
94
330
8E
100
AcDbEntity
  8
AM_6
100
AcDbText
 10
0.6340000000000003
 20
1.75
 30
0.0
 40
0.5
  1
3-7/16CS2i
100
AcDbAttributeDefinition
  3

  2
NB
 70
     8
280
     0
  0
ATTDEF
  5
95
330
8E
100
AcDbEntity
  8
AM_6
100
AcDbText
 10
0.6340000000000003
 20
1.25
 30
0.0
 40
0.5
  1
$BORE.CS2i
100
AcDbAttributeDefinition
  3

  2
NBSYN
 70
     8
280
     0
  0
ATTDEF
  5
96
330
8E
100
AcDbEntity
  8
AM_6
100
AcDbText
 10
0.6340000000000003
 20
0.75
 30
0.0
 40
0.5
  1
3-7/16CS2i
100
AcDbAttributeDefinition
  3

  2
LINA
 70
     8
280
     0
  0
ATTDEF
  5
97
330
8E
100
AcDbEntity
  8
AM_6
100
AcDbText
 10
0.6340000000000003
 20
0.25
 30
0.0
 40
0.5
  1
3-7/16
100
AcDbAttributeDefinition
  3

  2
BORE
 70
     8
280
     0
  0
ATTDEF
  5
98
330
8E
100
AcDbEntity
  8
AM_6
100
AcDbText
 10
0.6340000000000003
 20
-0.25
 30
0.0
 40
0.5
  1
3.437500
100
AcDbAttributeDefinition
  3

  2
BORE1
 70
     8
280
     0
  0
ATTDEF
  5
99
330
8E
100
AcDbEntity
  8
AM_6
100
AcDbText
 10
0.6340000000000003
 20
-0.75
 30
0.0
 40
0.5
  1
5-1/2
100
AcDbAttributeDefinition
  3

  2
L1
 70
     8
280
     0
  0
ATTDEF
  5
9A
330
8E
100
AcDbEntity
  8
AM_6
100
AcDbText
 10
0.6340000000000003
 20
-1.25
 30
0.0
 40
0.5
  1
5.50000
100
AcDbAttributeDefinition
  3

  2
L
 70
     8
280
     0
  0
ATTDEF
  5
9B
330
8E
100
AcDbEntity
  8
AM_6
100
AcDbText
 10
0.6340000000000003
 20
-1.75
 30
0.0
 40
0.5
  1
5.50000
100
AcDbAttributeDefinition
  3

  2
L2
 70
     8
280
     0
  0
ATTDEF
  5
9C
330
8E
100
AcDbEntity
  8
AM_6
100
AcDbText
 10
0.6340000000000003
 20
-2.25
 30
0.0
 40
0.5
  1
5.00
100
AcDbAttributeDefinition
  3

  2
A
 70
     8
280
     0
  0
ATTDEF
  5
9D
330
8E
100
AcDbEntity
  8
AM_6
100
AcDbText
 10
0.6340000000000003
 20
-2.75
 30
0.0
 40
0.5
  1
2.25
100
AcDbAttributeDefinition
  3

  2
B
 70
     8
280
     0
  0
ATTDEF
  5
9E
330
8E
100
AcDbEntity
  8
AM_6
100
AcDbText
 10
0.6340000000000003
 20
-3.25
 30
0.0
 40
0.5
  1
4.24
100
AcDbAttributeDefinition
  3

  2
C
 70
     8
280
     0
  0
ATTDEF
  5
9F
330
8E
100
AcDbEntity
  8
AM_6
100
AcDbText
 10
0.6340000000000003
 20
-3.75
 30
0.0
 40
0.5
  1
5.84
100
AcDbAttributeDefinition
  3

  2
D
 70
     8
280
     0
  0
ATTDEF
  5
A0
330
8E
100
AcDbEntity
  8
AM_6
100
AcDbText
 10
0.6340000000000003
 20
-4.25
 30
0.0
 40
0.5
  1
0.54
100
AcDbAttributeDefinition
  3

  2
E
 70
     8
280
     0
  0
ATTDEF
  5
A1
330
8E
100
AcDbEntity
  8
AM_6
100
AcDbText
 10
0.6340000000000003
 20
-4.75
 30
0.0
 40
0.5
  1
0.442
100
AcDbAttributeDefinition
  3

  2
F
 70
     8
280
     0
  0
ATTDEF
  5
A2
330
8E
100
AcDbEntity
  8
AM_6
100
AcDbText
 10
0.6340000000000003
 20
-5.25
 30
0.0
 40
0.5
  1
1/2-13
100
AcDbAttributeDefinition
  3

  2
CS
 70
     8
280
     0
  0
ATTDEF
  5
A3
330
8E
100
AcDbEntity
  8
AM_6
100
AcDbText
 10
0.6340000000000003
 20
-5.75
 30
0.0
 40
0.5
  1
0.5000
100
AcDbAttributeDefinition
  3

  2
NDM
 70
     8
280
     0
  0
ATTDEF
  5
A4
330
8E
100
AcDbEntity
  8
AM_6
100
AcDbText
 10
0.6340000000000003
 20
-6.25
 30
0.0
 40
0.5
  1
0.4170
100
AcDbAttributeDefinition
  3

  2
KDM
 70
     8
280
     0
  0
ATTDEF
  5
A5
330
8E
100
AcDbEntity
  8
AM_6
100
AcDbText
 10
0.6340000000000003
 20
-6.75
 30
0.0
 40
0.5
  1
2
100
AcDbAttributeDefinition
  3

  2
DD
 70
     8
280
     0
  0
ATTDEF
  5
A6
330
8E
100
AcDbEntity
  8
AM_6
100
AcDbText
 10
0.6340000000000003
 20
-7.25
 30
0.0
 40
0.5
  1
baldor
100
AcDbAttributeDefinition
  3

  2
COMPANY
 70
     8
280
     0
  0
LINE
  5
A9
330
8E
100
AcDbEntity
  8
AM_9
100
AcDbLine
 10
-4.59965
 20
2.128316666666673
 30
0.0
 11
-4.59965
 21
2.708349999999999
 31
0.0
  0
LINE
  5
AA
330
8E
100
AcDbEntity
  8
AM_9
100
AcDbLine
 10
-5.016349999999999
 20
2.708349999999999
 30
0.0
 11
-5.016349999999999
 21
2.128316666666673
 31
0.0
  0
LINE
  5
AB
330
8E
100
AcDbEntity
  8
AM_9
100
AcDbLine
 10
-5.016349999999999
 20
2.128316666666673
 30
0.0
 11
-4.59965
 21
2.128316666666673
 31
0.0
  0
LINE
  5
AC
330
8E
100
AcDbEntity
  8
AM_9
100
AcDbLine
 10
-5.016349999999999
 20
2.128316666666673
 30
0.0
 11
-5.024326655122924
 21
2.120340011543747
 31
0.0
  0
LINE
  5
AD
330
8E
100
AcDbEntity
  8
AM_9
100
AcDbLine
 10
-4.591622808238077
 20
2.120289474904748
 30
0.0
 11
-4.59965
 21
2.128316666666673
 31
0.0
  0
LINE
  5
AE
330
8E
100
AcDbEntity
  8
AM_9
100
AcDbLine
 10
-5.016349999999999
 20
2.708349999999999
 30
0.0
 11
-4.59965
 21
2.708349999999999
 31
0.0
  0
LINE
  5
AF
330
8E
100
AcDbEntity
  8
AM_9
100
AcDbLine
 10
-4.59965
 20
2.708349999999999
 30
0.0
 11
-4.582550484400175
 21
2.725449515599824
 31
0.0
  0
LINE
  5
B0
330
8E
100
AcDbEntity
  8
AM_9
100
AcDbLine
 10
-5.057779740518853
 20
2.749779740518854
 30
0.0
 11
-5.016349999999999
 21
2.708349999999999
 31
0.0
  0
LWPOLYLINE
  5
B1
330
8E
100
AcDbEntity
  8
AM_9
100
AcDbPolyline
 90
       33
 70
     0
 43
0.0
 10
-4.596088301032041
 20
0.9389070061457315
 10
-4.598371643799549
 20
0.9480167304883548
 10
-4.611364645034806
 20
0.9820358871958423
 10
-4.63063022295865
 20
1.013322024561619
 10
-4.655329963640259
 20
1.040470903864968
 10
-4.68505484563242
 20
1.063256112503843
 10
-4.717493259689727
 20
1.080173263803241
 10
-4.752880521281622
 20
1.091808745021458
 10
-4.787950344360222
 20
1.097450383710989
 10
-4.823628263858184
 20
1.097806206079553
 10
-4.857512587883565
 20
1.093065402581921
 10
-4.890022607819823
 20
1.083575345219367
 10
-4.92051705315346
 20
1.069446891839834
 10
-4.94802086955672
 20
1.051221507161747
 10
-4.972898641905721
 20
1.028260155683471
 10
-4.993319014011173
 20
1.001973630145816
 10
-5.009534341330017
 20
0.9713080817300318
 10
-5.020011660168024
 20
0.9384603132853377
 10
-5.024524871196483
 20
0.9028705789295699
 10
-5.022525336237969
 20
0.8667826360174665
 10
-5.013792464651593
 20
0.8306666761628037
 10
-4.99858145802296
 20
0.7961441815955898
 10
-4.97736109334951
 20
0.7646092471893633
 10
-4.950608322870072
 20
0.7368045473401823
 10
-4.920130238998792
 20
0.714583459955738
 10
-4.885961439144592
 20
0.6977227203400433
 10
-4.851226657961343
 20
0.6875147685228941
 10
-4.815142861238747
 20
0.6832069106349862
 10
-4.780581780542764
 20
0.6848709731065843
 10
-4.746801935484982
 20
0.6919918567810888
 10
-4.714994881265919
 20
0.7042439095664885
 10
-4.685677427931414
 20
0.7211192011086255
 10
-4.646527269720321
 20
0.7553325821002977
  0
LWPOLYLINE
  5
B2
330
8E
100
AcDbEntity
  8
AM_9
100
AcDbPolyline
 90
        5
 70
     0
 43
0.0
 10
-4.646527269720321
 20
0.7553325821002977
 10
-4.627156530532239
 20
0.7801819617212913
 10
-4.611735721553151
 20
0.807191989725588
 10
-4.598981308949325
 20
0.8410753231475865
 10
-4.596018623843986
 20
0.8528592057308219
  0
LINE
  5
B3
330
8E
100
AcDbEntity
  8
AM_9
100
AcDbLine
 10
-5.25
 20
-2.12
 30
0.0
 11
-4.366
 21
-2.12
 31
0.0
  0
LINE
  5
B4
330
8E
100
AcDbEntity
  8
AM_9
100
AcDbLine
 10
-4.366
 20
2.12
 30
0.0
 11
-4.591987010698908
 21
2.12
 31
0.0
  0
LINE
  5
B5
330
8E
100
AcDbEntity
  8
AM_9
100
AcDbLine
 10
-5.023899334973035
 20
2.12
 30
0.0
 11
-5.25
 21
2.12
 31
0.0
  0
LWPOLYLINE
  5
B6
330
8E
100
AcDbEntity
  8
AM_9
100
AcDbPolyline
 90
       21
 70
     0
 43
0.0
 10
-5.024666666666601
 20
2.119999999999992
 10
-5.024182956173148
 20
2.119944996509076
 10
-5.018206316388953
 20
2.119275271596194
 10
-5.005861595767474
 20
2.117950007450867
 10
-4.986710338956811
 20
2.116049490654317
 10
-4.962763064002314
 20
2.113940558988845
 10
-4.932851475392249
 20
2.111726765405039
 10
-4.901136256702722
 20
2.109892892457725
 10
-4.865273549354082
 20
2.108459575893357
 10
-4.830772149730405
 20
2.107724895794852
 10
-4.79448409531838
 20
2.10763550093538
 10
-4.760993293924177
 20
2.108174829241165
 10
-4.727890231451793
 20
2.10929348643794
 10
-4.697636014858388
 20
2.110823294463101
 10
-4.669581632183131
 20
2.112672808573442
 10
-4.644772845840059
 20
2.114651870692609
 10
-4.623816305205835
 20
2.11657330240036
 10
-4.607453515472044
 20
2.118231574436285
 10
-4.596466031346456
 20
2.119422462789338
 10
-4.591566681920972
 20
2.119973450609591
 10
-4.59133333333356
 20
2.119999999999973
  0
ELLIPSE
  5
B7
330
8E
100
AcDbEntity
  8
AM_9
100
AcDbEllipse
 10
-4.808000000000009
 20
0.8994654901004312
 30
0.0
 11
0.2083499999999905
 21
0.0
 31
0.0
210
0.0
220
0.0
230
1.0
 40
0.9063077870366522
 41
2.435210810815645
 42
6.283185307179586
  0
LINE
  5
B8
330
8E
100
AcDbEntity
  8
AM_9
100
AcDbLine
 10
-4.59965
 20
0.8994654901004289
 30
0.0
 11
-4.59965
 21
1.144598169185423
 31
0.0
  0
LINE
  5
B9
330
8E
100
AcDbEntity
  8
AM_9
100
AcDbLine
 10
-5.016349999999999
 20
1.144598169185423
 30
0.0
 11
-5.016349999999999
 21
0.8994654901004289
 31
0.0
  0
ELLIPSE
  5
BA
330
8E
100
AcDbEntity
  8
AM_9
100
AcDbEllipse
 10
-4.808000000000002
 20
0.8994654901004271
 30
0.0
 11
0.208350000000002
 21
0.0
 31
0.0
210
0.0
220
0.0
230
1.0
 40
0.9063077870366513
 41
0.0
 42
0.7063818427741281
  0
LINE
  5
BB
330
8E
100
AcDbEntity
  8
AM_9
100
AcDbLine
 10
-4.596724713177352
 20
1.044941912550958
 30
0.0
 11
-4.596724713177352
 21
1.276939649633282
 31
0.0
  0
LINE
  5
BD
330
8E
100
AcDbEntity
  8
AM_5
100
AcDbLine
 10
-5.058
 20
2.75
 30
0.0
 11
-5.058
 21
2.12
 31
0.0
  0
LINE
  5
BE
330
8E
100
AcDbEntity
  8
AM_5
100
AcDbLine
 10
-4.933
 20
2.086666666666667
 30
0.0
 11
-5.058
 21
2.086666666666667
 31
0.0
  0
LINE
  5
BF
330
8E
100
AcDbEntity
  8
AM_5
100
AcDbLine
 10
-4.558
 20
2.682926829268293
 30
0.0
 11
-4.558
 21
2.12
 31
0.0
  0
LINE
  5
C0
330
8E
100
AcDbEntity
  8
AM_5
100
AcDbLine
 10
-4.683
 20
2.086666666666667
 30
0.0
 11
-4.558
 21
2.086666666666667
 31
0.0
  0
ELLIPSE
  5
C2
330
8E
100
AcDbEntity
  8
AM_4
100
AcDbEllipse
 10
-4.808
 20
0.8994654901004301
 30
0.0
 11
0.2083499999999985
 21
3.104656934738137E-9
 31
0.0
210
0.0
220
0.0
230
1.0
 40
0.90630778703665
 41
0.706381827569726
 42
2.43521079561127
  0
ELLIPSE
  5
C3
330
8E
100
AcDbEntity
  8
AM_4
100
AcDbEllipse
 10
-4.808
 20
1.144598169185423
 30
0.0
 11
0.2083499999999993
 21
3.104656934738150E-9
 31
0.0
210
0.0
220
0.0
230
1.0
 40
0.906307787036651
 41
1.570796313289858
 42
6.283187037607677
  0
ELLIPSE
  5
C4
330
8E
100
AcDbEntity
  8
AM_4
100
AcDbEllipse
 10
-4.807999999999999
 20
1.144598169185423
 30
0.0
 11
0.2083499999999993
 21
3.104656934738150E-9
 31
0.0
210
0.0
220
0.0
230
1.0
 40
0.906307787036651
 41
0.0000017304280906
 42
1.570796313289863
  0
LINE
  5
C5
330
8E
100
AcDbEntity
  8
AM_4
100
AcDbLine
 10
-4.410787456445993
 20
-2.619047619047619
 30
0.0
 11
-4.366
 21
-2.619047619047619
 31
0.0
  0
LINE
  5
C6
330
8E
100
AcDbEntity
  8
AM_4
100
AcDbLine
 10
-4.366
 20
2.619047619047619
 30
0.0
 11
-4.410787456445993
 21
2.619047619047619
 31
0.0
  0
LINE
  5
C7
330
8E
100
AcDbEntity
  8
AM_4
100
AcDbLine
 10
-4.366
 20
2.619047619047619
 30
0.0
 11
-4.366
 21
-2.619047619047619
 31
0.0
  0
LINE
  5
C8
330
8E
100
AcDbEntity
  8
AM_4
100
AcDbLine
 10
-4.410787456445993
 20
2.619047619047619
 30
0.0
 11
-4.474666666666667
 21
2.682926829268293
 31
0.0
  0
LINE
  5
C9
330
8E
100
AcDbEntity
  8
AM_4
100
AcDbLine
 10
-4.474666666666667
 20
-2.682926829268293
 30
0.0
 11
-4.410787456445993
 21
-2.619047619047619
 31
0.0
  0
LINE
  5
CA
330
8E
100
AcDbEntity
  8
AM_4
100
AcDbLine
 10
-4.410787456445993
 20
2.619047619047619
 30
0.0
 11
-4.410787456445993
 21
-2.619047619047619
 31
0.0
  0
LINE
  5
CB
330
8E
100
AcDbEntity
  8
AM_4
100
AcDbLine
 10
-4.558
 20
-2.682926829268293
 30
0.0
 11
-4.474666666666667
 21
-2.682926829268293
 31
0.0
  0
LINE
  5
CC
330
8E
100
AcDbEntity
  8
AM_4
100
AcDbLine
 10
-4.474666666666667
 20
2.682926829268293
 30
0.0
 11
-4.558
 21
2.682926829268293
 31
0.0
  0
LINE
  5
CD
330
8E
100
AcDbEntity
  8
AM_4
100
AcDbLine
 10
-4.474666666666667
 20
2.682926829268293
 30
0.0
 11
-4.474666666666667
 21
-2.682926829268293
 31
0.0
  0
LWPOLYLINE
  5
CE
330
8E
100
AcDbEntity
  8
AM_4
100
AcDbPolyline
 90
       33
 70
     0
 43
0.0
 10
-4.596724713177352
 20
1.044941912550958
 10
-4.610411962661572
 20
1.027602907798391
 10
-4.635450114642783
 20
1.002868510794355
 10
-4.664130835287552
 20
0.981744895143946
 10
-4.700286086837825
 20
0.962737575028906
 10
-4.739249007059648
 20
0.9493979373121324
 10
-4.78139653093247
 20
0.9419864504039788
 10
-4.824269122406342
 20
0.9411590280280068
 10
-4.867435470264918
 20
0.9471886324942883
 10
-4.908915159390213
 20
0.9599006656108766
 10
-4.947339231748956
 20
0.9789778095160157
 10
-4.9817024356059
 20
1.003839867048518
 10
-5.010152489959864
 20
1.033052977212303
 10
-5.032698409992957
 20
1.066242797302369
 10
-5.047895173868934
 20
1.100886140421256
 10
-5.056341657773877
 20
1.137196827187692
 10
-5.057684794299848
 20
1.172610722742452
 10
-5.052442123040672
 20
1.207495869573692
 10
-5.040907338701841
 20
1.240406484271447
 10
-5.023536707642081
 20
1.271001328437533
 10
-5.000321797502619
 20
1.29901505700733
 10
-4.972331146375685
 20
1.323249432380169
 10
-4.938964721624977
 20
1.34386659659699
 10
-4.902245543701405
 20
1.35947491530948
 10
-4.861550508483123
 20
1.370023650098408
 10
-4.819417706938266
 20
1.374668131757098
 10
-4.775961115066252
 20
1.37314563612111
 10
-4.73340323203585
 20
1.365375485807047
 10
-4.692841599987947
 20
1.35136379081831
 10
-4.655613926317129
 20
1.331485579040766
 10
-4.623495961986844
 20
1.306589872688161
 10
-4.596783425195949
 20
1.277018449182871
 10
-4.596724713177352
 20
1.276939649633282
  0
LWPOLYLINE
  5
CF
330
8E
100
AcDbEntity
  8
AM_4
100
AcDbPolyline
 90
       18
 70
     0
 43
0.0
 10
-4.596724713177354
 20
2.747019914166474
 10
-4.597146436767926
 20
2.746990184524879
 10
-4.621222364772762
 20
2.745390565207143
 10
-4.65067328947817
 20
2.743695366171365
 10
-4.684546539952653
 20
2.742102670193587
 10
-4.722559799806417
 20
2.740771616950282
 10
-4.763241278780395
 20
2.739883106677369
 10
-4.806275474108165
 20
2.739547410119858
 10
-4.849085975827345
 20
2.739830201299746
 10
-4.891945890889932
 20
2.740729169332462
 10
-4.931261135590433
 20
2.742094720107782
 10
-4.968104348550008
 20
2.743842930569446
 10
-4.998560782021025
 20
2.745629200645077
 10
-5.024264044386284
 20
2.747376061130656
 10
-5.042139304565435
 20
2.748719655896724
 10
-5.053758643827456
 20
2.749649510888446
 10
-5.0579363253035
 20
2.749994694441653
 10
-5.05799999999993
 20
2.749999999999994
  0
LINE
  5
D0
330
8E
100
AcDbEntity
  8
AM_4
100
AcDbLine
 10
-5.102666666666666
 20
-2.75
 30
0.0
 11
-4.596724713177352
 21
-2.75
 31
0.0
  0
LINE
  5
D1
330
8E
100
AcDbEntity
  8
AM_4
100
AcDbLine
 10
-5.057592546471252
 20
2.75
 30
0.0
 11
-5.102666666666666
 21
2.75
 31
0.0
  0
LINE
  5
D2
330
8E
100
AcDbEntity
  8
AM_4
100
AcDbLine
 10
-5.25
 20
2.602666666666666
 30
0.0
 11
-5.25
 21
-2.602666666666666
 31
0.0
  0
ARC
  5
D3
330
8E
100
AcDbEntity
  8
AM_4
100
AcDbCircle
 10
-5.102666666666666
 20
-2.602666666666666
 30
0.0
 40
0.147333333333334
100
AcDbArc
 50
179.9999991462263
 51
270.0
  0
ARC
  5
D4
330
8E
100
AcDbEntity
  8
AM_4
100
AcDbCircle
 10
-5.102666666666666
 20
2.602666666666666
 30
0.0
 40
0.1473333333333344
100
AcDbArc
 50
90.0
 51
179.9999991462263
  0
LINE
  5
D5
330
8E
100
AcDbEntity
  8
AM_4
100
AcDbLine
 10
-5.102666666666666
 20
2.75
 30
0.0
 11
-5.102666666666666
 21
-2.75
 31
0.0
  0
LINE
  5
D6
330
8E
100
AcDbEntity
  8
AM_4
100
AcDbLine
 10
-4.596724713177353
 20
2.747019914166474
 30
0.0
 11
-4.596724713177352
 21
1.276939649633282
 31
0.0
  0
LWPOLYLINE
  5
D7
330
8E
100
AcDbEntity
  8
AM_4
100
AcDbPolyline
 90
        6
 70
     0
 43
0.0
 10
-4.596724713177352
 20
1.276939649633282
 10
-4.586673660914219
 20
1.21669624427342
 10
-4.582572560223109
 20
1.156381140400866
 10
-4.585009433751827
 20
1.10540408740976
 10
-4.593273649081679
 20
1.058019559575621
 10
-4.596724713177352
 20
1.044941912550958
  0
LINE
  5
D8
330
8E
100
AcDbEntity
  8
AM_4
100
AcDbLine
 10
-4.596724713177352
 20
1.044941912550958
 30
0.0
 11
-4.596724713177352
 21
-2.75
 31
0.0
  0
LINE
  5
D9
330
8E
100
AcDbEntity
  8
AM_4
100
AcDbLine
 10
-4.558
 20
2.682926829268293
 30
0.0
 11
-4.582550484400175
 21
2.725449515599824
 31
0.0
  0
LINE
  5
DA
330
8E
100
AcDbEntity
  8
AM_4
100
AcDbLine
 10
-4.596724713177352
 20
-2.75
 30
0.0
 11
-4.558
 21
-2.682926829268293
 31
0.0
  0
LINE
  5
DB
330
8E
100
AcDbEntity
  8
AM_4
100
AcDbLine
 10
-4.582550484400185
 20
2.72544951559984
 30
0.0
 11
-4.596724713177353
 21
2.747019914166474
 31
0.0
  0
LINE
  5
DC
330
8E
100
AcDbEntity
  8
AM_4
100
AcDbLine
 10
-4.558
 20
2.682926829268293
 30
0.0
 11
-4.558
 21
-2.682926829268293
 31
0.0
  0
ENDBLK
  5
91
330
8E
100
AcDbEntity
  8
0
100
AcDbBlockEnd
  0
BLOCK
  5
DF
330
DD
100
AcDbEntity
  8
0
100
AcDbBlockBegin
  2
3_070012i_0_in_071479_2
 70
     2
 10
0.0
 20
0.0
 30
0.0
  3
3_070012i_0_in_071479_2
  1

  0
ATTDEF
  5
E1
330
DD
100
AcDbEntity
  8
AM_6
100
AcDbText
 10
3.75
 20
3.1496
 30
0.0
 40
0.5
  1
S-2000 Insert -Inch
100
AcDbAttributeDefinition
  3

  2
NN
 70
     8
280
     0
  0
ATTDEF
  5
E2
330
DD
100
AcDbEntity
  8
AM_6
100
AcDbText
 10
3.75
 20
2.6496
 30
0.0
 40
0.5
  1
S-2000 Bearings
100
AcDbAttributeDefinition
  3

  2
NT
 70
     8
280
     0
  0
ATTDEF
  5
E3
330
DD
100
AcDbEntity
  8
AM_6
100
AcDbText
 10
3.75
 20
2.1496
 30
0.0
 40
0.5
  1
070012i
100
AcDbAttributeDefinition
  3

  2
NB
 70
     8
280
     0
  0
ATTDEF
  5
E4
330
DD
100
AcDbEntity
  8
AM_6
100
AcDbText
 10
3.75
 20
1.6496
 30
0.0
 40
0.5
  1
$PN.i
100
AcDbAttributeDefinition
  3

  2
NBSYN
 70
     8
280
     0
  0
ATTDEF
  5
E5
330
DD
100
AcDbEntity
  8
AM_6
100
AcDbText
 10
3.75
 20
1.1496
 30
0.0
 40
0.5
  1
070012i
100
AcDbAttributeDefinition
  3

  2
LINA
 70
     8
280
     0
  0
ATTDEF
  5
E6
330
DD
100
AcDbEntity
  8
AM_6
100
AcDbText
 10
3.75
 20
0.6495999999999995
 30
0.0
 40
0.5
  1
3-7/16
100
AcDbAttributeDefinition
  3

  2
SS
 70
     8
280
     0
  0
ATTDEF
  5
E7
330
DD
100
AcDbEntity
  8
AM_6
100
AcDbText
 10
3.75
 20
0.1495999999999995
 30
0.0
 40
0.5
  1
4.24
100
AcDbAttributeDefinition
  3

  2
CC
 70
     8
280
     0
  0
ATTDEF
  5
E8
330
DD
100
AcDbEntity
  8
AM_6
100
AcDbText
 10
3.75
 20
-0.3504000000000005
 30
0.0
 40
0.5
  1
3.437500
100
AcDbAttributeDefinition
  3

  2
SS1
 70
     8
280
     0
  0
ATTDEF
  5
E9
330
DD
100
AcDbEntity
  8
AM_6
100
AcDbText
 10
3.75
 20
-0.8504000000000005
 30
0.0
 40
0.5
  1
070012
100
AcDbAttributeDefinition
  3

  2
PN
 70
     8
280
     0
  0
ATTDEF
  5
EA
330
DD
100
AcDbEntity
  8
AM_6
100
AcDbText
 10
3.75
 20
-1.3504
 30
0.0
 40
0.5
  1
INS-S2-307R
100
AcDbAttributeDefinition
  3

  2
DESCRIPTION
 70
     8
280
     0
  0
ATTDEF
  5
EB
330
DD
100
AcDbEntity
  8
AM_6
100
AcDbText
 10
3.75
 20
-1.8504
 30
0.0
 40
0.5
  1
Contact Seal
100
AcDbAttributeDefinition
  3

  2
ST
 70
     8
280
     0
  0
ATTDEF
  5
EC
330
DD
100
AcDbEntity
  8
AM_6
100
AcDbText
 10
3.75
 20
-2.3504
 30
0.0
 40
0.5
  1
1
100
AcDbAttributeDefinition
  3

  2
ST1
 70
     8
280
     0
  0
ATTDEF
  5
ED
330
DD
100
AcDbEntity
  8
AM_6
100
AcDbText
 10
3.75
 20
-2.8504
 30
0.0
 40
0.5
  1
6.2992
100
AcDbAttributeDefinition
  3

  2
A
 70
     8
280
     0
  0
ATTDEF
  5
EE
330
DD
100
AcDbEntity
  8
AM_6
100
AcDbText
 10
3.75
 20
-3.3504
 30
0.0
 40
0.5
  1
1-5/8
100
AcDbAttributeDefinition
  3

  2
B
 70
     8
280
     0
  0
ATTDEF
  5
EF
330
DD
100
AcDbEntity
  8
AM_6
100
AcDbText
 10
3.75
 20
-3.8504
 30
0.0
 40
0.5
  1
4
100
AcDbAttributeDefinition
  3

  2
C
 70
     8
280
     0
  0
ATTDEF
  5
F0
330
DD
100
AcDbEntity
  8
AM_6
100
AcDbText
 10
3.75
 20
-4.3504
 30
0.0
 40
0.5
  1
1.483
100
AcDbAttributeDefinition
  3

  2
D
 70
     8
280
     0
  0
ATTDEF
  5
F1
330
DD
100
AcDbEntity
  8
AM_6
100
AcDbText
 10
3.75
 20
-4.8504
 30
0.0
 40
0.5
  1
5-1/2
100
AcDbAttributeDefinition
  3

  2
E
 70
     8
280
     0
  0
ATTDEF
  5
F2
330
DD
100
AcDbEntity
  8
AM_6
100
AcDbText
 10
3.75
 20
-5.3504
 30
0.0
 40
0.5
  1
0.34375
100
AcDbAttributeDefinition
  3

  2
F
 70
     8
280
     0
  0
ATTDEF
  5
F3
330
DD
100
AcDbEntity
  8
AM_6
100
AcDbText
 10
3.75
 20
-5.8504
 30
0.0
 40
0.5
  1
2
100
AcDbAttributeDefinition
  3

  2
DD
 70
     8
280
     0
  0
ATTDEF
  5
F4
330
DD
100
AcDbEntity
  8
AM_6
100
AcDbText
 10
3.75
 20
-6.3504
 30
0.0
 40
0.5
  1
baldor
100
AcDbAttributeDefinition
  3

  2
COMPANY
 70
     8
280
     0
  0
LINE
  5
F5
330
DD
100
AcDbEntity
  8
AM_9
100
AcDbLine
 10
-5.077999999999999
 20
2.119887205068237
 30
0.0
 11
-5.077999999999999
 21
1.71875
 31
0.0
  0
LINE
  5
F6
330
DD
100
AcDbEntity
  8
AM_9
100
AcDbLine
 10
-4.537999999999999
 20
1.71875
 30
0.0
 11
-4.537999999999999
 21
2.119994481033454
 31
0.0
  0
LINE
  5
F7
330
DD
100
AcDbEntity
  8
AM_9
100
AcDbLine
 10
-5.077999999999999
 20
0.8959507148902829
 30
0.0
 11
-5.077999999999999
 21
0.7263628634379331
 31
0.0
  0
LINE
  5
F8
330
DD
100
AcDbEntity
  8
AM_9
100
AcDbLine
 10
-4.537999999999999
 20
0.7263156090741771
 30
0.0
 11
-4.537999999999999
 21
0.8959507148902829
 31
0.0
  0
LWPOLYLINE
  5
F9
330
DD
100
AcDbEntity
  8
AM_9
100
AcDbPolyline
 90
        5
 70
     0
 43
0.0
 10
-5.060934790305179
 20
0.8108932318376565
 10
-5.061969299786925
 20
0.8084042038318122
 10
-5.073729167803696
 20
0.7692985897530739
 10
-5.077990005913609
 20
0.7284799005569292
 10
-5.077999999637359
 20
0.7263878200106415
  0
LWPOLYLINE
  5
FA
330
DD
100
AcDbEntity
  8
AM_9
100
AcDbPolyline
 90
        8
 70
     0
 43
0.0
 10
-4.839086148478549
 20
0.9605526825754105
 10
-4.866385712335089
 20
0.9566941169705465
 10
-4.909260800169434
 20
0.9454511188436127
 10
-4.949317665753094
 20
0.9283469548437282
 10
-4.985698055755114
 20
0.9054828135743924
 10
-5.017125260238623
 20
0.8775618075952639
 10
-5.042870321104038
 20
0.8448395911931642
 10
-5.060934790305179
 20
0.8108932318376565
  0
LWPOLYLINE
  5
FB
330
DD
100
AcDbEntity
  8
AM_9
100
AcDbPolyline
 90
        8
 70
     0
 43
0.0
 10
-4.554643034951716
 20
0.8098880158336766
 10
-4.564103624181008
 20
0.8296937129765707
 10
-4.586781046500949
 20
0.8636767111771961
 10
-4.615558322826185
 20
0.89359211336246
 10
-4.65011937022787
 20
0.9189326588461402
 10
-4.689159349383279
 20
0.9388373786676762
 10
-4.731688120505065
 20
0.9527836230215389
 10
-4.773975858323042
 20
0.960253070503395
  0
LWPOLYLINE
  5
FC
330
DD
100
AcDbEntity
  8
AM_9
100
AcDbPolyline
 90
        4
 70
     0
 43
0.0
 10
-4.538000000932964
 20
0.7263547947639083
 10
-4.539635044810939
 20
0.7531561732517942
 10
-4.548302998529208
 20
0.7925678397556787
 10
-4.554643034951716
 20
0.8098880158336766
  0
LWPOLYLINE
  5
FD
330
DD
100
AcDbEntity
  8
AM_9
100
AcDbPolyline
 90
       10
 70
     0
 43
0.0
 10
-5.077999999637359
 20
0.7263878200106415
 10
-5.074589314616157
 20
0.6875324203435885
 10
-5.063823895034544
 20
0.647209925725698
 10
-5.045931332668399
 20
0.6087489250081003
 10
-5.021512139798467
 20
0.5732283550908106
 10
-4.990818810320536
 20
0.5414650004320332
 10
-4.954995831584019
 20
0.5147828216631569
 10
-4.914718791316353
 20
0.4940258325750631
 10
-4.871368542386313
 20
0.4799881715661061
 10
-4.808
 20
0.4726534675249085
  0
LWPOLYLINE
  5
FE
330
DD
100
AcDbEntity
  8
AM_9
100
AcDbPolyline
 90
        7
 70
     0
 43
0.0
 10
-4.618530394145766
 20
1.066589795803053
 10
-4.597660164087472
 20
1.046513394252286
 10
-4.572205749338025
 20
1.01338337986988
 10
-4.553415506013688
 20
0.9766451995084803
 10
-4.541956312213228
 20
0.9373262719416712
 10
-4.538000533557965
 20
0.8964371641452153
 10
-4.538000000025108
 20
0.8959540521073357
  0
LWPOLYLINE
  5
FF
330
DD
100
AcDbEntity
  8
AM_9
100
AcDbPolyline
 90
       11
 70
     0
 43
0.0
 10
-4.997521776390993
 20
1.066545189311911
 10
-4.964881860238628
 20
1.090253266955972
 10
-4.925747335731764
 20
1.110254682574585
 10
-4.883192600984267
 20
1.124221452913873
 10
-4.838484654766669
 20
1.13188653693128
 10
-4.793208129285627
 20
1.132990279782632
 10
-4.748351002772069
 20
1.127669084950707
 10
-4.705354077188939
 20
1.116019269941661
 10
-4.66522616310739
 20
1.098392999280692
 10
-4.628937595018887
 20
1.0749877530829
 10
-4.618530394145766
 20
1.066589795803053
  0
LWPOLYLINE
  5
100
330
DD
100
AcDbEntity
  8
AM_9
100
AcDbPolyline
 90
        7
 70
     0
 43
0.0
 10
-5.077999998947693
 20
0.8959291103520814
 10
-5.076304267439844
 20
0.9232419234793589
 10
-5.067496683309979
 20
0.9628954837163608
 10
-5.051498960689549
 20
1.000318114378463
 10
-5.028601450434246
 20
1.034581188340918
 10
-4.999574295305774
 20
1.064770412110507
 10
-4.997521776390993
 20
1.066545189311911
  0
LWPOLYLINE
  5
101
330
DD
100
AcDbEntity
  8
AM_9
100
AcDbPolyline
 90
       10
 70
     0
 43
0.0
 10
-4.538000000025108
 20
0.8959540521073357
 10
-4.541721604390506
 20
0.8554106603145312
 10
-4.552847562523247
 20
0.815144453949638
 10
-4.571146476811262
 20
0.7768511634655715
 10
-4.596004024015003
 20
0.7416199883106783
 10
-4.627041916526436
 20
0.7103619953335842
 10
-4.663168206321806
 20
0.6842418298831974
 10
-4.703593915196048
 20
0.6641112482016288
 10
-4.747004913387995
 20
0.6506513485957608
 10
-4.808
 20
0.6439516627973393
  0
LWPOLYLINE
  5
102
330
DD
100
AcDbEntity
  8
AM_9
100
AcDbPolyline
 90
       11
 70
     0
 43
0.0
 10
-4.808
 20
0.4726534675249085
 10
-4.762989471823675
 20
0.4763585318873768
 10
-4.719255307521107
 20
0.4872289469943502
 10
-4.67807616799332
 20
0.504974377998617
 10
-4.640524914870443
 20
0.5288990692266473
 10
-4.607444296272952
 20
0.558549934533149
 10
-4.579984575255688
 20
0.5927484528817236
 10
-4.558904312243977
 20
0.6306943251777638
 10
-4.544887921678716
 20
0.6710037283790492
 10
-4.538484402172486
 20
0.7121223402383732
 10
-4.538000000932964
 20
0.7263547947639083
  0
LWPOLYLINE
  5
103
330
DD
100
AcDbEntity
  8
AM_9
100
AcDbPolyline
 90
       11
 70
     0
 43
0.0
 10
-4.808
 20
1.697410251677538
 10
-4.763627653760554
 20
1.697990125887307
 10
-4.719255307521107
 20
1.699728561548336
 10
-4.678621247818061
 20
1.702333816857362
 10
-4.640524914870443
 20
1.705652211512989
 10
-4.607856741346013
 20
1.709169063166262
 10
-4.579984575255688
 20
1.712656590335998
 10
-4.559136627625451
 20
1.715556627048386
 10
-4.544887921678715
 20
1.717681439690883
 10
-4.538495622643142
 20
1.718672211887569
 10
-4.538000000000557
 20
1.718749999999912
  0
LINE
  5
104
330
DD
100
AcDbEntity
  8
AM_9
100
AcDbLine
 10
-1.25
 20
1.71875
 30
0.0
 11
-4.538
 21
1.71875
 31
0.0
  0
LINE
  5
105
330
DD
100
AcDbEntity
  8
AM_9
100
AcDbLine
 10
-5.077999999999999
 20
1.71875
 30
0.0
 11
-5.25
 21
1.71875
 31
0.0
  0
LINE
  5
106
330
DD
100
AcDbEntity
  8
AM_9
100
AcDbLine
 10
-5.25
 20
-1.71875
 30
0.0
 11
-1.25
 21
-1.71875
 31
0.0
  0
LINE
  5
107
330
DD
100
AcDbEntity
  8
AM_9
100
AcDbLine
 10
-5.075040676754135
 20
1.7182876026851
 30
0.0
 11
-5.0779999999998
 21
1.718749999999969
 31
0.0
  0
LINE
  5
108
330
DD
100
AcDbEntity
  8
AM_9
100
AcDbLine
 10
-4.792064615507042
 20
1.697485051179809
 30
0.0
 11
-4.812995704039087
 21
1.697417603172197
 31
0.0
  0
LWPOLYLINE
  5
109
330
DD
100
AcDbEntity
  8
AM_9
100
AcDbPolyline
 90
       10
 70
     0
 43
0.0
 10
-5.0779999999998
 20
1.718749999999969
 10
-5.07471749098961
 20
1.718237405744559
 10
-5.063823895034544
 20
1.716580154775956
 10
-5.046251227543538
 20
1.714049360411188
 10
-5.021512139798467
 20
1.710786075563312
 10
-4.991309054547871
 20
1.707279640826082
 10
-4.954995831584019
 20
1.703763286669565
 10
-4.915341771338167
 20
1.700800934375924
 10
-4.871368542386313
 20
1.698592692396905
 10
-4.808
 20
1.697410251677538
  0
LWPOLYLINE
  5
10A
330
DD
100
AcDbEntity
  8
AM_9
100
AcDbPolyline
 90
       11
 70
     0
 43
0.0
 10
-4.808
 20
0.6439516627973393
 10
-4.853118390831228
 20
0.6476249139438293
 10
-4.896960019928625
 20
0.6584103219105827
 10
-4.938246770506825
 20
0.6760384091664733
 10
-4.975884865365252
 20
0.6998362474154121
 10
-5.008932264453069
 20
0.7292862314649692
 10
-5.036336942289505
 20
0.7632879888944594
 10
-5.057304438013341
 20
0.8009870482314683
 10
-5.071216715408073
 20
0.841083711243266
 10
-5.077545046610921
 20
0.8821667555722522
 10
-5.077999998947693
 20
0.8959291103520814
  0
LWPOLYLINE
  5
10B
330
DD
100
AcDbEntity
  8
AM_9
100
AcDbPolyline
 90
       11
 70
     0
 43
0.0
 10
-4.808
 20
2.102736312522329
 10
-4.852480009964312
 20
2.103206711497095
 10
-4.896960019928625
 20
2.104617277593649
 10
-4.937697313257162
 20
2.106732397117898
 10
-4.975884865365252
 20
2.109427725241779
 10
-5.008519208734502
 20
2.112275539097944
 10
-5.036336942289505
 20
2.11509757675955
 10
-5.057075117753342
 20
2.117436755675088
 10
-5.071216715408073
 20
2.119146771526271
 10
-5.077534958110078
 20
2.119940823146581
 10
-5.077999999999727
 20
2.119999999999965
  0
LINE
  5
10C
330
DD
100
AcDbEntity
  8
AM_9
100
AcDbLine
 10
-4.366
 20
2.12
 30
0.0
 11
-4.538043895991558
 21
2.12
 31
0.0
  0
LINE
  5
10D
330
DD
100
AcDbEntity
  8
AM_9
100
AcDbLine
 10
-4.02225
 20
2.12
 30
0.0
 11
-4.29
 21
2.12
 31
0.0
  0
LINE
  5
10E
330
DD
100
AcDbEntity
  8
AM_9
100
AcDbLine
 10
-5.077111669167516
 20
2.12
 30
0.0
 11
-5.25
 21
2.12
 31
0.0
  0
LINE
  5
10F
330
DD
100
AcDbEntity
  8
AM_9
100
AcDbLine
 10
-4.29
 20
-2.12
 30
0.0
 11
-4.02225
 21
-2.12
 31
0.0
  0
LINE
  5
110
330
DD
100
AcDbEntity
  8
AM_9
100
AcDbLine
 10
-5.25
 20
-2.12
 30
0.0
 11
-4.366
 21
-2.12
 31
0.0
  0
LINE
  5
111
330
DD
100
AcDbEntity
  8
AM_9
100
AcDbLine
 10
-4.541400642638413
 20
2.119569583039352
 30
0.0
 11
-4.538000000000006
 21
2.119999999999999
 31
0.0
  0
LINE
  5
112
330
DD
100
AcDbEntity
  8
AM_9
100
AcDbLine
 10
-4.823370258871108
 20
2.102792487350512
 30
0.0
 11
-4.802413621475724
 21
2.102743733226904
 31
0.0
  0
LWPOLYLINE
  5
113
330
DD
100
AcDbEntity
  8
AM_9
100
AcDbPolyline
 90
       10
 70
     0
 43
0.0
 10
-4.538000000000006
 20
2.119999999999999
 10
-4.541588667800408
 20
2.119545941451697
 10
-4.552847562523247
 20
2.11816023150996
 10
-4.57081808918413
 20
2.116070712149825
 10
-4.596004024015003
 20
2.113395915069827
 10
-4.626544781667061
 20
2.110551111975319
 10
-4.663168206321806
 20
2.107718256423293
 10
-4.70297306724373
 20
2.105357607772179
 10
-4.747004913387995
 20
2.103620783456658
 10
-4.808
 20
2.102736312522329
  0
LINE
  5
114
330
DD
100
AcDbEntity
  8
AM_9
100
AcDbLine
 10
-1.25
 20
-2.120000000000001
 30
0.0
 11
-1.25
 21
2.120000000000001
 31
0.0
  0
LINE
  5
115
330
DD
100
AcDbEntity
  8
AM_9
100
AcDbLine
 10
-1.25
 20
2.120000000000001
 30
0.0
 11
-1.44375
 21
2.120000000000001
 31
0.0
  0
LINE
  5
116
330
DD
100
AcDbEntity
  8
AM_9
100
AcDbLine
 10
-1.44375
 20
-2.120000000000001
 30
0.0
 11
-1.25
 21
-2.120000000000001
 31
0.0
  0
LINE
  5
117
330
DD
100
AcDbEntity
  8
AM_9
100
AcDbLine
 10
-1.44375
 20
-2.357180000000001
 30
0.0
 11
-1.44375
 21
2.357180000000001
 31
0.0
  0
ARC
  5
118
330
DD
100
AcDbEntity
  8
AM_9
100
AcDbCircle
 10
-1.606250000000001
 20
2.357179999999999
 30
0.0
 40
0.1625000000000014
100
AcDbArc
 50
0.0
 51
90.0
  0
ARC
  5
119
330
DD
100
AcDbEntity
  8
AM_9
100
AcDbCircle
 10
-1.606250000000001
 20
-2.357179999999999
 30
0.0
 40
0.1625000000000014
100
AcDbArc
 50
270.0
 51
0.0000008537736463
  0
LINE
  5
11A
330
DD
100
AcDbEntity
  8
AM_9
100
AcDbLine
 10
-1.60625
 20
-2.51968
 30
0.0
 11
-1.60625
 21
2.51968
 31
0.0
  0
LINE
  5
11B
330
DD
100
AcDbEntity
  8
AM_9
100
AcDbLine
 10
-1.60625
 20
2.51968
 30
0.0
 11
-1.9205
 21
2.51968
 31
0.0
  0
LINE
  5
11C
330
DD
100
AcDbEntity
  8
AM_9
100
AcDbLine
 10
-1.9205
 20
-2.51968
 30
0.0
 11
-1.60625
 21
-2.51968
 31
0.0
  0
LINE
  5
11D
330
DD
100
AcDbEntity
  8
AM_9
100
AcDbLine
 10
-3.5455
 20
2.51968
 30
0.0
 11
-3.85975
 21
2.51968
 31
0.0
  0
LINE
  5
11E
330
DD
100
AcDbEntity
  8
AM_9
100
AcDbLine
 10
-3.85975
 20
-2.51968
 30
0.0
 11
-3.5455
 21
-2.51968
 31
0.0
  0
LINE
  5
11F
330
DD
100
AcDbEntity
  8
AM_9
100
AcDbLine
 10
-3.85975
 20
-2.51968
 30
0.0
 11
-3.85975
 21
2.51968
 31
0.0
  0
LINE
  5
120
330
DD
100
AcDbEntity
  8
AM_9
100
AcDbLine
 10
-4.02225
 20
-2.35718
 30
0.0
 11
-4.02225
 21
2.35718
 31
0.0
  0
ARC
  5
121
330
DD
100
AcDbEntity
  8
AM_9
100
AcDbCircle
 10
-3.85975
 20
2.35718
 30
0.0
 40
0.1624999999999996
100
AcDbArc
 50
90.0
 51
180.0
  0
ARC
  5
122
330
DD
100
AcDbEntity
  8
AM_9
100
AcDbCircle
 10
-3.85975
 20
-2.35718
 30
0.0
 40
0.1624999999999996
100
AcDbArc
 50
180.0
 51
270.0
  0
LINE
  5
123
330
DD
100
AcDbEntity
  8
AM_9
100
AcDbLine
 10
-2.65174999999999
 20
3.023616
 30
0.0
 11
-2.81425000000001
 21
3.023616
 31
0.0
  0
LINE
  5
124
330
DD
100
AcDbEntity
  8
AM_9
100
AcDbLine
 10
-2.81425000000001
 20
-3.023616
 30
0.0
 11
-2.65174999999999
 21
-3.023616
 31
0.0
  0
LINE
  5
125
330
DD
100
AcDbEntity
  8
AM_9
100
AcDbLine
 10
-3.5455
 20
-2.9871
 30
0.0
 11
-3.5455
 21
2.9871
 31
0.0
  0
ARC
  5
126
330
DD
100
AcDbEntity
  8
AM_9
100
AcDbCircle
 10
-3.382999999999999
 20
2.987099999999998
 30
0.0
 40
0.1625000000000014
100
AcDbArc
 50
90.0
 51
180.0
  0
ARC
  5
127
330
DD
100
AcDbEntity
  8
AM_9
100
AcDbCircle
 10
-3.382999999999999
 20
-2.987099999999998
 30
0.0
 40
0.162500000000001
100
AcDbArc
 50
180.0
 51
270.0
  0
LINE
  5
128
330
DD
100
AcDbEntity
  8
AM_9
100
AcDbLine
 10
-3.383
 20
-3.1496
 30
0.0
 11
-3.383
 21
3.1496
 31
0.0
  0
LINE
  5
129
330
DD
100
AcDbEntity
  8
AM_9
100
AcDbLine
 10
-2.886986896313596
 20
3.1496
 30
0.0
 11
-3.383
 21
3.1496
 31
0.0
  0
LINE
  5
12A
330
DD
100
AcDbEntity
  8
AM_9
100
AcDbLine
 10
-3.383
 20
-3.1496
 30
0.0
 11
-2.886986896313596
 21
-3.1496
 31
0.0
  0
LINE
  5
12B
330
DD
100
AcDbEntity
  8
AM_9
100
AcDbLine
 10
-2.083
 20
3.1496
 30
0.0
 11
-2.579013103686404
 21
3.1496
 31
0.0
  0
LINE
  5
12C
330
DD
100
AcDbEntity
  8
AM_9
100
AcDbLine
 10
-2.579013103686404
 20
-3.1496
 30
0.0
 11
-2.083
 21
-3.1496
 31
0.0
  0
LINE
  5
12D
330
DD
100
AcDbEntity
  8
AM_9
100
AcDbLine
 10
-1.9205
 20
-2.9871
 30
0.0
 11
-1.9205
 21
2.9871
 31
0.0
  0
LINE
  5
12E
330
DD
100
AcDbEntity
  8
AM_9
100
AcDbLine
 10
-2.083
 20
-3.1496
 30
0.0
 11
-2.083
 21
3.1496
 31
0.0
  0
ARC
  5
12F
330
DD
100
AcDbEntity
  8
AM_9
100
AcDbCircle
 10
-2.083
 20
2.9871
 30
0.0
 40
0.1624999999999999
100
AcDbArc
 50
0.0
 51
90.0
  0
ARC
  5
130
330
DD
100
AcDbEntity
  8
AM_9
100
AcDbCircle
 10
-2.082999999999999
 20
-2.9871
 30
0.0
 40
0.1624999999999996
100
AcDbArc
 50
270.0
 51
0.0
  0
LINE
  5
131
330
DD
100
AcDbEntity
  8
AM_9
100
AcDbLine
 10
-2.81425000000001
 20
-3.023616
 30
0.0
 11
-2.81425000000001
 21
3.023616
 31
0.0
  0
LINE
  5
132
330
DD
100
AcDbEntity
  8
AM_9
100
AcDbLine
 10
-2.886986896313596
 20
-3.1496
 30
0.0
 11
-2.886986896313596
 21
3.1496
 31
0.0
  0
LINE
  5
133
330
DD
100
AcDbEntity
  8
AM_9
100
AcDbLine
 10
-2.81425000000001
 20
3.023616
 30
0.0
 11
-2.886986896313596
 21
3.1496
 31
0.0
  0
LINE
  5
134
330
DD
100
AcDbEntity
  8
AM_9
100
AcDbLine
 10
-2.886986896313596
 20
-3.1496
 30
0.0
 11
-2.81425000000001
 21
-3.023616
 31
0.0
  0
LINE
  5
135
330
DD
100
AcDbEntity
  8
AM_9
100
AcDbLine
 10
-2.579013103686404
 20
-3.1496
 30
0.0
 11
-2.579013103686404
 21
3.1496
 31
0.0
  0
LINE
  5
136
330
DD
100
AcDbEntity
  8
AM_9
100
AcDbLine
 10
-2.65174999999999
 20
-3.023616
 30
0.0
 11
-2.65174999999999
 21
3.023616
 31
0.0
  0
LINE
  5
137
330
DD
100
AcDbEntity
  8
AM_9
100
AcDbLine
 10
-2.65174999999999
 20
-3.023616
 30
0.0
 11
-2.579013103686404
 21
-3.1496
 31
0.0
  0
LINE
  5
138
330
DD
100
AcDbEntity
  8
AM_9
100
AcDbLine
 10
-2.579013103686404
 20
3.1496
 30
0.0
 11
-2.65174999999999
 21
3.023616
 31
0.0
  0
LINE
  5
13B
330
DD
100
AcDbEntity
  8
AM_7
100
AcDbLine
 10
-4.808
 20
-0.1087179487179487
 30
0.0
 11
-4.808
 21
2.783166666666667
 31
0.0
  0
LINE
  5
13C
330
DD
100
AcDbEntity
  8
AM_4
100
AcDbLine
 10
-4.29
 20
2.12
 30
0.0
 11
-4.366
 21
2.12
 31
0.0
  0
LINE
  5
13D
330
DD
100
AcDbEntity
  8
AM_4
100
AcDbLine
 10
-4.366
 20
-2.12
 30
0.0
 11
-4.29
 21
-2.12
 31
0.0
  0
ENDBLK
  5
E0
330
DD
100
AcDbEntity
  8
0
100
AcDbBlockEnd
  0
BLOCK
  5
140
330
13E
100
AcDbEntity
  8
0
100
AcDbBlockBegin
  2
4_405015E_Inch_0_in_071479_2
 70
     2
 10
0.0
 20
0.0
 30
0.0
  3
4_405015E_Inch_0_in_071479_2
  1

  0
ATTDEF
  5
142
330
13E
100
AcDbEntity
  8
AM_6
100
AcDbText
 10
2.172590742770461
 20
4.195
 30
0.0
 40
0.5
  1
405015E -Inch
100
AcDbAttributeDefinition
  3

  2
NN
 70
     8
280
     0
  0
ATTDEF
  5
143
330
13E
100
AcDbEntity
  8
AM_6
100
AcDbText
 10
2.172590742770461
 20
3.695
 30
0.0
 40
0.5
  1
Grease Fitting
100
AcDbAttributeDefinition
  3

  2
NT
 70
     8
280
     0
  0
ATTDEF
  5
144
330
13E
100
AcDbEntity
  8
AM_6
100
AcDbText
 10
2.172590742770461
 20
3.195
 30
0.0
 40
0.5
  1
405015E-Inch
100
AcDbAttributeDefinition
  3

  2
NB
 70
     8
280
     0
  0
ATTDEF
  5
145
330
13E
100
AcDbEntity
  8
AM_6
100
AcDbText
 10
2.172590742770461
 20
2.695
 30
0.0
 40
0.5
  1
$MN.-Inch
100
AcDbAttributeDefinition
  3

  2
NBSYN
 70
     8
280
     0
  0
ATTDEF
  5
146
330
13E
100
AcDbEntity
  8
AM_6
100
AcDbText
 10
2.172590742770461
 20
2.195
 30
0.0
 40
0.5
  1
405015E
100
AcDbAttributeDefinition
  3

  2
LINA
 70
     8
280
     0
  0
ATTDEF
  5
147
330
13E
100
AcDbEntity
  8
AM_6
100
AcDbText
 10
2.172590742770461
 20
1.695
 30
0.0
 40
0.5
  1
405015E
100
AcDbAttributeDefinition
  3

  2
MN
 70
     8
280
     0
  0
ATTDEF
  5
148
330
13E
100
AcDbEntity
  8
AM_6
100
AcDbText
 10
2.172590742770461
 20
1.195
 30
0.0
 40
0.5
  1
1/8 x 27PTF
100
AcDbAttributeDefinition
  3

  2
T
 70
     8
280
     0
  0
ATTDEF
  5
149
330
13E
100
AcDbEntity
  8
AM_6
100
AcDbText
 10
2.172590742770461
 20
0.6950000000000003
 30
0.0
 40
0.5
  1
baldor
100
AcDbAttributeDefinition
  3

  2
COMPANY
 70
     8
280
     0
  0
LINE
  5
14A
330
13E
100
AcDbEntity
  8
AM_9
100
AcDbLine
 10
-3.241902872472269
 20
3.555
 30
0.0
 11
-2.918097127527731
 21
3.555
 31
0.0
  0
LINE
  5
14B
330
13E
100
AcDbEntity
  8
AM_9
100
AcDbLine
 10
-2.918097127527731
 20
3.555
 30
0.0
 11
-2.881382373218784
 21
3.591714754308947
 31
0.0
  0
LINE
  5
14C
330
13E
100
AcDbEntity
  8
AM_9
100
AcDbLine
 10
-3.278617626781215
 20
3.591714754308947
 30
0.0
 11
-3.241902872472269
 21
3.555
 31
0.0
  0
LINE
  5
14D
330
13E
100
AcDbEntity
  8
AM_9
100
AcDbLine
 10
-3.278617626781215
 20
3.591714754308947
 30
0.0
 11
-2.881382373218784
 21
3.591714754308947
 31
0.0
  0
LINE
  5
14E
330
13E
100
AcDbEntity
  8
AM_9
100
AcDbLine
 10
-2.881382373218784
 20
3.591714754308947
 30
0.0
 11
-2.87424810277693
 21
3.82
 31
0.0
  0
LINE
  5
14F
330
13E
100
AcDbEntity
  8
AM_9
100
AcDbLine
 10
-3.285751897223069
 20
3.82
 30
0.0
 11
-3.278617626781215
 21
3.591714754308947
 31
0.0
  0
LINE
  5
150
330
13E
100
AcDbEntity
  8
AM_5
100
AcDbLine
 10
-2.911850875147652
 20
3.754870087748463
 30
0.0
 11
-2.918097127527731
 21
3.555
 31
0.0
  0
LINE
  5
151
330
13E
100
AcDbEntity
  8
AM_5
100
AcDbLine
 10
-2.87424810277693
 20
3.82
 30
0.0
 11
-2.911850875147652
 21
3.754870087748463
 31
0.0
  0
LINE
  5
152
330
13E
100
AcDbEntity
  8
AM_5
100
AcDbLine
 10
-3.283716485751557
 20
3.754870087748463
 30
0.0
 11
-2.876283514248443
 21
3.754870087748463
 31
0.0
  0
LINE
  5
153
330
13E
100
AcDbEntity
  8
AM_5
100
AcDbLine
 10
-3.248149124852348
 20
3.754870087748463
 30
0.0
 11
-3.241902872472269
 21
3.555
 31
0.0
  0
LINE
  5
154
330
13E
100
AcDbEntity
  8
AM_5
100
AcDbLine
 10
-3.285751897223069
 20
3.82
 30
0.0
 11
-3.248149124852348
 21
3.754870087748463
 31
0.0
  0
LINE
  5
155
330
13E
100
AcDbEntity
  8
AM_4
100
AcDbLine
 10
-2.975
 20
4.025
 30
0.0
 11
-2.975
 21
4.055000000000001
 31
0.0
  0
LINE
  5
156
330
13E
100
AcDbEntity
  8
AM_4
100
AcDbLine
 10
-3.185
 20
4.055000000000001
 30
0.0
 11
-3.185
 21
4.025
 31
0.0
  0
LINE
  5
157
330
13E
100
AcDbEntity
  8
AM_4
100
AcDbLine
 10
-3.29875
 20
3.92
 30
0.0
 11
-2.86125
 21
3.92
 31
0.0
  0
LINE
  5
158
330
13E
100
AcDbEntity
  8
AM_4
100
AcDbLine
 10
-2.827409257229539
 20
3.910932400303386
 30
0.0
 11
-2.86125
 21
3.92
 31
0.0
  0
LINE
  5
159
330
13E
100
AcDbEntity
  8
AM_4
100
AcDbLine
 10
-3.29875
 20
3.92
 30
0.0
 11
-3.332590742770461
 21
3.910932400303386
 31
0.0
  0
LINE
  5
15A
330
13E
100
AcDbEntity
  8
AM_4
100
AcDbLine
 10
-2.86125
 20
3.82
 30
0.0
 11
-2.827409257229539
 21
3.829067599696615
 31
0.0
  0
LINE
  5
15B
330
13E
100
AcDbEntity
  8
AM_4
100
AcDbLine
 10
-3.332590742770461
 20
3.829067599696615
 30
0.0
 11
-3.29875
 21
3.82
 31
0.0
  0
LINE
  5
15C
330
13E
100
AcDbEntity
  8
AM_4
100
AcDbLine
 10
-3.185
 20
4.025
 30
0.0
 11
-2.975
 21
4.025
 31
0.0
  0
LINE
  5
15D
330
13E
100
AcDbEntity
  8
AM_4
100
AcDbLine
 10
-3.185
 20
4.025
 30
0.0
 11
-3.198820090734897
 21
3.992753121618573
 31
0.0
  0
LINE
  5
15E
330
13E
100
AcDbEntity
  8
AM_4
100
AcDbLine
 10
-2.961179909265102
 20
3.992753121618573
 30
0.0
 11
-2.975
 21
4.025
 31
0.0
  0
LINE
  5
15F
330
13E
100
AcDbEntity
  8
AM_4
100
AcDbLine
 10
-3.182677901933187
 20
4.195
 30
0.0
 11
-2.977322098066812
 21
4.195
 31
0.0
  0
LINE
  5
160
330
13E
100
AcDbEntity
  8
AM_4
100
AcDbLine
 10
-3.182677901933187
 20
4.195
 30
0.0
 11
-3.215
 21
4.115
 31
0.0
  0
LINE
  5
161
330
13E
100
AcDbEntity
  8
AM_4
100
AcDbLine
 10
-2.945
 20
4.115
 30
0.0
 11
-2.977322098066812
 21
4.195
 31
0.0
  0
LINE
  5
162
330
13E
100
AcDbEntity
  8
AM_4
100
AcDbLine
 10
-3.215
 20
4.115
 30
0.0
 11
-2.945
 21
4.115
 31
0.0
  0
LINE
  5
163
330
13E
100
AcDbEntity
  8
AM_4
100
AcDbLine
 10
-3.185
 20
4.055000000000001
 30
0.0
 11
-2.975
 21
4.055000000000001
 31
0.0
  0
LINE
  5
164
330
13E
100
AcDbEntity
  8
AM_4
100
AcDbLine
 10
-2.975
 20
4.055000000000001
 30
0.0
 11
-2.945
 21
4.115
 31
0.0
  0
LINE
  5
165
330
13E
100
AcDbEntity
  8
AM_4
100
AcDbLine
 10
-3.215
 20
4.115
 30
0.0
 11
-3.185
 21
4.055000000000001
 31
0.0
  0
LINE
  5
166
330
13E
100
AcDbEntity
  8
AM_4
100
AcDbLine
 10
-3.198820090734897
 20
3.992753121618573
 30
0.0
 11
-2.961179909265102
 21
3.992753121618573
 31
0.0
  0
LINE
  5
167
330
13E
100
AcDbEntity
  8
AM_4
100
AcDbLine
 10
-3.198820090734897
 20
3.992753121618573
 30
0.0
 11
-3.252534053283015
 21
3.938318198540882
 31
0.0
  0
LINE
  5
168
330
13E
100
AcDbEntity
  8
AM_4
100
AcDbLine
 10
-2.907465946716985
 20
3.938318198540882
 30
0.0
 11
-2.961179909265102
 21
3.992753121618573
 31
0.0
  0
LINE
  5
169
330
13E
100
AcDbEntity
  8
AM_4
100
AcDbLine
 10
-3.252534053283015
 20
3.938318198540882
 30
0.0
 11
-2.907465946716985
 21
3.938318198540882
 31
0.0
  0
LINE
  5
16A
330
13E
100
AcDbEntity
  8
AM_4
100
AcDbLine
 10
-3.252534053283015
 20
3.938318198540882
 30
0.0
 11
-3.29375
 21
3.92
 31
0.0
  0
LINE
  5
16B
330
13E
100
AcDbEntity
  8
AM_4
100
AcDbLine
 10
-2.86625
 20
3.92
 30
0.0
 11
-2.907465946716985
 21
3.938318198540882
 31
0.0
  0
LINE
  5
16C
330
13E
100
AcDbEntity
  8
AM_4
100
AcDbLine
 10
-2.827409257229539
 20
3.910932400303386
 30
0.0
 11
-2.827409257229539
 21
3.829067599696615
 31
0.0
  0
LWPOLYLINE
  5
16D
330
13E
100
AcDbEntity
  8
AM_4
100
AcDbPolyline
 90
        3
 70
     0
 43
0.0
 10
-2.890556942922154
 20
3.92
 10
-2.858983100075847
 20
3.917606619214965
 10
-2.827409257229539
 20
3.910932400303386
  0
LWPOLYLINE
  5
16E
330
13E
100
AcDbEntity
  8
AM_4
100
AcDbPolyline
 90
        3
 70
     0
 43
0.0
 10
-2.953704628614769
 20
3.910932400303386
 10
-2.922272750267872
 20
3.91758547505038
 10
-2.890556942922154
 20
3.92
  0
LWPOLYLINE
  5
16F
330
13E
100
AcDbEntity
  8
AM_4
100
AcDbPolyline
 90
        3
 70
     0
 43
0.0
 10
-2.890556942922154
 20
3.82
 10
-2.922130785768462
 20
3.822393380785035
 10
-2.953704628614769
 20
3.829067599696615
  0
LWPOLYLINE
  5
170
330
13E
100
AcDbEntity
  8
AM_4
100
AcDbPolyline
 90
        3
 70
     0
 43
0.0
 10
-2.827409257229539
 20
3.829067599696615
 10
-2.858841135576436
 20
3.82241452494962
 10
-2.890556942922154
 20
3.82
  0
LWPOLYLINE
  5
171
330
13E
100
AcDbEntity
  8
AM_4
100
AcDbPolyline
 90
        3
 70
     0
 43
0.0
 10
-3.269443057077846
 20
3.92
 10
-3.237869214231539
 20
3.917606619214965
 10
-3.206295371385231
 20
3.910932400303386
  0
LWPOLYLINE
  5
172
330
13E
100
AcDbEntity
  8
AM_4
100
AcDbPolyline
 90
        3
 70
     0
 43
0.0
 10
-3.332590742770461
 20
3.910932400303386
 10
-3.301158864423564
 20
3.91758547505038
 10
-3.269443057077846
 20
3.92
  0
LINE
  5
173
330
13E
100
AcDbEntity
  8
AM_4
100
AcDbLine
 10
-3.332590742770461
 20
3.910932400303386
 30
0.0
 11
-3.332590742770461
 21
3.829067599696615
 31
0.0
  0
LWPOLYLINE
  5
174
330
13E
100
AcDbEntity
  8
AM_4
100
AcDbPolyline
 90
        3
 70
     0
 43
0.0
 10
-3.269443057077846
 20
3.82
 10
-3.301016899924153
 20
3.822393380785035
 10
-3.332590742770461
 20
3.829067599696615
  0
LWPOLYLINE
  5
175
330
13E
100
AcDbEntity
  8
AM_4
100
AcDbPolyline
 90
        3
 70
     0
 43
0.0
 10
-3.206295371385231
 20
3.829067599696615
 10
-3.237727249732127
 20
3.82241452494962
 10
-3.269443057077846
 20
3.82
  0
LINE
  5
176
330
13E
100
AcDbEntity
  8
AM_4
100
AcDbLine
 10
-2.953704628614769
 20
3.910932400303386
 30
0.0
 11
-2.953704628614769
 21
3.829067599696615
 31
0.0
  0
LWPOLYLINE
  5
177
330
13E
100
AcDbEntity
  8
AM_4
100
AcDbPolyline
 90
        4
 70
     0
 43
0.0
 10
-3.08
 20
3.92
 10
-3.031600183944101
 20
3.918582439282863
 10
-2.983200367888202
 20
3.914517587482156
 10
-2.953704628614769
 20
3.910932400303386
  0
LWPOLYLINE
  5
178
330
13E
100
AcDbEntity
  8
AM_4
100
AcDbPolyline
 90
        3
 70
     0
 43
0.0
 10
-3.206295371385231
 20
3.910932400303386
 10
-3.143431614691437
 20
3.91758547505038
 10
-3.08
 20
3.92
  0
LINE
  5
179
330
13E
100
AcDbEntity
  8
AM_4
100
AcDbLine
 10
-3.206295371385231
 20
3.910932400303386
 30
0.0
 11
-3.206295371385231
 21
3.829067599696615
 31
0.0
  0
LWPOLYLINE
  5
17A
330
13E
100
AcDbEntity
  8
AM_4
100
AcDbPolyline
 90
        3
 70
     0
 43
0.0
 10
-3.08
 20
3.82
 10
-3.143147685692615
 20
3.822393380785035
 10
-3.206295371385231
 20
3.829067599696615
  0
LWPOLYLINE
  5
17B
330
13E
100
AcDbEntity
  8
AM_4
100
AcDbPolyline
 90
        4
 70
     0
 43
0.0
 10
-2.953704628614769
 20
3.829067599696615
 10
-2.983200367888202
 20
3.825482412517844
 10
-3.031457558752245
 20
3.821425828243072
 10
-3.08
 20
3.82
  0
ENDBLK
  5
141
330
13E
100
AcDbEntity
  8
0
100
AcDbBlockEnd
  0
BLOCK
  5
17E
330
17C
100
AcDbEntity
  8
0
100
AcDbBlockBegin
  2
5_B071479_0_in_071479_2
 70
     2
 10
0.0
 20
0.0
 30
0.0
  3
5_B071479_0_in_071479_2
  1

  0
ATTDEF
  5
180
330
17C
100
AcDbEntity
  8
AM_6
100
AcDbText
 10
5.2145
 20
4.625
 30
0.0
 40
0.5
  1
EF4S-S2 -(Contact Seal)-Housing
100
AcDbAttributeDefinition
  3

  2
NN
 70
     8
280
     0
  0
ATTDEF
  5
181
330
17C
100
AcDbEntity
  8
AM_6
100
AcDbText
 10
5.2145
 20
4.125
 30
0.0
 40
0.5
  1
S-2000 -E TYpe -Inch
100
AcDbAttributeDefinition
  3

  2
NT
 70
     8
280
     0
  0
ATTDEF
  5
182
330
17C
100
AcDbEntity
  8
AM_6
100
AcDbText
 10
5.2145
 20
3.625
 30
0.0
 40
0.5
  1
B071479
100
AcDbAttributeDefinition
  3

  2
NB
 70
     8
280
     0
  0
ATTDEF
  5
183
330
17C
100
AcDbEntity
  8
AM_6
100
AcDbText
 10
5.2145
 20
3.125
 30
0.0
 40
0.5
  1
$PN.
100
AcDbAttributeDefinition
  3

  2
NBSYN
 70
     8
280
     0
  0
ATTDEF
  5
184
330
17C
100
AcDbEntity
  8
AM_6
100
AcDbText
 10
5.2145
 20
2.625
 30
0.0
 40
0.5
  1
B071479
100
AcDbAttributeDefinition
  3

  2
LINA
 70
     8
280
     0
  0
ATTDEF
  5
185
330
17C
100
AcDbEntity
  8
AM_6
100
AcDbText
 10
5.2145
 20
2.125
 30
0.0
 40
0.5
  1
3-7/16
100
AcDbAttributeDefinition
  3

  2
SS
 70
     8
280
     0
  0
ATTDEF
  5
186
330
17C
100
AcDbEntity
  8
AM_6
100
AcDbText
 10
5.2145
 20
1.625
 30
0.0
 40
0.5
  1
3.437500
100
AcDbAttributeDefinition
  3

  2
SS1
 70
     8
280
     0
  0
ATTDEF
  5
187
330
17C
100
AcDbEntity
  8
AM_6
100
AcDbText
 10
5.2145
 20
1.125
 30
0.0
 40
0.5
  1
Non-Expansion
100
AcDbAttributeDefinition
  3

  2
TYPE
 70
     8
280
     0
  0
ATTDEF
  5
188
330
17C
100
AcDbEntity
  8
AM_6
100
AcDbText
 10
5.2145
 20
0.625
 30
0.0
 40
0.5
  1
071479
100
AcDbAttributeDefinition
  3

  2
PN1
 70
     8
280
     0
  0
ATTDEF
  5
189
330
17C
100
AcDbEntity
  8
AM_6
100
AcDbText
 10
5.2145
 20
0.125
 30
0.0
 40
0.5
  1
071492
100
AcDbAttributeDefinition
  3

  2
PN2
 70
     8
280
     0
  0
ATTDEF
  5
18A
330
17C
100
AcDbEntity
  8
AM_6
100
AcDbText
 10
5.2145
 20
-0.375
 30
0.0
 40
0.5
  1
EF4B-S2-307R
100
AcDbAttributeDefinition
  3

  2
DESC1
 70
     8
280
     0
  0
ATTDEF
  5
18B
330
17C
100
AcDbEntity
  8
AM_6
100
AcDbText
 10
5.2145
 20
-0.875
 30
0.0
 40
0.5
  1
EF4B-S2-307RE
100
AcDbAttributeDefinition
  3

  2
DESC2
 70
     8
280
     0
  0
ATTDEF
  5
18C
330
17C
100
AcDbEntity
  8
AM_6
100
AcDbText
 10
5.2145
 20
-1.375
 30
0.0
 40
0.5
  1
Non-Expansion Type
100
AcDbAttributeDefinition
  3

  2
EF
 70
     8
280
     0
  0
ATTDEF
  5
18D
330
17C
100
AcDbEntity
  8
AM_6
100
AcDbText
 10
5.2145
 20
-1.875
 30
0.0
 40
0.5
  1
1
100
AcDbAttributeDefinition
  3

  2
EF1
 70
     8
280
     0
  0
ATTDEF
  5
18E
330
17C
100
AcDbEntity
  8
AM_6
100
AcDbText
 10
5.2145
 20
-2.375
 30
0.0
 40
0.5
  1
4.01
100
AcDbAttributeDefinition
  3

  2
A
 70
     8
280
     0
  0
ATTDEF
  5
18F
330
17C
100
AcDbEntity
  8
AM_6
100
AcDbText
 10
5.2145
 20
-2.875
 30
0.0
 40
0.5
  1
4.0100000
100
AcDbAttributeDefinition
  3

  2
A1
 70
     8
280
     0
  0
ATTDEF
  5
190
330
17C
100
AcDbEntity
  8
AM_6
100
AcDbText
 10
5.2145
 20
-3.375
 30
0.0
 40
0.5
  1
9.25
100
AcDbAttributeDefinition
  3

  2
B
 70
     8
280
     0
  0
ATTDEF
  5
191
330
17C
100
AcDbEntity
  8
AM_6
100
AcDbText
 10
5.2145
 20
-3.875
 30
0.0
 40
0.5
  1
9.2500000
100
AcDbAttributeDefinition
  3

  2
B1
 70
     8
280
     0
  0
ATTDEF
  5
192
330
17C
100
AcDbEntity
  8
AM_6
100
AcDbText
 10
5.2145
 20
-4.375
 30
0.0
 40
0.5
  1
5.25
100
AcDbAttributeDefinition
  3

  2
C
 70
     8
280
     0
  0
ATTDEF
  5
193
330
17C
100
AcDbEntity
  8
AM_6
100
AcDbText
 10
5.2145
 20
-4.875
 30
0.0
 40
0.5
  1
5.2500000
100
AcDbAttributeDefinition
  3

  2
C1
 70
     8
280
     0
  0
ATTDEF
  5
194
330
17C
100
AcDbEntity
  8
AM_6
100
AcDbText
 10
5.2145
 20
-5.375
 30
0.0
 40
0.5
  1
7
100
AcDbAttributeDefinition
  3

  2
D
 70
     8
280
     0
  0
ATTDEF
  5
195
330
17C
100
AcDbEntity
  8
AM_6
100
AcDbText
 10
5.2145
 20
-5.875
 30
0.0
 40
0.5
  1
7.0000000
100
AcDbAttributeDefinition
  3

  2
D1
 70
     8
280
     0
  0
ATTDEF
  5
196
330
17C
100
AcDbEntity
  8
AM_6
100
AcDbText
 10
5.2145
 20
-6.375
 30
0.0
 40
0.5
  1
3/4
100
AcDbAttributeDefinition
  3

  2
F
 70
     8
280
     0
  0
ATTDEF
  5
197
330
17C
100
AcDbEntity
  8
AM_6
100
AcDbText
 10
5.2145
 20
-6.875
 30
0.0
 40
0.5
  1
0.7500000
100
AcDbAttributeDefinition
  3

  2
F1
 70
     8
280
     0
  0
ATTDEF
  5
198
330
17C
100
AcDbEntity
  8
AM_6
100
AcDbText
 10
5.2145
 20
-7.375
 30
0.0
 40
0.5
  1
0.96
100
AcDbAttributeDefinition
  3

  2
G
 70
     8
280
     0
  0
ATTDEF
  5
199
330
17C
100
AcDbEntity
  8
AM_6
100
AcDbText
 10
5.2145
 20
-7.875
 30
0.0
 40
0.5
  1
0.960000
100
AcDbAttributeDefinition
  3

  2
G1
 70
     8
280
     0
  0
ATTDEF
  5
19A
330
17C
100
AcDbEntity
  8
AM_6
100
AcDbText
 10
5.2145
 20
-8.375
 30
0.0
 40
0.5
  1
1.87
100
AcDbAttributeDefinition
  3

  2
H
 70
     8
280
     0
  0
ATTDEF
  5
19B
330
17C
100
AcDbEntity
  8
AM_6
100
AcDbText
 10
5.2145
 20
-8.875
 30
0.0
 40
0.5
  1
1.8700000
100
AcDbAttributeDefinition
  3

  2
H1
 70
     8
280
     0
  0
ATTDEF
  5
19C
330
17C
100
AcDbEntity
  8
AM_6
100
AcDbText
 10
5.2145
 20
-9.375
 30
0.0
 40
0.5
  1
7.44
100
AcDbAttributeDefinition
  3

  2
J
 70
     8
280
     0
  0
ATTDEF
  5
19D
330
17C
100
AcDbEntity
  8
AM_6
100
AcDbText
 10
5.2145
 20
-9.875
 30
0.0
 40
0.5
  1
7.4400000
100
AcDbAttributeDefinition
  3

  2
J1
 70
     8
280
     0
  0
ATTDEF
  5
19E
330
17C
100
AcDbEntity
  8
AM_6
100
AcDbText
 10
5.2145
 20
-10.375
 30
0.0
 40
0.5
  1
9-1/2
100
AcDbAttributeDefinition
  3

  2
K
 70
     8
280
     0
  0
ATTDEF
  5
19F
330
17C
100
AcDbEntity
  8
AM_6
100
AcDbText
 10
5.2145
 20
-10.875
 30
0.0
 40
0.5
  1
9.5000000
100
AcDbAttributeDefinition
  3

  2
K1
 70
     8
280
     0
  0
ATTDEF
  5
1A0
330
17C
100
AcDbEntity
  8
AM_6
100
AcDbText
 10
5.2145
 20
-11.375
 30
0.0
 40
0.5
  1
5.5
100
AcDbAttributeDefinition
  3

  2
L
 70
     8
280
     0
  0
ATTDEF
  5
1A1
330
17C
100
AcDbEntity
  8
AM_6
100
AcDbText
 10
5.2145
 20
-11.875
 30
0.0
 40
0.5
  1
5.5000000
100
AcDbAttributeDefinition
  3

  2
L1
 70
     8
280
     0
  0
ATTDEF
  5
1A2
330
17C
100
AcDbEntity
  8
AM_6
100
AcDbText
 10
5.2145
 20
-12.375
 30
0.0
 40
0.5
  1
4.15
100
AcDbAttributeDefinition
  3

  2
N
 70
     8
280
     0
  0
ATTDEF
  5
1A3
330
17C
100
AcDbEntity
  8
AM_6
100
AcDbText
 10
5.2145
 20
-12.875
 30
0.0
 40
0.5
  1
4.150000
100
AcDbAttributeDefinition
  3

  2
N1
 70
     8
280
     0
  0
ATTDEF
  5
1A4
330
17C
100
AcDbEntity
  8
AM_6
100
AcDbText
 10
5.2145
 20
-13.375
 30
0.0
 40
0.5
  1
1.24
100
AcDbAttributeDefinition
  3

  2
P
 70
     8
280
     0
  0
ATTDEF
  5
1A5
330
17C
100
AcDbEntity
  8
AM_6
100
AcDbText
 10
5.2145
 20
-13.875
 30
0.0
 40
0.5
  1
1.240000
100
AcDbAttributeDefinition
  3

  2
P1
 70
     8
280
     0
  0
ATTDEF
  5
1A6
330
17C
100
AcDbEntity
  8
AM_6
100
AcDbText
 10
5.2145
 20
-14.375
 30
0.0
 40
0.5
  1
0.25
100
AcDbAttributeDefinition
  3

  2
X
 70
     8
280
     0
  0
ATTDEF
  5
1A7
330
17C
100
AcDbEntity
  8
AM_6
100
AcDbText
 10
5.2145
 20
-14.875
 30
0.0
 40
0.5
  1
0.250000
100
AcDbAttributeDefinition
  3

  2
X1
 70
     8
280
     0
  0
ATTDEF
  5
1A8
330
17C
100
AcDbEntity
  8
AM_6
100
AcDbText
 10
5.2145
 20
-15.375
 30
0.0
 40
0.5
  1
0.025
100
AcDbAttributeDefinition
  3

  2
Y
 70
     8
280
     0
  0
ATTDEF
  5
1A9
330
17C
100
AcDbEntity
  8
AM_6
100
AcDbText
 10
5.2145
 20
-15.875
 30
0.0
 40
0.5
  1
4.05
100
AcDbAttributeDefinition
  3

  2
Z
 70
     8
280
     0
  0
ATTDEF
  5
1AA
330
17C
100
AcDbEntity
  8
AM_6
100
AcDbText
 10
5.2145
 20
-16.375
 30
0.0
 40
0.5
  1
4.050000
100
AcDbAttributeDefinition
  3

  2
Z1
 70
     8
280
     0
  0
ATTDEF
  5
1AB
330
17C
100
AcDbEntity
  8
AM_6
100
AcDbText
 10
5.2145
 20
-16.875
 30
0.0
 40
0.5
  1
1/2-13
100
AcDbAttributeDefinition
  3

  2
CS
 70
     8
280
     0
  0
ATTDEF
  5
1AC
330
17C
100
AcDbEntity
  8
AM_6
100
AcDbText
 10
5.2145
 20
-17.375
 30
0.0
 40
0.5
  1
0.5000
100
AcDbAttributeDefinition
  3

  2
NDM
 70
     8
280
     0
  0
ATTDEF
  5
1AD
330
17C
100
AcDbEntity
  8
AM_6
100
AcDbText
 10
5.2145
 20
-17.875
 30
0.0
 40
0.5
  1
0.4170
100
AcDbAttributeDefinition
  3

  2
KDM
 70
     8
280
     0
  0
ATTDEF
  5
1AE
330
17C
100
AcDbEntity
  8
AM_6
100
AcDbText
 10
5.2145
 20
-18.375
 30
0.0
 40
0.5
  1
6.2992
100
AcDbAttributeDefinition
  3

  2
BORE
 70
     8
280
     0
  0
ATTDEF
  5
1AF
330
17C
100
AcDbEntity
  8
AM_6
100
AcDbText
 10
5.2145
 20
-18.875
 30
0.0
 40
0.5
  1
1
100
AcDbAttributeDefinition
  3

  2
ST1
 70
     8
280
     0
  0
ATTDEF
  5
1B0
330
17C
100
AcDbEntity
  8
AM_6
100
AcDbText
 10
5.2145
 20
-19.375
 30
0.0
 40
0.5
  1
baldor
100
AcDbAttributeDefinition
  3

  2
COMPANY
 70
     8
280
     0
  0
LINE
  5
1B1
330
17C
100
AcDbEntity
  8
AM_9
100
AcDbLine
 10
-1.745333333333333
 20
3.604619804034003
 30
0.0
 11
-1.87
 21
3.604619804034003
 31
0.0
  0
LINE
  5
1B2
330
17C
100
AcDbEntity
  8
AM_9
100
AcDbLine
 10
-1.87
 20
3.557728695358557
 30
0.0
 11
-1.745333333333333
 21
3.557728695358557
 31
0.0
  0
LINE
  5
1B3
330
17C
100
AcDbEntity
  8
AM_9
100
AcDbLine
 10
-1.745333333333333
 20
3.557728695358557
 30
0.0
 11
-1.745333333333333
 21
4.625
 31
0.0
  0
LINE
  5
1B4
330
17C
100
AcDbEntity
  8
AM_9
100
AcDbLine
 10
-1.745333333333333
 20
-3.604619804034004
 30
0.0
 11
-1.87
 21
-3.604619804034004
 31
0.0
  0
LINE
  5
1B5
330
17C
100
AcDbEntity
  8
AM_9
100
AcDbLine
 10
-1.745333333333333
 20
-3.557728695358558
 30
0.0
 11
-1.87
 21
-3.557728695358558
 31
0.0
  0
LINE
  5
1B6
330
17C
100
AcDbEntity
  8
AM_9
100
AcDbLine
 10
-0.9349999999999998
 20
-4.625
 30
0.0
 11
-0.9349999999999998
 21
-2.3125
 31
0.0
  0
LWPOLYLINE
  5
1B7
330
17C
100
AcDbEntity
  8
AM_9
100
AcDbPolyline
 90
       10
 70
     0
 43
0.0
 10
-0.2657759533930648
 20
-2.3125
 10
-0.2581625701158271
 20
-2.361296986315012
 10
-0.2446877739298344
 20
-2.405319884789833
 10
-0.2239692929517764
 20
-2.447678348364987
 10
-0.2042625649423276
 20
-2.475609835648159
 10
-0.1798075695370913
 20
-2.500673339884064
 10
-0.157953958676062
 20
-2.516742083788782
 10
-0.1331299855153988
 20
-2.529348574582571
 10
-0.1190821545049275
 20
-2.534176841368893
 10
-0.0801428571428572
 20
-2.539723368794326
  0
LINE
  5
1B8
330
17C
100
AcDbEntity
  8
AM_9
100
AcDbLine
 10
0.0000000000000001
 20
-2.539723368794326
 30
0.0
 11
-0.0801428571428572
 21
-2.539723368794326
 31
0.0
  0
LINE
  5
1B9
330
17C
100
AcDbEntity
  8
AM_9
100
AcDbLine
 10
-0.9349999999999998
 20
2.3125
 30
0.0
 11
-0.9349999999999998
 21
4.625
 31
0.0
  0
LWPOLYLINE
  5
1BA
330
17C
100
AcDbEntity
  8
AM_9
100
AcDbPolyline
 90
       10
 70
     0
 43
0.0
 10
-0.0801428571428572
 20
2.539723368794326
 10
-0.0911428513626218
 20
2.539285421849752
 10
-0.1368627071990797
 20
2.527796419638355
 10
-0.1779118655506935
 20
2.502278035783516
 10
-0.2025533932018269
 20
2.477659676067591
 10
-0.2234419336873109
 20
2.448547479694916
 10
-0.238585753447464
 20
2.419828312032459
 10
-0.2545076688498459
 20
2.375717190619466
 10
-0.2640177975568206
 20
2.328700277202612
 10
-0.2657759533930648
 20
2.3125
  0
LINE
  5
1BB
330
17C
100
AcDbEntity
  8
AM_9
100
AcDbLine
 10
-0.0801428571428572
 20
2.539723368794326
 30
0.0
 11
0.0000000000000001
 21
2.539723368794326
 31
0.0
  0
LINE
  5
1BC
330
17C
100
AcDbEntity
  8
AM_9
100
AcDbLine
 10
-0.0801428571428572
 20
2.539723368794326
 30
0.0
 11
-0.0801428571428571
 21
2.3125
 31
0.0
  0
LINE
  5
1BD
330
17C
100
AcDbEntity
  8
AM_9
100
AcDbLine
 10
-0.0801428571428571
 20
-2.3125
 30
0.0
 11
-0.0801428571428572
 21
-2.539723368794326
 31
0.0
  0
LINE
  5
1BE
330
17C
100
AcDbEntity
  8
AM_9
100
AcDbLine
 10
-1.745333333333333
 20
4.525556399218412
 30
0.0
 11
-1.87
 21
4.525556399218412
 31
0.0
  0
LINE
  5
1BF
330
17C
100
AcDbEntity
  8
AM_9
100
AcDbLine
 10
-1.745333333333333
 20
-4.525556399218413
 30
0.0
 11
-1.87
 21
-4.525556399218413
 31
0.0
  0
LINE
  5
1C0
330
17C
100
AcDbEntity
  8
AM_9
100
AcDbLine
 10
-1.745333333333333
 20
-3.557728695358558
 30
0.0
 11
-1.745333333333333
 21
-4.625
 31
0.0
  0
LINE
  5
1C1
330
17C
100
AcDbEntity
  8
AM_9
100
AcDbLine
 10
-4.29
 20
-3.1496
 30
0.0
 11
-0.935
 21
-3.1496
 31
0.0
  0
LINE
  5
1C2
330
17C
100
AcDbEntity
  8
AM_9
100
AcDbLine
 10
-0.935
 20
3.1496
 30
0.0
 11
-4.29
 21
3.1496
 31
0.0
  0
LINE
  5
1C3
330
17C
100
AcDbEntity
  8
AM_9
100
AcDbLine
 10
-1.745333333333333
 20
3.571683222791777
 30
0.0
 11
-1.87
 21
3.571683222791777
 31
0.0
  0
LINE
  5
1C4
330
17C
100
AcDbEntity
  8
AM_9
100
AcDbLine
 10
-1.745333333333333
 20
-3.571683230155734
 30
0.0
 11
-1.87
 21
-3.571683230155734
 31
0.0
  0
LINE
  5
1C5
330
17C
100
AcDbEntity
  8
AM_9
100
AcDbLine
 10
-1.87
 20
-3.72
 30
0.0
 11
-1.745333333333333
 21
-3.72
 31
0.0
  0
LINE
  5
1C6
330
17C
100
AcDbEntity
  8
AM_9
100
AcDbLine
 10
-1.745333333333333
 20
3.72
 30
0.0
 11
-1.87
 21
3.72
 31
0.0
  0
LINE
  5
1C7
330
17C
100
AcDbEntity
  8
AM_9
100
AcDbLine
 10
-1.87
 20
3.125
 30
0.0
 11
0.0000000000000002
 21
3.125
 31
0.0
  0
LINE
  5
1C8
330
17C
100
AcDbEntity
  8
AM_9
100
AcDbLine
 10
0.0000000000000002
 20
3.875
 30
0.0
 11
-1.87
 21
3.875
 31
0.0
  0
LINE
  5
1C9
330
17C
100
AcDbEntity
  8
AM_9
100
AcDbLine
 10
-1.87
 20
-3.875
 30
0.0
 11
0.0000000000000002
 21
-3.875
 31
0.0
  0
LINE
  5
1CA
330
17C
100
AcDbEntity
  8
AM_9
100
AcDbLine
 10
0.0000000000000002
 20
-3.125
 30
0.0
 11
-1.87
 21
-3.125
 31
0.0
  0
LINE
  5
1CB
330
17C
100
AcDbEntity
  8
AM_7
100
AcDbLine
 10
0.0934999999999998
 20
3.5
 30
0.0
 11
-1.9635
 21
3.5
 31
0.0
  0
LINE
  5
1CC
330
17C
100
AcDbEntity
  8
AM_7
100
AcDbLine
 10
0.0934999999999998
 20
-3.5
 30
0.0
 11
-1.9635
 21
-3.5
 31
0.0
  0
LINE
  5
1CD
330
17C
100
AcDbEntity
  8
AM_7
100
AcDbLine
 10
-5.45
 20
0.0
 30
0.0
 11
0.2145
 21
0.0
 31
0.0
  0
LINE
  5
1CE
330
17C
100
AcDbEntity
  8
AM_7
100
AcDbLine
 10
-3.08
 20
4.227
 30
0.0
 11
-3.08
 21
3.22108
 31
0.0
  0
LINE
  5
1CF
330
17C
100
AcDbEntity
  8
AM_4
100
AcDbLine
 10
-3.48
 20
3.82
 30
0.0
 11
-2.680000000621209
 21
3.82
 31
0.0
  0
ARC
  5
1D0
330
17C
100
AcDbEntity
  8
AM_4
100
AcDbCircle
 10
-2.68
 20
3.72
 30
0.0
 40
0.1000000000000001
100
AcDbArc
 50
0.0
 51
90.0
  0
ARC
  5
1D1
330
17C
100
AcDbEntity
  8
AM_4
100
AcDbCircle
 10
-3.480000000000001
 20
3.720000000000001
 30
0.0
 40
0.0999999999999992
100
AcDbArc
 50
90.0
 51
180.0
  0
LINE
  5
1D2
330
17C
100
AcDbEntity
  8
AM_4
100
AcDbLine
 10
-3.58
 20
3.72
 30
0.0
 11
-2.58
 21
3.72
 31
0.0
  0
LINE
  5
1D3
330
17C
100
AcDbEntity
  8
AM_4
100
AcDbLine
 10
-4.29
 20
-3.72
 30
0.0
 11
-4.29
 21
3.72
 31
0.0
  0
LINE
  5
1D4
330
17C
100
AcDbEntity
  8
AM_4
100
AcDbLine
 10
-1.745333333333333
 20
1.039941778862794
 30
0.0
 11
-1.87
 21
1.039941778862794
 31
0.0
  0
LINE
  5
1D5
330
17C
100
AcDbEntity
  8
AM_4
100
AcDbLine
 10
-1.745333333333333
 20
-1.039941790725573
 30
0.0
 11
-1.87
 21
-1.039941790725573
 31
0.0
  0
LWPOLYLINE
  5
1D6
330
17C
100
AcDbEntity
  8
AM_4
100
AcDbPolyline
 90
       20
 70
     0
 43
0.0
 10
-3.58
 20
3.72
 10
-3.573175040704123
 20
3.719088815929718
 10
-3.552108550117506
 20
3.716353923282073
 10
-3.518599400210657
 20
3.71224587465124
 10
-3.471708792026426
 20
3.70699821658317
 10
-3.414989175165933
 20
3.701434552640146
 10
-3.347032954357369
 20
3.695904029965175
 10
-3.273193053876579
 20
3.691303774558003
 10
-3.191546798010034
 20
3.687932034100722
 10
-3.10952849564765
 20
3.686362968028951
 10
-3.024255623625063
 20
3.686666168165682
 10
-2.943488247274967
 20
3.688771537874373
 10
-2.864320631661865
 20
3.692548928575861
 10
-2.793100790417524
 20
3.697392480716519
 10
-2.728033391709676
 20
3.703009653424008
 10
-2.674086458574668
 20
3.708526095784207
 10
-2.630269048554452
 20
3.713577510795771
 10
-2.60026509692597
 20
3.71733043691672
 10
-2.583249551442426
 20
3.719564626154807
 10
-2.58
 20
3.72
  0
LINE
  5
1D7
330
17C
100
AcDbEntity
  8
AM_4
100
AcDbLine
 10
-4.29
 20
-3.72
 30
0.0
 11
-1.87
 21
-3.72
 31
0.0
  0
LINE
  5
1D8
330
17C
100
AcDbEntity
  8
AM_4
100
AcDbLine
 10
-1.87
 20
3.72
 30
0.0
 11
-2.58
 21
3.72
 31
0.0
  0
LINE
  5
1D9
330
17C
100
AcDbEntity
  8
AM_4
100
AcDbLine
 10
-3.58
 20
3.72
 30
0.0
 11
-4.29
 21
3.72
 31
0.0
  0
LINE
  5
1DA
330
17C
100
AcDbEntity
  8
AM_4
100
AcDbLine
 10
-1.745333333333333
 20
-1.312785763433217
 30
0.0
 11
-1.87
 21
-1.312785763433217
 31
0.0
  0
LINE
  5
1DB
330
17C
100
AcDbEntity
  8
AM_4
100
AcDbLine
 10
-1.745333333333333
 20
1.312785763433218
 30
0.0
 11
-1.87
 21
1.312785763433218
 31
0.0
  0
LINE
  5
1DC
330
17C
100
AcDbEntity
  8
AM_4
100
AcDbLine
 10
0.0000000000000003
 20
2.3125
 30
0.0
 11
0.0000000000000002
 21
4.625
 31
0.0
  0
LINE
  5
1DD
330
17C
100
AcDbEntity
  8
AM_4
100
AcDbLine
 10
-1.87
 20
4.625
 30
0.0
 11
0.0000000000000002
 21
4.625
 31
0.0
  0
LINE
  5
1DE
330
17C
100
AcDbEntity
  8
AM_4
100
AcDbLine
 10
-1.87
 20
1.039941778862794
 30
0.0
 11
-1.87
 21
4.625
 31
0.0
  0
LINE
  5
1DF
330
17C
100
AcDbEntity
  8
AM_4
100
AcDbLine
 10
-1.745333333333333
 20
2.907894736842106
 30
0.0
 11
-1.87
 21
2.907894736842106
 31
0.0
  0
LINE
  5
1E0
330
17C
100
AcDbEntity
  8
AM_4
100
AcDbLine
 10
-1.745333333333333
 20
-2.907894736842107
 30
0.0
 11
-1.87
 21
-2.907894736842107
 31
0.0
  0
LINE
  5
1E1
330
17C
100
AcDbEntity
  8
AM_4
100
AcDbLine
 10
0.0000000000000002
 20
-4.625
 30
0.0
 11
0.0000000000000003
 21
-2.3125
 31
0.0
  0
LINE
  5
1E2
330
17C
100
AcDbEntity
  8
AM_4
100
AcDbLine
 10
-1.87
 20
-4.625
 30
0.0
 11
-1.87
 21
-1.039941790725573
 31
0.0
  0
LINE
  5
1E3
330
17C
100
AcDbEntity
  8
AM_4
100
AcDbLine
 10
-1.87
 20
-4.625
 30
0.0
 11
0.0000000000000002
 21
-4.625
 31
0.0
  0
LINE
  5
1E4
330
17C
100
AcDbEntity
  8
AM_4
100
AcDbLine
 10
-0.9349999999999997
 20
2.3125
 30
0.0
 11
0.0000000000000003
 21
2.3125
 31
0.0
  0
LINE
  5
1E5
330
17C
100
AcDbEntity
  8
AM_4
100
AcDbLine
 10
-0.9349999999999997
 20
-2.3125
 30
0.0
 11
0.0000000000000003
 21
-2.3125
 31
0.0
  0
LINE
  5
1E6
330
17C
100
AcDbEntity
  8
AM_4
100
AcDbLine
 10
-0.9349999999999997
 20
-2.3125
 30
0.0
 11
-0.9349999999999997
 21
2.3125
 31
0.0
  0
LINE
  5
1E7
330
17C
100
AcDbEntity
  8
AM_4
100
AcDbLine
 10
-1.87
 20
3.5
 30
0.0
 11
0.0000000000000003
 21
3.5
 31
0.0
  0
LINE
  5
1E8
330
17C
100
AcDbEntity
  8
AM_4
100
AcDbLine
 10
-1.745333333333333
 20
3.130230381673786
 30
0.0
 11
-1.87
 21
3.130230381673786
 31
0.0
  0
LINE
  5
1E9
330
17C
100
AcDbEntity
  8
AM_4
100
AcDbLine
 10
-1.745333333333333
 20
-3.130230381673786
 30
0.0
 11
-1.745333333333333
 21
3.130230381673786
 31
0.0
  0
LINE
  5
1EA
330
17C
100
AcDbEntity
  8
AM_4
100
AcDbLine
 10
-1.87
 20
-3.130230381673786
 30
0.0
 11
-1.745333333333333
 21
-3.130230381673786
 31
0.0
  0
LINE
  5
1EB
330
17C
100
AcDbEntity
  8
AM_4
100
AcDbLine
 10
-1.87
 20
-3.499999999999999
 30
0.0
 11
0.0000000000000003
 21
-3.499999999999999
 31
0.0
  0
ENDBLK
  5
17F
330
17C
100
AcDbEntity
  8
0
100
AcDbBlockEnd
  0
ENDSEC
  0
SECTION
  2
ENTITIES
  0
INSERT
  5
6F
330
1F
100
AcDbEntity
  8
0
100
AcDbBlockReference
  2
1_071479_2
 10
0.0
 20
0.0
 30
0.0
  0
POINT
  5
1ED
330
1F
100
AcDbEntity
  8
ConnectionPoints
100
AcDbPoint
 10
-5.25
 20
0.0
 30
0.0000000000000003
  0
POINT
  5
1EE
330
1F
100
AcDbEntity
  8
ConnectionPoints
100
AcDbPoint
 10
-0.2160000000000002
 20
0.0
 30
0.0
  0
POINT
  5
1EF
330
1F
100
AcDbEntity
  8
ConnectionPoints
100
AcDbPoint
 10
-5.25
 20
0.0
 30
0.0000000000000003
  0
POINT
  5
1F0
330
1F
100
AcDbEntity
  8
ConnectionPoints
100
AcDbPoint
 10
-3.08
 20
3.82
 30
0.0000000000000002
  0
POINT
  5
1F1
330
1F
100
AcDbEntity
  8
ConnectionPoints
100
AcDbPoint
 10
-3.08
 20
3.82
 30
0.0000000000000002
  0
POINT
  5
1F2
330
1F
100
AcDbEntity
  8
ConnectionPoints
100
AcDbPoint
 10
-5.0
 20
0.0
 30
0.0000000000000003
  0
POINT
  5
1F3
330
1F
100
AcDbEntity
  8
ConnectionPoints
100
AcDbPoint
 10
-5.25
 20
0.0
 30
0.0000000000000003
  0
ENDSEC
  0
SECTION
  2
OBJECTS
  0
DICTIONARY
  5
C
330
0
100
AcDbDictionary
281
     1
  3
ACAD_DETAILVIEWSTYLE
350
1FB
  3
ACAD_GROUP
350
D
  3
ACAD_LAYOUT
350
1A
  3
ACAD_MATERIAL
350
43
  3
ACAD_MLEADERSTYLE
350
6B
  3
ACAD_MLINESTYLE
350
17
  3
ACAD_PLOTSETTINGS
350
19
  3
ACAD_PLOTSTYLENAME
350
E
  3
ACAD_SCALELIST
350
47
  3
ACAD_SECTIONVIEWSTYLE
350
1FC
  3
ACAD_TABLESTYLE
350
69
  3
ACAD_VISUALSTYLE
350
2A
  3
ACDB_RECOMPOSE_DATA
350
1F8
  3
AcDbVariableDictionary
350
1F4
  0
SUN
  5
6D
330
29
100
AcDbSun
 90
        1
290
     0
 63
     7
421
 16777215
 40
1.0
291
     1
 91
  2455826
 92
 54000000
292
     0
 70
     2
 71
   256
280
     1
  0
DICTIONARY
  5
1FB
102
{ACAD_REACTORS
330
C
102
}
330
C
100
AcDbDictionary
281
     1
  0
DICTIONARY
  5
D
102
{ACAD_REACTORS
330
C
102
}
330
C
100
AcDbDictionary
281
     1
  0
DICTIONARY
  5
1A
102
{ACAD_REACTORS
330
C
102
}
330
C
100
AcDbDictionary
281
     1
  3
Layout1
350
1E
  3
Layout2
350
26
  3
Model
350
22
  0
DICTIONARY
  5
43
102
{ACAD_REACTORS
330
C
102
}
330
C
100
AcDbDictionary
281
     1
  3
ByBlock
350
45
  3
ByLayer
350
44
  3
Global
350
46
  0
DICTIONARY
  5
6B
102
{ACAD_REACTORS
330
C
102
}
330
C
100
AcDbDictionary
281
     1
  3
Standard
350
6C
  0
DICTIONARY
  5
17
102
{ACAD_REACTORS
330
C
102
}
330
C
100
AcDbDictionary
281
     1
  3
Standard
350
18
  0
DICTIONARY
  5
19
102
{ACAD_REACTORS
330
C
102
}
330
C
100
AcDbDictionary
281
     1
  0
ACDBDICTIONARYWDFLT
  5
E
102
{ACAD_REACTORS
330
C
102
}
330
C
100
AcDbDictionary
281
     1
  3
Normal
350
F
100
AcDbDictionaryWithDefault
340
F
  0
DICTIONARY
  5
47
102
{ACAD_REACTORS
330
C
102
}
330
C
100
AcDbDictionary
281
     1
  3
A0
350
48
  3
A1
350
49
  3
A2
350
4A
  3
A3
350
4B
  3
A4
350
4C
  3
A5
350
4D
  3
A6
350
4E
  3
A7
350
4F
  3
A8
350
50
  3
A9
350
51
  3
B0
350
52
  3
B1
350
53
  3
B2
350
54
  3
B3
350
55
  3
B4
350
56
  3
B5
350
57
  3
B6
350
58
  3
B7
350
59
  3
B8
350
5A
  3
B9
350
5B
  3
C0
350
5C
  3
C1
350
5D
  3
C2
350
5E
  3
C3
350
5F
  3
C4
350
60
  3
C5
350
61
  3
C6
350
62
  3
C7
350
63
  3
C8
350
64
  3
C9
350
65
  3
D0
350
66
  3
D1
350
67
  3
D2
350
68
  0
DICTIONARY
  5
1FC
102
{ACAD_REACTORS
330
C
102
}
330
C
100
AcDbDictionary
281
     1
  0
DICTIONARY
  5
69
102
{ACAD_REACTORS
330
C
102
}
330
C
100
AcDbDictionary
281
     1
  3
Standard
350
6A
  0
DICTIONARY
  5
2A
102
{ACAD_REACTORS
330
C
102
}
330
C
100
AcDbDictionary
281
     1
  3
2dWireframe
350
2F
  3
Basic
350
32
  3
Brighten
350
36
  3
ColorChange
350
3A
  3
Conceptual
350
34
  3
Dim
350
35
  3
EdgeColorOff
350
3D
  3
Facepattern
350
39
  3
Flat
350
2B
  3
FlatWithEdges
350
2C
  3
Gouraud
350
2D
  3
GouraudWithEdges
350
2E
  3
Hidden
350
31
  3
JitterOff
350
3B
  3
Linepattern
350
38
  3
OverhangOff
350
3C
  3
Realistic
350
33
  3
Shaded
350
42
  3
Shaded with edges
350
41
  3
Shades of Gray
350
3E
  3
Sketchy
350
3F
  3
Thicken
350
37
  3
Wireframe
350
30
  3
X-Ray
350
40
  0
XRECORD
  5
1F8
102
{ACAD_REACTORS
330
C
102
}
330
C
100
AcDbXrecord
280
     1
 90
        1
330
6A
  0
DICTIONARY
  5
1F4
102
{ACAD_REACTORS
330
C
102
}
330
C
100
AcDbDictionary
281
     1
  3
CANNOSCALE
350
1F5
  3
CMLEADERSTYLE
350
1FA
  3
CTABLESTYLE
350
1F9
  0
LAYOUT
  5
1E
102
{ACAD_REACTORS
330
1A
102
}
330
1A
100
AcDbPlotSettings
  1

  2
none_device
  4

  6

 40
0.0
 41
0.0
 42
0.0
 43
0.0
 44
0.0
 45
0.0
 46
0.0
 47
0.0
 48
0.0
 49
0.0
140
0.0
141
0.0
142
1.0
143
1.0
 70
   688
 72
     0
 73
     0
 74
     5
  7

 75
    16
 76
     0
 77
     2
 78
   300
147
1.0
148
0.0
149
0.0
100
AcDbLayout
  1
Layout1
 70
     1
 71
     1
 10
0.0
 20
0.0
 11
12.0
 21
9.0
 12
0.0
 22
0.0
 32
0.0
 14
1.000000000000000E+20
 24
1.000000000000000E+20
 34
1.000000000000000E+20
 15
-1.000000000000000E+20
 25
-1.000000000000000E+20
 35
-1.000000000000000E+20
146
0.0
 13
0.0
 23
0.0
 33
0.0
 16
1.0
 26
0.0
 36
0.0
 17
0.0
 27
1.0
 37
0.0
 76
     0
330
1B
  0
LAYOUT
  5
26
102
{ACAD_REACTORS
330
1A
102
}
330
1A
100
AcDbPlotSettings
  1

  2
none_device
  4

  6

 40
0.0
 41
0.0
 42
0.0
 43
0.0
 44
0.0
 45
0.0
 46
0.0
 47
0.0
 48
0.0
 49
0.0
140
0.0
141
0.0
142
1.0
143
1.0
 70
   688
 72
     0
 73
     0
 74
     5
  7

 75
    16
 76
     0
 77
     2
 78
   300
147
1.0
148
0.0
149
0.0
100
AcDbLayout
  1
Layout2
 70
     1
 71
     2
 10
0.0
 20
0.0
 11
0.0
 21
0.0
 12
0.0
 22
0.0
 32
0.0
 14
0.0
 24
0.0
 34
0.0
 15
0.0
 25
0.0
 35
0.0
146
0.0
 13
0.0
 23
0.0
 33
0.0
 16
1.0
 26
0.0
 36
0.0
 17
0.0
 27
1.0
 37
0.0
 76
     0
330
23
  0
LAYOUT
  5
22
102
{ACAD_REACTORS
330
1A
102
}
330
1A
100
AcDbPlotSettings
  1

  2
none_device
  4
Letter_(8.50_x_11.00_Inches)
  6

 40
6.35
 41
6.35
 42
6.35000508
 43
6.35000508
 44
215.9
 45
279.4
 46
0.0
 47
0.0
 48
0.0
 49
0.0
140
0.0
141
0.0
142
1.0
143
1.0
 70
  1712
 72
     0
 73
     0
 74
     0
  7

 75
     0
 76
     0
 77
     2
 78
   300
147
1.0
148
0.0
149
0.0
100
AcDbLayout
  1
Model
 70
     1
 71
     0
 10
0.0
 20
0.0
 11
12.0
 21
9.0
 12
0.0
 22
0.0
 32
0.0
 14
1.000000000000000E+20
 24
1.000000000000000E+20
 34
1.000000000000000E+20
 15
-1.000000000000000E+20
 25
-1.000000000000000E+20
 35
-1.000000000000000E+20
146
0.0
 13
0.0
 23
0.0
 33
0.0
 16
1.0
 26
0.0
 36
0.0
 17
0.0
 27
1.0
 37
0.0
 76
     0
330
1F
331
29
  0
MATERIAL
  5
45
102
{ACAD_REACTORS
330
43
102
}
330
43
100
AcDbMaterial
  1
ByBlock
 72
     1
 94
      127
  0
MATERIAL
  5
44
102
{ACAD_REACTORS
330
43
102
}
330
43
100
AcDbMaterial
  1
ByLayer
 72
     1
 94
      127
  0
MATERIAL
  5
46
102
{ACAD_REACTORS
330
43
102
}
330
43
100
AcDbMaterial
  1
Global
 72
     1
 94
      127
  0
MLEADERSTYLE
  5
6C
102
{ACAD_REACTORS
330
6B
102
}
330
6B
100
AcDbMLeaderStyle
179
     2
170
     2
171
     1
172
     0
 90
        2
 40
0.0
 41
0.0
173
     1
 91
-1056964608
340
14
 92
       -2
290
     1
 42
0.09
291
     1
 43
0.36
  3
Standard
341
0
 44
0.18
300

342
11
174
     1
178
     6
175
     1
176
     0
 93
-1056964608
 45
0.18
292
     0
297
     0
 46
0.18
343
0
 94
-1056964608
 47
1.0
 49
1.0
140
1.0
293
     1
141
0.0
294
     1
177
     0
142
1.0
295
     0
296
     0
143
0.125
271
     0
272
     9
273
     9
298
     0
  0
MLINESTYLE
  5
18
102
{ACAD_REACTORS
330
17
102
}
330
17
100
AcDbMlineStyle
  2
Standard
 70
     0
  3

 62
   256
 51
90.0
 52
90.0
 71
     2
 49
0.5
 62
   256
  6
BYLAYER
 49
-0.5
 62
   256
  6
BYLAYER
  0
ACDBPLACEHOLDER
  5
F
102
{ACAD_REACTORS
330
E
102
}
330
E
  0
SCALE
  5
48
102
{ACAD_REACTORS
330
47
102
}
330
47
100
AcDbScale
 70
     0
300
1:1
140
1.0
141
1.0
290
     1
  0
SCALE
  5
49
102
{ACAD_REACTORS
330
47
102
}
330
47
100
AcDbScale
 70
     0
300
1:2
140
1.0
141
2.0
290
     0
  0
SCALE
  5
4A
102
{ACAD_REACTORS
330
47
102
}
330
47
100
AcDbScale
 70
     0
300
1:4
140
1.0
141
4.0
290
     0
  0
SCALE
  5
4B
102
{ACAD_REACTORS
330
47
102
}
330
47
100
AcDbScale
 70
     0
300
1:5
140
1.0
141
5.0
290
     0
  0
SCALE
  5
4C
102
{ACAD_REACTORS
330
47
102
}
330
47
100
AcDbScale
 70
     0
300
1:8
140
1.0
141
8.0
290
     0
  0
SCALE
  5
4D
102
{ACAD_REACTORS
330
47
102
}
330
47
100
AcDbScale
 70
     0
300
1:10
140
1.0
141
10.0
290
     0
  0
SCALE
  5
4E
102
{ACAD_REACTORS
330
47
102
}
330
47
100
AcDbScale
 70
     0
300
1:16
140
1.0
141
16.0
290
     0
  0
SCALE
  5
4F
102
{ACAD_REACTORS
330
47
102
}
330
47
100
AcDbScale
 70
     0
300
1:20
140
1.0
141
20.0
290
     0
  0
SCALE
  5
50
102
{ACAD_REACTORS
330
47
102
}
330
47
100
AcDbScale
 70
     0
300
1:30
140
1.0
141
30.0
290
     0
  0
SCALE
  5
51
102
{ACAD_REACTORS
330
47
102
}
330
47
100
AcDbScale
 70
     0
300
1:40
140
1.0
141
40.0
290
     0
  0
SCALE
  5
52
102
{ACAD_REACTORS
330
47
102
}
330
47
100
AcDbScale
 70
     0
300
1:50
140
1.0
141
50.0
290
     0
  0
SCALE
  5
53
102
{ACAD_REACTORS
330
47
102
}
330
47
100
AcDbScale
 70
     0
300
1:100
140
1.0
141
100.0
290
     0
  0
SCALE
  5
54
102
{ACAD_REACTORS
330
47
102
}
330
47
100
AcDbScale
 70
     0
300
2:1
140
2.0
141
1.0
290
     0
  0
SCALE
  5
55
102
{ACAD_REACTORS
330
47
102
}
330
47
100
AcDbScale
 70
     0
300
4:1
140
4.0
141
1.0
290
     0
  0
SCALE
  5
56
102
{ACAD_REACTORS
330
47
102
}
330
47
100
AcDbScale
 70
     0
300
8:1
140
8.0
141
1.0
290
     0
  0
SCALE
  5
57
102
{ACAD_REACTORS
330
47
102
}
330
47
100
AcDbScale
 70
     0
300
10:1
140
10.0
141
1.0
290
     0
  0
SCALE
  5
58
102
{ACAD_REACTORS
330
47
102
}
330
47
100
AcDbScale
 70
     0
300
100:1
140
100.0
141
1.0
290
     0
  0
SCALE
  5
59
102
{ACAD_REACTORS
330
47
102
}
330
47
100
AcDbScale
 70
     0
300
1/128" = 1'-0"
140
0.0078125
141
12.0
290
     0
  0
SCALE
  5
5A
102
{ACAD_REACTORS
330
47
102
}
330
47
100
AcDbScale
 70
     0
300
1/64" = 1'-0"
140
0.015625
141
12.0
290
     0
  0
SCALE
  5
5B
102
{ACAD_REACTORS
330
47
102
}
330
47
100
AcDbScale
 70
     0
300
1/32" = 1'-0"
140
0.03125
141
12.0
290
     0
  0
SCALE
  5
5C
102
{ACAD_REACTORS
330
47
102
}
330
47
100
AcDbScale
 70
     0
300
1/16" = 1'-0"
140
0.0625
141
12.0
290
     0
  0
SCALE
  5
5D
102
{ACAD_REACTORS
330
47
102
}
330
47
100
AcDbScale
 70
     0
300
3/32" = 1'-0"
140
0.09375
141
12.0
290
     0
  0
SCALE
  5
5E
102
{ACAD_REACTORS
330
47
102
}
330
47
100
AcDbScale
 70
     0
300
1/8" = 1'-0"
140
0.125
141
12.0
290
     0
  0
SCALE
  5
5F
102
{ACAD_REACTORS
330
47
102
}
330
47
100
AcDbScale
 70
     0
300
3/16" = 1'-0"
140
0.1875
141
12.0
290
     0
  0
SCALE
  5
60
102
{ACAD_REACTORS
330
47
102
}
330
47
100
AcDbScale
 70
     0
300
1/4" = 1'-0"
140
0.25
141
12.0
290
     0
  0
SCALE
  5
61
102
{ACAD_REACTORS
330
47
102
}
330
47
100
AcDbScale
 70
     0
300
3/8" = 1'-0"
140
0.375
141
12.0
290
     0
  0
SCALE
  5
62
102
{ACAD_REACTORS
330
47
102
}
330
47
100
AcDbScale
 70
     0
300
1/2" = 1'-0"
140
0.5
141
12.0
290
     0
  0
SCALE
  5
63
102
{ACAD_REACTORS
330
47
102
}
330
47
100
AcDbScale
 70
     0
300
3/4" = 1'-0"
140
0.75
141
12.0
290
     0
  0
SCALE
  5
64
102
{ACAD_REACTORS
330
47
102
}
330
47
100
AcDbScale
 70
     0
300
1" = 1'-0"
140
1.0
141
12.0
290
     0
  0
SCALE
  5
65
102
{ACAD_REACTORS
330
47
102
}
330
47
100
AcDbScale
 70
     0
300
1-1/2" = 1'-0"
140
1.5
141
12.0
290
     0
  0
SCALE
  5
66
102
{ACAD_REACTORS
330
47
102
}
330
47
100
AcDbScale
 70
     0
300
3" = 1'-0"
140
3.0
141
12.0
290
     0
  0
SCALE
  5
67
102
{ACAD_REACTORS
330
47
102
}
330
47
100
AcDbScale
 70
     0
300
6" = 1'-0"
140
6.0
141
12.0
290
     0
  0
SCALE
  5
68
102
{ACAD_REACTORS
330
47
102
}
330
47
100
AcDbScale
 70
     0
300
1'-0" = 1'-0"
140
12.0
141
12.0
290
     0
  0
TABLESTYLE
  5
6A
102
{ACAD_REACTORS
330
69
102
}
102
{ACAD_XDICTIONARY
360
1F6
102
}
330
69
100
AcDbTableStyle
  3
Standard
 70
     0
 71
     0
 40
0.06
 41
0.06
280
     0
281
     0
  7
Standard
140
0.18
170
     2
 62
     0
 63
   257
283
     0
 90
        4
 91
        0
  1

274
    -2
284
     1
 64
     0
275
    -2
285
     1
 65
     0
276
    -2
286
     1
 66
     0
277
    -2
287
     1
 67
     0
278
    -2
288
     1
 68
     0
279
    -2
289
     1
 69
     0
  7
Standard
140
0.25
170
     5
 62
     0
 63
   257
283
     0
 90
        4
 91
        0
  1

274
    -2
284
     1
 64
     0
275
    -2
285
     1
 65
     0
276
    -2
286
     1
 66
     0
277
    -2
287
     1
 67
     0
278
    -2
288
     1
 68
     0
279
    -2
289
     1
 69
     0
  7
Standard
140
0.18
170
     5
 62
     0
 63
   257
283
     0
 90
        4
 91
        0
  1

274
    -2
284
     1
 64
     0
275
    -2
285
     1
 65
     0
276
    -2
286
     1
 66
     0
277
    -2
287
     1
 67
     0
278
    -2
288
     1
 68
     0
279
    -2
289
     1
 69
     0
  0
VISUALSTYLE
  5
2F
102
{ACAD_REACTORS
330
2A
102
}
330
2A
100
AcDbVisualStyle
  2
2dWireframe
 70
     4
177
     3
291
     0
 70
    58
 90
        0
176
     1
 90
        2
176
     1
 90
        0
176
     1
 90
        0
176
     1
 40
0.6
176
     1
 40
30.0
176
     1
 62
     7
420
 16777215
176
     1
 90
        1
176
     1
 90
        4
176
     1
 62
     7
176
     1
 62
   257
176
     1
 90
        1
176
     1
 90
        1
176
     1
 40
1.0
176
     1
 90
        0
176
     1
 62
   257
176
     1
 40
1.0
176
     1
 90
        1
176
     1
 90
        6
176
     1
 90
        2
176
     1
 62
     7
176
     1
 90
        5
176
     1
 90
        0
176
     1
 90
        0
176
     1
290
     0
176
     1
 90
        1
176
     1
 40
0.0
176
     1
 90
        0
176
     1
290
     1
176
     1
290
     1
176
     1
290
     0
176
     1
290
     0
176
     1
290
     0
176
     1
290
     0
176
     1
290
     0
176
     1
290
     0
176
     1
290
     0
176
     1
 90
       50
176
     1
 40
0.0
176
     1
 40
1.0
176
     1
 90
        0
176
     1
 62
    18
420
        0
176
     1
 90
       50
176
     1
 90
        3
176
     1
 62
     5
420
      255
176
     1
290
     0
176
     1
 90
       50
176
     1
 90
       50
176
     1
 90
       50
176
     1
290
     0
176
     1
 90
       50
176
     1
 62
   256
176
     0
 40
1.0
176
     0
 90
        2
176
     1
  1
strokes_ogs.tif
176
     1
290
     0
176
     1
 40
1.0
176
     1
 40
1.0
176
     1
  0
VISUALSTYLE
  5
32
102
{ACAD_REACTORS
330
2A
102
}
330
2A
100
AcDbVisualStyle
  2
Basic
 70
     7
177
     3
291
     1
 70
    58
 90
        1
176
     1
 90
        0
176
     1
 90
        1
176
     1
 90
        0
176
     1
 40
0.6
176
     1
 40
30.0
176
     1
 62
     7
420
 16777215
176
     1
 90
        0
176
     1
 90
        4
176
     1
 62
     7
176
     1
 62
   257
176
     1
 90
        1
176
     1
 90
        1
176
     1
 40
1.0
176
     1
 90
        8
176
     1
 62
     7
176
     1
 40
1.0
176
     1
 90
        1
176
     1
 90
        6
176
     1
 90
        2
176
     1
 62
     7
176
     1
 90
        5
176
     1
 90
        0
176
     1
 90
        0
176
     1
290
     0
176
     1
 90
        1
176
     1
 40
0.0
176
     1
 90
        0
176
     1
290
     0
176
     1
290
     1
176
     1
290
     1
176
     1
290
     0
176
     1
290
     0
176
     1
290
     0
176
     1
290
     0
176
     1
290
     0
176
     1
290
     0
176
     1
 90
       50
176
     1
 40
0.0
176
     1
 40
1.0
176
     1
 90
        0
176
     1
 62
    18
420
        0
176
     1
 90
       50
176
     1
 90
        3
176
     1
 62
     5
420
      255
176
     1
290
     0
176
     1
 90
       50
176
     1
 90
       50
176
     1
 90
       50
176
     1
290
     0
176
     1
 90
       50
176
     1
 62
   256
176
     0
 40
1.0
176
     0
 90
        2
176
     1
  1
strokes_ogs.tif
176
     1
290
     0
176
     1
 40
1.0
176
     1
 40
1.0
176
     1
  0
VISUALSTYLE
  5
36
102
{ACAD_REACTORS
330
2A
102
}
330
2A
100
AcDbVisualStyle
  2
Brighten
 70
    12
177
     3
291
     1
 70
    58
 90
        2
176
     1
 90
        2
176
     1
 90
        0
176
     1
 90
        0
176
     1
 40
0.6
176
     1
 40
30.0
176
     1
 62
     7
420
 16777215
176
     1
 90
        1
176
     1
 90
        4
176
     1
 62
     7
176
     1
 62
   257
176
     1
 90
        1
176
     1
 90
        1
176
     1
 40
1.0
176
     1
 90
        8
176
     1
 62
     7
176
     1
 40
1.0
176
     1
 90
        1
176
     1
 90
        6
176
     1
 90
        2
176
     1
 62
     7
176
     1
 90
        5
176
     1
 90
        0
176
     1
 90
        0
176
     1
290
     0
176
     1
 90
        1
176
     1
 40
50.0
176
     1
 90
        0
176
     1
290
     0
176
     1
290
     1
176
     1
290
     1
176
     1
290
     0
176
     1
290
     0
176
     1
290
     0
176
     1
290
     0
176
     1
290
     0
176
     1
290
     0
176
     1
 90
       50
176
     1
 40
0.0
176
     1
 40
1.0
176
     1
 90
        0
176
     1
 62
    18
420
        0
176
     1
 90
       50
176
     1
 90
        3
176
     1
 62
     5
420
      255
176
     1
290
     0
176
     1
 90
       50
176
     1
 90
       50
176
     1
 90
       50
176
     1
290
     0
176
     1
 90
       50
176
     1
 62
   256
176
     0
 40
1.0
176
     0
 90
        2
176
     1
  1
strokes_ogs.tif
176
     1
290
     0
176
     1
 40
1.0
176
     1
 40
1.0
176
     1
  0
VISUALSTYLE
  5
3A
102
{ACAD_REACTORS
330
2A
102
}
330
2A
100
AcDbVisualStyle
  2
ColorChange
 70
    16
177
     3
291
     1
 70
    58
 90
        2
176
     1
 90
        2
176
     1
 90
        3
176
     1
 90
        0
176
     1
 40
0.6
176
     1
 40
30.0
176
     1
 62
     8
420
  8421504
176
     1
 90
        1
176
     1
 90
        4
176
     1
 62
     7
176
     1
 62
   257
176
     1
 90
        1
176
     1
 90
        1
176
     1
 40
1.0
176
     1
 90
        8
176
     1
 62
     8
420
  8421504
176
     1
 40
1.0
176
     1
 90
        1
176
     1
 90
        6
176
     1
 90
        2
176
     1
 62
     7
176
     1
 90
        5
176
     1
 90
        0
176
     1
 90
        0
176
     1
290
     0
176
     1
 90
        1
176
     1
 40
0.0
176
     1
 90
        0
176
     1
290
     0
176
     1
290
     1
176
     1
290
     1
176
     1
290
     0
176
     1
290
     0
176
     1
290
     0
176
     1
290
     0
176
     1
290
     0
176
     1
290
     0
176
     1
 90
       50
176
     1
 40
0.0
176
     1
 40
1.0
176
     1
 90
        0
176
     1
 62
    18
420
        0
176
     1
 90
       50
176
     1
 90
        3
176
     1
 62
     5
420
      255
176
     1
290
     0
176
     1
 90
       50
176
     1
 90
       50
176
     1
 90
       50
176
     1
290
     0
176
     1
 90
       50
176
     1
 62
   256
176
     0
 40
1.0
176
     0
 90
        2
176
     1
  1
strokes_ogs.tif
176
     1
290
     0
176
     1
 40
1.0
176
     1
 40
1.0
176
     1
  0
VISUALSTYLE
  5
34
102
{ACAD_REACTORS
330
2A
102
}
330
2A
100
AcDbVisualStyle
  2
Conceptual
 70
     9
177
     3
291
     0
 70
    58
 90
        3
176
     1
 90
        2
176
     1
 90
        0
176
     1
 90
        0
176
     1
 40
0.6
176
     1
 40
30.0
176
     1
 62
     7
420
 16777215
176
     1
 90
        2
176
     1
 90
        2
176
     1
 62
     7
176
     1
 62
   257
176
     1
 90
        1
176
     1
 90
        1
176
     1
 40
179.0
176
     1
 90
        8
176
     1
 62
     7
176
     1
 40
1.0
176
     1
 90
        1
176
     1
 90
        6
176
     1
 90
        2
176
     1
 62
     7
176
     1
 90
        3
176
     1
 90
        0
176
     1
 90
        0
176
     1
290
     0
176
     1
 90
        1
176
     1
 40
0.0
176
     1
 90
        0
176
     1
290
     0
176
     1
290
     1
176
     1
290
     1
176
     1
290
     0
176
     1
290
     0
176
     1
290
     0
176
     1
290
     0
176
     1
290
     0
176
     1
290
     0
176
     1
 90
       50
176
     1
 40
0.0
176
     1
 40
1.0
176
     1
 90
        0
176
     1
 62
    18
420
        0
176
     1
 90
       50
176
     1
 90
        3
176
     1
 62
     5
420
      255
176
     1
290
     0
176
     1
 90
       50
176
     1
 90
       50
176
     1
 90
       50
176
     1
290
     0
176
     1
 90
       50
176
     1
 62
   256
176
     0
 40
1.0
176
     0
 90
        2
176
     1
  1
strokes_ogs.tif
176
     1
290
     0
176
     1
 40
1.0
176
     1
 40
1.0
176
     1
  0
VISUALSTYLE
  5
35
102
{ACAD_REACTORS
330
2A
102
}
330
2A
100
AcDbVisualStyle
  2
Dim
 70
    11
177
     3
291
     1
 70
    58
 90
        2
176
     1
 90
        2
176
     1
 90
        0
176
     1
 90
        0
176
     1
 40
0.6
176
     1
 40
30.0
176
     1
 62
     7
420
 16777215
176
     1
 90
        1
176
     1
 90
        4
176
     1
 62
     7
176
     1
 62
   257
176
     1
 90
        1
176
     1
 90
        1
176
     1
 40
1.0
176
     1
 90
        8
176
     1
 62
     7
176
     1
 40
1.0
176
     1
 90
        1
176
     1
 90
        6
176
     1
 90
        2
176
     1
 62
     7
176
     1
 90
        5
176
     1
 90
        0
176
     1
 90
        0
176
     1
290
     0
176
     1
 90
        1
176
     1
 40
-50.0
176
     1
 90
        0
176
     1
290
     0
176
     1
290
     1
176
     1
290
     1
176
     1
290
     0
176
     1
290
     0
176
     1
290
     0
176
     1
290
     0
176
     1
290
     0
176
     1
290
     0
176
     1
 90
       50
176
     1
 40
0.0
176
     1
 40
1.0
176
     1
 90
        0
176
     1
 62
    18
420
        0
176
     1
 90
       50
176
     1
 90
        3
176
     1
 62
     5
420
      255
176
     1
290
     0
176
     1
 90
       50
176
     1
 90
       50
176
     1
 90
       50
176
     1
290
     0
176
     1
 90
       50
176
     1
 62
   256
176
     0
 40
1.0
176
     0
 90
        2
176
     1
  1
strokes_ogs.tif
176
     1
290
     0
176
     1
 40
1.0
176
     1
 40
1.0
176
     1
  0
VISUALSTYLE
  5
3D
102
{ACAD_REACTORS
330
2A
102
}
330
2A
100
AcDbVisualStyle
  2
EdgeColorOff
 70
    22
177
     3
291
     1
 70
    58
 90
        2
176
     0
 90
        2
176
     0
 90
        0
176
     0
 90
        0
176
     0
 40
0.6
176
     0
 40
30.0
176
     0
 62
     7
420
 16777215
176
     0
 90
        1
176
     0
 90
        4
176
     0
 62
     7
176
     0
 62
   257
176
     0
 90
        1
176
     0
 90
        1
176
     0
 40
1.0
176
     0
 90
        8
176
     2
 62
     7
176
     0
 40
1.0
176
     0
 90
        1
176
     0
 90
        6
176
     0
 90
        2
176
     0
 62
     7
176
     0
 90
        5
176
     0
 90
        0
176
     0
 90
        0
176
     0
290
     0
176
     0
 90
        1
176
     0
 40
0.0
176
     0
 90
        0
176
     0
290
     0
176
     0
290
     1
176
     0
290
     1
176
     0
290
     0
176
     0
290
     0
176
     0
290
     0
176
     0
290
     0
176
     0
290
     0
176
     0
290
     0
176
     0
 90
       50
176
     0
 40
0.0
176
     0
 40
1.0
176
     0
 90
        0
176
     0
 62
    18
420
        0
176
     0
 90
       50
176
     0
 90
        3
176
     0
 62
     5
420
      255
176
     0
290
     0
176
     0
 90
       50
176
     0
 90
       50
176
     0
 90
       50
176
     0
290
     0
176
     0
 90
       50
176
     0
 62
   256
176
     0
 40
1.0
176
     0
 90
        2
176
     0
  1
strokes_ogs.tif
176
     0
290
     0
176
     0
 40
1.0
176
     0
 40
1.0
176
     0
  0
VISUALSTYLE
  5
39
102
{ACAD_REACTORS
330
2A
102
}
330
2A
100
AcDbVisualStyle
  2
Facepattern
 70
    15
177
     3
291
     1
 70
    58
 90
        2
176
     1
 90
        2
176
     1
 90
        0
176
     1
 90
        0
176
     1
 40
0.6
176
     1
 40
30.0
176
     1
 62
     7
420
 16777215
176
     1
 90
        1
176
     1
 90
        4
176
     1
 62
     7
176
     1
 62
   257
176
     1
 90
        1
176
     1
 90
        1
176
     1
 40
1.0
176
     1
 90
        8
176
     1
 62
     7
176
     1
 40
1.0
176
     1
 90
        1
176
     1
 90
        6
176
     1
 90
        2
176
     1
 62
     7
176
     1
 90
        5
176
     1
 90
        0
176
     1
 90
        0
176
     1
290
     0
176
     1
 90
        1
176
     1
 40
0.0
176
     1
 90
        0
176
     1
290
     0
176
     1
290
     1
176
     1
290
     1
176
     1
290
     0
176
     1
290
     0
176
     1
290
     0
176
     1
290
     0
176
     1
290
     0
176
     1
290
     0
176
     1
 90
       50
176
     1
 40
0.0
176
     1
 40
1.0
176
     1
 90
        0
176
     1
 62
    18
420
        0
176
     1
 90
       50
176
     1
 90
        3
176
     1
 62
     5
420
      255
176
     1
290
     0
176
     1
 90
       50
176
     1
 90
       50
176
     1
 90
       50
176
     1
290
     0
176
     1
 90
       50
176
     1
 62
   256
176
     0
 40
1.0
176
     0
 90
        2
176
     1
  1
strokes_ogs.tif
176
     1
290
     0
176
     1
 40
1.0
176
     1
 40
1.0
176
     1
  0
VISUALSTYLE
  5
2B
102
{ACAD_REACTORS
330
2A
102
}
330
2A
100
AcDbVisualStyle
  2
Flat
 70
     0
177
     3
291
     1
 70
    58
 90
        2
176
     1
 90
        1
176
     1
 90
        1
176
     1
 90
        2
176
     1
 40
0.6
176
     1
 40
30.0
176
     1
 62
     7
420
 16777215
176
     1
 90
        0
176
     1
 90
        0
176
     1
 62
     7
176
     1
 62
   257
176
     1
 90
        1
176
     1
 90
        1
176
     1
 40
1.0
176
     1
 90
        8
176
     1
 62
     7
176
     1
 40
1.0
176
     1
 90
        1
176
     1
 90
        6
176
     1
 90
        2
176
     1
 62
     7
176
     1
 90
        5
176
     1
 90
        0
176
     1
 90
        0
176
     1
290
     0
176
     1
 90
       13
176
     1
 40
0.0
176
     1
 90
        0
176
     1
290
     0
176
     1
290
     1
176
     1
290
     1
176
     1
290
     0
176
     1
290
     0
176
     1
290
     0
176
     1
290
     0
176
     1
290
     0
176
     1
290
     0
176
     1
 90
       50
176
     1
 40
0.0
176
     1
 40
1.0
176
     1
 90
        0
176
     1
 62
    18
420
        0
176
     1
 90
       50
176
     1
 90
        3
176
     1
 62
     5
420
      255
176
     1
290
     0
176
     1
 90
       50
176
     1
 90
       50
176
     1
 90
       50
176
     1
290
     0
176
     1
 90
       50
176
     1
 62
   256
176
     0
 40
1.0
176
     0
 90
        2
176
     1
  1
strokes_ogs.tif
176
     1
290
     0
176
     1
 40
1.0
176
     1
 40
1.0
176
     1
  0
VISUALSTYLE
  5
2C
102
{ACAD_REACTORS
330
2A
102
}
330
2A
100
AcDbVisualStyle
  2
FlatWithEdges
 70
     1
177
     3
291
     1
 70
    58
 90
        2
176
     1
 90
        1
176
     1
 90
        1
176
     1
 90
        2
176
     1
 40
0.6
176
     1
 40
30.0
176
     1
 62
     7
420
 16777215
176
     1
 90
        1
176
     1
 90
        0
176
     1
 62
     7
176
     1
 62
   257
176
     1
 90
        1
176
     1
 90
        1
176
     1
 40
1.0
176
     1
 90
        0
176
     1
 62
   257
176
     1
 40
1.0
176
     1
 90
        1
176
     1
 90
        6
176
     1
 90
        2
176
     1
 62
     7
176
     1
 90
        5
176
     1
 90
        0
176
     1
 90
        0
176
     1
290
     0
176
     1
 90
       13
176
     1
 40
0.0
176
     1
 90
        0
176
     1
290
     0
176
     1
290
     1
176
     1
290
     1
176
     1
290
     0
176
     1
290
     0
176
     1
290
     0
176
     1
290
     0
176
     1
290
     0
176
     1
290
     0
176
     1
 90
       50
176
     1
 40
0.0
176
     1
 40
1.0
176
     1
 90
        0
176
     1
 62
    18
420
        0
176
     1
 90
       50
176
     1
 90
        3
176
     1
 62
     5
420
      255
176
     1
290
     0
176
     1
 90
       50
176
     1
 90
       50
176
     1
 90
       50
176
     1
290
     0
176
     1
 90
       50
176
     1
 62
   256
176
     0
 40
1.0
176
     0
 90
        2
176
     1
  1
strokes_ogs.tif
176
     1
290
     0
176
     1
 40
1.0
176
     1
 40
1.0
176
     1
  0
VISUALSTYLE
  5
2D
102
{ACAD_REACTORS
330
2A
102
}
330
2A
100
AcDbVisualStyle
  2
Gouraud
 70
     2
177
     3
291
     1
 70
    58
 90
        2
176
     1
 90
        2
176
     1
 90
        1
176
     1
 90
        2
176
     1
 40
0.6
176
     1
 40
30.0
176
     1
 62
     7
420
 16777215
176
     1
 90
        0
176
     1
 90
        0
176
     1
 62
     7
176
     1
 62
   257
176
     1
 90
        1
176
     1
 90
        1
176
     1
 40
1.0
176
     1
 90
        0
176
     1
 62
     7
176
     1
 40
1.0
176
     1
 90
        1
176
     1
 90
        6
176
     1
 90
        2
176
     1
 62
     7
176
     1
 90
        5
176
     1
 90
        0
176
     1
 90
        0
176
     1
290
     0
176
     1
 90
       13
176
     1
 40
0.0
176
     1
 90
        0
176
     1
290
     0
176
     1
290
     1
176
     1
290
     1
176
     1
290
     0
176
     1
290
     0
176
     1
290
     0
176
     1
290
     0
176
     1
290
     0
176
     1
290
     0
176
     1
 90
       50
176
     1
 40
0.0
176
     1
 40
1.0
176
     1
 90
        0
176
     1
 62
    18
420
        0
176
     1
 90
       50
176
     1
 90
        3
176
     1
 62
     5
420
      255
176
     1
290
     0
176
     1
 90
       50
176
     1
 90
       50
176
     1
 90
       50
176
     1
290
     0
176
     1
 90
       50
176
     1
 62
   256
176
     0
 40
1.0
176
     0
 90
        2
176
     1
  1
strokes_ogs.tif
176
     1
290
     0
176
     1
 40
1.0
176
     1
 40
1.0
176
     1
  0
VISUALSTYLE
  5
2E
102
{ACAD_REACTORS
330
2A
102
}
330
2A
100
AcDbVisualStyle
  2
GouraudWithEdges
 70
     3
177
     3
291
     1
 70
    58
 90
        2
176
     1
 90
        2
176
     1
 90
        1
176
     1
 90
        2
176
     1
 40
0.6
176
     1
 40
30.0
176
     1
 62
     7
420
 16777215
176
     1
 90
        1
176
     1
 90
        0
176
     1
 62
     7
176
     1
 62
   257
176
     1
 90
        1
176
     1
 90
        1
176
     1
 40
1.0
176
     1
 90
        0
176
     1
 62
   257
176
     1
 40
1.0
176
     1
 90
        1
176
     1
 90
        6
176
     1
 90
        2
176
     1
 62
     7
176
     1
 90
        5
176
     1
 90
        0
176
     1
 90
        0
176
     1
290
     0
176
     1
 90
       13
176
     1
 40
0.0
176
     1
 90
        0
176
     1
290
     0
176
     1
290
     1
176
     1
290
     1
176
     1
290
     0
176
     1
290
     0
176
     1
290
     0
176
     1
290
     0
176
     1
290
     0
176
     1
290
     0
176
     1
 90
       50
176
     1
 40
0.0
176
     1
 40
1.0
176
     1
 90
        0
176
     1
 62
    18
420
        0
176
     1
 90
       50
176
     1
 90
        3
176
     1
 62
     5
420
      255
176
     1
290
     0
176
     1
 90
       50
176
     1
 90
       50
176
     1
 90
       50
176
     1
290
     0
176
     1
 90
       50
176
     1
 62
   256
176
     0
 40
1.0
176
     0
 90
        2
176
     1
  1
strokes_ogs.tif
176
     1
290
     0
176
     1
 40
1.0
176
     1
 40
1.0
176
     1
  0
VISUALSTYLE
  5
31
102
{ACAD_REACTORS
330
2A
102
}
330
2A
100
AcDbVisualStyle
  2
Hidden
 70
     6
177
     3
291
     0
 70
    58
 90
        1
176
     1
 90
        2
176
     1
 90
        2
176
     1
 90
        0
176
     1
 40
0.6
176
     1
 40
30.0
176
     1
 62
     7
420
 16777215
176
     1
 90
        2
176
     1
 90
        2
176
     1
 62
     7
176
     1
 62
   257
176
     1
 90
        2
176
     1
 90
        1
176
     1
 40
40.0
176
     1
 90
        0
176
     1
 62
   257
176
     1
 40
1.0
176
     1
 90
        1
176
     1
 90
        6
176
     1
 90
        2
176
     1
 62
     7
176
     1
 90
        3
176
     1
 90
        0
176
     1
 90
        0
176
     1
290
     0
176
     1
 90
        1
176
     1
 40
0.0
176
     1
 90
        0
176
     1
290
     0
176
     1
290
     1
176
     1
290
     1
176
     1
290
     0
176
     1
290
     0
176
     1
290
     0
176
     1
290
     0
176
     1
290
     0
176
     1
290
     0
176
     1
 90
       50
176
     1
 40
0.0
176
     1
 40
1.0
176
     1
 90
        0
176
     1
 62
    18
420
        0
176
     1
 90
       50
176
     1
 90
        3
176
     1
 62
     5
420
      255
176
     1
290
     0
176
     1
 90
       50
176
     1
 90
       50
176
     1
 90
       50
176
     1
290
     0
176
     1
 90
       50
176
     1
 62
   256
176
     0
 40
1.0
176
     0
 90
        2
176
     1
  1
strokes_ogs.tif
176
     1
290
     0
176
     1
 40
1.0
176
     1
 40
1.0
176
     1
  0
VISUALSTYLE
  5
3B
102
{ACAD_REACTORS
330
2A
102
}
330
2A
100
AcDbVisualStyle
  2
JitterOff
 70
    20
177
     3
291
     1
 70
    58
 90
        2
176
     0
 90
        2
176
     0
 90
        0
176
     0
 90
        0
176
     0
 40
0.6
176
     0
 40
30.0
176
     0
 62
     7
420
 16777215
176
     0
 90
        1
176
     0
 90
        4
176
     0
 62
     7
176
     0
 62
   257
176
     0
 90
        1
176
     0
 90
        1
176
     0
 40
1.0
176
     0
 90
       10
176
     2
 62
     7
176
     0
 40
1.0
176
     0
 90
        1
176
     0
 90
        6
176
     0
 90
        2
176
     0
 62
     7
176
     0
 90
        5
176
     0
 90
        0
176
     0
 90
        0
176
     0
290
     0
176
     0
 90
        1
176
     0
 40
0.0
176
     0
 90
        0
176
     0
290
     0
176
     0
290
     1
176
     0
290
     1
176
     0
290
     0
176
     0
290
     0
176
     0
290
     0
176
     0
290
     0
176
     0
290
     0
176
     0
290
     0
176
     0
 90
       50
176
     0
 40
0.0
176
     0
 40
1.0
176
     0
 90
        0
176
     0
 62
    18
420
        0
176
     0
 90
       50
176
     0
 90
        3
176
     0
 62
     5
420
      255
176
     0
290
     0
176
     0
 90
       50
176
     0
 90
       50
176
     0
 90
       50
176
     0
290
     0
176
     0
 90
       50
176
     0
 62
   256
176
     0
 40
1.0
176
     0
 90
        2
176
     0
  1
strokes_ogs.tif
176
     0
290
     0
176
     0
 40
1.0
176
     0
 40
1.0
176
     0
  0
VISUALSTYLE
  5
38
102
{ACAD_REACTORS
330
2A
102
}
330
2A
100
AcDbVisualStyle
  2
Linepattern
 70
    14
177
     3
291
     1
 70
    58
 90
        2
176
     1
 90
        2
176
     1
 90
        0
176
     1
 90
        0
176
     1
 40
0.6
176
     1
 40
30.0
176
     1
 62
     7
420
 16777215
176
     1
 90
        1
176
     1
 90
        4
176
     1
 62
     7
176
     1
 62
   257
176
     1
 90
        7
176
     1
 90
        7
176
     1
 40
1.0
176
     1
 90
        8
176
     1
 62
     7
176
     1
 40
1.0
176
     1
 90
        1
176
     1
 90
        6
176
     1
 90
        2
176
     1
 62
     7
176
     1
 90
        5
176
     1
 90
        0
176
     1
 90
        0
176
     1
290
     0
176
     1
 90
        1
176
     1
 40
0.0
176
     1
 90
        0
176
     1
290
     0
176
     1
290
     1
176
     1
290
     1
176
     1
290
     0
176
     1
290
     0
176
     1
290
     0
176
     1
290
     0
176
     1
290
     0
176
     1
290
     0
176
     1
 90
       50
176
     1
 40
0.0
176
     1
 40
1.0
176
     1
 90
        0
176
     1
 62
    18
420
        0
176
     1
 90
       50
176
     1
 90
        3
176
     1
 62
     5
420
      255
176
     1
290
     0
176
     1
 90
       50
176
     1
 90
       50
176
     1
 90
       50
176
     1
290
     0
176
     1
 90
       50
176
     1
 62
   256
176
     0
 40
1.0
176
     0
 90
        2
176
     1
  1
strokes_ogs.tif
176
     1
290
     0
176
     1
 40
1.0
176
     1
 40
1.0
176
     1
  0
VISUALSTYLE
  5
3C
102
{ACAD_REACTORS
330
2A
102
}
330
2A
100
AcDbVisualStyle
  2
OverhangOff
 70
    21
177
     3
291
     1
 70
    58
 90
        2
176
     0
 90
        2
176
     0
 90
        0
176
     0
 90
        0
176
     0
 40
0.6
176
     0
 40
30.0
176
     0
 62
     7
420
 16777215
176
     0
 90
        1
176
     0
 90
        4
176
     0
 62
     7
176
     0
 62
   257
176
     0
 90
        1
176
     0
 90
        1
176
     0
 40
1.0
176
     0
 90
        9
176
     2
 62
     7
176
     0
 40
1.0
176
     0
 90
        1
176
     0
 90
        6
176
     0
 90
        2
176
     0
 62
     7
176
     0
 90
        5
176
     0
 90
        0
176
     0
 90
        0
176
     0
290
     0
176
     0
 90
        1
176
     0
 40
0.0
176
     0
 90
        0
176
     0
290
     0
176
     0
290
     1
176
     0
290
     1
176
     0
290
     0
176
     0
290
     0
176
     0
290
     0
176
     0
290
     0
176
     0
290
     0
176
     0
290
     0
176
     0
 90
       50
176
     0
 40
0.0
176
     0
 40
1.0
176
     0
 90
        0
176
     0
 62
    18
420
        0
176
     0
 90
       50
176
     0
 90
        3
176
     0
 62
     5
420
      255
176
     0
290
     0
176
     0
 90
       50
176
     0
 90
       50
176
     0
 90
       50
176
     0
290
     0
176
     0
 90
       50
176
     0
 62
   256
176
     0
 40
1.0
176
     0
 90
        2
176
     0
  1
strokes_ogs.tif
176
     0
290
     0
176
     0
 40
1.0
176
     0
 40
1.0
176
     0
  0
VISUALSTYLE
  5
33
102
{ACAD_REACTORS
330
2A
102
}
330
2A
100
AcDbVisualStyle
  2
Realistic
 70
     8
177
     3
291
     0
 70
    58
 90
        2
176
     1
 90
        3
176
     1
 90
        0
176
     1
 90
        2
176
     1
 40
0.6
176
     1
 40
30.0
176
     1
 62
     7
420
 16777215
176
     1
 90
        0
176
     1
 90
        0
176
     1
 62
     7
176
     1
 62
   257
176
     1
 90
        1
176
     1
 90
        1
176
     1
 40
1.0
176
     1
 90
        8
176
     1
 62
   257
176
     1
 40
1.0
176
     1
 90
        1
176
     1
 90
        6
176
     1
 90
        2
176
     1
 62
     7
176
     1
 90
        3
176
     1
 90
        0
176
     1
 90
        0
176
     1
290
     0
176
     1
 90
       13
176
     1
 40
0.0
176
     1
 90
        0
176
     1
290
     0
176
     1
290
     1
176
     1
290
     1
176
     1
290
     0
176
     1
290
     0
176
     1
290
     0
176
     1
290
     0
176
     1
290
     0
176
     1
290
     0
176
     1
 90
       50
176
     1
 40
0.0
176
     1
 40
1.0
176
     1
 90
        0
176
     1
 62
    18
420
        0
176
     1
 90
       50
176
     1
 90
        3
176
     1
 62
     5
420
      255
176
     1
290
     0
176
     1
 90
       50
176
     1
 90
       50
176
     1
 90
       50
176
     1
290
     0
176
     1
 90
       50
176
     1
 62
   256
176
     0
 40
1.0
176
     0
 90
        2
176
     1
  1
strokes_ogs.tif
176
     1
290
     0
176
     1
 40
1.0
176
     1
 40
1.0
176
     1
  0
VISUALSTYLE
  5
42
102
{ACAD_REACTORS
330
2A
102
}
330
2A
100
AcDbVisualStyle
  2
Shaded
 70
    27
177
     3
291
     0
 70
    58
 90
        2
176
     1
 90
        2
176
     1
 90
        1
176
     1
 90
        2
176
     1
 40
0.6
176
     1
 40
30.0
176
     1
 62
     7
420
 16777215
176
     1
 90
        0
176
     1
 90
        4
176
     1
 62
     7
176
     1
 62
   257
176
     1
 90
        1
176
     1
 90
        1
176
     1
 40
1.0
176
     1
 90
        8
176
     1
 62
   257
176
     1
 40
1.0
176
     1
 90
        1
176
     1
 90
        6
176
     1
 90
        2
176
     1
 62
     8
420
  7895160
176
     1
 90
        3
176
     1
 90
        0
176
     1
 90
        0
176
     1
290
     0
176
     1
 90
        5
176
     1
 40
0.0
176
     1
 90
        0
176
     1
290
     0
176
     1
290
     1
176
     1
290
     1
176
     1
290
     0
176
     1
290
     0
176
     1
290
     0
176
     1
290
     0
176
     1
290
     0
176
     1
290
     0
176
     1
 90
       50
176
     1
 40
0.0
176
     1
 40
1.0
176
     1
 90
        0
176
     1
 62
    18
420
        0
176
     1
 90
       50
176
     1
 90
        3
176
     1
 62
     5
420
      255
176
     1
290
     0
176
     1
 90
       50
176
     1
 90
       50
176
     1
 90
       50
176
     1
290
     0
176
     1
 90
       50
176
     1
 62
   256
176
     0
 40
1.0
176
     0
 90
        2
176
     1
  1
strokes_ogs.tif
176
     1
290
     0
176
     1
 40
1.0
176
     1
 40
1.0
176
     1
  0
VISUALSTYLE
  5
41
102
{ACAD_REACTORS
330
2A
102
}
330
2A
100
AcDbVisualStyle
  2
Shaded with edges
 70
    26
177
     3
291
     0
 70
    58
 90
        2
176
     1
 90
        2
176
     1
 90
        1
176
     1
 90
        2
176
     1
 40
0.6
176
     1
 40
30.0
176
     1
 62
     7
420
 16777215
176
     1
 90
        1
176
     1
 90
       10
176
     1
 62
     7
176
     1
 62
   257
176
     1
 90
        2
176
     1
 90
        1
176
     1
 40
1.0
176
     1
 90
        8
176
     1
 62
   257
176
     1
 40
1.0
176
     1
 90
        1
176
     1
 90
        6
176
     1
 90
        2
176
     1
 62
     7
176
     1
 90
        3
176
     1
 90
        0
176
     1
 90
        0
176
     1
290
     0
176
     1
 90
        5
176
     1
 40
0.0
176
     1
 90
        0
176
     1
290
     0
176
     1
290
     1
176
     1
290
     1
176
     1
290
     0
176
     1
290
     0
176
     1
290
     0
176
     1
290
     0
176
     1
290
     0
176
     1
290
     0
176
     1
 90
       50
176
     1
 40
0.0
176
     1
 40
1.0
176
     1
 90
        0
176
     1
 62
    18
420
        0
176
     1
 90
       50
176
     1
 90
        3
176
     1
 62
     5
420
      255
176
     1
290
     0
176
     1
 90
       50
176
     1
 90
       50
176
     1
 90
       50
176
     1
290
     0
176
     1
 90
       50
176
     1
 62
   256
176
     0
 40
1.0
176
     0
 90
        2
176
     1
  1
strokes_ogs.tif
176
     1
290
     0
176
     1
 40
1.0
176
     1
 40
1.0
176
     1
  0
VISUALSTYLE
  5
3E
102
{ACAD_REACTORS
330
2A
102
}
330
2A
100
AcDbVisualStyle
  2
Shades of Gray
 70
    23
177
     3
291
     0
 70
    58
 90
        2
176
     1
 90
        2
176
     1
 90
        3
176
     1
 90
        0
176
     1
 40
0.6
176
     1
 40
30.0
176
     1
 62
     7
420
 16777215
176
     1
 90
        2
176
     1
 90
        2
176
     1
 62
     7
176
     1
 62
     7
176
     1
 90
        1
176
     1
 90
        1
176
     1
 40
40.0
176
     1
 90
        8
176
     1
 62
     7
176
     1
 40
1.0
176
     1
 90
        1
176
     1
 90
        6
176
     1
 90
        2
176
     1
 62
     7
176
     1
 90
        3
176
     1
 90
        0
176
     1
 90
        0
176
     1
290
     0
176
     1
 90
        1
176
     1
 40
0.0
176
     1
 90
        0
176
     1
290
     0
176
     1
290
     1
176
     1
290
     1
176
     1
290
     0
176
     1
290
     0
176
     1
290
     0
176
     1
290
     0
176
     1
290
     0
176
     1
290
     0
176
     1
 90
       50
176
     1
 40
0.0
176
     1
 40
1.0
176
     1
 90
        0
176
     1
 62
    18
420
        0
176
     1
 90
       50
176
     1
 90
        3
176
     1
 62
     5
420
      255
176
     1
290
     0
176
     1
 90
       50
176
     1
 90
       50
176
     1
 90
       50
176
     1
290
     0
176
     1
 90
       50
176
     1
 62
   256
176
     0
 40
1.0
176
     0
 90
        2
176
     1
  1
strokes_ogs.tif
176
     1
290
     0
176
     1
 40
1.0
176
     1
 40
1.0
176
     1
  0
VISUALSTYLE
  5
3F
102
{ACAD_REACTORS
330
2A
102
}
330
2A
100
AcDbVisualStyle
  2
Sketchy
 70
    24
177
     3
291
     0
 70
    58
 90
        1
176
     1
 90
        2
176
     1
 90
        2
176
     1
 90
        0
176
     1
 40
0.6
176
     1
 40
30.0
176
     1
 62
     7
420
 16777215
176
     1
 90
        2
176
     1
 90
        2
176
     1
 62
     7
176
     1
 62
     7
176
     1
 90
        1
176
     1
 90
        1
176
     1
 40
40.0
176
     1
 90
       11
176
     1
 62
     7
176
     1
 40
1.0
176
     1
 90
        1
176
     1
 90
        6
176
     1
 90
        2
176
     1
 62
     7
176
     1
 90
        6
176
     1
 90
        0
176
     1
 90
        0
176
     1
290
     0
176
     1
 90
        1
176
     1
 40
0.0
176
     1
 90
        0
176
     1
290
     0
176
     1
290
     1
176
     1
290
     1
176
     1
290
     0
176
     1
290
     0
176
     1
290
     0
176
     1
290
     0
176
     1
290
     0
176
     1
290
     0
176
     1
 90
       50
176
     1
 40
0.0
176
     1
 40
1.0
176
     1
 90
        0
176
     1
 62
    18
420
        0
176
     1
 90
       50
176
     1
 90
        3
176
     1
 62
     5
420
      255
176
     1
290
     0
176
     1
 90
       50
176
     1
 90
       50
176
     1
 90
       50
176
     1
290
     0
176
     1
 90
       50
176
     1
 62
   256
176
     0
 40
1.0
176
     0
 90
        2
176
     1
  1
strokes_ogs.tif
176
     1
290
     0
176
     1
 40
1.0
176
     1
 40
1.0
176
     1
  0
VISUALSTYLE
  5
37
102
{ACAD_REACTORS
330
2A
102
}
330
2A
100
AcDbVisualStyle
  2
Thicken
 70
    13
177
     3
291
     1
 70
    58
 90
        2
176
     1
 90
        2
176
     1
 90
        0
176
     1
 90
        0
176
     1
 40
0.6
176
     1
 40
30.0
176
     1
 62
     7
420
 16777215
176
     1
 90
        1
176
     1
 90
        4
176
     1
 62
     7
176
     1
 62
   257
176
     1
 90
        1
176
     1
 90
        1
176
     1
 40
1.0
176
     1
 90
       12
176
     1
 62
     7
176
     1
 40
1.0
176
     1
 90
        1
176
     1
 90
        6
176
     1
 90
        2
176
     1
 62
     7
176
     1
 90
        5
176
     1
 90
        0
176
     1
 90
        0
176
     1
290
     0
176
     1
 90
        1
176
     1
 40
0.0
176
     1
 90
        0
176
     1
290
     0
176
     1
290
     1
176
     1
290
     1
176
     1
290
     0
176
     1
290
     0
176
     1
290
     0
176
     1
290
     0
176
     1
290
     0
176
     1
290
     0
176
     1
 90
       50
176
     1
 40
0.0
176
     1
 40
1.0
176
     1
 90
        0
176
     1
 62
    18
420
        0
176
     1
 90
       50
176
     1
 90
        3
176
     1
 62
     5
420
      255
176
     1
290
     0
176
     1
 90
       50
176
     1
 90
       50
176
     1
 90
       50
176
     1
290
     0
176
     1
 90
       50
176
     1
 62
   256
176
     0
 40
1.0
176
     0
 90
        2
176
     1
  1
strokes_ogs.tif
176
     1
290
     0
176
     1
 40
1.0
176
     1
 40
1.0
176
     1
  0
VISUALSTYLE
  5
30
102
{ACAD_REACTORS
330
2A
102
}
330
2A
100
AcDbVisualStyle
  2
Wireframe
 70
     5
177
     3
291
     0
 70
    58
 90
        0
176
     1
 90
        2
176
     1
 90
        0
176
     1
 90
        0
176
     1
 40
0.6
176
     1
 40
30.0
176
     1
 62
     7
420
 16777215
176
     1
 90
        1
176
     1
 90
        4
176
     1
 62
     7
176
     1
 62
   257
176
     1
 90
        1
176
     1
 90
        1
176
     1
 40
1.0
176
     1
 90
        0
176
     1
 62
   257
176
     1
 40
1.0
176
     1
 90
        1
176
     1
 90
        6
176
     1
 90
        2
176
     1
 62
     7
176
     1
 90
        3
176
     1
 90
        0
176
     1
 90
        0
176
     1
290
     0
176
     1
 90
        1
176
     1
 40
0.0
176
     1
 90
        0
176
     1
290
     0
176
     1
290
     1
176
     1
290
     1
176
     1
290
     0
176
     1
290
     0
176
     1
290
     0
176
     1
290
     0
176
     1
290
     0
176
     1
290
     0
176
     1
 90
       50
176
     1
 40
0.0
176
     1
 40
1.0
176
     1
 90
        0
176
     1
 62
    18
420
        0
176
     1
 90
       50
176
     1
 90
        3
176
     1
 62
     5
420
      255
176
     1
290
     0
176
     1
 90
       50
176
     1
 90
       50
176
     1
 90
       50
176
     1
290
     0
176
     1
 90
       50
176
     1
 62
   256
176
     0
 40
1.0
176
     0
 90
        2
176
     1
  1
strokes_ogs.tif
176
     1
290
     0
176
     1
 40
1.0
176
     1
 40
1.0
176
     1
  0
VISUALSTYLE
  5
40
102
{ACAD_REACTORS
330
2A
102
}
330
2A
100
AcDbVisualStyle
  2
X-Ray
 70
    25
177
     3
291
     0
 70
    58
 90
        2
176
     1
 90
        2
176
     1
 90
        1
176
     1
 90
        1
176
     1
 40
0.5
176
     1
 40
30.0
176
     1
 62
     7
420
 16777215
176
     1
 90
        1
176
     1
 90
        0
176
     1
 62
     7
176
     1
 62
   257
176
     1
 90
        1
176
     1
 90
        1
176
     1
 40
1.0
176
     1
 90
        8
176
     1
 62
     7
176
     1
 40
1.0
176
     1
 90
        1
176
     1
 90
        6
176
     1
 90
        2
176
     1
 62
     7
176
     1
 90
        3
176
     1
 90
        0
176
     1
 90
        0
176
     1
290
     0
176
     1
 90
       13
176
     1
 40
0.0
176
     1
 90
        0
176
     1
290
     0
176
     1
290
     1
176
     1
290
     1
176
     1
290
     0
176
     1
290
     0
176
     1
290
     0
176
     1
290
     0
176
     1
290
     0
176
     1
290
     0
176
     1
 90
       50
176
     1
 40
0.0
176
     1
 40
1.0
176
     1
 90
        0
176
     1
 62
    18
420
        0
176
     1
 90
       50
176
     1
 90
        3
176
     1
 62
     5
420
      255
176
     1
290
     0
176
     1
 90
       50
176
     1
 90
       50
176
     1
 90
       50
176
     1
290
     0
176
     1
 90
       50
176
     1
 62
   256
176
     0
 40
1.0
176
     0
 90
        2
176
     1
  1
strokes_ogs.tif
176
     1
290
     0
176
     1
 40
1.0
176
     1
 40
1.0
176
     1
  0
DICTIONARYVAR
  5
1F5
102
{ACAD_REACTORS
330
1F4
102
}
330
1F4
100
DictionaryVariables
280
     0
  1
1:1
  0
DICTIONARYVAR
  5
1FA
102
{ACAD_REACTORS
330
1F4
102
}
330
1F4
100
DictionaryVariables
280
     0
  1
Standard
  0
DICTIONARYVAR
  5
1F9
102
{ACAD_REACTORS
330
1F4
102
}
330
1F4
100
DictionaryVariables
280
     0
  1
Standard
  0
DICTIONARY
  5
1F6
330
6A
100
AcDbDictionary
280
     1
281
     1
  3
ACAD_ROUNDTRIP_2008_TABLESTYLE_CELLSTYLEMAP
360
1F7
  0
CELLSTYLEMAP
  5
1F7
102
{ACAD_REACTORS
330
1F6
102
}
330
1F6
100
AcDbCellStyleMap
 90
        3
300
CELLSTYLE
  1
TABLEFORMAT_BEGIN
 90
        5
170
     1
 91
        0
 92
    32768
 62
   257
 93
        1
300
CONTENTFORMAT
  1
CONTENTFORMAT_BEGIN
 90
        0
 91
        0
 92
        4
 93
        0
300

 40
0.0
140
1.0
 94
        5
 62
     0
340
11
144
0.25
309
CONTENTFORMAT_END
171
     1
301
MARGIN
  1
CELLMARGIN_BEGIN
 40
0.06
 40
0.06
 40
0.06
 40
0.06
 40
0.06
 40
0.06
309
CELLMARGIN_END
 94
        6
 95
        1
302
GRIDFORMAT
  1
GRIDFORMAT_BEGIN
 90
        0
 91
        1
 62
     0
 92
       -2
340
14
 93
        0
 40
0.045
309
GRIDFORMAT_END
 95
        2
302
GRIDFORMAT
  1
GRIDFORMAT_BEGIN
 90
        0
 91
        1
 62
     0
 92
       -2
340
14
 93
        0
 40
0.045
309
GRIDFORMAT_END
 95
        4
302
GRIDFORMAT
  1
GRIDFORMAT_BEGIN
 90
        0
 91
        1
 62
     0
 92
       -2
340
14
 93
        0
 40
0.045
309
GRIDFORMAT_END
 95
        8
302
GRIDFORMAT
  1
GRIDFORMAT_BEGIN
 90
        0
 91
        1
 62
     0
 92
       -2
340
14
 93
        0
 40
0.045
309
GRIDFORMAT_END
 95
       16
302
GRIDFORMAT
  1
GRIDFORMAT_BEGIN
 90
        0
 91
        1
 62
     0
 92
       -2
340
14
 93
        0
 40
0.045
309
GRIDFORMAT_END
 95
       32
302
GRIDFORMAT
  1
GRIDFORMAT_BEGIN
 90
        0
 91
        1
 62
     0
 92
       -2
340
14
 93
        0
 40
0.045
309
GRIDFORMAT_END
309
TABLEFORMAT_END
  1
CELLSTYLE_BEGIN
 90
        1
 91
        1
300
_TITLE
309
CELLSTYLE_END
300
CELLSTYLE
  1
TABLEFORMAT_BEGIN
 90
        5
170
     1
 91
        0
 92
        0
 62
   257
 93
        1
300
CONTENTFORMAT
  1
CONTENTFORMAT_BEGIN
 90
        0
 91
        0
 92
        4
 93
        0
300

 40
0.0
140
1.0
 94
        5
 62
     0
340
11
144
0.18
309
CONTENTFORMAT_END
171
     1
301
MARGIN
  1
CELLMARGIN_BEGIN
 40
0.06
 40
0.06
 40
0.06
 40
0.06
 40
0.06
 40
0.06
309
CELLMARGIN_END
 94
        6
 95
        1
302
GRIDFORMAT
  1
GRIDFORMAT_BEGIN
 90
        0
 91
        1
 62
     0
 92
       -2
340
14
 93
        0
 40
0.045
309
GRIDFORMAT_END
 95
        2
302
GRIDFORMAT
  1
GRIDFORMAT_BEGIN
 90
        0
 91
        1
 62
     0
 92
       -2
340
14
 93
        0
 40
0.045
309
GRIDFORMAT_END
 95
        4
302
GRIDFORMAT
  1
GRIDFORMAT_BEGIN
 90
        0
 91
        1
 62
     0
 92
       -2
340
14
 93
        0
 40
0.045
309
GRIDFORMAT_END
 95
        8
302
GRIDFORMAT
  1
GRIDFORMAT_BEGIN
 90
        0
 91
        1
 62
     0
 92
       -2
340
14
 93
        0
 40
0.045
309
GRIDFORMAT_END
 95
       16
302
GRIDFORMAT
  1
GRIDFORMAT_BEGIN
 90
        0
 91
        1
 62
     0
 92
       -2
340
14
 93
        0
 40
0.045
309
GRIDFORMAT_END
 95
       32
302
GRIDFORMAT
  1
GRIDFORMAT_BEGIN
 90
        0
 91
        1
 62
     0
 92
       -2
340
14
 93
        0
 40
0.045
309
GRIDFORMAT_END
309
TABLEFORMAT_END
  1
CELLSTYLE_BEGIN
 90
        2
 91
        1
300
_HEADER
309
CELLSTYLE_END
300
CELLSTYLE
  1
TABLEFORMAT_BEGIN
 90
        5
170
     1
 91
        0
 92
        0
 62
   257
 93
        1
300
CONTENTFORMAT
  1
CONTENTFORMAT_BEGIN
 90
        0
 91
        0
 92
        4
 93
        0
300

 40
0.0
140
1.0
 94
        2
 62
     0
340
11
144
0.18
309
CONTENTFORMAT_END
171
     1
301
MARGIN
  1
CELLMARGIN_BEGIN
 40
0.06
 40
0.06
 40
0.06
 40
0.06
 40
0.06
 40
0.06
309
CELLMARGIN_END
 94
        6
 95
        1
302
GRIDFORMAT
  1
GRIDFORMAT_BEGIN
 90
        0
 91
        1
 62
     0
 92
       -2
340
14
 93
        0
 40
0.045
309
GRIDFORMAT_END
 95
        2
302
GRIDFORMAT
  1
GRIDFORMAT_BEGIN
 90
        0
 91
        1
 62
     0
 92
       -2
340
14
 93
        0
 40
0.045
309
GRIDFORMAT_END
 95
        4
302
GRIDFORMAT
  1
GRIDFORMAT_BEGIN
 90
        0
 91
        1
 62
     0
 92
       -2
340
14
 93
        0
 40
0.045
309
GRIDFORMAT_END
 95
        8
302
GRIDFORMAT
  1
GRIDFORMAT_BEGIN
 90
        0
 91
        1
 62
     0
 92
       -2
340
14
 93
        0
 40
0.045
309
GRIDFORMAT_END
 95
       16
302
GRIDFORMAT
  1
GRIDFORMAT_BEGIN
 90
        0
 91
        1
 62
     0
 92
       -2
340
14
 93
        0
 40
0.045
309
GRIDFORMAT_END
 95
       32
302
GRIDFORMAT
  1
GRIDFORMAT_BEGIN
 90
        0
 91
        1
 62
     0
 92
       -2
340
14
 93
        0
 40
0.045
309
GRIDFORMAT_END
309
TABLEFORMAT_END
  1
CELLSTYLE_BEGIN
 90
        3
 91
        2
300
_DATA
309
CELLSTYLE_END
  0
ENDSEC
  0
EOF