0
SECTION
  2
HEADER
  9
$ACADVER
  1
AC1027
  9
$ACADMAINTVER
 70
     8
  9
$DWGCODEPAGE
  3
ANSI_1252
  9
$REQUIREDVERSIONS
160
                 0
  9
$COMMENTS
  1
File was created by Cadenas
  9
$CUSTOMPROPERTYTAG
  1
NN
  9
$CUSTOMPROPERTY
  1
S-2000 Pillow Block with Type E Dimensions 4-Bolt Labyrinth Seal Non-Expansion
  9
$CUSTOMPROPERTYTAG
  1
NT
  9
$CUSTOMPROPERTY
  1
S-2000 - E Type - Inch
  9
$CUSTOMPROPERTYTAG
  1
NB
  9
$CUSTOMPROPERTY
  1
071457
  9
$CUSTOMPROPERTYTAG
  1
NBSYN
  9
$CUSTOMPROPERTY
  1
$PN.
  9
$CUSTOMPROPERTYTAG
  1
LINA
  9
$CUSTOMPROPERTY
  1
071457
  9
$CUSTOMPROPERTYTAG
  1
SS
  9
$CUSTOMPROPERTY
  1
2-7/16
  9
$CUSTOMPROPERTYTAG
  1
TYPE
  9
$CUSTOMPROPERTY
  1
Expansion
  9
$CUSTOMPROPERTYTAG
  1
PN
  9
$CUSTOMPROPERTY
  1
071457
  9
$CUSTOMPROPERTYTAG
  1
DESCRIPTION
  9
$CUSTOMPROPERTY
  1
EP4B-S2-207LE
  9
$CUSTOMPROPERTYTAG
  1
A
  9
$CUSTOMPROPERTY
  1
3.2
  9
$CUSTOMPROPERTYTAG
  1
B
  9
$CUSTOMPROPERTY
  1
10.5
  9
$CUSTOMPROPERTYTAG
  1
C
  9
$CUSTOMPROPERTY
  1
3.49
  9
$CUSTOMPROPERTYTAG
  1
DMIN
  9
$CUSTOMPROPERTY
  1
8.31
  9
$CUSTOMPROPERTYTAG
  1
DMAX
  9
$CUSTOMPROPERTY
  1
8.69
  9
$CUSTOMPROPERTYTAG
  1
E
  9
$CUSTOMPROPERTY
  1
1.87
  9
$CUSTOMPROPERTYTAG
  1
F
  9
$CUSTOMPROPERTY
  1
5/8
  9
$CUSTOMPROPERTYTAG
  1
G
  9
$CUSTOMPROPERTY
  1
0.87
  9
$CUSTOMPROPERTYTAG
  1
H
  9
$CUSTOMPROPERTY
  1
1.63
  9
$CUSTOMPROPERTYTAG
  1
J
  9
$CUSTOMPROPERTY
  1
5.72
  9
$CUSTOMPROPERTYTAG
  1
L
  9
$CUSTOMPROPERTY
  1
3.86
  9
$CUSTOMPROPERTYTAG
  1
M
  9
$CUSTOMPROPERTY
  1
2.75
  9
$CUSTOMPROPERTYTAG
  1
R
  9
$CUSTOMPROPERTY
  1
1.2
  9
$CUSTOMPROPERTYTAG
  1
S
  9
$CUSTOMPROPERTY
  1
2
  9
$CUSTOMPROPERTYTAG
  1
X
  9
$CUSTOMPROPERTY
  1
0.25
  9
$CUSTOMPROPERTYTAG
  1
Y
  9
$CUSTOMPROPERTY
  1
0.025
  9
$CUSTOMPROPERTYTAG
  1
Z
  9
$CUSTOMPROPERTY
  1
2.94
  9
$CUSTOMPROPERTYTAG
  1
CS
  9
$CUSTOMPROPERTY
  1
3/8-16
  9
$CUSTOMPROPERTYTAG
  1
TORQUE
  9
$CUSTOMPROPERTY
  1
290
  9
$CUSTOMPROPERTYTAG
  1
COMPANY
  9
$CUSTOMPROPERTY
  1
baldor
  9
$INSBASE
 10
0.0
 20
0.0
 30
0.0
  9
$EXTMIN
 10
1.000000000000000E+20
 20
1.000000000000000E+20
 30
1.000000000000000E+20
  9
$EXTMAX
 10
-1.000000000000000E+20
 20
-1.000000000000000E+20
 30
-1.000000000000000E+20
  9
$LIMMIN
 10
0.0
 20
0.0
  9
$LIMMAX
 10
12.0
 20
9.0
  9
$ORTHOMODE
 70
     0
  9
$REGENMODE
 70
     1
  9
$FILLMODE
 70
     1
  9
$QTEXTMODE
 70
     0
  9
$MIRRTEXT
 70
     1
  9
$LTSCALE
 40
1.0
  9
$ATTMODE
 70
     1
  9
$TEXTSIZE
 40
0.2
  9
$TRACEWID
 40
0.05
  9
$TEXTSTYLE
  7
Standard
  9
$CLAYER
  8
0
  9
$CELTYPE
  6
ByLayer
  9
$CECOLOR
 62
   256
  9
$CELTSCALE
 40
1.0
  9
$DISPSILH
 70
     0
  9
$DIMSCALE
 40
1.0
  9
$DIMASZ
 40
0.18
  9
$DIMEXO
 40
0.0625
  9
$DIMDLI
 40
0.38
  9
$DIMRND
 40
0.0
  9
$DIMDLE
 40
0.0
  9
$DIMEXE
 40
0.18
  9
$DIMTP
 40
0.0
  9
$DIMTM
 40
0.0
  9
$DIMTXT
 40
0.18
  9
$DIMCEN
 40
0.09
  9
$DIMTSZ
 40
0.0
  9
$DIMTOL
 70
     0
  9
$DIMLIM
 70
     0
  9
$DIMTIH
 70
     1
  9
$DIMTOH
 70
     1
  9
$DIMSE1
 70
     0
  9
$DIMSE2
 70
     0
  9
$DIMTAD
 70
     0
  9
$DIMZIN
 70
     0
  9
$DIMBLK
  1

  9
$DIMASO
 70
     1
  9
$DIMSHO
 70
     1
  9
$DIMPOST
  1

  9
$DIMAPOST
  1

  9
$DIMALT
 70
     0
  9
$DIMALTD
 70
     2
  9
$DIMALTF
 40
25.4
  9
$DIMLFAC
 40
1.0
  9
$DIMTOFL
 70
     0
  9
$DIMTVP
 40
0.0
  9
$DIMTIX
 70
     0
  9
$DIMSOXD
 70
     0
  9
$DIMSAH
 70
     0
  9
$DIMBLK1
  1

  9
$DIMBLK2
  1

  9
$DIMSTYLE
  2
Standard
  9
$DIMCLRD
 70
     0
  9
$DIMCLRE
 70
     0
  9
$DIMCLRT
 70
     0
  9
$DIMTFAC
 40
1.0
  9
$DIMGAP
 40
0.09
  9
$DIMJUST
 70
     0
  9
$DIMSD1
 70
     0
  9
$DIMSD2
 70
     0
  9
$DIMTOLJ
 70
     1
  9
$DIMTZIN
 70
     0
  9
$DIMALTZ
 70
     0
  9
$DIMALTTZ
 70
     0
  9
$DIMUPT
 70
     0
  9
$DIMDEC
 70
     4
  9
$DIMTDEC
 70
     4
  9
$DIMALTU
 70
     2
  9
$DIMALTTD
 70
     2
  9
$DIMTXSTY
  7
Standard
  9
$DIMAUNIT
 70
     0
  9
$DIMADEC
 70
     0
  9
$DIMALTRND
 40
0.0
  9
$DIMAZIN
 70
     0
  9
$DIMDSEP
 70
    46
  9
$DIMATFIT
 70
     3
  9
$DIMFRAC
 70
     0
  9
$DIMLDRBLK
  1

  9
$DIMLUNIT
 70
     2
  9
$DIMLWD
 70
    -2
  9
$DIMLWE
 70
    -2
  9
$DIMTMOVE
 70
     0
  9
$DIMFXL
 40
1.0
  9
$DIMFXLON
 70
     0
  9
$DIMJOGANG
 40
0.7853981633974483
  9
$DIMTFILL
 70
     0
  9
$DIMTFILLCLR
 70
     0
  9
$DIMARCSYM
 70
     0
  9
$DIMLTYPE
  6

  9
$DIMLTEX1
  6

  9
$DIMLTEX2
  6

  9
$DIMTXTDIRECTION
 70
     0
  9
$LUNITS
 70
     2
  9
$LUPREC
 70
     4
  9
$SKETCHINC
 40
0.1
  9
$FILLETRAD
 40
0.5
  9
$AUNITS
 70
     0
  9
$AUPREC
 70
     0
  9
$MENU
  1
.
  9
$ELEVATION
 40
0.0
  9
$PELEVATION
 40
0.0
  9
$THICKNESS
 40
0.0
  9
$LIMCHECK
 70
     0
  9
$CHAMFERA
 40
0.0
  9
$CHAMFERB
 40
0.0
  9
$CHAMFERC
 40
0.0
  9
$CHAMFERD
 40
0.0
  9
$SKPOLY
 70
     0
  9
$TDCREATE
 40
2458168.981610243
  9
$TDUCREATE
 40
2458168.939943576
  9
$TDUPDATE
 40
2458168.981610428
  9
$TDUUPDATE
 40
2458168.939943762
  9
$TDINDWG
 40
0.0000000116
  9
$TDUSRTIMER
 40
0.0000000116
  9
$USRTIMER
 70
     1
  9
$ANGBASE
 50
0.0
  9
$ANGDIR
 70
     0
  9
$PDMODE
 70
     0
  9
$PDSIZE
 40
0.0
  9
$PLINEWID
 40
0.0
  9
$SPLFRAME
 70
     0
  9
$SPLINETYPE
 70
     6
  9
$SPLINESEGS
 70
     8
  9
$HANDSEED
  5
22B
  9
$SURFTAB1
 70
     6
  9
$SURFTAB2
 70
     6
  9
$SURFTYPE
 70
     6
  9
$SURFU
 70
     6
  9
$SURFV
 70
     6
  9
$UCSBASE
  2

  9
$UCSNAME
  2

  9
$UCSORG
 10
0.0
 20
0.0
 30
0.0
  9
$UCSXDIR
 10
1.0
 20
0.0
 30
0.0
  9
$UCSYDIR
 10
0.0
 20
1.0
 30
0.0
  9
$UCSORTHOREF
  2

  9
$UCSORTHOVIEW
 70
     0
  9
$UCSORGTOP
 10
0.0
 20
0.0
 30
0.0
  9
$UCSORGBOTTOM
 10
0.0
 20
0.0
 30
0.0
  9
$UCSORGLEFT
 10
0.0
 20
0.0
 30
0.0
  9
$UCSORGRIGHT
 10
0.0
 20
0.0
 30
0.0
  9
$UCSORGFRONT
 10
0.0
 20
0.0
 30
0.0
  9
$UCSORGBACK
 10
0.0
 20
0.0
 30
0.0
  9
$PUCSBASE
  2

  9
$PUCSNAME
  2

  9
$PUCSORG
 10
0.0
 20
0.0
 30
0.0
  9
$PUCSXDIR
 10
1.0
 20
0.0
 30
0.0
  9
$PUCSYDIR
 10
0.0
 20
1.0
 30
0.0
  9
$PUCSORTHOREF
  2

  9
$PUCSORTHOVIEW
 70
     0
  9
$PUCSORGTOP
 10
0.0
 20
0.0
 30
0.0
  9
$PUCSORGBOTTOM
 10
0.0
 20
0.0
 30
0.0
  9
$PUCSORGLEFT
 10
0.0
 20
0.0
 30
0.0
  9
$PUCSORGRIGHT
 10
0.0
 20
0.0
 30
0.0
  9
$PUCSORGFRONT
 10
0.0
 20
0.0
 30
0.0
  9
$PUCSORGBACK
 10
0.0
 20
0.0
 30
0.0
  9
$USERI1
 70
     0
  9
$USERI2
 70
     0
  9
$USERI3
 70
     0
  9
$USERI4
 70
     0
  9
$USERI5
 70
     0
  9
$USERR1
 40
0.0
  9
$USERR2
 40
0.0
  9
$USERR3
 40
0.0
  9
$USERR4
 40
0.0
  9
$USERR5
 40
0.0
  9
$WORLDVIEW
 70
     1
  9
$SHADEDGE
 70
     3
  9
$SHADEDIF
 70
    70
  9
$TILEMODE
 70
     1
  9
$MAXACTVP
 70
    64
  9
$PINSBASE
 10
0.0
 20
0.0
 30
0.0
  9
$PLIMCHECK
 70
     0
  9
$PEXTMIN
 10
1.000000000000000E+20
 20
1.000000000000000E+20
 30
1.000000000000000E+20
  9
$PEXTMAX
 10
-1.000000000000000E+20
 20
-1.000000000000000E+20
 30
-1.000000000000000E+20
  9
$PLIMMIN
 10
0.0
 20
0.0
  9
$PLIMMAX
 10
12.0
 20
9.0
  9
$UNITMODE
 70
     0
  9
$VISRETAIN
 70
     1
  9
$PLINEGEN
 70
     0
  9
$PSLTSCALE
 70
     1
  9
$TREEDEPTH
 70
  3020
  9
$CMLSTYLE
  2
Standard
  9
$CMLJUST
 70
     0
  9
$CMLSCALE
 40
1.0
  9
$PROXYGRAPHICS
 70
     1
  9
$MEASUREMENT
 70
     0
  9
$CELWEIGHT
370
    -1
  9
$ENDCAPS
280
     0
  9
$JOINSTYLE
280
     0
  9
$LWDISPLAY
290
     0
  9
$INSUNITS
 70
     1
  9
$HYPERLINKBASE
  1

  9
$STYLESHEET
  1

  9
$XEDIT
290
     1
  9
$CEPSNTYPE
380
     0
  9
$PSTYLEMODE
290
     1
  9
$FINGERPRINTGUID
  2
{56851A61-E207-41B9-854E-E5B04F818FFA}
  9
$VERSIONGUID
  2
{FAEB1C32-E019-11D5-929B-00C0DF256EC4}
  9
$EXTNAMES
290
     1
  9
$PSVPSCALE
 40
0.0
  9
$OLESTARTUP
290
     0
  9
$SORTENTS
280
   127
  9
$INDEXCTL
280
     0
  9
$HIDETEXT
280
     1
  9
$XCLIPFRAME
280
     2
  9
$HALOGAP
280
     0
  9
$OBSCOLOR
 70
   257
  9
$OBSLTYPE
280
     0
  9
$INTERSECTIONDISPLAY
280
     0
  9
$INTERSECTIONCOLOR
 70
   257
  9
$DIMASSOC
280
     2
  9
$PROJECTNAME
  1

  9
$CAMERADISPLAY
290
     0
  9
$LENSLENGTH
 40
50.0
  9
$CAMERAHEIGHT
 40
0.0
  9
$STEPSPERSEC
 40
2.0
  9
$STEPSIZE
 40
6.0
  9
$3DDWFPREC
 40
2.0
  9
$PSOLWIDTH
 40
0.25
  9
$PSOLHEIGHT
 40
4.0
  9
$LOFTANG1
 40
1.570796326794897
  9
$LOFTANG2
 40
1.570796326794897
  9
$LOFTMAG1
 40
0.0
  9
$LOFTMAG2
 40
0.0
  9
$LOFTPARAM
 70
     7
  9
$LOFTNORMALS
280
     1
  9
$LATITUDE
 40
37.795
  9
$LONGITUDE
 40
-122.394
  9
$NORTHDIRECTION
 40
0.0
  9
$TIMEZONE
 70
 -8000
  9
$LIGHTGLYPHDISPLAY
280
     1
  9
$TILEMODELIGHTSYNCH
280
     1
  9
$CMATERIAL
347
44
  9
$SOLIDHIST
280
     0
  9
$SHOWHIST
280
     1
  9
$DWFFRAME
280
     2
  9
$DGNFRAME
280
     2
  9
$REALWORLDSCALE
290
     1
  9
$INTERFERECOLOR
 62
   256
  9
$CSHADOW
280
     0
  9
$SHADOWPLANELOCATION
 40
0.0
  0
ENDSEC
  0
SECTION
  2
CLASSES
  0
CLASS
  1
ACDBDICTIONARYWDFLT
  2
AcDbDictionaryWithDefault
  3
ObjectDBX Classes
 90
        0
 91
        4
280
     0
281
     0
  0
CLASS
  1
VISUALSTYLE
  2
AcDbVisualStyle
  3
ObjectDBX Classes
 90
     4095
 91
        4
280
     0
281
     0
  0
CLASS
  1
MATERIAL
  2
AcDbMaterial
  3
ObjectDBX Classes
 90
     1153
 91
        4
280
     0
281
     0
  0
CLASS
  1
SCALE
  2
AcDbScale
  3
ObjectDBX Classes
 90
     1153
 91
        4
280
     0
281
     0
  0
CLASS
  1
TABLESTYLE
  2
AcDbTableStyle
  3
ObjectDBX Classes
 90
     4095
 91
        4
280
     0
281
     0
  0
CLASS
  1
MLEADERSTYLE
  2
AcDbMLeaderStyle
  3
ACDB_MLEADERSTYLE_CLASS
 90
     4095
 91
        4
280
     0
281
     0
  0
CLASS
  1
SUN
  2
AcDbSun
  3
SCENEOE
 90
     1153
 91
        4
280
     0
281
     0
  0
CLASS
  1
DICTIONARYVAR
  2
AcDbDictionaryVar
  3
ObjectDBX Classes
 90
        0
 91
        4
280
     0
281
     0
  0
CLASS
  1
CELLSTYLEMAP
  2
AcDbCellStyleMap
  3
ObjectDBX Classes
 90
     1152
 91
        4
280
     0
281
     0
  0
ENDSEC
  0
SECTION
  2
TABLES
  0
TABLE
  2
VPORT
  5
8
330
0
100
AcDbSymbolTable
 70
     1
  0
VPORT
  5
29
330
8
100
AcDbSymbolTableRecord
100
AcDbViewportTableRecord
  2
*Active
 70
     0
 10
0.0
 20
0.0
 11
1.0
 21
1.0
 12
0.1201249999999998
 22
0.1423982335019929
 13
0.0
 23
0.0
 14
0.5
 24
0.5
 15
0.5
 25
0.5
 16
0.0
 26
0.0
 36
1.0
 17
0.0
 27
0.0
 37
0.0
 40
5.900492396344066
 41
0.7329989955888759
 42
50.0
 43
0.0
 44
0.0
 50
0.0
 51
0.0
 71
     0
 72
   100
 73
     1
 74
     3
 75
     0
 76
     0
 77
     0
 78
     0
281
     0
 65
     1
110
0.0
120
0.0
130
0.0
111
1.0
121
0.0
131
0.0
112
0.0
122
1.0
132
0.0
 79
     0
146
0.0
348
2F
 60
     3
 61
     5
292
     1
282
     1
141
0.0
142
0.0
 63
   250
361
6D
  0
ENDTAB
  0
TABLE
  2
LTYPE
  5
5
330
0
100
AcDbSymbolTable
 70
     3
  0
LTYPE
  5
14
330
5
100
AcDbSymbolTableRecord
100
AcDbLinetypeTableRecord
  2
ByBlock
 70
     0
  3

 72
    65
 73
     0
 40
0.0
  0
LTYPE
  5
15
330
5
100
AcDbSymbolTableRecord
100
AcDbLinetypeTableRecord
  2
ByLayer
 70
     0
  3

 72
    65
 73
     0
 40
0.0
  0
LTYPE
  5
16
330
5
100
AcDbSymbolTableRecord
100
AcDbLinetypeTableRecord
  2
Continuous
 70
     0
  3
Solid line
 72
    65
 73
     0
 40
0.0
  0
LTYPE
  5
A9
330
5
100
AcDbSymbolTableRecord
100
AcDbLinetypeTableRecord
  2
Dashed
 70
     0
  3

 72
    65
 73
     2
 40
2.0
 49
1.0
 74
     0
 49
-1.0
 74
     0
  0
LTYPE
  5
13F
330
5
100
AcDbSymbolTableRecord
100
AcDbLinetypeTableRecord
  2
Center
 70
     0
  3

 72
    65
 73
     4
 40
1.5
 49
0.45
 74
     0
 49
-0.5
 74
     0
 49
0.05
 74
     0
 49
-0.5
 74
     0
  0
ENDTAB
  0
TABLE
  2
LAYER
  5
2
330
0
100
AcDbSymbolTable
 70
     7
  0
LAYER
  5
10
330
2
100
AcDbSymbolTableRecord
100
AcDbLayerTableRecord
  2
0
 70
     0
 62
     7
  6
Continuous
370
    -3
390
F
347
46
348
0
  0
LAYER
  5
72
330
2
100
AcDbSymbolTableRecord
100
AcDbLayerTableRecord
  2
AM_6
 70
     0
 62
    -2
  6
Continuous
370
    35
390
F
347
46
348
0
  0
LAYER
  5
AA
330
2
100
AcDbSymbolTableRecord
100
AcDbLayerTableRecord
  2
AM_9
 70
     0
 62
     6
  6
Dashed
370
    25
390
F
347
46
348
0
  0
LAYER
  5
CF
330
2
100
AcDbSymbolTableRecord
100
AcDbLayerTableRecord
  2
AM_5
 70
     0
 62
     3
  6
Continuous
370
    25
390
F
347
46
348
0
  0
LAYER
  5
D4
330
2
100
AcDbSymbolTableRecord
100
AcDbLayerTableRecord
  2
AM_4
 70
     0
 62
     7
  6
Continuous
370
    50
390
F
347
46
348
0
  0
LAYER
  5
140
330
2
100
AcDbSymbolTableRecord
100
AcDbLayerTableRecord
  2
AM_7
 70
     0
 62
     7
  6
Center
370
    25
390
F
347
46
348
0
  0
LAYER
  5
21A
330
2
100
AcDbSymbolTableRecord
100
AcDbLayerTableRecord
  2
ConnectionPoints
 70
     0
 62
     7
  6
Continuous
370
    50
390
F
347
46
348
0
  0
ENDTAB
  0
TABLE
  2
STYLE
  5
3
330
0
100
AcDbSymbolTable
 70
     1
  0
STYLE
  5
11
330
3
100
AcDbSymbolTableRecord
100
AcDbTextStyleTableRecord
  2
Standard
 70
     0
 40
0.0
 41
1.0
 50
0.0
 71
     0
 42
0.2
  3
txt
  4

  0
ENDTAB
  0
TABLE
  2
VIEW
  5
6
330
0
100
AcDbSymbolTable
 70
     0
  0
ENDTAB
  0
TABLE
  2
UCS
  5
7
330
0
100
AcDbSymbolTable
 70
     0
  0
ENDTAB
  0
TABLE
  2
APPID
  5
9
330
0
100
AcDbSymbolTable
 70
     1
  0
APPID
  5
12
330
9
100
AcDbSymbolTableRecord
100
AcDbRegAppTableRecord
  2
ACAD
 70
     0
  0
ENDTAB
  0
TABLE
  2
DIMSTYLE
  5
A
330
0
100
AcDbSymbolTable
 70
     1
100
AcDbDimStyleTable
  0
DIMSTYLE
105
27
330
A
100
AcDbSymbolTableRecord
100
AcDbDimStyleTableRecord
  2
Standard
 70
     0
178
     0
340
11
  0
ENDTAB
  0
TABLE
  2
BLOCK_RECORD
  5
1
330
0
100
AcDbSymbolTable
 70
     6
  0
BLOCK_RECORD
  5
1F
330
1
100
AcDbSymbolTableRecord
100
AcDbBlockTableRecord
  2
*Model_Space
340
22
 70
     0
280
     1
281
     0
  0
BLOCK_RECORD
  5
1B
330
1
100
AcDbSymbolTableRecord
100
AcDbBlockTableRecord
  2
*Paper_Space
340
1E
 70
     0
280
     1
281
     0
  0
BLOCK_RECORD
  5
23
330
1
100
AcDbSymbolTableRecord
100
AcDbBlockTableRecord
  2
*Paper_Space0
340
26
 70
     0
280
     1
281
     0
  0
BLOCK_RECORD
  5
6E
330
1
100
AcDbSymbolTableRecord
100
AcDbBlockTableRecord
  2
1_071457_2
340
0
102
{BLKREFS
331
6F
102
}
 70
     0
280
     1
281
     0
  0
BLOCK_RECORD
  5
90
330
1
100
AcDbSymbolTableRecord
100
AcDbBlockTableRecord
  2
2_2_7_16CS2i_0_in_071457_2
340
0
102
{BLKREFS
331
91
102
}
 70
     0
280
     1
281
     0
  0
BLOCK_RECORD
  5
E0
330
1
100
AcDbSymbolTableRecord
100
AcDbBlockTableRecord
  2
3_070008i_0_in_071457_2
340
0
102
{BLKREFS
331
E1
102
}
 70
     0
280
     1
281
     0
  0
BLOCK_RECORD
  5
144
330
1
100
AcDbSymbolTableRecord
100
AcDbBlockTableRecord
  2
4_405015E_Inch_0_in_071457_2
340
0
102
{BLKREFS
331
145
102
}
 70
     0
280
     1
281
     0
  0
BLOCK_RECORD
  5
1A0
330
1
100
AcDbSymbolTableRecord
100
AcDbBlockTableRecord
  2
5_B071457_0_in_071457_2
340
0
102
{BLKREFS
331
1A1
102
}
 70
     0
280
     1
281
     0
  0
ENDTAB
  0
ENDSEC
  0
SECTION
  2
BLOCKS
  0
BLOCK
  5
20
330
1F
100
AcDbEntity
  8
0
100
AcDbBlockBegin
  2
*Model_Space
 70
     0
 10
0.0
 20
0.0
 30
0.0
  3
*Model_Space
  1

  0
ENDBLK
  5
21
330
1F
100
AcDbEntity
  8
0
100
AcDbBlockEnd
  0
BLOCK
  5
1C
330
1B
100
AcDbEntity
 67
     1
  8
0
100
AcDbBlockBegin
  2
*Paper_Space
 70
     0
 10
0.0
 20
0.0
 30
0.0
  3
*Paper_Space
  1

  0
ENDBLK
  5
1D
330
1B
100
AcDbEntity
 67
     1
  8
0
100
AcDbBlockEnd
  0
BLOCK
  5
24
330
23
100
AcDbEntity
  8
0
100
AcDbBlockBegin
  2
*Paper_Space0
 70
     0
 10
0.0
 20
0.0
 30
0.0
  3
*Paper_Space0
  1

  0
ENDBLK
  5
25
330
23
100
AcDbEntity
  8
0
100
AcDbBlockEnd
  0
BLOCK
  5
70
330
6E
100
AcDbEntity
  8
0
100
AcDbBlockBegin
  2
1_071457_2
 70
     2
 10
0.0
 20
0.0
 30
0.0
  3
1_071457_2
  1

  0
ATTDEF
  5
73
330
6E
100
AcDbEntity
  8
AM_6
100
AcDbText
 10
6.968717948717948
 20
3.034796467003985
 30
0.0
 40
0.5
  1
S-2000 Pillow Block with Type E Dimensions 4-Bolt Labyrinth Seal Non-Expansion
100
AcDbAttributeDefinition
  3

  2
NN
 70
     8
280
     0
  0
ATTDEF
  5
74
330
6E
100
AcDbEntity
  8
AM_6
100
AcDbText
 10
6.968717948717948
 20
2.534796467003985
 30
0.0
 40
0.5
  1
S-2000 - E Type - Inch
100
AcDbAttributeDefinition
  3

  2
NT
 70
     8
280
     0
  0
ATTDEF
  5
75
330
6E
100
AcDbEntity
  8
AM_6
100
AcDbText
 10
6.968717948717948
 20
2.034796467003985
 30
0.0
 40
0.5
  1
071457
100
AcDbAttributeDefinition
  3

  2
NB
 70
     8
280
     0
  0
ATTDEF
  5
76
330
6E
100
AcDbEntity
  8
AM_6
100
AcDbText
 10
6.968717948717948
 20
1.534796467003985
 30
0.0
 40
0.5
  1
$PN.
100
AcDbAttributeDefinition
  3

  2
NBSYN
 70
     8
280
     0
  0
ATTDEF
  5
77
330
6E
100
AcDbEntity
  8
AM_6
100
AcDbText
 10
6.968717948717948
 20
1.034796467003985
 30
0.0
 40
0.5
  1
071457
100
AcDbAttributeDefinition
  3

  2
LINA
 70
     8
280
     0
  0
ATTDEF
  5
78
330
6E
100
AcDbEntity
  8
AM_6
100
AcDbText
 10
6.968717948717948
 20
0.5347964670039853
 30
0.0
 40
0.5
  1
2-7/16
100
AcDbAttributeDefinition
  3

  2
SS
 70
     8
280
     0
  0
ATTDEF
  5
79
330
6E
100
AcDbEntity
  8
AM_6
100
AcDbText
 10
6.968717948717948
 20
0.0347964670039853
 30
0.0
 40
0.5
  1
Expansion
100
AcDbAttributeDefinition
  3

  2
TYPE
 70
     8
280
     0
  0
ATTDEF
  5
7A
330
6E
100
AcDbEntity
  8
AM_6
100
AcDbText
 10
6.968717948717948
 20
-0.4652035329960147
 30
0.0
 40
0.5
  1
071457
100
AcDbAttributeDefinition
  3

  2
PN
 70
     8
280
     0
  0
ATTDEF
  5
7B
330
6E
100
AcDbEntity
  8
AM_6
100
AcDbText
 10
6.968717948717948
 20
-0.9652035329960147
 30
0.0
 40
0.5
  1
EP4B-S2-207LE
100
AcDbAttributeDefinition
  3

  2
DESCRIPTION
 70
     8
280
     0
  0
ATTDEF
  5
7C
330
6E
100
AcDbEntity
  8
AM_6
100
AcDbText
 10
6.968717948717948
 20
-1.465203532996015
 30
0.0
 40
0.5
  1
3.2
100
AcDbAttributeDefinition
  3

  2
A
 70
     8
280
     0
  0
ATTDEF
  5
7D
330
6E
100
AcDbEntity
  8
AM_6
100
AcDbText
 10
6.968717948717948
 20
-1.965203532996015
 30
0.0
 40
0.5
  1
10.5
100
AcDbAttributeDefinition
  3

  2
B
 70
     8
280
     0
  0
ATTDEF
  5
7E
330
6E
100
AcDbEntity
  8
AM_6
100
AcDbText
 10
6.968717948717948
 20
-2.465203532996015
 30
0.0
 40
0.5
  1
3.49
100
AcDbAttributeDefinition
  3

  2
C
 70
     8
280
     0
  0
ATTDEF
  5
7F
330
6E
100
AcDbEntity
  8
AM_6
100
AcDbText
 10
6.968717948717948
 20
-2.965203532996015
 30
0.0
 40
0.5
  1
8.31
100
AcDbAttributeDefinition
  3

  2
DMIN
 70
     8
280
     0
  0
ATTDEF
  5
80
330
6E
100
AcDbEntity
  8
AM_6
100
AcDbText
 10
6.968717948717948
 20
-3.465203532996015
 30
0.0
 40
0.5
  1
8.69
100
AcDbAttributeDefinition
  3

  2
DMAX
 70
     8
280
     0
  0
ATTDEF
  5
81
330
6E
100
AcDbEntity
  8
AM_6
100
AcDbText
 10
6.968717948717948
 20
-3.965203532996015
 30
0.0
 40
0.5
  1
1.87
100
AcDbAttributeDefinition
  3

  2
E
 70
     8
280
     0
  0
ATTDEF
  5
82
330
6E
100
AcDbEntity
  8
AM_6
100
AcDbText
 10
6.968717948717948
 20
-4.465203532996014
 30
0.0
 40
0.5
  1
5/8
100
AcDbAttributeDefinition
  3

  2
F
 70
     8
280
     0
  0
ATTDEF
  5
83
330
6E
100
AcDbEntity
  8
AM_6
100
AcDbText
 10
6.968717948717948
 20
-4.965203532996014
 30
0.0
 40
0.5
  1
0.87
100
AcDbAttributeDefinition
  3

  2
G
 70
     8
280
     0
  0
ATTDEF
  5
84
330
6E
100
AcDbEntity
  8
AM_6
100
AcDbText
 10
6.968717948717948
 20
-5.465203532996014
 30
0.0
 40
0.5
  1
1.63
100
AcDbAttributeDefinition
  3

  2
H
 70
     8
280
     0
  0
ATTDEF
  5
85
330
6E
100
AcDbEntity
  8
AM_6
100
AcDbText
 10
6.968717948717948
 20
-5.965203532996014
 30
0.0
 40
0.5
  1
5.72
100
AcDbAttributeDefinition
  3

  2
J
 70
     8
280
     0
  0
ATTDEF
  5
86
330
6E
100
AcDbEntity
  8
AM_6
100
AcDbText
 10
6.968717948717948
 20
-6.465203532996014
 30
0.0
 40
0.5
  1
3.86
100
AcDbAttributeDefinition
  3

  2
L
 70
     8
280
     0
  0
ATTDEF
  5
87
330
6E
100
AcDbEntity
  8
AM_6
100
AcDbText
 10
6.968717948717948
 20
-6.965203532996014
 30
0.0
 40
0.5
  1
2.75
100
AcDbAttributeDefinition
  3

  2
M
 70
     8
280
     0
  0
ATTDEF
  5
88
330
6E
100
AcDbEntity
  8
AM_6
100
AcDbText
 10
6.968717948717948
 20
-7.465203532996014
 30
0.0
 40
0.5
  1
1.2
100
AcDbAttributeDefinition
  3

  2
R
 70
     8
280
     0
  0
ATTDEF
  5
89
330
6E
100
AcDbEntity
  8
AM_6
100
AcDbText
 10
6.968717948717948
 20
-7.965203532996014
 30
0.0
 40
0.5
  1
2
100
AcDbAttributeDefinition
  3

  2
S
 70
     8
280
     0
  0
ATTDEF
  5
8A
330
6E
100
AcDbEntity
  8
AM_6
100
AcDbText
 10
6.968717948717948
 20
-8.465203532996014
 30
0.0
 40
0.5
  1
0.25
100
AcDbAttributeDefinition
  3

  2
X
 70
     8
280
     0
  0
ATTDEF
  5
8B
330
6E
100
AcDbEntity
  8
AM_6
100
AcDbText
 10
6.968717948717948
 20
-8.965203532996014
 30
0.0
 40
0.5
  1
0.025
100
AcDbAttributeDefinition
  3

  2
Y
 70
     8
280
     0
  0
ATTDEF
  5
8C
330
6E
100
AcDbEntity
  8
AM_6
100
AcDbText
 10
6.968717948717948
 20
-9.465203532996014
 30
0.0
 40
0.5
  1
2.94
100
AcDbAttributeDefinition
  3

  2
Z
 70
     8
280
     0
  0
ATTDEF
  5
8D
330
6E
100
AcDbEntity
  8
AM_6
100
AcDbText
 10
6.968717948717948
 20
-9.965203532996014
 30
0.0
 40
0.5
  1
3/8-16
100
AcDbAttributeDefinition
  3

  2
CS
 70
     8
280
     0
  0
ATTDEF
  5
8E
330
6E
100
AcDbEntity
  8
AM_6
100
AcDbText
 10
6.968717948717948
 20
-10.46520353299601
 30
0.0
 40
0.5
  1
290
100
AcDbAttributeDefinition
  3

  2
TORQUE
 70
     8
280
     0
  0
ATTDEF
  5
8F
330
6E
100
AcDbEntity
  8
AM_6
100
AcDbText
 10
6.968717948717948
 20
-10.96520353299601
 30
0.0
 40
0.5
  1
baldor
100
AcDbAttributeDefinition
  3

  2
COMPANY
 70
     8
280
     0
  0
INSERT
  5
91
330
6E
100
AcDbEntity
  8
0
100
AcDbBlockReference
  2
2_2_7_16CS2i_0_in_071457_2
 10
0.0
 20
0.0
 30
0.0
  0
INSERT
  5
E1
330
6E
100
AcDbEntity
  8
0
100
AcDbBlockReference
  2
3_070008i_0_in_071457_2
 10
0.0
 20
0.0
 30
0.0
  0
INSERT
  5
145
330
6E
100
AcDbEntity
  8
0
100
AcDbBlockReference
  2
4_405015E_Inch_0_in_071457_2
 10
0.0
 20
0.0
 30
0.0
  0
INSERT
  5
1A1
330
6E
100
AcDbEntity
  8
0
100
AcDbBlockReference
  2
5_B071457_0_in_071457_2
 10
0.0
 20
0.0
 30
0.0
  0
ENDBLK
  5
71
330
6E
100
AcDbEntity
  8
0
100
AcDbBlockEnd
  0
BLOCK
  5
92
330
90
100
AcDbEntity
  8
0
100
AcDbBlockBegin
  2
2_2_7_16CS2i_0_in_071457_2
 70
     2
 10
0.0
 20
0.0
 30
0.0
  3
2_2_7_16CS2i_0_in_071457_2
  1

  0
ATTDEF
  5
94
330
90
100
AcDbEntity
  8
AM_6
100
AcDbText
 10
3.884
 20
1.984375
 30
0.0
 40
0.5
  1
S-2000 Collar -Inch
100
AcDbAttributeDefinition
  3

  2
NN
 70
     8
280
     0
  0
ATTDEF
  5
95
330
90
100
AcDbEntity
  8
AM_6
100
AcDbText
 10
3.884
 20
1.484375
 30
0.0
 40
0.5
  1
S-2000 Bearings
100
AcDbAttributeDefinition
  3

  2
NT
 70
     8
280
     0
  0
ATTDEF
  5
96
330
90
100
AcDbEntity
  8
AM_6
100
AcDbText
 10
3.884
 20
0.984375
 30
0.0
 40
0.5
  1
2-7/16CS2i
100
AcDbAttributeDefinition
  3

  2
NB
 70
     8
280
     0
  0
ATTDEF
  5
97
330
90
100
AcDbEntity
  8
AM_6
100
AcDbText
 10
3.884
 20
0.484375
 30
0.0
 40
0.5
  1
$BORE.CS2i
100
AcDbAttributeDefinition
  3

  2
NBSYN
 70
     8
280
     0
  0
ATTDEF
  5
98
330
90
100
AcDbEntity
  8
AM_6
100
AcDbText
 10
3.884
 20
-0.015625
 30
0.0
 40
0.5
  1
2-7/16CS2i
100
AcDbAttributeDefinition
  3

  2
LINA
 70
     8
280
     0
  0
ATTDEF
  5
99
330
90
100
AcDbEntity
  8
AM_6
100
AcDbText
 10
3.884
 20
-0.515625
 30
0.0
 40
0.5
  1
2-7/16
100
AcDbAttributeDefinition
  3

  2
BORE
 70
     8
280
     0
  0
ATTDEF
  5
9A
330
90
100
AcDbEntity
  8
AM_6
100
AcDbText
 10
3.884
 20
-1.015625
 30
0.0
 40
0.5
  1
2.437500
100
AcDbAttributeDefinition
  3

  2
BORE1
 70
     8
280
     0
  0
ATTDEF
  5
9B
330
90
100
AcDbEntity
  8
AM_6
100
AcDbText
 10
3.884
 20
-1.515625
 30
0.0
 40
0.5
  1
4-1/16
100
AcDbAttributeDefinition
  3

  2
L1
 70
     8
280
     0
  0
ATTDEF
  5
9C
330
90
100
AcDbEntity
  8
AM_6
100
AcDbText
 10
3.884
 20
-2.015625
 30
0.0
 40
0.5
  1
4.06250
100
AcDbAttributeDefinition
  3

  2
L
 70
     8
280
     0
  0
ATTDEF
  5
9D
330
90
100
AcDbEntity
  8
AM_6
100
AcDbText
 10
3.884
 20
-2.515625
 30
0.0
 40
0.5
  1
3.96875
100
AcDbAttributeDefinition
  3

  2
L2
 70
     8
280
     0
  0
ATTDEF
  5
9E
330
90
100
AcDbEntity
  8
AM_6
100
AcDbText
 10
3.884
 20
-3.015625
 30
0.0
 40
0.5
  1
4.00
100
AcDbAttributeDefinition
  3

  2
A
 70
     8
280
     0
  0
ATTDEF
  5
9F
330
90
100
AcDbEntity
  8
AM_6
100
AcDbText
 10
3.884
 20
-3.515625
 30
0.0
 40
0.5
  1
1.70
100
AcDbAttributeDefinition
  3

  2
B
 70
     8
280
     0
  0
ATTDEF
  5
A0
330
90
100
AcDbEntity
  8
AM_6
100
AcDbText
 10
3.884
 20
-4.015625
 30
0.0
 40
0.5
  1
2.94
100
AcDbAttributeDefinition
  3

  2
C
 70
     8
280
     0
  0
ATTDEF
  5
A1
330
90
100
AcDbEntity
  8
AM_6
100
AcDbText
 10
3.884
 20
-4.515625
 30
0.0
 40
0.5
  1
4.12
100
AcDbAttributeDefinition
  3

  2
D
 70
     8
280
     0
  0
ATTDEF
  5
A2
330
90
100
AcDbEntity
  8
AM_6
100
AcDbText
 10
3.884
 20
-5.015625
 30
0.0
 40
0.5
  1
0.41
100
AcDbAttributeDefinition
  3

  2
E
 70
     8
280
     0
  0
ATTDEF
  5
A3
330
90
100
AcDbEntity
  8
AM_6
100
AcDbText
 10
3.884
 20
-5.515625
 30
0.0
 40
0.5
  1
0.317
100
AcDbAttributeDefinition
  3

  2
F
 70
     8
280
     0
  0
ATTDEF
  5
A4
330
90
100
AcDbEntity
  8
AM_6
100
AcDbText
 10
3.884
 20
-6.015625
 30
0.0
 40
0.5
  1
3/8-16
100
AcDbAttributeDefinition
  3

  2
CS
 70
     8
280
     0
  0
ATTDEF
  5
A5
330
90
100
AcDbEntity
  8
AM_6
100
AcDbText
 10
3.884
 20
-6.515625
 30
0.0
 40
0.5
  1
0.3750
100
AcDbAttributeDefinition
  3

  2
NDM
 70
     8
280
     0
  0
ATTDEF
  5
A6
330
90
100
AcDbEntity
  8
AM_6
100
AcDbText
 10
3.884
 20
-7.015625
 30
0.0
 40
0.5
  1
0.3070
100
AcDbAttributeDefinition
  3

  2
KDM
 70
     8
280
     0
  0
ATTDEF
  5
A7
330
90
100
AcDbEntity
  8
AM_6
100
AcDbText
 10
3.884
 20
-7.515625
 30
0.0
 40
0.5
  1
2
100
AcDbAttributeDefinition
  3

  2
DD
 70
     8
280
     0
  0
ATTDEF
  5
A8
330
90
100
AcDbEntity
  8
AM_6
100
AcDbText
 10
3.884
 20
-8.015625
 30
0.0
 40
0.5
  1
baldor
100
AcDbAttributeDefinition
  3

  2
COMPANY
 70
     8
280
     0
  0
LINE
  5
AB
330
90
100
AcDbEntity
  8
AM_9
100
AcDbLine
 10
-1.27935
 20
1.478849999999998
 30
0.0
 11
-1.27935
 21
1.984375
 31
0.0
  0
LINE
  5
AC
330
90
100
AcDbEntity
  8
AM_9
100
AcDbLine
 10
-1.58665
 20
1.984375
 30
0.0
 11
-1.58665
 21
1.478849999999998
 31
0.0
  0
LINE
  5
AD
330
90
100
AcDbEntity
  8
AM_9
100
AcDbLine
 10
-1.58665
 20
1.478849999999998
 30
0.0
 11
-1.27935
 21
1.478849999999998
 31
0.0
  0
LINE
  5
AE
330
90
100
AcDbEntity
  8
AM_9
100
AcDbLine
 10
-1.58665
 20
1.478849999999998
 30
0.0
 11
-1.595257593413384
 21
1.470242406586615
 31
0.0
  0
LINE
  5
AF
330
90
100
AcDbEntity
  8
AM_9
100
AcDbLine
 10
-1.27073587066762
 20
1.470235870667618
 30
0.0
 11
-1.27935
 21
1.478849999999998
 31
0.0
  0
LWPOLYLINE
  5
B0
330
90
100
AcDbEntity
  8
AM_9
100
AcDbPolyline
 90
       33
 70
     0
 43
0.0
 10
-1.272814686588544
 20
0.6473929965419603
 10
-1.275679019343004
 20
0.6600965568428371
 10
-1.285402011676166
 20
0.6858111942120627
 10
-1.299874026234257
 20
0.709455503950751
 10
-1.318461621957356
 20
0.7299599228603233
 10
-1.340869816854495
 20
0.7471624406600663
 10
-1.365275405848488
 20
0.7598840809393805
 10
-1.391921743985311
 20
0.7686191919518967
 10
-1.418172826139211
 20
0.7728099352040103
 10
-1.444877379624312
 20
0.7730491941003067
 10
-1.47012089620609
 20
0.769503100876826
 10
-1.494336015025138
 20
0.7624416362604646
 10
-1.517074159602231
 20
0.7519380922144724
 10
-1.537591196266354
 20
0.7384022811345639
 10
-1.556255087034341
 20
0.7212715702002606
 10
-1.571599152053086
 20
0.7016531834582258
 10
-1.583878021810583
 20
0.6786357754527867
 10
-1.59185474044103
 20
0.6539530659921327
 10
-1.595370073700269
 20
0.6271002309954924
 10
-1.593976259825301
 20
0.5998334414846991
 10
-1.587498321371626
 20
0.5724815177461756
 10
-1.576120512588064
 20
0.5462978730967164
 10
-1.5601884259221
 20
0.52234422534567
 10
-1.540053118707598
 20
0.5011961950238545
 10
-1.517118876585748
 20
0.484311239815799
 10
-1.491372362384886
 20
0.4714948147030084
 10
-1.465323361674165
 20
0.4637829448334976
 10
-1.438253692110982
 20
0.4605357747473251
 10
-1.412475178627994
 20
0.4617948268101653
 10
-1.387282242319745
 20
0.4671394148390476
 10
-1.363582022152446
 20
0.476309313538854
 10
-1.341729825610209
 20
0.4889197175227195
 10
-1.312289438370364
 20
0.5146837495902004
  0
LWPOLYLINE
  5
B1
330
90
100
AcDbEntity
  8
AM_9
100
AcDbPolyline
 90
        5
 70
     0
 43
0.0
 10
-1.312289438370364
 20
0.5146837495902004
 10
-1.297705728926734
 20
0.5333956653873272
 10
-1.286077262917383
 20
0.5537257927356818
 10
-1.276395802571751
 20
0.5793069639454869
 10
-1.272866297483092
 20
0.5945714310732072
  0
LINE
  5
B2
330
90
100
AcDbEntity
  8
AM_9
100
AcDbLine
 10
-1.75
 20
-1.47
 30
0.0
 11
-1.116
 21
-1.47
 31
0.0
  0
LINE
  5
B3
330
90
100
AcDbEntity
  8
AM_9
100
AcDbLine
 10
-1.116
 20
1.47
 30
0.0
 11
-1.271038830069029
 21
1.47
 31
0.0
  0
LINE
  5
B4
330
90
100
AcDbEntity
  8
AM_9
100
AcDbLine
 10
-1.59494635283678
 20
1.47
 30
0.0
 11
-1.75
 21
1.47
 31
0.0
  0
LWPOLYLINE
  5
B5
330
90
100
AcDbEntity
  8
AM_9
100
AcDbPolyline
 90
       21
 70
     0
 43
0.0
 10
-1.595499999999875
 20
1.469999999999985
 10
-1.595204694987159
 20
1.469963330931792
 10
-1.590890339424633
 20
1.469434979268364
 10
-1.581753413306857
 20
1.468361743863903
 10
-1.56746461965297
 20
1.466808455843292
 10
-1.549523936179177
 20
1.465075748064413
 10
-1.527040770599331
 20
1.463249050051434
 10
-1.503222462372668
 20
1.461735503021439
 10
-1.476231656816433
 20
1.460548397930297
 10
-1.450407858850861
 20
1.459940495715826
 10
-1.423221677539698
 20
1.459859932564025
 10
-1.398251116569449
 20
1.460291675631193
 10
-1.373561129721633
 20
1.461193739523057
 10
-1.350971313926028
 20
1.462431313695708
 10
-1.330005878699985
 20
1.463930347093519
 10
-1.311346267382887
 20
1.465546352084191
 10
-1.295543745800936
 20
1.467120992139932
 10
-1.283081910056275
 20
1.468495087636686
 10
-1.274636785972306
 20
1.469492214862596
 10
-1.270737211153409
 20
1.469970539544335
 10
-1.270500000000199
 20
1.469999999999975
  0
ELLIPSE
  5
B6
330
90
100
AcDbEntity
  8
AM_9
100
AcDbEllipse
 10
-1.432999999999999
 20
0.6249890163752324
 30
0.0
 11
0.1536500000000007
 21
0.0
 31
0.0
210
0.0
220
0.0
230
1.0
 40
0.9063077870366487
 41
2.271281541519691
 42
6.283185307179586
  0
LINE
  5
B7
330
90
100
AcDbEntity
  8
AM_9
100
AcDbLine
 10
-1.27935
 20
0.6249890163752324
 30
0.0
 11
-1.27935
 21
0.838616939185004
 31
0.0
  0
LINE
  5
B8
330
90
100
AcDbEntity
  8
AM_9
100
AcDbLine
 10
-1.58665
 20
0.8386306319884669
 30
0.0
 11
-1.58665
 21
0.6249890163752324
 31
0.0
  0
LWPOLYLINE
  5
B9
330
90
100
AcDbEntity
  8
AM_9
100
AcDbPolyline
 90
       10
 70
     0
 43
0.0
 10
-1.279350000681054
 20
0.8386462244777726
 10
-1.280357813250999
 20
0.8226769187490399
 10
-1.285467611782737
 20
0.7995835785740776
 10
-1.294709574499235
 20
0.7774661420366233
 10
-1.307892339881111
 20
0.7569678090677469
 10
-1.324583186685994
 20
0.7386941352146686
 10
-1.344413744745505
 20
0.7231909882725822
 10
-1.366745851109963
 20
0.7109412118526285
 10
-1.390981781430096
 20
0.7023735220235127
 10
-1.395912890678139
 20
0.7011255135025842
  0
ELLIPSE
  5
BA
330
90
100
AcDbEntity
  8
AM_9
100
AcDbEllipse
 10
-1.432999999999997
 20
0.62498901637524
 30
0.0
 11
0.1536499999999936
 21
0.0
 31
0.0
210
0.0
220
0.0
230
1.0
 40
0.9063077870366365
 41
0.0
 42
1.327599063986643
  0
LINE
  5
BB
330
90
100
AcDbEntity
  8
AM_9
100
AcDbLine
 10
-1.136905342624855
 20
-1.889880952380952
 30
0.0
 11
-1.116
 21
-1.889880952380952
 31
0.0
  0
LINE
  5
BC
330
90
100
AcDbEntity
  8
AM_9
100
AcDbLine
 10
-1.116
 20
1.889880952380952
 30
0.0
 11
-1.136905342624855
 21
1.889880952380952
 31
0.0
  0
LINE
  5
BD
330
90
100
AcDbEntity
  8
AM_9
100
AcDbLine
 10
-1.116
 20
1.889880952380952
 30
0.0
 11
-1.116
 21
-1.889880952380952
 31
0.0
  0
LINE
  5
BE
330
90
100
AcDbEntity
  8
AM_9
100
AcDbLine
 10
-1.136905342624855
 20
1.889880952380952
 30
0.0
 11
-1.183
 21
1.935975609756098
 31
0.0
  0
LINE
  5
BF
330
90
100
AcDbEntity
  8
AM_9
100
AcDbLine
 10
-1.183
 20
-1.935975609756098
 30
0.0
 11
-1.136905342624855
 21
-1.889880952380952
 31
0.0
  0
LINE
  5
C0
330
90
100
AcDbEntity
  8
AM_9
100
AcDbLine
 10
-1.136905342624855
 20
1.889880952380952
 30
0.0
 11
-1.136905342624855
 21
-1.889880952380952
 31
0.0
  0
LINE
  5
C1
330
90
100
AcDbEntity
  8
AM_9
100
AcDbLine
 10
-1.2455
 20
-1.935975609756098
 30
0.0
 11
-1.183
 21
-1.935975609756098
 31
0.0
  0
LINE
  5
C2
330
90
100
AcDbEntity
  8
AM_9
100
AcDbLine
 10
-1.183
 20
1.935975609756098
 30
0.0
 11
-1.2455
 21
1.935975609756098
 31
0.0
  0
LINE
  5
C3
330
90
100
AcDbEntity
  8
AM_9
100
AcDbLine
 10
-1.183
 20
1.935975609756098
 30
0.0
 11
-1.183
 21
-1.935975609756098
 31
0.0
  0
LINE
  5
C4
330
90
100
AcDbEntity
  8
AM_9
100
AcDbLine
 10
-1.2455
 20
1.935975609756098
 30
0.0
 11
-1.273443400985931
 21
1.984375
 31
0.0
  0
LINE
  5
C5
330
90
100
AcDbEntity
  8
AM_9
100
AcDbLine
 10
-1.273443400985931
 20
-1.984375
 30
0.0
 11
-1.2455
 21
-1.935975609756098
 31
0.0
  0
LINE
  5
C6
330
90
100
AcDbEntity
  8
AM_9
100
AcDbLine
 10
-1.2455
 20
1.935975609756098
 30
0.0
 11
-1.2455
 21
-1.935975609756098
 31
0.0
  0
ARC
  5
C7
330
90
100
AcDbEntity
  8
AM_9
100
AcDbCircle
 10
-1.644333333333333
 20
-1.878708333333334
 30
0.0
 40
0.1056666666666662
100
AcDbArc
 50
197.6962481372935
 51
270.0
  0
LINE
  5
C8
330
90
100
AcDbEntity
  8
AM_9
100
AcDbLine
 10
-1.292097227422507
 20
1.983428700368386
 30
0.0
 11
-1.279350000000017
 21
1.984374999999999
 31
0.0
  0
LWPOLYLINE
  5
C9
330
90
100
AcDbEntity
  8
AM_9
100
AcDbPolyline
 90
       10
 70
     0
 43
0.0
 10
-1.395867099706839
 20
0.9713890436667275
 10
-1.382227417019945
 20
0.9678223688306211
 10
-1.358658416855346
 20
0.9585596782521038
 10
-1.337180157735215
 20
0.9459538304011171
 10
-1.318397082769836
 20
0.9302523517884194
 10
-1.302840038706733
 20
0.9119228428324236
 10
-1.290985044534593
 20
0.8913863693698734
 10
-1.28313904543096
 20
0.8692452597714933
 10
-1.279589352109346
 20
0.8461367348659078
 10
-1.279350000681054
 20
0.8386462244777726
  0
LINE
  5
CA
330
90
100
AcDbEntity
  8
AM_9
100
AcDbLine
 10
-1.644333333333333
 20
-1.984375
 30
0.0
 11
-1.273443400985931
 21
-1.984375
 31
0.0
  0
LINE
  5
CB
330
90
100
AcDbEntity
  8
AM_9
100
AcDbLine
 10
-1.273443400985931
 20
1.984375
 30
0.0
 11
-1.27935
 21
1.984375
 31
0.0
  0
LINE
  5
CC
330
90
100
AcDbEntity
  8
AM_9
100
AcDbLine
 10
-1.644333333333333
 20
-0.4549708138745789
 30
0.0
 11
-1.644333333333333
 21
-1.984375
 31
0.0
  0
LWPOLYLINE
  5
CD
330
90
100
AcDbEntity
  8
AM_9
100
AcDbPolyline
 90
       10
 70
     0
 43
0.0
 10
-1.279350000000017
 20
1.984374999999999
 10
-1.279606591303652
 20
1.984355148645646
 10
-1.283348035815361
 20
1.984069436413282
 10
-1.291145310878882
 20
1.983496551786932
 10
-1.303221419296486
 20
1.982669487870941
 10
-1.318600435384712
 20
1.981722250596478
 10
-1.337702905067931
 20
1.980711325364575
 10
-1.358980331625647
 20
1.979801689420243
 10
-1.383011277323574
 20
1.979048935857783
 10
-1.395871454597696
 20
1.978765864625901
  0
LINE
  5
CE
330
90
100
AcDbEntity
  8
AM_9
100
AcDbLine
 10
-1.273443400985931
 20
1.984375
 30
0.0
 11
-1.273443400985931
 21
-1.984375
 31
0.0
  0
LINE
  5
D0
330
90
100
AcDbEntity
  8
AM_5
100
AcDbLine
 10
-1.6205
 20
1.984375
 30
0.0
 11
-1.6205
 21
1.47
 31
0.0
  0
LINE
  5
D1
330
90
100
AcDbEntity
  8
AM_5
100
AcDbLine
 10
-1.52675
 20
1.445
 30
0.0
 11
-1.6205
 21
1.445
 31
0.0
  0
LINE
  5
D2
330
90
100
AcDbEntity
  8
AM_5
100
AcDbLine
 10
-1.2455
 20
1.935975609756098
 30
0.0
 11
-1.2455
 21
1.47
 31
0.0
  0
LINE
  5
D3
330
90
100
AcDbEntity
  8
AM_5
100
AcDbLine
 10
-1.33925
 20
1.445
 30
0.0
 11
-1.2455
 21
1.445
 31
0.0
  0
ELLIPSE
  5
D5
330
90
100
AcDbEntity
  8
AM_4
100
AcDbEllipse
 10
-1.433
 20
0.6249890163752335
 30
0.0
 11
0.1536499999999998
 21
0.0
 31
0.0
210
0.0
220
0.0
230
1.0
 40
0.9063077870366444
 41
1.570796326794897
 42
2.27128154151969
  0
LWPOLYLINE
  5
D6
330
90
100
AcDbEntity
  8
AM_4
100
AcDbPolyline
 90
       12
 70
     0
 43
0.0
 10
-1.395912890678139
 20
0.7011255135025842
 10
-1.416409015791484
 20
0.6977047700878758
 10
-1.442246550930557
 20
0.6971378159490652
 10
-1.467822908379543
 20
0.7006142030252533
 10
-1.492372747165491
 20
0.7080699997093868
 10
-1.515254263081642
 20
0.7192180731850051
 10
-1.535836169796078
 20
0.733796815862982
 10
-1.553526833304738
 20
0.7512966610001536
 10
-1.567810824437439
 20
0.7712720091426525
 10
-1.578290838997033
 20
0.7930616024436966
 10
-1.58460600638957
 20
0.8160150293284719
 10
-1.586649999882941
 20
0.8386385489146527
  0
LWPOLYLINE
  5
D7
330
90
100
AcDbEntity
  8
AM_4
100
AcDbPolyline
 90
       11
 70
     0
 43
0.0
 10
-1.586649999882941
 20
0.8386385489146527
 10
-1.58664719110597
 20
0.8394750417635257
 10
-1.584306042296196
 20
0.8627067512576565
 10
-1.577721711665555
 20
0.8851270662176519
 10
-1.567025397453846
 20
0.9061002490155579
 10
-1.552575728112164
 20
0.925089124237791
 10
-1.534680556472105
 20
0.9416008881451348
 10
-1.513921029897143
 20
0.9551912759681608
 10
-1.490816596584467
 20
0.9654773006187863
 10
-1.466073663061274
 20
0.9722220219119294
 10
-1.433
 20
0.9753695578015028
  0
ELLIPSE
  5
D8
330
90
100
AcDbEntity
  8
AM_4
100
AcDbEllipse
 10
-1.433000000000002
 20
0.6249890163752173
 30
0.0
 11
0.1536500000000149
 21
0.0
 31
0.0
210
0.0
220
0.0
230
1.0
 40
0.9063077870366613
 41
1.327599063986639
 42
1.570796326794897
  0
LINE
  5
D9
330
90
100
AcDbEntity
  8
AM_4
100
AcDbLine
 10
-1.75
 20
1.878708333333334
 30
0.0
 11
-1.75
 21
-1.878708333333334
 31
0.0
  0
ARC
  5
DA
330
90
100
AcDbEntity
  8
AM_4
100
AcDbCircle
 10
-1.644333333333331
 20
-1.878708333333332
 30
0.0
 40
0.1056666666666695
100
AcDbArc
 50
180.0
 51
197.6962481372939
  0
ARC
  5
DB
330
90
100
AcDbEntity
  8
AM_4
100
AcDbCircle
 10
-1.644333333333333
 20
1.878708333333333
 30
0.0
 40
0.105666666666667
100
AcDbArc
 50
90.0
 51
180.0
  0
LWPOLYLINE
  5
DC
330
90
100
AcDbEntity
  8
AM_4
100
AcDbPolyline
 90
        3
 70
     0
 43
0.0
 10
-1.433
 20
0.9753695578015028
 10
-1.407250271415994
 20
0.9734576494068864
 10
-1.395867099706839
 20
0.9713890436667275
  0
LINE
  5
DD
330
90
100
AcDbEntity
  8
AM_4
100
AcDbLine
 10
-1.58665
 20
1.984375
 30
0.0
 11
-1.644333333333333
 21
1.984375
 31
0.0
  0
LINE
  5
DE
330
90
100
AcDbEntity
  8
AM_4
100
AcDbLine
 10
-1.644333333333333
 20
1.984375
 30
0.0
 11
-1.644333333333333
 21
-0.4549708138745789
 31
0.0
  0
LWPOLYLINE
  5
DF
330
90
100
AcDbEntity
  8
AM_4
100
AcDbPolyline
 90
       12
 70
     0
 43
0.0
 10
-1.395871454597696
 20
1.978765864625901
 10
-1.40774694173216
 20
1.97857866537494
 10
-1.433929631197834
 20
1.978417721902825
 10
-1.45928491114908
 20
1.978592104168799
 10
-1.484613410030879
 20
1.979090640223437
 10
-1.507791172761555
 20
1.979830684085902
 10
-1.5294876119204
 20
1.980768961130778
 10
-1.547938136493261
 20
1.981753413859944
 10
-1.563614168624397
 20
1.982724357839597
 10
-1.575213719143155
 20
1.983522261039066
 10
-1.583048087643084
 20
1.984099354047157
 10
-1.58665
 20
1.984375
  0
ENDBLK
  5
93
330
90
100
AcDbEntity
  8
0
100
AcDbBlockEnd
  0
BLOCK
  5
E2
330
E0
100
AcDbEntity
  8
0
100
AcDbBlockBegin
  2
3_070008i_0_in_071457_2
 70
     2
 10
0.0
 20
0.0
 30
0.0
  3
3_070008i_0_in_071457_2
  1

  0
ATTDEF
  5
E4
330
E0
100
AcDbEntity
  8
AM_6
100
AcDbText
 10
6.453125
 20
2.36205
 30
0.0
 40
0.5
  1
S-2000 Insert -Inch
100
AcDbAttributeDefinition
  3

  2
NN
 70
     8
280
     0
  0
ATTDEF
  5
E5
330
E0
100
AcDbEntity
  8
AM_6
100
AcDbText
 10
6.453125
 20
1.86205
 30
0.0
 40
0.5
  1
S-2000 Bearings
100
AcDbAttributeDefinition
  3

  2
NT
 70
     8
280
     0
  0
ATTDEF
  5
E6
330
E0
100
AcDbEntity
  8
AM_6
100
AcDbText
 10
6.453125
 20
1.36205
 30
0.0
 40
0.5
  1
070008i
100
AcDbAttributeDefinition
  3

  2
NB
 70
     8
280
     0
  0
ATTDEF
  5
E7
330
E0
100
AcDbEntity
  8
AM_6
100
AcDbText
 10
6.453125
 20
0.86205
 30
0.0
 40
0.5
  1
$PN.i
100
AcDbAttributeDefinition
  3

  2
NBSYN
 70
     8
280
     0
  0
ATTDEF
  5
E8
330
E0
100
AcDbEntity
  8
AM_6
100
AcDbText
 10
6.453125
 20
0.36205
 30
0.0
 40
0.5
  1
070008i
100
AcDbAttributeDefinition
  3

  2
LINA
 70
     8
280
     0
  0
ATTDEF
  5
E9
330
E0
100
AcDbEntity
  8
AM_6
100
AcDbText
 10
6.453125
 20
-0.13795
 30
0.0
 40
0.5
  1
2-7/16
100
AcDbAttributeDefinition
  3

  2
SS
 70
     8
280
     0
  0
ATTDEF
  5
EA
330
E0
100
AcDbEntity
  8
AM_6
100
AcDbText
 10
6.453125
 20
-0.63795
 30
0.0
 40
0.5
  1
2.94
100
AcDbAttributeDefinition
  3

  2
CC
 70
     8
280
     0
  0
ATTDEF
  5
EB
330
E0
100
AcDbEntity
  8
AM_6
100
AcDbText
 10
6.453125
 20
-1.13795
 30
0.0
 40
0.5
  1
2.437500
100
AcDbAttributeDefinition
  3

  2
SS1
 70
     8
280
     0
  0
ATTDEF
  5
EC
330
E0
100
AcDbEntity
  8
AM_6
100
AcDbText
 10
6.453125
 20
-1.63795
 30
0.0
 40
0.5
  1
070008
100
AcDbAttributeDefinition
  3

  2
PN
 70
     8
280
     0
  0
ATTDEF
  5
ED
330
E0
100
AcDbEntity
  8
AM_6
100
AcDbText
 10
6.453125
 20
-2.13795
 30
0.0
 40
0.5
  1
INS-S2-207R
100
AcDbAttributeDefinition
  3

  2
DESCRIPTION
 70
     8
280
     0
  0
ATTDEF
  5
EE
330
E0
100
AcDbEntity
  8
AM_6
100
AcDbText
 10
6.453125
 20
-2.63795
 30
0.0
 40
0.5
  1
Contact Seal
100
AcDbAttributeDefinition
  3

  2
ST
 70
     8
280
     0
  0
ATTDEF
  5
EF
330
E0
100
AcDbEntity
  8
AM_6
100
AcDbText
 10
6.453125
 20
-3.13795
 30
0.0
 40
0.5
  1
1
100
AcDbAttributeDefinition
  3

  2
ST1
 70
     8
280
     0
  0
ATTDEF
  5
F0
330
E0
100
AcDbEntity
  8
AM_6
100
AcDbText
 10
6.453125
 20
-3.63795
 30
0.0
 40
0.5
  1
4.7241
100
AcDbAttributeDefinition
  3

  2
A
 70
     8
280
     0
  0
ATTDEF
  5
F1
330
E0
100
AcDbEntity
  8
AM_6
100
AcDbText
 10
6.453125
 20
-4.13795
 30
0.0
 40
0.5
  1
1-9/32
100
AcDbAttributeDefinition
  3

  2
B
 70
     8
280
     0
  0
ATTDEF
  5
F2
330
E0
100
AcDbEntity
  8
AM_6
100
AcDbText
 10
6.453125
 20
-4.63795
 30
0.0
 40
0.5
  1
3-13/64
100
AcDbAttributeDefinition
  3

  2
C
 70
     8
280
     0
  0
ATTDEF
  5
F3
330
E0
100
AcDbEntity
  8
AM_6
100
AcDbText
 10
6.453125
 20
-5.13795
 30
0.0
 40
0.5
  1
1.208
100
AcDbAttributeDefinition
  3

  2
D
 70
     8
280
     0
  0
ATTDEF
  5
F4
330
E0
100
AcDbEntity
  8
AM_6
100
AcDbText
 10
6.453125
 20
-5.63795
 30
0.0
 40
0.5
  1
3-31/32
100
AcDbAttributeDefinition
  3

  2
E
 70
     8
280
     0
  0
ATTDEF
  5
F5
330
E0
100
AcDbEntity
  8
AM_6
100
AcDbText
 10
6.453125
 20
-6.13795
 30
0.0
 40
0.5
  1
0.34375
100
AcDbAttributeDefinition
  3

  2
F
 70
     8
280
     0
  0
ATTDEF
  5
F6
330
E0
100
AcDbEntity
  8
AM_6
100
AcDbText
 10
6.453125
 20
-6.63795
 30
0.0
 40
0.5
  1
2
100
AcDbAttributeDefinition
  3

  2
DD
 70
     8
280
     0
  0
ATTDEF
  5
F7
330
E0
100
AcDbEntity
  8
AM_6
100
AcDbText
 10
6.453125
 20
-7.13795
 30
0.0
 40
0.5
  1
baldor
100
AcDbAttributeDefinition
  3

  2
COMPANY
 70
     8
280
     0
  0
LINE
  5
F8
330
E0
100
AcDbEntity
  8
AM_9
100
AcDbLine
 10
-1.638
 20
1.469905716213927
 30
0.0
 11
-1.638
 21
1.21875
 31
0.0
  0
LINE
  5
F9
330
E0
100
AcDbEntity
  8
AM_9
100
AcDbLine
 10
-1.228
 20
1.21875
 30
0.0
 11
-1.228
 21
1.46998974520131
 31
0.0
  0
LINE
  5
FA
330
E0
100
AcDbEntity
  8
AM_9
100
AcDbLine
 10
-1.638
 20
0.621248844758828
 30
0.0
 11
-1.638
 21
0.5150529997513623
 31
0.0
  0
LINE
  5
FB
330
E0
100
AcDbEntity
  8
AM_9
100
AcDbLine
 10
-1.228
 20
0.5150173476379242
 30
0.0
 11
-1.228
 21
0.621248844758828
 31
0.0
  0
LWPOLYLINE
  5
FC
330
E0
100
AcDbEntity
  8
AM_9
100
AcDbPolyline
 90
        4
 70
     0
 43
0.0
 10
-1.629354537519289
 20
0.5678508409126876
 10
-1.634652513744123
 20
0.5481580329638884
 10
-1.63798662145982
 20
0.5171876396463833
 10
-1.637999999568045
 20
0.5150780675601636
  0
LWPOLYLINE
  5
FD
330
E0
100
AcDbEntity
  8
AM_9
100
AcDbPolyline
 90
        5
 70
     0
 43
0.0
 10
-1.585209208111121
 20
0.6362421209027361
 10
-1.591383753634779
 20
0.6300784902633648
 10
-1.61102477450744
 20
0.6053571086175877
 10
-1.625625841356008
 20
0.577784939243013
 10
-1.629354537519289
 20
0.5678508409126876
  0
LWPOLYLINE
  5
FE
330
E0
100
AcDbEntity
  8
AM_9
100
AcDbPolyline
 90
        8
 70
     0
 43
0.0
 10
-1.39587069107023
 20
0.6906900859242775
 10
-1.40866858579052
 20
0.692311267320155
 10
-1.442937183116765
 20
0.6933031933169543
 10
-1.476922614838396
 20
0.689545059789669
 10
-1.509435670341081
 20
0.6811323234983913
 10
-1.539825237305716
 20
0.668304310886423
 10
-1.567475420978763
 20
0.6511089233504802
 10
-1.585209208111121
 20
0.6362421209027361
  0
LWPOLYLINE
  5
FF
330
E0
100
AcDbEntity
  8
AM_9
100
AcDbPolyline
 90
        6
 70
     0
 43
0.0
 10
-1.28046997055163
 20
0.635936136810689
 10
-1.286607300099845
 20
0.641544140511094
 10
-1.312804719063554
 20
0.6607483500736281
 10
-1.342414457501145
 20
0.6758387225739645
 10
-1.374696751471267
 20
0.6864277744918272
 10
-1.39587069107023
 20
0.6906900859242775
  0
LWPOLYLINE
  5
100
330
E0
100
AcDbEntity
  8
AM_9
100
AcDbPolyline
 90
        4
 70
     0
 43
0.0
 10
-1.236727180200227
 20
0.5680915257923592
 10
-1.247691953348352
 20
0.5931871591003276
 10
-1.264838867244258
 20
0.6189083519656525
 10
-1.28046997055163
 20
0.635936136810689
  0
LWPOLYLINE
  5
101
330
E0
100
AcDbEntity
  8
AM_9
100
AcDbPolyline
 90
        4
 70
     0
 43
0.0
 10
-1.228000000669993
 20
0.5150509853094741
 10
-1.229222044956707
 20
0.5352358231779858
 10
-1.235758415961445
 20
0.5650865329598239
 10
-1.236727180200227
 20
0.5680915257923592
  0
LWPOLYLINE
  5
102
330
E0
100
AcDbEntity
  8
AM_9
100
AcDbPolyline
 90
       11
 70
     0
 43
0.0
 10
-1.637999999568045
 20
0.5150780675601636
 10
-1.635507684036891
 20
0.4861260934247272
 10
-1.627449551522779
 20
0.4554989271131977
 10
-1.613995308349226
 20
0.4262539637797453
 10
-1.595596315116115
 20
0.3992040782146465
 10
-1.572405325639816
 20
0.3749377863764634
 10
-1.545307114121199
 20
0.3545095613281251
 10
-1.514775705588854
 20
0.3385545694129091
 10
-1.48188239127923
 20
0.3277136406684418
 10
-1.45762342504986
 20
0.3233919523229035
 10
-1.433
 20
0.3219342573590258
  0
LWPOLYLINE
  5
103
330
E0
100
AcDbEntity
  8
AM_9
100
AcDbPolyline
 90
        8
 70
     0
 43
0.0
 10
-1.304386059163718
 20
0.7622535795450105
 10
-1.29744030108056
 20
0.7571898815993625
 10
-1.273648575512461
 20
0.7357359157311505
 10
-1.254237670881196
 20
0.7107041953710063
 10
-1.239881463371869
 20
0.6829013471162917
 10
-1.231093948853534
 20
0.6531121954173468
 10
-1.228002090498295
 20
0.6220877785074757
 10
-1.228000000089267
 20
0.621254327694649
  0
LWPOLYLINE
  5
104
330
E0
100
AcDbEntity
  8
AM_9
100
AcDbPolyline
 90
        5
 70
     0
 43
0.0
 10
-1.395904241476499
 20
0.7981038279883353
 10
-1.388078073454837
 20
0.7967485233376097
 10
-1.355467286314386
 20
0.7880250306204448
 10
-1.325020023359241
 20
0.7747984707120202
 10
-1.304386059163718
 20
0.7622535795450105
  0
LWPOLYLINE
  5
105
330
E0
100
AcDbEntity
  8
AM_9
100
AcDbPolyline
 90
        7
 70
     0
 43
0.0
 10
-1.561503550936209
 20
0.7623300235934126
 10
-1.552403889476539
 20
0.7682468701889982
 10
-1.522717634597043
 20
0.7834008414422267
 10
-1.490415224658343
 20
0.7939960158291796
 10
-1.45646346083227
 20
0.7998302260511795
 10
-1.422116274228122
 20
0.8007098519685408
 10
-1.395904241476499
 20
0.7981038279883353
  0
LWPOLYLINE
  5
106
330
E0
100
AcDbEntity
  8
AM_9
100
AcDbPolyline
 90
        7
 70
     0
 43
0.0
 10
-1.637999999235699
 20
0.6212328011891839
 10
-1.636730209059696
 20
0.6418213887152444
 10
-1.630083612012715
 20
0.6718560866748599
 10
-1.617994593424448
 20
0.7001795107222514
 10
-1.600673337945753
 20
0.7261081083661717
 10
-1.578706653008368
 20
0.7489449561134582
 10
-1.561503550936209
 20
0.7623300235934126
  0
LWPOLYLINE
  5
107
330
E0
100
AcDbEntity
  8
AM_9
100
AcDbPolyline
 90
        3
 70
     0
 43
0.0
 10
-1.395937859783119
 20
0.4326460411567832
 10
-1.409339959032957
 20
0.4307128010377072
 10
-1.433
 20
0.4293850906592017
  0
LWPOLYLINE
  5
108
330
E0
100
AcDbEntity
  8
AM_9
100
AcDbPolyline
 90
       10
 70
     0
 43
0.0
 10
-1.228000000089267
 20
0.621254327694649
 10
-1.230734149912956
 20
0.5909597109987307
 10
-1.239076611128521
 20
0.5603679356711233
 10
-1.252852085301832
 20
0.5312396340616075
 10
-1.271598098465075
 20
0.5044000780484864
 10
-1.295064603808705
 20
0.4805142153216054
 10
-1.322406823356912
 20
0.4605135164447421
 10
-1.353057727275543
 20
0.4450437609826081
 10
-1.386000707716885
 20
0.4346544396545982
 10
-1.395937859783119
 20
0.4326460411567832
  0
LWPOLYLINE
  5
109
330
E0
100
AcDbEntity
  8
AM_9
100
AcDbPolyline
 90
       11
 70
     0
 43
0.0
 10
-1.433
 20
0.3219342573590258
 10
-1.39886040648739
 20
0.3247557068273556
 10
-1.365689783775384
 20
0.3330311277344002
 10
-1.334459147180743
 20
0.3465338269090653
 10
-1.30597630500495
 20
0.364729200316716
 10
-1.280848906634479
 20
0.3872954697040967
 10
-1.259982110081896
 20
0.4133137018684512
 10
-1.243939964585988
 20
0.4421955486185594
 10
-1.233263940349555
 20
0.4728636628959968
 10
-1.228377561660186
 20
0.5040924520844332
 10
-1.228000000669993
 20
0.5150509853094741
  0
LWPOLYLINE
  5
10A
330
E0
100
AcDbEntity
  8
AM_9
100
AcDbPolyline
 90
       11
 70
     0
 43
0.0
 10
-1.433
 20
1.20138526813841
 10
-1.399344891887692
 20
1.201856575803474
 10
-1.365689783775384
 20
1.203269391162347
 10
-1.334871589300356
 20
1.205386140407479
 10
-1.30597630500495
 20
1.208081777691475
 10
-1.28116185362922
 20
1.210942354199123
 10
-1.259982110081896
 20
1.213779944113311
 10
-1.244117330851087
 20
1.216142765141008
 10
-1.233263940349555
 20
1.217875632412722
 10
-1.228386451729568
 20
1.218685056376674
 10
-1.228000000000525
 20
1.218749999999912
  0
LINE
  5
10B
330
E0
100
AcDbEntity
  8
AM_9
100
AcDbLine
 10
1.453125
 20
1.21875
 30
0.0
 11
-1.228
 21
1.21875
 31
0.0
  0
LINE
  5
10C
330
E0
100
AcDbEntity
  8
AM_9
100
AcDbLine
 10
-1.638
 20
1.21875
 30
0.0
 11
-1.75
 21
1.21875
 31
0.0
  0
LINE
  5
10D
330
E0
100
AcDbEntity
  8
AM_9
100
AcDbLine
 10
-1.75
 20
-1.21875
 30
0.0
 11
1.453125
 21
-1.21875
 31
0.0
  0
LINE
  5
10E
330
E0
100
AcDbEntity
  8
AM_9
100
AcDbLine
 10
-1.63258546933291
 20
1.21785094410968
 30
0.0
 11
-1.63799999999969
 21
1.218749999999948
 31
0.0
  0
LINE
  5
10F
330
E0
100
AcDbEntity
  8
AM_9
100
AcDbLine
 10
-1.420716775865497
 20
1.201448059674294
 30
0.0
 11
-1.438794289143053
 21
1.201399241004702
 31
0.0
  0
LWPOLYLINE
  5
110
330
E0
100
AcDbEntity
  8
AM_9
100
AcDbPolyline
 90
       11
 70
     0
 43
0.0
 10
-1.63799999999969
 20
1.218749999999948
 10
-1.635603487381552
 20
1.218349184593303
 10
-1.627449551522779
 20
1.217019798765579
 10
-1.614235494040422
 20
1.214978545818845
 10
-1.595596315116115
 20
1.212338287850936
 10
-1.572775238629165
 20
1.2094890160038
 10
-1.545307114121199
 20
1.206623160055463
 10
-1.515249322107602
 20
1.204197456186966
 10
-1.48188239127923
 20
1.202379328946225
 10
-1.457807054992535
 20
1.201641357675992
 10
-1.433
 20
1.20138526813841
  0
LINE
  5
111
330
E0
100
AcDbEntity
  8
AM_9
100
AcDbLine
 10
1.396
 20
1.47
 30
0.0
 11
1.2625
 21
1.47
 31
0.0
  0
LINE
  5
112
330
E0
100
AcDbEntity
  8
AM_9
100
AcDbLine
 10
1.2625
 20
-1.47
 30
0.0
 11
1.453125
 21
-1.47
 31
0.0
  0
LINE
  5
113
330
E0
100
AcDbEntity
  8
AM_9
100
AcDbLine
 10
1.453125
 20
-1.47
 30
0.0
 11
1.453125
 21
-0.2136755496992381
 31
0.0
  0
LWPOLYLINE
  5
114
330
E0
100
AcDbEntity
  8
AM_9
100
AcDbPolyline
 90
       11
 70
     0
 43
0.0
 10
-1.433
 20
0.4293850906592017
 10
-1.467225322904128
 20
0.4321841896295309
 10
-1.500481371322097
 20
0.440400388635345
 10
-1.531797566945057
 20
0.4538227968313307
 10
-1.560349516563767
 20
0.4719333732350003
 10
-1.585450744071456
 20
0.4943572124568417
 10
-1.606273994117106
 20
0.5202356198555214
 10
-1.622226374366815
 20
0.548934758688957
 10
-1.632819507838594
 20
0.5794431194347718
 10
-1.637646122837449
 20
0.6106473025315612
 10
-1.637999999235699
 20
0.6212328011891839
  0
LWPOLYLINE
  5
115
330
E0
100
AcDbEntity
  8
AM_9
100
AcDbPolyline
 90
       11
 70
     0
 43
0.0
 10
-1.433
 20
1.455635600004342
 10
-1.466740685661049
 20
1.456026591058308
 10
-1.500481371322097
 20
1.457198934763373
 10
-1.531381657214717
 20
1.458956459417591
 10
-1.560349516563767
 20
1.461195708784085
 10
-1.585137301717213
 20
1.463564401922168
 10
-1.606273994117106
 20
1.465912301959873
 10
-1.622051395460705
 20
1.467860834727066
 10
-1.632819507838594
 20
1.469286505659416
 10
-1.637638136351467
 20
1.469949579696325
 10
-1.637999999999715
 20
1.46999999999996
  0
LINE
  5
116
330
E0
100
AcDbEntity
  8
AM_9
100
AcDbLine
 10
-0.7722500000000001
 20
1.47
 30
0.0
 11
-1.2280744310344
 21
1.47
 31
0.0
  0
LINE
  5
117
330
E0
100
AcDbEntity
  8
AM_9
100
AcDbLine
 10
-1.637321922451715
 20
1.47
 30
0.0
 11
-1.75
 21
1.47
 31
0.0
  0
LINE
  5
118
330
E0
100
AcDbEntity
  8
AM_9
100
AcDbLine
 10
-1.75
 20
-1.47
 30
0.0
 11
-0.7722500000000001
 21
-1.47
 31
0.0
  0
LINE
  5
119
330
E0
100
AcDbEntity
  8
AM_9
100
AcDbLine
 10
-1.233654723766955
 20
1.469222086396889
 30
0.0
 11
-1.22800000000003
 21
1.469999999999996
 31
0.0
  0
LINE
  5
11A
330
E0
100
AcDbEntity
  8
AM_9
100
AcDbLine
 10
-1.444833548451655
 20
1.455683699458419
 30
0.0
 11
-1.42638444176918
 21
1.455650633088416
 31
0.0
  0
LINE
  5
11B
330
E0
100
AcDbEntity
  8
AM_9
100
AcDbLine
 10
-1.395938978306735
 20
1.456107317243117
 30
0.0
 11
-1.433
 21
1.455635600004342
 31
0.0
  0
LWPOLYLINE
  5
11C
330
E0
100
AcDbEntity
  8
AM_9
100
AcDbPolyline
 90
       10
 70
     0
 43
0.0
 10
-1.22800000000003
 20
1.469999999999996
 10
-1.230634607627422
 20
1.469634904331721
 10
-1.23907661112852
 20
1.468496265147242
 10
-1.252605237695534
 20
1.46677103539267
 10
-1.271598098465075
 20
1.464556442688055
 10
-1.294689116997087
 20
1.462191813804552
 10
-1.322406823356912
 20
1.459830760985673
 10
-1.352585695599555
 20
1.457855088941355
 10
-1.386000707716885
 20
1.456394154573244
 10
-1.395938978306735
 20
1.456107317243117
  0
LINE
  5
11D
330
E0
100
AcDbEntity
  8
AM_9
100
AcDbLine
 10
1.2625
 20
-1.761515
 30
0.0
 11
1.2625
 21
1.761515
 31
0.0
  0
ARC
  5
11E
330
E0
100
AcDbEntity
  8
AM_9
100
AcDbCircle
 10
1.134375
 20
1.761515
 30
0.0
 40
0.1281249999999994
100
AcDbArc
 50
0.0
 51
90.0
  0
ARC
  5
11F
330
E0
100
AcDbEntity
  8
AM_9
100
AcDbCircle
 10
1.134375
 20
-1.761515
 30
0.0
 40
0.1281249999999996
100
AcDbArc
 50
270.0
 51
0.0
  0
LINE
  5
120
330
E0
100
AcDbEntity
  8
AM_9
100
AcDbLine
 10
1.134374999999999
 20
1.88964
 30
0.0
 11
0.8857499999999999
 21
1.88964
 31
0.0
  0
LINE
  5
121
330
E0
100
AcDbEntity
  8
AM_9
100
AcDbLine
 10
0.8857499999999999
 20
-1.88964
 30
0.0
 11
1.134374999999999
 21
-1.88964
 31
0.0
  0
LINE
  5
122
330
E0
100
AcDbEntity
  8
AM_9
100
AcDbLine
 10
1.134374999999999
 20
-1.88964
 30
0.0
 11
1.134374999999999
 21
1.88964
 31
0.0
  0
LINE
  5
123
330
E0
100
AcDbEntity
  8
AM_9
100
AcDbLine
 10
-0.3954999999999999
 20
1.88964
 30
0.0
 11
-0.6441249999999998
 21
1.88964
 31
0.0
  0
LINE
  5
124
330
E0
100
AcDbEntity
  8
AM_9
100
AcDbLine
 10
-0.6441249999999998
 20
-1.88964
 30
0.0
 11
-0.3954999999999999
 21
-1.88964
 31
0.0
  0
LINE
  5
125
330
E0
100
AcDbEntity
  8
AM_9
100
AcDbLine
 10
-0.77225
 20
-1.761515
 30
0.0
 11
-0.77225
 21
1.761515
 31
0.0
  0
ARC
  5
126
330
E0
100
AcDbEntity
  8
AM_9
100
AcDbCircle
 10
-0.6441250000000002
 20
1.761515
 30
0.0
 40
0.1281249999999998
100
AcDbArc
 50
90.0
 51
180.0
  0
ARC
  5
127
330
E0
100
AcDbEntity
  8
AM_9
100
AcDbCircle
 10
-0.6441250000000001
 20
-1.761515
 30
0.0
 40
0.1281249999999999
100
AcDbArc
 50
180.0
 51
270.0
  0
LINE
  5
128
330
E0
100
AcDbEntity
  8
AM_9
100
AcDbLine
 10
-0.6441249999999998
 20
-1.88964
 30
0.0
 11
-0.6441249999999998
 21
1.88964
 31
0.0
  0
LINE
  5
129
330
E0
100
AcDbEntity
  8
AM_9
100
AcDbLine
 10
0.3091875000000014
 20
2.267568
 30
0.0
 11
0.1810624999999986
 21
2.267568
 31
0.0
  0
LINE
  5
12A
330
E0
100
AcDbEntity
  8
AM_9
100
AcDbLine
 10
0.1810624999999986
 20
-2.267568
 30
0.0
 11
0.3091875000000014
 21
-2.267568
 31
0.0
  0
LINE
  5
12B
330
E0
100
AcDbEntity
  8
AM_9
100
AcDbLine
 10
-0.3955000000000002
 20
-2.233925
 30
0.0
 11
-0.3955000000000002
 21
2.233925
 31
0.0
  0
ARC
  5
12C
330
E0
100
AcDbEntity
  8
AM_9
100
AcDbCircle
 10
-0.2673750000000015
 20
2.233925000000001
 30
0.0
 40
0.1281249999999989
100
AcDbArc
 50
90.0
 51
180.0
  0
ARC
  5
12D
330
E0
100
AcDbEntity
  8
AM_9
100
AcDbCircle
 10
-0.2673750000000014
 20
-2.233925000000001
 30
0.0
 40
0.1281249999999988
100
AcDbArc
 50
180.0
 51
270.0
  0
LINE
  5
12E
330
E0
100
AcDbEntity
  8
AM_9
100
AcDbLine
 10
0.8857499999999999
 20
-2.233925001909211
 30
0.0
 11
0.8857499999999999
 21
2.233925001909211
 31
0.0
  0
ARC
  5
12F
330
E0
100
AcDbEntity
  8
AM_9
100
AcDbCircle
 10
0.7576250000000003
 20
2.233925
 30
0.0
 40
0.1281249999999996
100
AcDbArc
 50
0.0
 51
90.0
  0
ARC
  5
130
330
E0
100
AcDbEntity
  8
AM_9
100
AcDbCircle
 10
0.7576250000000003
 20
-2.233925
 30
0.0
 40
0.1281249999999998
100
AcDbArc
 50
270.0
 51
0.0
  0
LINE
  5
131
330
E0
100
AcDbEntity
  8
AM_9
100
AcDbLine
 10
0.3091875000000014
 20
-2.267568
 30
0.0
 11
0.3637367081335759
 21
-2.36205
 31
0.0
  0
LINE
  5
132
330
E0
100
AcDbEntity
  8
AM_9
100
AcDbLine
 10
0.3637367081335759
 20
2.36205
 30
0.0
 11
0.3091875000000014
 21
2.267568
 31
0.0
  0
LINE
  5
133
330
E0
100
AcDbEntity
  8
AM_9
100
AcDbLine
 10
0.3091875000000014
 20
-2.267568
 30
0.0
 11
0.3091875000000014
 21
2.267568
 31
0.0
  0
LINE
  5
134
330
E0
100
AcDbEntity
  8
AM_9
100
AcDbLine
 10
0.1265132918664241
 20
2.36205
 30
0.0
 11
-0.2673750000000006
 21
2.36205
 31
0.0
  0
LINE
  5
135
330
E0
100
AcDbEntity
  8
AM_9
100
AcDbLine
 10
-0.2673750000000006
 20
-2.36205
 30
0.0
 11
0.1265132918664241
 21
-2.36205
 31
0.0
  0
LINE
  5
136
330
E0
100
AcDbEntity
  8
AM_9
100
AcDbLine
 10
-0.2673750000000006
 20
-2.36205
 30
0.0
 11
-0.2673750000000006
 21
2.36205
 31
0.0
  0
LINE
  5
137
330
E0
100
AcDbEntity
  8
AM_9
100
AcDbLine
 10
0.1810624999999986
 20
2.267568
 30
0.0
 11
0.1265132918664241
 21
2.36205
 31
0.0
  0
LINE
  5
138
330
E0
100
AcDbEntity
  8
AM_9
100
AcDbLine
 10
0.1265132918664241
 20
-2.36205
 30
0.0
 11
0.1810624999999986
 21
-2.267568
 31
0.0
  0
LINE
  5
139
330
E0
100
AcDbEntity
  8
AM_9
100
AcDbLine
 10
0.1810624999999986
 20
-2.267568
 30
0.0
 11
0.1810624999999986
 21
2.267568
 31
0.0
  0
LINE
  5
13A
330
E0
100
AcDbEntity
  8
AM_9
100
AcDbLine
 10
0.1265132918664241
 20
-2.36205
 30
0.0
 11
0.1265132918664241
 21
2.36205
 31
0.0
  0
LINE
  5
13B
330
E0
100
AcDbEntity
  8
AM_9
100
AcDbLine
 10
0.7576249999999998
 20
2.36205
 30
0.0
 11
0.3637367081335759
 21
2.36205
 31
0.0
  0
LINE
  5
13C
330
E0
100
AcDbEntity
  8
AM_9
100
AcDbLine
 10
0.3637367081335759
 20
-2.36205
 30
0.0
 11
0.7576249999999998
 21
-2.36205
 31
0.0
  0
LINE
  5
13D
330
E0
100
AcDbEntity
  8
AM_9
100
AcDbLine
 10
0.7576249999999998
 20
-2.36205
 30
0.0
 11
0.7576249999999998
 21
2.36205
 31
0.0
  0
LINE
  5
13E
330
E0
100
AcDbEntity
  8
AM_9
100
AcDbLine
 10
0.3637367081335759
 20
-2.36205
 30
0.0
 11
0.3637367081335759
 21
2.36205
 31
0.0
  0
LINE
  5
141
330
E0
100
AcDbEntity
  8
AM_7
100
AcDbLine
 10
-1.433
 20
-0.0753846153846154
 30
0.0
 11
-1.433
 21
2.0605625
 31
0.0
  0
LINE
  5
142
330
E0
100
AcDbEntity
  8
AM_4
100
AcDbLine
 10
1.453125
 20
-0.2136755496992381
 30
0.0
 11
1.453125
 21
1.47
 31
0.0
  0
LINE
  5
143
330
E0
100
AcDbEntity
  8
AM_4
100
AcDbLine
 10
1.453125
 20
1.47
 30
0.0
 11
1.396
 21
1.47
 31
0.0
  0
ENDBLK
  5
E3
330
E0
100
AcDbEntity
  8
0
100
AcDbBlockEnd
  0
BLOCK
  5
146
330
144
100
AcDbEntity
  8
0
100
AcDbBlockBegin
  2
4_405015E_Inch_0_in_071457_2
 70
     2
 10
0.0
 20
0.0
 30
0.0
  3
4_405015E_Inch_0_in_071457_2
  1

  0
ATTDEF
  5
148
330
144
100
AcDbEntity
  8
AM_6
100
AcDbText
 10
5.218750000000002
 20
3.034796467003985
 30
0.0
 40
0.5
  1
405015E -Inch
100
AcDbAttributeDefinition
  3

  2
NN
 70
     8
280
     0
  0
ATTDEF
  5
149
330
144
100
AcDbEntity
  8
AM_6
100
AcDbText
 10
5.218750000000002
 20
2.534796467003985
 30
0.0
 40
0.5
  1
Grease Fitting
100
AcDbAttributeDefinition
  3

  2
NT
 70
     8
280
     0
  0
ATTDEF
  5
14A
330
144
100
AcDbEntity
  8
AM_6
100
AcDbText
 10
5.218750000000002
 20
2.034796467003985
 30
0.0
 40
0.5
  1
405015E-Inch
100
AcDbAttributeDefinition
  3

  2
NB
 70
     8
280
     0
  0
ATTDEF
  5
14B
330
144
100
AcDbEntity
  8
AM_6
100
AcDbText
 10
5.218750000000002
 20
1.534796467003985
 30
0.0
 40
0.5
  1
$MN.-Inch
100
AcDbAttributeDefinition
  3

  2
NBSYN
 70
     8
280
     0
  0
ATTDEF
  5
14C
330
144
100
AcDbEntity
  8
AM_6
100
AcDbText
 10
5.218750000000002
 20
1.034796467003985
 30
0.0
 40
0.5
  1
405015E
100
AcDbAttributeDefinition
  3

  2
LINA
 70
     8
280
     0
  0
ATTDEF
  5
14D
330
144
100
AcDbEntity
  8
AM_6
100
AcDbText
 10
5.218750000000002
 20
0.5347964670039853
 30
0.0
 40
0.5
  1
405015E
100
AcDbAttributeDefinition
  3

  2
MN
 70
     8
280
     0
  0
ATTDEF
  5
14E
330
144
100
AcDbEntity
  8
AM_6
100
AcDbText
 10
5.218750000000002
 20
0.0347964670039853
 30
0.0
 40
0.5
  1
1/8 x 27PTF
100
AcDbAttributeDefinition
  3

  2
T
 70
     8
280
     0
  0
ATTDEF
  5
14F
330
144
100
AcDbEntity
  8
AM_6
100
AcDbText
 10
5.218750000000002
 20
-0.4652035329960147
 30
0.0
 40
0.5
  1
baldor
100
AcDbAttributeDefinition
  3

  2
COMPANY
 70
     8
280
     0
  0
ELLIPSE
  5
150
330
144
100
AcDbEntity
  8
AM_9
100
AcDbEllipse
 10
0.0000000000000001
 20
2.658697989618225
 30
0.0
 11
0.2187499999999996
 21
3.259629011154169E-9
 31
0.0
210
0.0
220
0.0
230
1.0
 40
0.500000000000009
 41
1.04719753815808
 42
2.094395089354681
  0
LWPOLYLINE
  5
151
330
144
100
AcDbEntity
  8
AM_9
100
AcDbPolyline
 90
        3
 70
     0
 43
0.0
 10
-0.1093749999999999
 20
2.75341951815715
 10
-0.0546874999999999
 20
2.771279168141073
 10
0.0000000000000001
 20
2.792846132692073
  0
LWPOLYLINE
  5
152
330
144
100
AcDbEntity
  8
AM_9
100
AcDbPolyline
 90
        3
 70
     0
 43
0.0
 10
0.0000000000000001
 20
2.792846132692073
 10
0.0544416102741497
 20
2.771368461774451
 10
0.1093750000000001
 20
2.75341951815715
  0
LINE
  5
153
330
144
100
AcDbEntity
  8
AM_9
100
AcDbLine
 10
-0.0981109093450316
 20
2.843184070925331
 30
0.0
 11
-0.106002478662244
 21
2.840987578573699
 31
0.0
  0
LWPOLYLINE
  5
154
330
144
100
AcDbEntity
  8
AM_9
100
AcDbPolyline
 90
        3
 70
     0
 43
0.0
 10
0.0000000000000001
 20
2.863743129693285
 10
-0.0544416102741495
 20
2.85378892226401
 10
-0.0981109093450316
 20
2.843184070925331
  0
LWPOLYLINE
  5
155
330
144
100
AcDbEntity
  8
AM_9
100
AcDbPolyline
 90
        3
 70
     0
 43
0.0
 10
0.0981096820737552
 20
2.843184405688576
 10
0.0546875
 20
2.853736251397978
 10
0.0000000000000001
 20
2.863743129693285
  0
LINE
  5
156
330
144
100
AcDbEntity
  8
AM_9
100
AcDbLine
 10
0.10600215787125
 20
2.840987669648043
 30
0.0
 11
0.0981096820737552
 21
2.843184405688576
 31
0.0
  0
LWPOLYLINE
  5
157
330
144
100
AcDbEntity
  8
AM_9
100
AcDbPolyline
 90
        3
 70
     0
 43
0.0
 10
0.1093750000000001
 20
2.75341951815715
 10
0.1640625000000001
 20
2.739705325294765
 10
0.2187500000000001
 20
2.729698446999458
  0
LINE
  5
158
330
144
100
AcDbEntity
  8
AM_9
100
AcDbLine
 10
0.0000000000000001
 20
2.863743129693285
 30
0.0
 11
0.0000000000000001
 21
2.792846132692073
 31
0.0
  0
LWPOLYLINE
  5
159
330
144
100
AcDbEntity
  8
AM_9
100
AcDbPolyline
 90
        3
 70
     0
 43
0.0
 10
-0.2187499999999999
 20
2.729698446999458
 10
-0.1643083897258503
 20
2.739652654428733
 10
-0.1093749999999999
 20
2.75341951815715
  0
ELLIPSE
  5
15A
330
144
100
AcDbEntity
  8
AM_9
100
AcDbEllipse
 10
0.0
 20
2.658697989618227
 30
0.0
 11
0.2187499999999999
 21
0.0
 31
0.0
210
0.0
220
0.0
230
1.0
 40
0.4999999999999982
 41
2.094395102393196
 42
3.141592653589793
  0
ELLIPSE
  5
15B
330
144
100
AcDbEntity
  8
AM_9
100
AcDbEllipse
 10
0.0000000000000004
 20
2.429201257615351
 30
0.0
 11
0.1619028724722684
 21
0.0
 31
0.0
210
0.0
220
0.0
230
1.0
 40
0.5000000000000075
 41
4.71238898038469
 42
10.04025766943977
  0
LINE
  5
15C
330
144
100
AcDbEntity
  8
AM_9
100
AcDbLine
 10
0.1321931418159854
 20
2.382463924113131
 30
0.0
 11
0.1621706131788417
 21
2.403661197396632
 31
0.0
  0
LINE
  5
15D
330
144
100
AcDbEntity
  8
AM_9
100
AcDbLine
 10
-0.1621706131788415
 20
2.403661197396633
 30
0.0
 11
-0.1321931418159852
 21
2.382463924113131
 31
0.0
  0
ELLIPSE
  5
15E
330
144
100
AcDbEntity
  8
AM_9
100
AcDbEllipse
 10
0.0000000000000011
 20
2.460997167540605
 30
0.0
 11
0.1986176267812144
 21
2.959633272606350E-9
 31
0.0
210
0.0
220
0.0
230
1.0
 40
0.5000000000000058
 41
4.71238898038469
 42
9.44282200767881
  0
ELLIPSE
  5
15F
330
144
100
AcDbEntity
  8
AM_9
100
AcDbEllipse
 10
0.0000000000000001
 20
2.460997167540603
 30
0.0
 11
0.1986176267812152
 21
0.0
 31
0.0
210
0.0
220
0.0
230
1.0
 40
0.500000000000004
 41
3.159636730294247
 42
4.71238898038469
  0
ELLIPSE
  5
160
330
144
100
AcDbEntity
  8
AM_9
100
AcDbEllipse
 10
0.0000000000000002
 20
2.429201257615352
 30
0.0
 11
0.1619028724722688
 21
0.0
 31
0.0
210
0.0
220
0.0
230
1.0
 40
0.5000000000000091
 41
3.757072362260184
 42
4.71238898038469
  0
ELLIPSE
  5
161
330
144
100
AcDbEntity
  8
AM_9
100
AcDbEllipse
 10
0.000000000000001
 20
2.658697989618224
 30
0.0
 11
0.2187500000000008
 21
3.259629011154187E-9
 31
0.0
210
0.0
220
0.0
230
1.0
 40
0.4999999999999921
 41
3.141592627780224
 42
4.188790191747867
  0
LINE
  5
162
330
144
100
AcDbEntity
  8
AM_9
100
AcDbLine
 10
0.1985852938306409
 20
2.459205328931783
 30
0.0
 11
0.2057184028850728
 21
2.656841788840597
 31
0.0
  0
LINE
  5
163
330
144
100
AcDbEntity
  8
AM_9
100
AcDbLine
 10
-0.2057184028850726
 20
2.656841788840597
 30
0.0
 11
-0.1985852938306407
 21
2.459205328931783
 31
0.0
  0
ELLIPSE
  5
164
330
144
100
AcDbEntity
  8
AM_9
100
AcDbEllipse
 10
0.0000000000000001
 20
2.658697989618227
 30
0.0
 11
0.2187500000000013
 21
0.0
 31
0.0
210
0.0
220
0.0
230
1.0
 40
0.4999999999999991
 41
4.188790204786395
 42
7.330382858376183
  0
LINE
  5
165
330
144
100
AcDbEntity
  8
AM_9
100
AcDbLine
 10
-0.1017810272422099
 20
2.849133363782514
 30
0.0
 11
-0.1049999999999999
 21
2.842830969142986
 31
0.0
  0
LINE
  5
166
330
144
100
AcDbEntity
  8
AM_9
100
AcDbLine
 10
0.1050000000000001
 20
2.842830969142986
 30
0.0
 11
0.1017810272422101
 21
2.849133363782514
 31
0.0
  0
ELLIPSE
  5
167
330
144
100
AcDbEntity
  8
AM_9
100
AcDbEllipse
 10
0.0000000000000001
 20
2.836233197394037
 30
0.0
 11
0.105
 21
0.0
 31
0.0
210
0.0
220
0.0
230
1.0
 40
0.4999999999999893
 41
0.0
 42
2.891559760490987
  0
ELLIPSE
  5
168
330
144
100
AcDbEntity
  8
AM_9
100
AcDbEllipse
 10
0.0000000000000016
 20
2.836233197394072
 30
0.0
 11
0.1050000000000015
 21
0.0
 31
0.0
210
0.0
220
0.0
230
1.0
 40
0.4999999999999527
 41
2.891559760491621
 42
3.141592653589793
  0
ELLIPSE
  5
169
330
144
100
AcDbEntity
  8
AM_9
100
AcDbEllipse
 10
0.0000000000000022
 20
2.808306581522955
 30
0.0
 11
0.1188200907348954
 21
0.0
 31
0.0
210
0.0
220
0.0
230
1.0
 40
0.5000000000000643
 41
0.2500328930990747
 42
2.535447513394525
  0
LINE
  5
16A
330
144
100
AcDbEntity
  8
AM_9
100
AcDbLine
 10
0.1050000000000001
 20
2.854471426206496
 30
0.0
 11
0.1050000000000001
 21
2.86221395950757
 31
0.0
  0
LINE
  5
16B
330
144
100
AcDbEntity
  8
AM_9
100
AcDbLine
 10
-0.1049999999999999
 20
2.86221395950757
 30
0.0
 11
-0.1049999999999999
 21
2.854471426206496
 31
0.0
  0
ELLIPSE
  5
16C
330
144
100
AcDbEntity
  8
AM_9
100
AcDbEllipse
 10
0.0000000000000001
 20
2.86221395950757
 30
0.0
 11
0.1049999999999998
 21
1.564621925354002E-9
 31
0.0
210
0.0
220
0.0
230
1.0
 40
0.4999999999999984
 41
0.0000017195196831
 42
3.434435397378704
  0
LINE
  5
16D
330
144
100
AcDbEntity
  8
AM_9
100
AcDbLine
 10
-0.0976523208201057
 20
2.842152697255419
 30
0.0
 11
-0.1098343496897824
 21
2.833365844128569
 31
0.0
  0
LINE
  5
16E
330
144
100
AcDbEntity
  8
AM_9
100
AcDbLine
 10
0.1098343496897826
 20
2.833365844128569
 30
0.0
 11
0.0976523208201059
 21
2.842152697255419
 31
0.0
  0
ELLIPSE
  5
16F
330
144
100
AcDbEntity
  8
AM_9
100
AcDbEllipse
 10
-0.0000000000000018
 20
2.808306581522956
 30
0.0
 11
0.1188200907348956
 21
0.0
 31
0.0
210
0.0
220
0.0
230
1.0
 40
0.5000000000000631
 41
2.535447513394515
 42
2.891559760490725
  0
ELLIPSE
  5
170
330
144
100
AcDbEntity
  8
AM_9
100
AcDbEllipse
 10
0.0000000000000001
 20
2.76116455528464
 30
0.0
 11
0.1725340532830155
 21
0.0
 31
0.0
210
0.0
220
0.0
230
1.0
 40
0.5000000000000067
 41
0.6061451401950873
 42
2.535447513394707
  0
ELLIPSE
  5
171
330
144
100
AcDbEntity
  8
AM_9
100
AcDbEllipse
 10
0.0000000000000001
 20
2.74530052999667
 30
0.0
 11
0.2187500000000021
 21
0.0
 31
0.0
210
0.0
220
0.0
230
1.0
 40
0.4999999999999993
 41
1.065244638251237
 42
2.076348015338557
  0
ELLIPSE
  5
172
330
144
100
AcDbEntity
  8
AM_9
100
AcDbEllipse
 10
0.0000000000027504
 20
2.745300530006942
 30
0.0
 11
0.2137500000055339
 21
0.0
 31
0.0
210
0.0
220
0.0
230
1.0
 40
0.499999999948576
 41
-4.198889882939039
 42
-4.184564777742485
  0
ELLIPSE
  5
173
330
144
100
AcDbEntity
  8
AM_9
100
AcDbEllipse
 10
-0.0000000000004668
 20
2.745300529995125
 30
0.0
 11
0.2137499999990351
 21
0.0
 31
0.0
210
0.0
220
0.0
230
1.0
 40
0.5000000000080227
 41
-4.217356306597861
 42
-4.198889882955589
  0
ELLIPSE
  5
174
330
144
100
AcDbEntity
  8
AM_9
100
AcDbEllipse
 10
-0.0000000000027513
 20
2.745300530006943
 30
0.0
 11
0.2137500000055346
 21
3.185123205267409E-9
 31
0.0
210
0.0
220
0.0
230
1.0
 40
0.4999999999485744
 41
1.042972111032179
 42
2.06582898808017
  0
ELLIPSE
  5
175
330
144
100
AcDbEntity
  8
AM_9
100
AcDbEllipse
 10
-0.0000000000000002
 20
2.862213959507554
 30
0.0
 11
0.1050000000000002
 21
0.0
 31
0.0
210
0.0
220
0.0
230
1.0
 40
0.4999999999999841
 41
5.990342535451283
 42
6.283185307179586
  0
ELLIPSE
  5
176
330
144
100
AcDbEntity
  8
AM_9
100
AcDbEllipse
 10
0.0000000000000001
 20
2.914175483734636
 30
0.0
 11
0.135
 21
0.0
 31
0.0
210
0.0
220
0.0
230
1.0
 40
0.4999999999999959
 41
0.2354336045415613
 42
2.906159049048232
  0
ELLIPSE
  5
177
330
144
100
AcDbEntity
  8
AM_9
100
AcDbEllipse
 10
0.0000000000000007
 20
2.658697989618226
 30
0.0
 11
0.2057518972230689
 21
0.0
 31
0.0
210
0.0
220
0.0
230
1.0
 40
0.4999999999999971
 41
0.0
 42
6.283185307179586
  0
LINE
  5
178
330
144
100
AcDbEntity
  8
AM_4
100
AcDbLine
 10
-0.106002478662244
 20
2.840987578573699
 30
0.0
 11
-0.1093749999999999
 21
2.840022058535594
 31
0.0
  0
LINE
  5
179
330
144
100
AcDbEntity
  8
AM_4
100
AcDbLine
 10
0.109375
 20
2.840022058535594
 30
0.0
 11
0.10600215787125
 21
2.840987669648043
 31
0.0
  0
LWPOLYLINE
  5
17A
330
144
100
AcDbEntity
  8
AM_4
100
AcDbPolyline
 90
        3
 70
     0
 43
0.0
 10
-0.1093749999999999
 20
2.840022058535594
 10
-0.1640624999999999
 20
2.82216240855167
 10
-0.2187499999999999
 20
2.80059544400067
  0
LWPOLYLINE
  5
17B
330
144
100
AcDbEntity
  8
AM_4
100
AcDbPolyline
 90
        3
 70
     0
 43
0.0
 10
0.2187500000000001
 20
2.80059544400067
 10
0.1643083897258505
 20
2.822073114918292
 10
0.109375
 20
2.840022058535594
  0
LINE
  5
17C
330
144
100
AcDbEntity
  8
AM_4
100
AcDbLine
 10
-0.1049999999999999
 20
2.842830969142986
 30
0.0
 11
-0.1151252948555657
 21
2.823006755388172
 31
0.0
  0
LINE
  5
17D
330
144
100
AcDbEntity
  8
AM_4
100
AcDbLine
 10
0.1151252948555659
 20
2.823006755388172
 30
0.0
 11
0.1050000000000001
 21
2.842830969142986
 31
0.0
  0
ELLIPSE
  5
17E
330
144
100
AcDbEntity
  8
AM_4
100
AcDbEllipse
 10
0.0
 20
2.808306581522973
 30
0.0
 11
0.1188200907348974
 21
1.770557325108311E-9
 31
0.0
210
0.0
220
0.0
230
1.0
 40
0.4999999999999996
 41
2.891559732057133
 42
4.71238898038469
  0
ELLIPSE
  5
17F
330
144
100
AcDbEntity
  8
AM_4
100
AcDbEllipse
 10
0.0
 20
2.836233197394036
 30
0.0
 11
0.1049999999999999
 21
0.0
 31
0.0
210
0.0
220
0.0
230
1.0
 40
0.4999999999999981
 41
3.141592653589793
 42
6.283185307179586
  0
LINE
  5
180
330
144
100
AcDbEntity
  8
AM_4
100
AcDbLine
 10
0.1050000000000001
 20
2.836233197394037
 30
0.0
 11
0.1050000000000001
 21
2.854471426206496
 31
0.0
  0
LINE
  5
181
330
144
100
AcDbEntity
  8
AM_4
100
AcDbLine
 10
-0.1049999999999999
 20
2.854471426206496
 30
0.0
 11
-0.1049999999999999
 21
2.836233197394037
 31
0.0
  0
ELLIPSE
  5
182
330
144
100
AcDbEntity
  8
AM_4
100
AcDbEllipse
 10
0.0000000000000001
 20
2.808306581522973
 30
0.0
 11
0.1188200907348975
 21
0.0
 31
0.0
210
0.0
220
0.0
230
1.0
 40
0.499999999999999
 41
4.71238898038469
 42
6.533218200278398
  0
LINE
  5
183
330
144
100
AcDbEntity
  8
AM_4
100
AcDbLine
 10
-0.1098343496897824
 20
2.833365844128569
 30
0.0
 11
-0.1417971541629017
 21
2.810311189486712
 31
0.0
  0
LINE
  5
184
330
144
100
AcDbEntity
  8
AM_4
100
AcDbLine
 10
0.1417971541629019
 20
2.810311189486712
 30
0.0
 11
0.1098343496897826
 21
2.833365844128569
 31
0.0
  0
ELLIPSE
  5
185
330
144
100
AcDbEntity
  8
AM_4
100
AcDbEllipse
 10
0.0
 20
2.761164555284641
 30
0.0
 11
0.1725340532830155
 21
0.0
 31
0.0
210
0.0
220
0.0
230
1.0
 40
0.4999999999999989
 41
2.535447513394705
 42
4.71238898038469
  0
ELLIPSE
  5
186
330
144
100
AcDbEntity
  8
AM_4
100
AcDbEllipse
 10
0.0000000000000008
 20
2.745300529996673
 30
0.0
 11
0.2187500000000007
 21
0.0
 31
0.0
210
0.0
220
0.0
230
1.0
 40
0.4999999999999922
 41
2.076348015338568
 42
3.141592653589793
  0
ELLIPSE
  5
187
330
144
100
AcDbEntity
  8
AM_4
100
AcDbEllipse
 10
-0.0000000000000002
 20
2.745300529996671
 30
0.0
 11
0.2187499999999997
 21
0.0
 31
0.0
210
0.0
220
0.0
230
1.0
 40
0.5000000000000008
 41
3.141592653589793
 42
4.18879020478639
  0
ELLIPSE
  5
188
330
144
100
AcDbEntity
  8
AM_4
100
AcDbEllipse
 10
0.000000000000002
 20
2.74530052999667
 30
0.0
 11
0.218749999999998
 21
0.0
 31
0.0
210
0.0
220
0.0
230
1.0
 40
0.5000000000000004
 41
4.188790204786381
 42
7.348429945430829
  0
ELLIPSE
  5
189
330
144
100
AcDbEntity
  8
AM_4
100
AcDbEllipse
 10
0.0000000000000002
 20
2.761164555284641
 30
0.0
 11
0.1725340532830155
 21
0.0
 31
0.0
210
0.0
220
0.0
230
1.0
 40
0.4999999999999989
 41
4.71238898038469
 42
6.889330447374674
  0
ELLIPSE
  5
18A
330
144
100
AcDbEntity
  8
AM_4
100
AcDbEllipse
 10
-0.0000000000000001
 20
2.74530052999667
 30
0.0
 11
0.2137499999999999
 21
3.185123205184936E-9
 31
0.0
210
0.0
220
0.0
230
1.0
 40
0.5000000000000004
 41
2.098620516301822
 42
4.71238898038469
  0
ELLIPSE
  5
18B
330
144
100
AcDbEntity
  8
AM_4
100
AcDbEllipse
 10
0.0000000000000002
 20
2.74530052999667
 30
0.0
 11
0.21375
 21
3.185123205184937E-9
 31
0.0
210
0.0
220
0.0
230
1.0
 40
0.5000000000000003
 41
4.71238898038469
 42
7.326157418226543
  0
ELLIPSE
  5
18C
330
144
100
AcDbEntity
  8
AM_4
100
AcDbEllipse
 10
-0.0000000000000003
 20
2.86221395950757
 30
0.0
 11
0.1050000000000006
 21
0.0
 31
0.0
210
0.0
220
0.0
230
1.0
 40
0.499999999999999
 41
3.434435425318371
 42
5.990342535451009
  0
LINE
  5
18D
330
144
100
AcDbEntity
  8
AM_4
100
AcDbLine
 10
0.1005298463144156
 20
2.847058514941342
 30
0.0
 11
0.1292526595471058
 21
2.894689912149486
 31
0.0
  0
LINE
  5
18E
330
144
100
AcDbEntity
  8
AM_4
100
AcDbLine
 10
-0.1292526595471055
 20
2.894689912149486
 30
0.0
 11
-0.1005298463144154
 21
2.847058514941342
 31
0.0
  0
ELLIPSE
  5
18F
330
144
100
AcDbEntity
  8
AM_4
100
AcDbEllipse
 10
0.0000000000000002
 20
2.914175483734631
 30
0.0
 11
0.1349999999999998
 21
0.0
 31
0.0
210
0.0
220
0.0
230
1.0
 40
0.4999999999999966
 41
4.71238898038469
 42
6.518618911721225
  0
ELLIPSE
  5
190
330
144
100
AcDbEntity
  8
AM_4
100
AcDbEllipse
 10
0.0000000000000011
 20
2.914175483734637
 30
0.0
 11
0.1350000000000015
 21
0.0
 31
0.0
210
0.0
220
0.0
230
1.0
 40
0.5000000000000036
 41
2.906159049048252
 42
4.71238898038469
  0
LWPOLYLINE
  5
191
330
144
100
AcDbEntity
  8
AM_4
100
AcDbPolyline
 90
        3
 70
     0
 43
0.0
 10
-0.1093749999999999
 20
2.650579001457748
 10
-0.0546874999999999
 20
2.632719351473824
 10
0.0000000000000001
 20
2.611152386922823
  0
LWPOLYLINE
  5
192
330
144
100
AcDbEntity
  8
AM_4
100
AcDbPolyline
 90
        3
 70
     0
 43
0.0
 10
-0.2187499999999999
 20
2.674300072615439
 10
-0.1643083897258503
 20
2.664345865186164
 10
-0.1093749999999999
 20
2.650579001457748
  0
LINE
  5
193
330
144
100
AcDbEntity
  8
AM_4
100
AcDbLine
 10
-0.2187499999999999
 20
2.80059544400067
 30
0.0
 11
-0.2187499999999999
 21
2.603403075614227
 31
0.0
  0
LWPOLYLINE
  5
194
330
144
100
AcDbEntity
  8
AM_4
100
AcDbPolyline
 90
        3
 70
     0
 43
0.0
 10
-0.1093749999999999
 20
2.563976461079303
 10
-0.1640624999999999
 20
2.581836111063227
 10
-0.2187499999999999
 20
2.603403075614227
  0
LWPOLYLINE
  5
195
330
144
100
AcDbEntity
  8
AM_4
100
AcDbPolyline
 90
        3
 70
     0
 43
0.0
 10
0.0000000000000001
 20
2.540255389921612
 10
-0.0544416102741495
 20
2.550209597350887
 10
-0.1093749999999999
 20
2.563976461079303
  0
LINE
  5
196
330
144
100
AcDbEntity
  8
AM_4
100
AcDbLine
 10
0.2187500000000001
 20
2.80059544400067
 30
0.0
 11
0.2187500000000001
 21
2.603403075614227
 31
0.0
  0
LWPOLYLINE
  5
197
330
144
100
AcDbEntity
  8
AM_4
100
AcDbPolyline
 90
        3
 70
     0
 43
0.0
 10
0.109375
 20
2.650579001457748
 10
0.1640625000000001
 20
2.664293194320132
 10
0.2187500000000001
 20
2.674300072615439
  0
LWPOLYLINE
  5
198
330
144
100
AcDbEntity
  8
AM_4
100
AcDbPolyline
 90
        3
 70
     0
 43
0.0
 10
0.0000000000000001
 20
2.611152386922823
 10
0.0544416102741497
 20
2.632630057840446
 10
0.109375
 20
2.650579001457748
  0
LINE
  5
199
330
144
100
AcDbEntity
  8
AM_4
100
AcDbLine
 10
0.0000000000000001
 20
2.611152386922823
 30
0.0
 11
0.0000000000000001
 21
2.540255389921612
 31
0.0
  0
LWPOLYLINE
  5
19A
330
144
100
AcDbEntity
  8
AM_4
100
AcDbPolyline
 90
        3
 70
     0
 43
0.0
 10
0.1093750000000001
 20
2.563976461079303
 10
0.0546875000000001
 20
2.55026226821692
 10
0.0000000000000001
 20
2.540255389921612
  0
LWPOLYLINE
  5
19B
330
144
100
AcDbEntity
  8
AM_4
100
AcDbPolyline
 90
        3
 70
     0
 43
0.0
 10
0.2187500000000001
 20
2.603403075614227
 10
0.1643083897258505
 20
2.581925404696605
 10
0.1093750000000001
 20
2.563976461079303
  0
ELLIPSE
  5
19C
330
144
100
AcDbEntity
  8
AM_4
100
AcDbEllipse
 10
0.0000000000000009
 20
2.983457516037392
 30
0.0
 11
0.1026779019331867
 21
1.530019967752497E-9
 31
0.0
210
0.0
220
0.0
230
1.0
 40
0.5000000000000044
 41
4.71238898038469
 42
9.189344327641713
  0
LINE
  5
19D
330
144
100
AcDbEntity
  8
AM_4
100
AcDbLine
 10
-0.0998453562378796
 20
2.99543307847859
 30
0.0
 11
-0.1312757938985218
 21
2.929920847626214
 31
0.0
  0
LINE
  5
19E
330
144
100
AcDbEntity
  8
AM_4
100
AcDbLine
 10
0.131275793898522
 20
2.929920847626214
 30
0.0
 11
0.0998453562378799
 21
2.99543307847859
 31
0.0
  0
ELLIPSE
  5
19F
330
144
100
AcDbEntity
  8
AM_4
100
AcDbEllipse
 10
-0.0000000000000007
 20
2.983457516037392
 30
0.0
 11
0.1026779019331867
 21
0.0
 31
0.0
210
0.0
220
0.0
230
1.0
 40
0.5000000000000043
 41
2.906159049048244
 42
4.71238898038469
  0
ENDBLK
  5
147
330
144
100
AcDbEntity
  8
0
100
AcDbBlockEnd
  0
BLOCK
  5
1A2
330
1A0
100
AcDbEntity
  8
0
100
AcDbBlockBegin
  2
5_B071457_0_in_071457_2
 70
     2
 10
0.0
 20
0.0
 30
0.0
  3
5_B071457_0_in_071457_2
  1

  0
ATTDEF
  5
1A4
330
1A0
100
AcDbEntity
  8
AM_6
100
AcDbText
 10
6.968717948717948
 20
2.970000000000006
 30
0.0
 40
0.5
  1
EP4B-S2-(Labyrinth Seal)-Housing
100
AcDbAttributeDefinition
  3

  2
NN
 70
     8
280
     0
  0
ATTDEF
  5
1A5
330
1A0
100
AcDbEntity
  8
AM_6
100
AcDbText
 10
6.968717948717948
 20
2.470000000000006
 30
0.0
 40
0.5
  1
S-2000/E Type Pillow Block Bearing -Inch (4-Bolt Base)
100
AcDbAttributeDefinition
  3

  2
NT
 70
     8
280
     0
  0
ATTDEF
  5
1A6
330
1A0
100
AcDbEntity
  8
AM_6
100
AcDbText
 10
6.968717948717948
 20
1.970000000000006
 30
0.0
 40
0.5
  1
B071457
100
AcDbAttributeDefinition
  3

  2
NB
 70
     8
280
     0
  0
ATTDEF
  5
1A7
330
1A0
100
AcDbEntity
  8
AM_6
100
AcDbText
 10
6.968717948717948
 20
1.470000000000006
 30
0.0
 40
0.5
  1
$PN.
100
AcDbAttributeDefinition
  3

  2
NBSYN
 70
     8
280
     0
  0
ATTDEF
  5
1A8
330
1A0
100
AcDbEntity
  8
AM_6
100
AcDbText
 10
6.968717948717948
 20
0.970000000000006
 30
0.0
 40
0.5
  1
B071457
100
AcDbAttributeDefinition
  3

  2
LINA
 70
     8
280
     0
  0
ATTDEF
  5
1A9
330
1A0
100
AcDbEntity
  8
AM_6
100
AcDbText
 10
6.968717948717948
 20
0.470000000000006
 30
0.0
 40
0.5
  1
2-7/16
100
AcDbAttributeDefinition
  3

  2
SS
 70
     8
280
     0
  0
ATTDEF
  5
1AA
330
1A0
100
AcDbEntity
  8
AM_6
100
AcDbText
 10
6.968717948717948
 20
-0.029999999999994
 30
0.0
 40
0.5
  1
2.437500
100
AcDbAttributeDefinition
  3

  2
SS1
 70
     8
280
     0
  0
ATTDEF
  5
1AB
330
1A0
100
AcDbEntity
  8
AM_6
100
AcDbText
 10
6.968717948717948
 20
-0.529999999999994
 30
0.0
 40
0.5
  1
Expansion
100
AcDbAttributeDefinition
  3

  2
TYPE
 70
     8
280
     0
  0
ATTDEF
  5
1AC
330
1A0
100
AcDbEntity
  8
AM_6
100
AcDbText
 10
6.968717948717948
 20
-1.029999999999994
 30
0.0
 40
0.5
  1
071449
100
AcDbAttributeDefinition
  3

  2
PN1
 70
     8
280
     0
  0
ATTDEF
  5
1AD
330
1A0
100
AcDbEntity
  8
AM_6
100
AcDbText
 10
6.968717948717948
 20
-1.529999999999994
 30
0.0
 40
0.5
  1
071457
100
AcDbAttributeDefinition
  3

  2
PN2
 70
     8
280
     0
  0
ATTDEF
  5
1AE
330
1A0
100
AcDbEntity
  8
AM_6
100
AcDbText
 10
6.968717948717948
 20
-2.029999999999994
 30
0.0
 40
0.5
  1
EP4B-S2-207L
100
AcDbAttributeDefinition
  3

  2
DESC1
 70
     8
280
     0
  0
ATTDEF
  5
1AF
330
1A0
100
AcDbEntity
  8
AM_6
100
AcDbText
 10
6.968717948717948
 20
-2.529999999999994
 30
0.0
 40
0.5
  1
Non-Expansion Type
100
AcDbAttributeDefinition
  3

  2
EF
 70
     8
280
     0
  0
ATTDEF
  5
1B0
330
1A0
100
AcDbEntity
  8
AM_6
100
AcDbText
 10
6.968717948717948
 20
-3.029999999999994
 30
0.0
 40
0.5
  1
1
100
AcDbAttributeDefinition
  3

  2
EF1
 70
     8
280
     0
  0
ATTDEF
  5
1B1
330
1A0
100
AcDbEntity
  8
AM_6
100
AcDbText
 10
6.968717948717948
 20
-3.529999999999994
 30
0.0
 40
0.5
  1
3.2
100
AcDbAttributeDefinition
  3

  2
A
 70
     8
280
     0
  0
ATTDEF
  5
1B2
330
1A0
100
AcDbEntity
  8
AM_6
100
AcDbText
 10
6.968717948717948
 20
-4.029999999999994
 30
0.0
 40
0.5
  1
3.2000000
100
AcDbAttributeDefinition
  3

  2
A1
 70
     8
280
     0
  0
ATTDEF
  5
1B3
330
1A0
100
AcDbEntity
  8
AM_6
100
AcDbText
 10
6.968717948717948
 20
-4.529999999999994
 30
0.0
 40
0.5
  1
10.5
100
AcDbAttributeDefinition
  3

  2
B
 70
     8
280
     0
  0
ATTDEF
  5
1B4
330
1A0
100
AcDbEntity
  8
AM_6
100
AcDbText
 10
6.968717948717948
 20
-5.029999999999994
 30
0.0
 40
0.5
  1
10.5000000
100
AcDbAttributeDefinition
  3

  2
B1
 70
     8
280
     0
  0
ATTDEF
  5
1B5
330
1A0
100
AcDbEntity
  8
AM_6
100
AcDbText
 10
6.968717948717948
 20
-5.529999999999994
 30
0.0
 40
0.5
  1
3.49
100
AcDbAttributeDefinition
  3

  2
C
 70
     8
280
     0
  0
ATTDEF
  5
1B6
330
1A0
100
AcDbEntity
  8
AM_6
100
AcDbText
 10
6.968717948717948
 20
-6.029999999999994
 30
0.0
 40
0.5
  1
3.4900000
100
AcDbAttributeDefinition
  3

  2
C1
 70
     8
280
     0
  0
ATTDEF
  5
1B7
330
1A0
100
AcDbEntity
  8
AM_6
100
AcDbText
 10
6.968717948717948
 20
-6.529999999999994
 30
0.0
 40
0.5
  1
8.31
100
AcDbAttributeDefinition
  3

  2
DMIN
 70
     8
280
     0
  0
ATTDEF
  5
1B8
330
1A0
100
AcDbEntity
  8
AM_6
100
AcDbText
 10
6.968717948717948
 20
-7.029999999999994
 30
0.0
 40
0.5
  1
8.3100000
100
AcDbAttributeDefinition
  3

  2
DMIN1
 70
     8
280
     0
  0
ATTDEF
  5
1B9
330
1A0
100
AcDbEntity
  8
AM_6
100
AcDbText
 10
6.968717948717948
 20
-7.529999999999994
 30
0.0
 40
0.5
  1
8.69
100
AcDbAttributeDefinition
  3

  2
DMAX
 70
     8
280
     0
  0
ATTDEF
  5
1BA
330
1A0
100
AcDbEntity
  8
AM_6
100
AcDbText
 10
6.968717948717948
 20
-8.029999999999994
 30
0.0
 40
0.5
  1
8.6900000
100
AcDbAttributeDefinition
  3

  2
DMAX1
 70
     8
280
     0
  0
ATTDEF
  5
1BB
330
1A0
100
AcDbEntity
  8
AM_6
100
AcDbText
 10
6.968717948717948
 20
-8.529999999999994
 30
0.0
 40
0.5
  1
1.87
100
AcDbAttributeDefinition
  3

  2
E
 70
     8
280
     0
  0
ATTDEF
  5
1BC
330
1A0
100
AcDbEntity
  8
AM_6
100
AcDbText
 10
6.968717948717948
 20
-9.029999999999994
 30
0.0
 40
0.5
  1
1.870000
100
AcDbAttributeDefinition
  3

  2
E1
 70
     8
280
     0
  0
ATTDEF
  5
1BD
330
1A0
100
AcDbEntity
  8
AM_6
100
AcDbText
 10
6.968717948717948
 20
-9.529999999999994
 30
0.0
 40
0.5
  1
5/8
100
AcDbAttributeDefinition
  3

  2
F
 70
     8
280
     0
  0
ATTDEF
  5
1BE
330
1A0
100
AcDbEntity
  8
AM_6
100
AcDbText
 10
6.968717948717948
 20
-10.02999999999999
 30
0.0
 40
0.5
  1
0.6250000
100
AcDbAttributeDefinition
  3

  2
F1
 70
     8
280
     0
  0
ATTDEF
  5
1BF
330
1A0
100
AcDbEntity
  8
AM_6
100
AcDbText
 10
6.968717948717948
 20
-10.52999999999999
 30
0.0
 40
0.5
  1
0.87
100
AcDbAttributeDefinition
  3

  2
G
 70
     8
280
     0
  0
ATTDEF
  5
1C0
330
1A0
100
AcDbEntity
  8
AM_6
100
AcDbText
 10
6.968717948717948
 20
-11.02999999999999
 30
0.0
 40
0.5
  1
0.8700000
100
AcDbAttributeDefinition
  3

  2
G1
 70
     8
280
     0
  0
ATTDEF
  5
1C1
330
1A0
100
AcDbEntity
  8
AM_6
100
AcDbText
 10
6.968717948717948
 20
-11.52999999999999
 30
0.0
 40
0.5
  1
1.63
100
AcDbAttributeDefinition
  3

  2
H
 70
     8
280
     0
  0
ATTDEF
  5
1C2
330
1A0
100
AcDbEntity
  8
AM_6
100
AcDbText
 10
6.968717948717948
 20
-12.02999999999999
 30
0.0
 40
0.5
  1
1.6300000
100
AcDbAttributeDefinition
  3

  2
H1
 70
     8
280
     0
  0
ATTDEF
  5
1C3
330
1A0
100
AcDbEntity
  8
AM_6
100
AcDbText
 10
6.968717948717948
 20
-12.52999999999999
 30
0.0
 40
0.5
  1
5.72
100
AcDbAttributeDefinition
  3

  2
J
 70
     8
280
     0
  0
ATTDEF
  5
1C4
330
1A0
100
AcDbEntity
  8
AM_6
100
AcDbText
 10
6.968717948717948
 20
-13.02999999999999
 30
0.0
 40
0.5
  1
5.7200000
100
AcDbAttributeDefinition
  3

  2
JJ
 70
     8
280
     0
  0
ATTDEF
  5
1C5
330
1A0
100
AcDbEntity
  8
AM_6
100
AcDbText
 10
6.968717948717948
 20
-13.52999999999999
 30
0.0
 40
0.5
  1
3.86
100
AcDbAttributeDefinition
  3

  2
L
 70
     8
280
     0
  0
ATTDEF
  5
1C6
330
1A0
100
AcDbEntity
  8
AM_6
100
AcDbText
 10
6.968717948717948
 20
-14.02999999999999
 30
0.0
 40
0.5
  1
3.8600000
100
AcDbAttributeDefinition
  3

  2
L1
 70
     8
280
     0
  0
ATTDEF
  5
1C7
330
1A0
100
AcDbEntity
  8
AM_6
100
AcDbText
 10
6.968717948717948
 20
-14.52999999999999
 30
0.0
 40
0.5
  1
2.75
100
AcDbAttributeDefinition
  3

  2
M
 70
     8
280
     0
  0
ATTDEF
  5
1C8
330
1A0
100
AcDbEntity
  8
AM_6
100
AcDbText
 10
6.968717948717948
 20
-15.02999999999999
 30
0.0
 40
0.5
  1
2.750000
100
AcDbAttributeDefinition
  3

  2
M1
 70
     8
280
     0
  0
ATTDEF
  5
1C9
330
1A0
100
AcDbEntity
  8
AM_6
100
AcDbText
 10
6.968717948717948
 20
-15.52999999999999
 30
0.0
 40
0.5
  1
1.2
100
AcDbAttributeDefinition
  3

  2
R
 70
     8
280
     0
  0
ATTDEF
  5
1CA
330
1A0
100
AcDbEntity
  8
AM_6
100
AcDbText
 10
6.968717948717948
 20
-16.02999999999999
 30
0.0
 40
0.5
  1
1.200000
100
AcDbAttributeDefinition
  3

  2
R1
 70
     8
280
     0
  0
ATTDEF
  5
1CB
330
1A0
100
AcDbEntity
  8
AM_6
100
AcDbText
 10
6.968717948717948
 20
-16.52999999999999
 30
0.0
 40
0.5
  1
2
100
AcDbAttributeDefinition
  3

  2
S
 70
     8
280
     0
  0
ATTDEF
  5
1CC
330
1A0
100
AcDbEntity
  8
AM_6
100
AcDbText
 10
6.968717948717948
 20
-17.02999999999999
 30
0.0
 40
0.5
  1
2.000000
100
AcDbAttributeDefinition
  3

  2
S1
 70
     8
280
     0
  0
ATTDEF
  5
1CD
330
1A0
100
AcDbEntity
  8
AM_6
100
AcDbText
 10
6.968717948717948
 20
-17.52999999999999
 30
0.0
 40
0.5
  1
0.25
100
AcDbAttributeDefinition
  3

  2
X
 70
     8
280
     0
  0
ATTDEF
  5
1CE
330
1A0
100
AcDbEntity
  8
AM_6
100
AcDbText
 10
6.968717948717948
 20
-18.02999999999999
 30
0.0
 40
0.5
  1
0.250000
100
AcDbAttributeDefinition
  3

  2
X1
 70
     8
280
     0
  0
ATTDEF
  5
1CF
330
1A0
100
AcDbEntity
  8
AM_6
100
AcDbText
 10
6.968717948717948
 20
-18.52999999999999
 30
0.0
 40
0.5
  1
0.025
100
AcDbAttributeDefinition
  3

  2
Y
 70
     8
280
     0
  0
ATTDEF
  5
1D0
330
1A0
100
AcDbEntity
  8
AM_6
100
AcDbText
 10
6.968717948717948
 20
-19.02999999999999
 30
0.0
 40
0.5
  1
2.94
100
AcDbAttributeDefinition
  3

  2
Z
 70
     8
280
     0
  0
ATTDEF
  5
1D1
330
1A0
100
AcDbEntity
  8
AM_6
100
AcDbText
 10
6.968717948717948
 20
-19.52999999999999
 30
0.0
 40
0.5
  1
2.937500
100
AcDbAttributeDefinition
  3

  2
Z1
 70
     8
280
     0
  0
ATTDEF
  5
1D2
330
1A0
100
AcDbEntity
  8
AM_6
100
AcDbText
 10
6.968717948717948
 20
-20.02999999999999
 30
0.0
 40
0.5
  1
3/8-16
100
AcDbAttributeDefinition
  3

  2
CS
 70
     8
280
     0
  0
ATTDEF
  5
1D3
330
1A0
100
AcDbEntity
  8
AM_6
100
AcDbText
 10
6.968717948717948
 20
-20.52999999999999
 30
0.0
 40
0.5
  1
0.3750
100
AcDbAttributeDefinition
  3

  2
NDM
 70
     8
280
     0
  0
ATTDEF
  5
1D4
330
1A0
100
AcDbEntity
  8
AM_6
100
AcDbText
 10
6.968717948717948
 20
-21.02999999999999
 30
0.0
 40
0.5
  1
0.3070
100
AcDbAttributeDefinition
  3

  2
KDM
 70
     8
280
     0
  0
ATTDEF
  5
1D5
330
1A0
100
AcDbEntity
  8
AM_6
100
AcDbText
 10
6.968717948717948
 20
-21.52999999999999
 30
0.0
 40
0.5
  1
4.7241
100
AcDbAttributeDefinition
  3

  2
BORE
 70
     8
280
     0
  0
ATTDEF
  5
1D6
330
1A0
100
AcDbEntity
  8
AM_6
100
AcDbText
 10
6.968717948717948
 20
-22.02999999999999
 30
0.0
 40
0.5
  1
1
100
AcDbAttributeDefinition
  3

  2
ST1
 70
     8
280
     0
  0
ATTDEF
  5
1D7
330
1A0
100
AcDbEntity
  8
AM_6
100
AcDbText
 10
6.968717948717948
 20
-22.52999999999999
 30
0.0
 40
0.5
  1
baldor
100
AcDbAttributeDefinition
  3

  2
COMPANY
 70
     8
280
     0
  0
LWPOLYLINE
  5
1D8
330
1A0
100
AcDbEntity
  8
AM_9
100
AcDbPolyline
 90
        7
 70
     0
 43
0.0
 10
-1.377776047354431
 20
-1.119999999999996
 10
-1.40191680006118
 20
-1.152660721964542
 10
-1.42218318422235
 20
-1.186140447706499
 10
-1.438985209976195
 20
-1.22101011539355
 10
-1.451768516795209
 20
-1.256164202768086
 10
-1.462287201795858
 20
-1.301645698607955
 10
-1.465888888888895
 20
-1.347172377824214
  0
LWPOLYLINE
  5
1D9
330
1A0
100
AcDbEntity
  8
AM_9
100
AcDbPolyline
 90
        7
 70
     0
 43
0.0
 10
1.46588888888889
 20
-1.347172377824206
 10
1.463875853267904
 20
-1.313249415358993
 10
1.45790557810974
 20
-1.279031882168839
 10
1.447779444819546
 20
-1.243921618025543
 10
1.433642776153562
 20
-1.208936480261839
 10
1.409306384053047
 20
-1.164075958698208
 10
1.37777604735443
 20
-1.12
  0
LWPOLYLINE
  5
1DA
330
1A0
100
AcDbEntity
  8
AM_9
100
AcDbPolyline
 90
       16
 70
     0
 43
0.0
 10
-0.0172259499669726
 20
2.785280063912164
 10
-0.0521083938280783
 20
2.784416084264539
 10
-0.1071149442723204
 20
2.781276858255783
 10
-0.1604000028843989
 20
2.775962673542029
 10
-0.2118520797152582
 20
2.768451993638895
 10
-0.2605338435976384
 20
2.758783210521139
 10
-0.3063807949789822
 20
2.746777941809602
 10
-0.3485536656332293
 20
2.73250979295714
 10
-0.3862887569115491
 20
2.716089934688658
 10
-0.4195036575744095
 20
2.697273470152727
 10
-0.4475240663471272
 20
2.67628205179724
 10
-0.4698124197738039
 20
2.653375128028234
 10
-0.4860008175866761
 20
2.628731998672586
 10
-0.4961203264565425
 20
2.602441909085019
 10
-0.4999671516892302
 20
2.574956285482664
 10
-0.4999999998314369
 20
2.572101940813935
  0
LINE
  5
1DB
330
1A0
100
AcDbEntity
  8
AM_9
100
AcDbLine
 10
0.0164719022396106
 20
2.785289017817796
 30
0.0
 11
-0.0172259499669726
 21
2.785280063912164
 31
0.0
  0
LWPOLYLINE
  5
1DC
330
1A0
100
AcDbEntity
  8
AM_9
100
AcDbPolyline
 90
       15
 70
     0
 43
0.0
 10
0.4999999999629596
 20
2.572092406172272
 10
0.497020037505369
 20
2.598916059964949
 10
0.4879039631424422
 20
2.624917410484114
 10
0.4727917403717382
 20
2.649515071857966
 10
0.4519750279349665
 20
2.672330737452408
 10
0.4254451963694005
 20
2.693316650385284
 10
0.3936136476109061
 20
2.712333065908489
 10
0.3570645526865888
 20
2.729175839513799
 10
0.3155331442561785
 20
2.743980252387916
 10
0.2698817548264664
 20
2.756571410761278
 10
0.2209520255962429
 20
2.766860681612754
 10
0.1690914652745516
 20
2.774868498940753
 10
0.1148805752304683
 20
2.780636955570375
 10
0.059356570192569
 20
2.784137785591702
 10
0.0164719022396106
 20
2.785289017817796
  0
ELLIPSE
  5
1DD
330
1A0
100
AcDbEntity
  8
AM_9
100
AcDbEllipse
 10
0.0000000000000001
 20
2.65869798961822
 30
0.0
 11
-0.4500000000000064
 21
5.510910596163168E-17
 31
0.0
210
0.0
220
0.0
230
1.0
 40
0.5000000000000089
 41
4.447327559919913
 42
4.977450400849466
  0
LWPOLYLINE
  5
1DE
330
1A0
100
AcDbEntity
  8
AM_9
100
AcDbPolyline
 90
        9
 70
     0
 43
0.0
 10
0.1218580735757701
 20
2.882453800023443
 10
0.1123100065108362
 20
2.883666496966364
 10
0.0775834599944748
 20
2.887208172126992
 10
0.0424962634039112
 20
2.889444394963907
 10
0.0072132029507209
 20
2.890369333545675
 10
-0.0280999316761527
 20
2.889980787424685
 10
-0.0632758602050631
 20
2.888280383479878
 10
-0.0981463056018563
 20
2.885273843302981
 10
-0.1218523093750129
 20
2.882454563889659
  0
ELLIPSE
  5
1DF
330
1A0
100
AcDbEntity
  8
AM_9
100
AcDbEllipse
 10
0.0000000000000002
 20
2.615396719429005
 30
0.0
 11
-0.5000000000000004
 21
6.123233995736771E-17
 31
0.0
210
0.0
220
0.0
230
1.0
 40
0.5000000000000608
 41
3.143804558365908
 42
6.280470643813308
  0
LINE
  5
1E0
330
1A0
100
AcDbEntity
  8
AM_9
100
AcDbLine
 10
-1.396
 20
-2.36205
 30
0.0
 11
1.396
 21
-2.36205
 31
0.0
  0
LINE
  5
1E1
330
1A0
100
AcDbEntity
  8
AM_9
100
AcDbLine
 10
1.396
 20
2.36205
 30
0.0
 11
-1.396
 21
2.36205
 31
0.0
  0
LINE
  5
1E2
330
1A0
100
AcDbEntity
  8
AM_9
100
AcDbLine
 10
0.1120472424694851
 20
2.970000000000006
 30
0.0
 11
-0.1120472424694848
 21
2.970000000000006
 31
0.0
  0
LINE
  5
1E3
330
1A0
100
AcDbEntity
  8
AM_9
100
AcDbLine
 10
-1.038888888888887
 20
-2.206666666666667
 30
0.0
 11
-1.038888888888887
 21
-2.75
 31
0.0
  0
LINE
  5
1E4
330
1A0
100
AcDbEntity
  8
AM_9
100
AcDbLine
 10
1.038888888888892
 20
-2.206666666666667
 30
0.0
 11
1.038888888888892
 21
-2.75
 31
0.0
  0
LINE
  5
1E5
330
1A0
100
AcDbEntity
  8
AM_9
100
AcDbLine
 10
1.275000000000001
 20
-1.6905
 30
0.0
 11
-1.275
 21
-1.6905
 31
0.0
  0
LINE
  5
1E6
330
1A0
100
AcDbEntity
  8
AM_9
100
AcDbLine
 10
-1.396
 20
0.3439868843812806
 30
0.0
 11
-1.396
 21
-2.206666666666666
 31
0.0
  0
LINE
  5
1E7
330
1A0
100
AcDbEntity
  8
AM_9
100
AcDbLine
 10
-1.562190476190475
 20
-0.3951009539654208
 30
0.0
 11
-1.562190476190475
 21
-2.75
 31
0.0
  0
LINE
  5
1E8
330
1A0
100
AcDbEntity
  8
AM_9
100
AcDbLine
 10
1.562190476190477
 20
-0.3951009539654236
 30
0.0
 11
1.562190476190477
 21
-2.75
 31
0.0
  0
LINE
  5
1E9
330
1A0
100
AcDbEntity
  8
AM_9
100
AcDbLine
 10
1.396000000000001
 20
0.3439868843812536
 30
0.0
 11
1.396000000000001
 21
-2.206666666666666
 31
0.0
  0
LINE
  5
1EA
330
1A0
100
AcDbEntity
  8
AM_9
100
AcDbLine
 10
-1.578809523809525
 20
-0.3951009539654208
 30
0.0
 11
-1.578809523809525
 21
-2.75
 31
0.0
  0
LINE
  5
1EB
330
1A0
100
AcDbEntity
  8
AM_9
100
AcDbLine
 10
1.578809523809525
 20
-0.395100953965423
 30
0.0
 11
1.578809523809525
 21
-2.75
 31
0.0
  0
LINE
  5
1EC
330
1A0
100
AcDbEntity
  8
AM_9
100
AcDbLine
 10
-0.5949999999999995
 20
-1.12
 30
0.0
 11
-0.5949999999999995
 21
-2.75
 31
0.0
  0
LINE
  5
1ED
330
1A0
100
AcDbEntity
  8
AM_9
100
AcDbLine
 10
-1.275
 20
-1.12
 30
0.0
 11
-1.275
 21
-2.75
 31
0.0
  0
LINE
  5
1EE
330
1A0
100
AcDbEntity
  8
AM_9
100
AcDbLine
 10
1.275000000000001
 20
-1.12
 30
0.0
 11
1.275000000000001
 21
-2.75
 31
0.0
  0
LINE
  5
1EF
330
1A0
100
AcDbEntity
  8
AM_9
100
AcDbLine
 10
0.595
 20
-1.12
 30
0.0
 11
0.595
 21
-2.75
 31
0.0
  0
LWPOLYLINE
  5
1F0
330
1A0
100
AcDbEntity
  8
AM_9
100
AcDbPolyline
 90
        5
 70
     0
 43
0.0
 10
-1.465888888888886
 20
-1.255284315611369
 10
-1.46419333014867
 20
-1.222101147758239
 10
-1.459131829511243
 20
-1.188492890260731
 10
-1.45063377907485
 20
-1.154300618141454
 10
-1.438728652712716
 20
-1.12
  0
LWPOLYLINE
  5
1F1
330
1A0
100
AcDbEntity
  8
AM_9
100
AcDbPolyline
 90
        5
 70
     0
 43
0.0
 10
1.438728652712721
 20
-1.119999999999998
 10
1.450403787518788
 20
-1.153530556158107
 10
1.458883362980047
 20
-1.187258099768503
 10
1.464114519305541
 20
-1.221331502386611
 10
1.465888888888892
 20
-1.255284315611366
  0
LINE
  5
1F2
330
1A0
100
AcDbEntity
  8
AM_7
100
AcDbLine
 10
1.968717948717949
 20
0.0
 30
0.0
 11
-1.968717948717949
 21
0.0
 31
0.0
  0
LINE
  5
1F3
330
1A0
100
AcDbEntity
  8
AM_4
100
AcDbLine
 10
-0.5000000000000003
 20
2.615396719429005
 30
0.0
 11
-0.5000000000000003
 21
2.57205284857365
 31
0.0
  0
LINE
  5
1F4
330
1A0
100
AcDbEntity
  8
AM_4
100
AcDbLine
 10
0.5000000000000004
 20
2.572073278332091
 30
0.0
 11
0.5000000000000004
 21
2.615396719429005
 31
0.0
  0
LWPOLYLINE
  5
1F5
330
1A0
100
AcDbEntity
  8
AM_4
100
AcDbPolyline
 90
       15
 70
     0
 43
0.0
 10
-0.4999999998314369
 20
2.572101940813935
 10
-0.4974788549724773
 20
2.546848969137685
 10
-0.488857909549103
 20
2.518095312759121
 10
-0.4742741597258002
 20
2.489280524109314
 10
-0.4538210203167566
 20
2.460771656458239
 10
-0.4277654401447775
 20
2.432902307122617
 10
-0.3965922894699648
 20
2.406297049686999
 10
-0.3600700458745631
 20
2.381061693245534
 10
-0.3189363250510298
 20
2.357877589157487
 10
-0.2739427818160953
 20
2.337321668181766
 10
-0.2251030081294839
 20
2.319668548859397
 10
-0.1732119378082343
 20
2.305329453901484
 10
-0.1192506657742529
 20
2.294701509809999
 10
-0.0600701021075045
 20
2.287739862424512
 10
0.0000000000000001
 20
2.285384586211728
  0
ELLIPSE
  5
1F6
330
1A0
100
AcDbEntity
  8
AM_4
100
AcDbEllipse
 10
0.0
 20
2.658697989618227
 30
0.0
 11
-0.4500000000000003
 21
5.510910596163094E-17
 31
0.0
210
0.0
220
0.0
230
1.0
 40
0.5000000000000008
 41
4.97745040084947
 42
10.7305128670995
  0
ELLIPSE
  5
1F7
330
1A0
100
AcDbEntity
  8
AM_4
100
AcDbEllipse
 10
0.0
 20
2.615396719429006
 30
0.0
 11
-0.5000000000000003
 21
6.123233995736770E-17
 31
0.0
210
0.0
220
0.0
230
1.0
 40
0.5000000000000014
 41
6.280470643813389
 42
9.426989865545494
  0
LWPOLYLINE
  5
1F8
330
1A0
100
AcDbEntity
  8
AM_4
100
AcDbPolyline
 90
       20
 70
     0
 43
0.0
 10
-0.1218523093750129
 20
2.882454563889659
 10
-0.1325482798501784
 20
2.880970385483047
 10
-0.166321630291936
 20
2.875382320623627
 10
-0.19930984886296
 20
2.86852449289416
 10
-0.2313606920148713
 20
2.860413542130329
 10
-0.2623264918215794
 20
2.851067006769322
 10
-0.2920639869998185
 20
2.840502334502557
 10
-0.3204334311207289
 20
2.82873596475436
 10
-0.3472966598144231
 20
2.815782834105498
 10
-0.3725137750950892
 20
2.801656983360998
 10
-0.3959382866753921
 20
2.786374437422695
 10
-0.4174077296749014
 20
2.769962981631332
 10
-0.4367276540076784
 20
2.752488704619326
 10
-0.4537075730532279
 20
2.734050068239028
 10
-0.4681661910116164
 20
2.714797099120635
 10
-0.4799621440613467
 20
2.694925693826007
 10
-0.4890209604774043
 20
2.67465193754242
 10
-0.495340114568485
 20
2.654179404693275
 10
-0.4989701616360858
 20
2.633677539519416
 10
-0.4999975949634725
 20
2.616280820153317
  0
LWPOLYLINE
  5
1F9
330
1A0
100
AcDbEntity
  8
AM_4
100
AcDbPolyline
 90
       20
 70
     0
 43
0.0
 10
0.4999984002886053
 20
2.616117763791816
 10
0.4991132344721687
 20
2.632362015034969
 10
0.4957699721044557
 20
2.65235902066411
 10
0.4899951574458608
 20
2.672002083261952
 10
0.4818143559429781
 20
2.691261980317454
 10
0.4712232380847179
 20
2.710109239932839
 10
0.4582033297211603
 20
2.728496889056241
 10
0.4427481720494245
 20
2.74634742173261
 10
0.4248913982847537
 20
2.763551090908732
 10
0.4047229362218471
 20
2.779978783777268
 10
0.3823843895887971
 20
2.795503519075852
 10
0.3580486100167626
 20
2.810018527035641
 10
0.3319061407870554
 20
2.823439996152625
 10
0.3041415396906811
 20
2.835710933803679
 10
0.2749167985371803
 20
2.846797283050219
 10
0.2443879578981309
 20
2.856672857406423
 10
0.2127084262193521
 20
2.865315760786343
 10
0.1800316719900795
 20
2.872706718968292
 10
0.1465129272077696
 20
2.878828592423754
 10
0.1218580735757701
 20
2.882453800023443
  0
LINE
  5
1FA
330
1A0
100
AcDbEntity
  8
AM_4
100
AcDbLine
 10
1.396000000000001
 20
0.3439868843812536
 30
0.0
 11
1.396
 21
2.970000000000006
 31
0.0
  0
LWPOLYLINE
  5
1FB
330
1A0
100
AcDbEntity
  8
AM_4
100
AcDbPolyline
 90
       16
 70
     0
 43
0.0
 10
0.0000000000000001
 20
2.285384586211728
 10
0.0556000705568377
 20
2.287423705400002
 10
0.1106696279511692
 20
2.293427954270721
 10
0.1641689522464495
 20
2.303227669782733
 10
0.2155465346746445
 20
2.316698175694894
 10
0.2643889962017757
 20
2.33354144940452
 10
0.3098094969687684
 20
2.353315734656206
 10
0.3517065481976953
 20
2.375947818428917
 10
0.3893312094194502
 20
2.400876683400351
 10
0.4219913921510416
 20
2.427495330529698
 10
0.4494596501368608
 20
2.455604734561122
 10
0.471325683061858
 20
2.484644621871124
 10
0.4871599915299857
 20
2.513954837839442
 10
0.4966478120592192
 20
2.542881897764421
 10
0.499956713557593
 20
2.571390469359756
 10
0.4999999999629596
 20
2.572092406172272
  0
LINE
  5
1FC
330
1A0
100
AcDbEntity
  8
AM_4
100
AcDbLine
 10
-0.1120472424694848
 20
2.970000000000006
 30
0.0
 11
-1.396
 21
2.970000000000006
 31
0.0
  0
LINE
  5
1FD
330
1A0
100
AcDbEntity
  8
AM_4
100
AcDbLine
 10
1.396
 20
2.970000000000006
 30
0.0
 11
0.1120472424694851
 21
2.970000000000006
 31
0.0
  0
LINE
  5
1FE
330
1A0
100
AcDbEntity
  8
AM_4
100
AcDbLine
 10
-1.396
 20
2.970000000000006
 30
0.0
 11
-1.396
 21
0.3439868843812806
 31
0.0
  0
LINE
  5
1FF
330
1A0
100
AcDbEntity
  8
AM_4
100
AcDbLine
 10
-1.047
 20
-0.9455000000000001
 30
0.0
 11
1.047
 21
-0.9455000000000001
 31
0.0
  0
LINE
  5
200
330
1A0
100
AcDbEntity
  8
AM_4
100
AcDbLine
 10
-1.047
 20
-1.12
 30
0.0
 11
-1.047
 21
0.3297980920692822
 31
0.0
  0
LINE
  5
201
330
1A0
100
AcDbEntity
  8
AM_4
100
AcDbLine
 10
1.047
 20
-1.12
 30
0.0
 11
1.047
 21
0.3297980920692822
 31
0.0
  0
LINE
  5
202
330
1A0
100
AcDbEntity
  8
AM_4
100
AcDbLine
 10
1.047
 20
0.3297980920692822
 30
0.0
 11
-1.047
 21
0.3297980920692822
 31
0.0
  0
LINE
  5
203
330
1A0
100
AcDbEntity
  8
AM_4
100
AcDbLine
 10
1.578809523809525
 20
-0.395100953965423
 30
0.0
 11
1.562190476190477
 21
-0.3951009539654236
 31
0.0
  0
LWPOLYLINE
  5
204
330
1A0
100
AcDbEntity
  8
AM_4
100
AcDbPolyline
 90
       19
 70
     0
 43
0.0
 10
1.396000000000001
 20
0.3439868843812537
 10
1.396632404936182
 20
0.2795711348743881
 10
1.398524806761305
 20
0.2156456281165627
 10
1.401662803154817
 20
0.1526968758134809
 10
1.40602251206939
 20
0.0912039559796651
 10
1.411570753487719
 20
0.0316348668654906
 10
1.418265301942492
 20
-0.0255570347920841
 10
1.426055207877687
 20
-0.0799364840880306
 10
1.434881185405466
 20
-0.1310896205779973
 10
1.444676063507569
 20
-0.1786271380061876
 10
1.455365297247333
 20
-0.2221872471610348
 10
1.46686753510166
 20
-0.2614384293095577
 10
1.479095238095238
 20
-0.2960819592550943
 10
1.491955346024998
 20
-0.3258541788164235
 10
1.505349985704449
 20
-0.3505285034257262
 10
1.519177215837724
 20
-0.3699171465739609
 10
1.533331802854401
 20
-0.3838725489795866
 10
1.547706021800509
 20
-0.3922885016037944
 10
1.562190476190477
 20
-0.3951009539654229
  0
LINE
  5
205
330
1A0
100
AcDbEntity
  8
AM_4
100
AcDbLine
 10
-1.396
 20
0.6515620485076007
 30
0.0
 11
1.396
 21
0.6515620485076007
 31
0.0
  0
LWPOLYLINE
  5
206
330
1A0
100
AcDbEntity
  8
AM_4
100
AcDbPolyline
 90
       19
 70
     0
 43
0.0
 10
-1.562190476190475
 20
-0.3951009539654203
 10
-1.547706021800508
 20
-0.3922885016037921
 10
-1.5333318028544
 20
-0.3838725489795844
 10
-1.519177215837724
 20
-0.3699171465739589
 10
-1.505349985704448
 20
-0.3505285034257244
 10
-1.491955346024998
 20
-0.3258541788164219
 10
-1.479095238095238
 20
-0.2960819592550928
 10
-1.466867535101659
 20
-0.2614384293095567
 10
-1.455365297247332
 20
-0.2221872471610339
 10
-1.444676063507569
 20
-0.178627138006187
 10
-1.434881185405465
 20
-0.1310896205779971
 10
-1.426055207877686
 20
-0.0799364840880305
 10
-1.418265301942491
 20
-0.0255570347920843
 10
-1.411570753487718
 20
0.0316348668654901
 10
-1.406022512069389
 20
0.0912039559796643
 10
-1.401662803154816
 20
0.15269687581348
 10
-1.398524806761304
 20
0.2156456281165615
 10
-1.396632404936181
 20
0.2795711348743866
 10
-1.396
 20
0.343986884381252
  0
LINE
  5
207
330
1A0
100
AcDbEntity
  8
AM_4
100
AcDbLine
 10
-1.562190476190475
 20
-0.3951009539654208
 30
0.0
 11
-1.578809523809525
 21
-0.3951009539654208
 31
0.0
  0
LWPOLYLINE
  5
208
330
1A0
100
AcDbEntity
  8
AM_4
100
AcDbPolyline
 90
       19
 70
     0
 43
0.0
 10
-1.578809527311727
 20
-0.3951009539654207
 10
-1.593293981688368
 20
-0.3979134076845093
 10
-1.607668200594596
 20
-0.4063293616558463
 10
-1.621822787545145
 20
-0.4202847653880176
 10
-1.635650017586546
 20
-0.4396734098321184
 10
-1.649044657149076
 20
-0.4643477356967454
 10
-1.661904764937759
 20
-0.4941199564633035
 10
-1.674132467767177
 20
-0.528763487554801
 10
-1.685634705435511
 20
-0.5680146707812952
 10
-1.696323938968862
 20
-0.6115747809379204
 10
-1.706118816845707
 20
-0.659112299284071
 10
-1.714944794131094
 20
-0.7102654366011942
 10
-1.72273469980861
 20
-0.7646448866271981
 10
-1.729429247992376
 20
-0.8218367889121749
 10
-1.734977489128434
 20
-0.8814058785463215
 10
-1.73933719775162
 20
-0.942898798788722
 10
-1.742475193846847
 20
-1.005847551385892
 10
-1.744367595369056
 20
-1.069773058321069
 10
-1.744969372263039
 20
-1.119999999999999
  0
LWPOLYLINE
  5
209
330
1A0
100
AcDbEntity
  8
AM_4
100
AcDbPolyline
 90
       19
 70
     0
 43
0.0
 10
1.744969372263039
 20
-1.119999999999999
 10
1.744059015552545
 20
-1.055650114501587
 10
1.741891010429514
 20
-0.9918979557642632
 10
1.738481856722011
 20
-0.9292287162106246
 10
1.733857500148254
 20
-0.8681193465943959
 10
1.728053134854031
 20
-0.8090349261172026
 10
1.721112935564004
 20
-0.7524251228950248
 10
1.713089721385375
 20
-0.6987207717123172
 10
1.704044553822594
 20
-0.6483305951091537
 10
1.694046272062435
 20
-0.601638092755905
 10
1.683170969066221
 20
-0.5589986227891831
 10
1.671501412456439
 20
-0.5207366973218509
 10
1.659126414605162
 20
-0.4871435127098967
 10
1.646140156718265
 20
-0.458474733372337
 10
1.632641472059585
 20
-0.4349485460306131
 10
1.618733093770103
 20
-0.4167439991758955
 10
1.604520873006711
 20
-0.4039996404019549
 10
1.59011297335099
 20
-0.3968124619743149
 10
1.578809523809525
 20
-0.3951009539654244
  0
LINE
  5
20A
330
1A0
100
AcDbEntity
  8
AM_4
100
AcDbLine
 10
-1.465888888888886
 20
-1.12
 30
0.0
 11
-1.465888888888886
 21
-2.070879679100653
 31
0.0
  0
LINE
  5
20B
330
1A0
100
AcDbEntity
  8
AM_4
100
AcDbLine
 10
-1.038888888888886
 20
-1.12
 30
0.0
 11
-1.038888888888886
 21
-2.206666666666666
 31
0.0
  0
LINE
  5
20C
330
1A0
100
AcDbEntity
  8
AM_4
100
AcDbLine
 10
-1.396
 20
-2.206666666666666
 30
0.0
 11
-1.038888888888886
 21
-2.206666666666666
 31
0.0
  0
LWPOLYLINE
  5
20D
330
1A0
100
AcDbEntity
  8
AM_4
100
AcDbPolyline
 90
       15
 70
     0
 43
0.0
 10
-1.038888888888886
 20
-2.206666666666666
 10
-1.085447444478893
 20
-2.205986468517753
 10
-1.131561669735495
 20
-2.203956544516082
 10
-1.176359882604307
 20
-2.200592900329251
 10
-1.219376073578032
 20
-2.195880959020801
 10
-1.260269754639642
 20
-2.189830134522767
 10
-1.298309004675671
 20
-2.182496872807543
 10
-1.333480469740968
 20
-2.173773648800204
 10
-1.365135943275603
 20
-2.163763957965857
 10
-1.392769997340048
 20
-2.152582915774125
 10
-1.416811168612038
 20
-2.139847960844713
 10
-1.436255523482128
 20
-2.125966889307039
 10
-1.450856223379211
 20
-2.111131190354956
 10
-1.462124716307353
 20
-2.09153227256221
 10
-1.465888888888886
 20
-2.070879679100653
  0
LINE
  5
20E
330
1A0
100
AcDbEntity
  8
AM_4
100
AcDbLine
 10
1.396
 20
-2.206666666666666
 30
0.0
 11
1.396
 21
-2.75
 31
0.0
  0
LINE
  5
20F
330
1A0
100
AcDbEntity
  8
AM_4
100
AcDbLine
 10
-1.745
 20
-2.75
 30
0.0
 11
1.745
 21
-2.75
 31
0.0
  0
LINE
  5
210
330
1A0
100
AcDbEntity
  8
AM_4
100
AcDbLine
 10
1.038888888888892
 20
-2.206666666666666
 30
0.0
 11
1.396
 21
-2.206666666666666
 31
0.0
  0
LINE
  5
211
330
1A0
100
AcDbEntity
  8
AM_4
100
AcDbLine
 10
1.745000000000001
 20
-2.099189380475822
 30
0.0
 11
1.396
 21
-2.206666666666667
 31
0.0
  0
LINE
  5
212
330
1A0
100
AcDbEntity
  8
AM_4
100
AcDbLine
 10
1.74496937226304
 20
-1.119999999999998
 30
0.0
 11
1.745
 21
-2.75
 31
0.0
  0
LINE
  5
213
330
1A0
100
AcDbEntity
  8
AM_4
100
AcDbLine
 10
-1.744969372263039
 20
-1.119999999999999
 30
0.0
 11
1.744969372263039
 21
-1.119999999999999
 31
0.0
  0
LINE
  5
214
330
1A0
100
AcDbEntity
  8
AM_4
100
AcDbLine
 10
-1.396
 20
-2.206666666666667
 30
0.0
 11
-1.745
 21
-2.099189380475821
 31
0.0
  0
LINE
  5
215
330
1A0
100
AcDbEntity
  8
AM_4
100
AcDbLine
 10
-1.744969372263039
 20
-1.119999999999999
 30
0.0
 11
-1.745
 21
-2.75
 31
0.0
  0
LINE
  5
216
330
1A0
100
AcDbEntity
  8
AM_4
100
AcDbLine
 10
-1.396
 20
-2.206666666666666
 30
0.0
 11
-1.396
 21
-2.75
 31
0.0
  0
LWPOLYLINE
  5
217
330
1A0
100
AcDbEntity
  8
AM_4
100
AcDbPolyline
 90
       19
 70
     0
 43
0.0
 10
1.465888888888892
 20
-2.070879679100657
 10
1.464330445599492
 20
-2.084299076778269
 10
1.459651455912011
 20
-2.097323033710099
 10
1.451568209249543
 20
-2.110216704315014
 10
1.440190494342281
 20
-2.122529098894685
 10
1.425979212793381
 20
-2.133879647198529
 10
1.408740395677568
 20
-2.144550643851652
 10
1.38785994533478
 20
-2.154787711934102
 10
1.36397419337424
 20
-2.164194015986879
 10
1.3392471426216
 20
-2.172139234678102
 10
1.312223945897208
 20
-2.179303910730039
 10
1.282113146663123
 20
-2.18585198244561
 10
1.249975437687517
 20
-2.191526063043482
 10
1.218627492341527
 20
-2.195984769123055
 10
1.18597309619223
 20
-2.199674334684294
 10
1.151189210781022
 20
-2.202664162251993
 10
1.115528874825666
 20
-2.204827510003095
 10
1.077543688174561
 20
-2.206202760922979
 10
1.038888888888892
 20
-2.206666666666666
  0
LINE
  5
218
330
1A0
100
AcDbEntity
  8
AM_4
100
AcDbLine
 10
1.465888888888892
 20
-1.12
 30
0.0
 11
1.465888888888892
 21
-2.070879679100657
 31
0.0
  0
LINE
  5
219
330
1A0
100
AcDbEntity
  8
AM_4
100
AcDbLine
 10
1.038888888888892
 20
-1.12
 30
0.0
 11
1.038888888888892
 21
-2.206666666666666
 31
0.0
  0
ENDBLK
  5
1A3
330
1A0
100
AcDbEntity
  8
0
100
AcDbBlockEnd
  0
ENDSEC
  0
SECTION
  2
ENTITIES
  0
INSERT
  5
6F
330
1F
100
AcDbEntity
  8
0
100
AcDbBlockReference
  2
1_071457_2
 10
0.0
 20
0.0
 30
0.0
  0
POINT
  5
21B
330
1F
100
AcDbEntity
  8
ConnectionPoints
100
AcDbPoint
 10
-1.75
 20
0.0
 30
0.0000000000000001
  0
POINT
  5
21C
330
1F
100
AcDbEntity
  8
ConnectionPoints
100
AcDbPoint
 10
2.24025
 20
0.0
 30
-0.0000000000000001
  0
POINT
  5
21D
330
1F
100
AcDbEntity
  8
ConnectionPoints
100
AcDbPoint
 10
-1.75
 20
0.0
 30
0.0000000000000001
  0
POINT
  5
21E
330
1F
100
AcDbEntity
  8
ConnectionPoints
100
AcDbPoint
 10
0.0000000000000001
 20
2.658697989618227
 30
1.535
  0
POINT
  5
21F
330
1F
100
AcDbEntity
  8
ConnectionPoints
100
AcDbPoint
 10
-1.75
 20
0.0
 30
0.0000000000000001
  0
POINT
  5
220
330
1F
100
AcDbEntity
  8
ConnectionPoints
100
AcDbPoint
 10
-2.0
 20
0.0
 30
0.0000000000000001
  0
POINT
  5
221
330
1F
100
AcDbEntity
  8
ConnectionPoints
100
AcDbPoint
 10
0.0000000000000001
 20
2.658697989618227
 30
1.535
  0
ENDSEC
  0
SECTION
  2
OBJECTS
  0
DICTIONARY
  5
C
330
0
100
AcDbDictionary
281
     1
  3
ACAD_DETAILVIEWSTYLE
350
229
  3
ACAD_GROUP
350
D
  3
ACAD_LAYOUT
350
1A
  3
ACAD_MATERIAL
350
43
  3
ACAD_MLEADERSTYLE
350
6B
  3
ACAD_MLINESTYLE
350
17
  3
ACAD_PLOTSETTINGS
350
19
  3
ACAD_PLOTSTYLENAME
350
E
  3
ACAD_SCALELIST
350
47
  3
ACAD_SECTIONVIEWSTYLE
350
22A
  3
ACAD_TABLESTYLE
350
69
  3
ACAD_VISUALSTYLE
350
2A
  3
ACDB_RECOMPOSE_DATA
350
226
  3
AcDbVariableDictionary
350
222
  0
SUN
  5
6D
330
29
100
AcDbSun
 90
        1
290
     0
 63
     7
421
 16777215
 40
1.0
291
     1
 91
  2455826
 92
 54000000
292
     0
 70
     2
 71
   256
280
     1
  0
DICTIONARY
  5
229
102
{ACAD_REACTORS
330
C
102
}
330
C
100
AcDbDictionary
281
     1
  0
DICTIONARY
  5
D
102
{ACAD_REACTORS
330
C
102
}
330
C
100
AcDbDictionary
281
     1
  0
DICTIONARY
  5
1A
102
{ACAD_REACTORS
330
C
102
}
330
C
100
AcDbDictionary
281
     1
  3
Layout1
350
1E
  3
Layout2
350
26
  3
Model
350
22
  0
DICTIONARY
  5
43
102
{ACAD_REACTORS
330
C
102
}
330
C
100
AcDbDictionary
281
     1
  3
ByBlock
350
45
  3
ByLayer
350
44
  3
Global
350
46
  0
DICTIONARY
  5
6B
102
{ACAD_REACTORS
330
C
102
}
330
C
100
AcDbDictionary
281
     1
  3
Standard
350
6C
  0
DICTIONARY
  5
17
102
{ACAD_REACTORS
330
C
102
}
330
C
100
AcDbDictionary
281
     1
  3
Standard
350
18
  0
DICTIONARY
  5
19
102
{ACAD_REACTORS
330
C
102
}
330
C
100
AcDbDictionary
281
     1
  0
ACDBDICTIONARYWDFLT
  5
E
102
{ACAD_REACTORS
330
C
102
}
330
C
100
AcDbDictionary
281
     1
  3
Normal
350
F
100
AcDbDictionaryWithDefault
340
F
  0
DICTIONARY
  5
47
102
{ACAD_REACTORS
330
C
102
}
330
C
100
AcDbDictionary
281
     1
  3
A0
350
48
  3
A1
350
49
  3
A2
350
4A
  3
A3
350
4B
  3
A4
350
4C
  3
A5
350
4D
  3
A6
350
4E
  3
A7
350
4F
  3
A8
350
50
  3
A9
350
51
  3
B0
350
52
  3
B1
350
53
  3
B2
350
54
  3
B3
350
55
  3
B4
350
56
  3
B5
350
57
  3
B6
350
58
  3
B7
350
59
  3
B8
350
5A
  3
B9
350
5B
  3
C0
350
5C
  3
C1
350
5D
  3
C2
350
5E
  3
C3
350
5F
  3
C4
350
60
  3
C5
350
61
  3
C6
350
62
  3
C7
350
63
  3
C8
350
64
  3
C9
350
65
  3
D0
350
66
  3
D1
350
67
  3
D2
350
68
  0
DICTIONARY
  5
22A
102
{ACAD_REACTORS
330
C
102
}
330
C
100
AcDbDictionary
281
     1
  0
DICTIONARY
  5
69
102
{ACAD_REACTORS
330
C
102
}
330
C
100
AcDbDictionary
281
     1
  3
Standard
350
6A
  0
DICTIONARY
  5
2A
102
{ACAD_REACTORS
330
C
102
}
330
C
100
AcDbDictionary
281
     1
  3
2dWireframe
350
2F
  3
Basic
350
32
  3
Brighten
350
36
  3
ColorChange
350
3A
  3
Conceptual
350
34
  3
Dim
350
35
  3
EdgeColorOff
350
3D
  3
Facepattern
350
39
  3
Flat
350
2B
  3
FlatWithEdges
350
2C
  3
Gouraud
350
2D
  3
GouraudWithEdges
350
2E
  3
Hidden
350
31
  3
JitterOff
350
3B
  3
Linepattern
350
38
  3
OverhangOff
350
3C
  3
Realistic
350
33
  3
Shaded
350
42
  3
Shaded with edges
350
41
  3
Shades of Gray
350
3E
  3
Sketchy
350
3F
  3
Thicken
350
37
  3
Wireframe
350
30
  3
X-Ray
350
40
  0
XRECORD
  5
226
102
{ACAD_REACTORS
330
C
102
}
330
C
100
AcDbXrecord
280
     1
 90
        1
330
6A
  0
DICTIONARY
  5
222
102
{ACAD_REACTORS
330
C
102
}
330
C
100
AcDbDictionary
281
     1
  3
CANNOSCALE
350
223
  3
CMLEADERSTYLE
350
228
  3
CTABLESTYLE
350
227
  0
LAYOUT
  5
1E
102
{ACAD_REACTORS
330
1A
102
}
330
1A
100
AcDbPlotSettings
  1

  2
none_device
  4

  6

 40
0.0
 41
0.0
 42
0.0
 43
0.0
 44
0.0
 45
0.0
 46
0.0
 47
0.0
 48
0.0
 49
0.0
140
0.0
141
0.0
142
1.0
143
1.0
 70
   688
 72
     0
 73
     0
 74
     5
  7

 75
    16
 76
     0
 77
     2
 78
   300
147
1.0
148
0.0
149
0.0
100
AcDbLayout
  1
Layout1
 70
     1
 71
     1
 10
0.0
 20
0.0
 11
12.0
 21
9.0
 12
0.0
 22
0.0
 32
0.0
 14
1.000000000000000E+20
 24
1.000000000000000E+20
 34
1.000000000000000E+20
 15
-1.000000000000000E+20
 25
-1.000000000000000E+20
 35
-1.000000000000000E+20
146
0.0
 13
0.0
 23
0.0
 33
0.0
 16
1.0
 26
0.0
 36
0.0
 17
0.0
 27
1.0
 37
0.0
 76
     0
330
1B
  0
LAYOUT
  5
26
102
{ACAD_REACTORS
330
1A
102
}
330
1A
100
AcDbPlotSettings
  1

  2
none_device
  4

  6

 40
0.0
 41
0.0
 42
0.0
 43
0.0
 44
0.0
 45
0.0
 46
0.0
 47
0.0
 48
0.0
 49
0.0
140
0.0
141
0.0
142
1.0
143
1.0
 70
   688
 72
     0
 73
     0
 74
     5
  7

 75
    16
 76
     0
 77
     2
 78
   300
147
1.0
148
0.0
149
0.0
100
AcDbLayout
  1
Layout2
 70
     1
 71
     2
 10
0.0
 20
0.0
 11
0.0
 21
0.0
 12
0.0
 22
0.0
 32
0.0
 14
0.0
 24
0.0
 34
0.0
 15
0.0
 25
0.0
 35
0.0
146
0.0
 13
0.0
 23
0.0
 33
0.0
 16
1.0
 26
0.0
 36
0.0
 17
0.0
 27
1.0
 37
0.0
 76
     0
330
23
  0
LAYOUT
  5
22
102
{ACAD_REACTORS
330
1A
102
}
330
1A
100
AcDbPlotSettings
  1

  2
none_device
  4
Letter_(8.50_x_11.00_Inches)
  6

 40
6.35
 41
6.35
 42
6.35000508
 43
6.35000508
 44
215.9
 45
279.4
 46
0.0
 47
0.0
 48
0.0
 49
0.0
140
0.0
141
0.0
142
1.0
143
1.0
 70
  1712
 72
     0
 73
     0
 74
     0
  7

 75
     0
 76
     0
 77
     2
 78
   300
147
1.0
148
0.0
149
0.0
100
AcDbLayout
  1
Model
 70
     1
 71
     0
 10
0.0
 20
0.0
 11
12.0
 21
9.0
 12
0.0
 22
0.0
 32
0.0
 14
1.000000000000000E+20
 24
1.000000000000000E+20
 34
1.000000000000000E+20
 15
-1.000000000000000E+20
 25
-1.000000000000000E+20
 35
-1.000000000000000E+20
146
0.0
 13
0.0
 23
0.0
 33
0.0
 16
1.0
 26
0.0
 36
0.0
 17
0.0
 27
1.0
 37
0.0
 76
     0
330
1F
331
29
  0
MATERIAL
  5
45
102
{ACAD_REACTORS
330
43
102
}
330
43
100
AcDbMaterial
  1
ByBlock
 72
     1
 94
      127
  0
MATERIAL
  5
44
102
{ACAD_REACTORS
330
43
102
}
330
43
100
AcDbMaterial
  1
ByLayer
 72
     1
 94
      127
  0
MATERIAL
  5
46
102
{ACAD_REACTORS
330
43
102
}
330
43
100
AcDbMaterial
  1
Global
 72
     1
 94
      127
  0
MLEADERSTYLE
  5
6C
102
{ACAD_REACTORS
330
6B
102
}
330
6B
100
AcDbMLeaderStyle
179
     2
170
     2
171
     1
172
     0
 90
        2
 40
0.0
 41
0.0
173
     1
 91
-1056964608
340
14
 92
       -2
290
     1
 42
0.09
291
     1
 43
0.36
  3
Standard
341
0
 44
0.18
300

342
11
174
     1
178
     6
175
     1
176
     0
 93
-1056964608
 45
0.18
292
     0
297
     0
 46
0.18
343
0
 94
-1056964608
 47
1.0
 49
1.0
140
1.0
293
     1
141
0.0
294
     1
177
     0
142
1.0
295
     0
296
     0
143
0.125
271
     0
272
     9
273
     9
298
     0
  0
MLINESTYLE
  5
18
102
{ACAD_REACTORS
330
17
102
}
330
17
100
AcDbMlineStyle
  2
Standard
 70
     0
  3

 62
   256
 51
90.0
 52
90.0
 71
     2
 49
0.5
 62
   256
  6
BYLAYER
 49
-0.5
 62
   256
  6
BYLAYER
  0
ACDBPLACEHOLDER
  5
F
102
{ACAD_REACTORS
330
E
102
}
330
E
  0
SCALE
  5
48
102
{ACAD_REACTORS
330
47
102
}
330
47
100
AcDbScale
 70
     0
300
1:1
140
1.0
141
1.0
290
     1
  0
SCALE
  5
49
102
{ACAD_REACTORS
330
47
102
}
330
47
100
AcDbScale
 70
     0
300
1:2
140
1.0
141
2.0
290
     0
  0
SCALE
  5
4A
102
{ACAD_REACTORS
330
47
102
}
330
47
100
AcDbScale
 70
     0
300
1:4
140
1.0
141
4.0
290
     0
  0
SCALE
  5
4B
102
{ACAD_REACTORS
330
47
102
}
330
47
100
AcDbScale
 70
     0
300
1:5
140
1.0
141
5.0
290
     0
  0
SCALE
  5
4C
102
{ACAD_REACTORS
330
47
102
}
330
47
100
AcDbScale
 70
     0
300
1:8
140
1.0
141
8.0
290
     0
  0
SCALE
  5
4D
102
{ACAD_REACTORS
330
47
102
}
330
47
100
AcDbScale
 70
     0
300
1:10
140
1.0
141
10.0
290
     0
  0
SCALE
  5
4E
102
{ACAD_REACTORS
330
47
102
}
330
47
100
AcDbScale
 70
     0
300
1:16
140
1.0
141
16.0
290
     0
  0
SCALE
  5
4F
102
{ACAD_REACTORS
330
47
102
}
330
47
100
AcDbScale
 70
     0
300
1:20
140
1.0
141
20.0
290
     0
  0
SCALE
  5
50
102
{ACAD_REACTORS
330
47
102
}
330
47
100
AcDbScale
 70
     0
300
1:30
140
1.0
141
30.0
290
     0
  0
SCALE
  5
51
102
{ACAD_REACTORS
330
47
102
}
330
47
100
AcDbScale
 70
     0
300
1:40
140
1.0
141
40.0
290
     0
  0
SCALE
  5
52
102
{ACAD_REACTORS
330
47
102
}
330
47
100
AcDbScale
 70
     0
300
1:50
140
1.0
141
50.0
290
     0
  0
SCALE
  5
53
102
{ACAD_REACTORS
330
47
102
}
330
47
100
AcDbScale
 70
     0
300
1:100
140
1.0
141
100.0
290
     0
  0
SCALE
  5
54
102
{ACAD_REACTORS
330
47
102
}
330
47
100
AcDbScale
 70
     0
300
2:1
140
2.0
141
1.0
290
     0
  0
SCALE
  5
55
102
{ACAD_REACTORS
330
47
102
}
330
47
100
AcDbScale
 70
     0
300
4:1
140
4.0
141
1.0
290
     0
  0
SCALE
  5
56
102
{ACAD_REACTORS
330
47
102
}
330
47
100
AcDbScale
 70
     0
300
8:1
140
8.0
141
1.0
290
     0
  0
SCALE
  5
57
102
{ACAD_REACTORS
330
47
102
}
330
47
100
AcDbScale
 70
     0
300
10:1
140
10.0
141
1.0
290
     0
  0
SCALE
  5
58
102
{ACAD_REACTORS
330
47
102
}
330
47
100
AcDbScale
 70
     0
300
100:1
140
100.0
141
1.0
290
     0
  0
SCALE
  5
59
102
{ACAD_REACTORS
330
47
102
}
330
47
100
AcDbScale
 70
     0
300
1/128" = 1'-0"
140
0.0078125
141
12.0
290
     0
  0
SCALE
  5
5A
102
{ACAD_REACTORS
330
47
102
}
330
47
100
AcDbScale
 70
     0
300
1/64" = 1'-0"
140
0.015625
141
12.0
290
     0
  0
SCALE
  5
5B
102
{ACAD_REACTORS
330
47
102
}
330
47
100
AcDbScale
 70
     0
300
1/32" = 1'-0"
140
0.03125
141
12.0
290
     0
  0
SCALE
  5
5C
102
{ACAD_REACTORS
330
47
102
}
330
47
100
AcDbScale
 70
     0
300
1/16" = 1'-0"
140
0.0625
141
12.0
290
     0
  0
SCALE
  5
5D
102
{ACAD_REACTORS
330
47
102
}
330
47
100
AcDbScale
 70
     0
300
3/32" = 1'-0"
140
0.09375
141
12.0
290
     0
  0
SCALE
  5
5E
102
{ACAD_REACTORS
330
47
102
}
330
47
100
AcDbScale
 70
     0
300
1/8" = 1'-0"
140
0.125
141
12.0
290
     0
  0
SCALE
  5
5F
102
{ACAD_REACTORS
330
47
102
}
330
47
100
AcDbScale
 70
     0
300
3/16" = 1'-0"
140
0.1875
141
12.0
290
     0
  0
SCALE
  5
60
102
{ACAD_REACTORS
330
47
102
}
330
47
100
AcDbScale
 70
     0
300
1/4" = 1'-0"
140
0.25
141
12.0
290
     0
  0
SCALE
  5
61
102
{ACAD_REACTORS
330
47
102
}
330
47
100
AcDbScale
 70
     0
300
3/8" = 1'-0"
140
0.375
141
12.0
290
     0
  0
SCALE
  5
62
102
{ACAD_REACTORS
330
47
102
}
330
47
100
AcDbScale
 70
     0
300
1/2" = 1'-0"
140
0.5
141
12.0
290
     0
  0
SCALE
  5
63
102
{ACAD_REACTORS
330
47
102
}
330
47
100
AcDbScale
 70
     0
300
3/4" = 1'-0"
140
0.75
141
12.0
290
     0
  0
SCALE
  5
64
102
{ACAD_REACTORS
330
47
102
}
330
47
100
AcDbScale
 70
     0
300
1" = 1'-0"
140
1.0
141
12.0
290
     0
  0
SCALE
  5
65
102
{ACAD_REACTORS
330
47
102
}
330
47
100
AcDbScale
 70
     0
300
1-1/2" = 1'-0"
140
1.5
141
12.0
290
     0
  0
SCALE
  5
66
102
{ACAD_REACTORS
330
47
102
}
330
47
100
AcDbScale
 70
     0
300
3" = 1'-0"
140
3.0
141
12.0
290
     0
  0
SCALE
  5
67
102
{ACAD_REACTORS
330
47
102
}
330
47
100
AcDbScale
 70
     0
300
6" = 1'-0"
140
6.0
141
12.0
290
     0
  0
SCALE
  5
68
102
{ACAD_REACTORS
330
47
102
}
330
47
100
AcDbScale
 70
     0
300
1'-0" = 1'-0"
140
12.0
141
12.0
290
     0
  0
TABLESTYLE
  5
6A
102
{ACAD_REACTORS
330
69
102
}
102
{ACAD_XDICTIONARY
360
224
102
}
330
69
100
AcDbTableStyle
  3
Standard
 70
     0
 71
     0
 40
0.06
 41
0.06
280
     0
281
     0
  7
Standard
140
0.18
170
     2
 62
     0
 63
   257
283
     0
 90
        4
 91
        0
  1

274
    -2
284
     1
 64
     0
275
    -2
285
     1
 65
     0
276
    -2
286
     1
 66
     0
277
    -2
287
     1
 67
     0
278
    -2
288
     1
 68
     0
279
    -2
289
     1
 69
     0
  7
Standard
140
0.25
170
     5
 62
     0
 63
   257
283
     0
 90
        4
 91
        0
  1

274
    -2
284
     1
 64
     0
275
    -2
285
     1
 65
     0
276
    -2
286
     1
 66
     0
277
    -2
287
     1
 67
     0
278
    -2
288
     1
 68
     0
279
    -2
289
     1
 69
     0
  7
Standard
140
0.18
170
     5
 62
     0
 63
   257
283
     0
 90
        4
 91
        0
  1

274
    -2
284
     1
 64
     0
275
    -2
285
     1
 65
     0
276
    -2
286
     1
 66
     0
277
    -2
287
     1
 67
     0
278
    -2
288
     1
 68
     0
279
    -2
289
     1
 69
     0
  0
VISUALSTYLE
  5
2F
102
{ACAD_REACTORS
330
2A
102
}
330
2A
100
AcDbVisualStyle
  2
2dWireframe
 70
     4
177
     3
291
     0
 70
    58
 90
        0
176
     1
 90
        2
176
     1
 90
        0
176
     1
 90
        0
176
     1
 40
0.6
176
     1
 40
30.0
176
     1
 62
     7
420
 16777215
176
     1
 90
        1
176
     1
 90
        4
176
     1
 62
     7
176
     1
 62
   257
176
     1
 90
        1
176
     1
 90
        1
176
     1
 40
1.0
176
     1
 90
        0
176
     1
 62
   257
176
     1
 40
1.0
176
     1
 90
        1
176
     1
 90
        6
176
     1
 90
        2
176
     1
 62
     7
176
     1
 90
        5
176
     1
 90
        0
176
     1
 90
        0
176
     1
290
     0
176
     1
 90
        1
176
     1
 40
0.0
176
     1
 90
        0
176
     1
290
     1
176
     1
290
     1
176
     1
290
     0
176
     1
290
     0
176
     1
290
     0
176
     1
290
     0
176
     1
290
     0
176
     1
290
     0
176
     1
290
     0
176
     1
 90
       50
176
     1
 40
0.0
176
     1
 40
1.0
176
     1
 90
        0
176
     1
 62
    18
420
        0
176
     1
 90
       50
176
     1
 90
        3
176
     1
 62
     5
420
      255
176
     1
290
     0
176
     1
 90
       50
176
     1
 90
       50
176
     1
 90
       50
176
     1
290
     0
176
     1
 90
       50
176
     1
 62
   256
176
     0
 40
1.0
176
     0
 90
        2
176
     1
  1
strokes_ogs.tif
176
     1
290
     0
176
     1
 40
1.0
176
     1
 40
1.0
176
     1
  0
VISUALSTYLE
  5
32
102
{ACAD_REACTORS
330
2A
102
}
330
2A
100
AcDbVisualStyle
  2
Basic
 70
     7
177
     3
291
     1
 70
    58
 90
        1
176
     1
 90
        0
176
     1
 90
        1
176
     1
 90
        0
176
     1
 40
0.6
176
     1
 40
30.0
176
     1
 62
     7
420
 16777215
176
     1
 90
        0
176
     1
 90
        4
176
     1
 62
     7
176
     1
 62
   257
176
     1
 90
        1
176
     1
 90
        1
176
     1
 40
1.0
176
     1
 90
        8
176
     1
 62
     7
176
     1
 40
1.0
176
     1
 90
        1
176
     1
 90
        6
176
     1
 90
        2
176
     1
 62
     7
176
     1
 90
        5
176
     1
 90
        0
176
     1
 90
        0
176
     1
290
     0
176
     1
 90
        1
176
     1
 40
0.0
176
     1
 90
        0
176
     1
290
     0
176
     1
290
     1
176
     1
290
     1
176
     1
290
     0
176
     1
290
     0
176
     1
290
     0
176
     1
290
     0
176
     1
290
     0
176
     1
290
     0
176
     1
 90
       50
176
     1
 40
0.0
176
     1
 40
1.0
176
     1
 90
        0
176
     1
 62
    18
420
        0
176
     1
 90
       50
176
     1
 90
        3
176
     1
 62
     5
420
      255
176
     1
290
     0
176
     1
 90
       50
176
     1
 90
       50
176
     1
 90
       50
176
     1
290
     0
176
     1
 90
       50
176
     1
 62
   256
176
     0
 40
1.0
176
     0
 90
        2
176
     1
  1
strokes_ogs.tif
176
     1
290
     0
176
     1
 40
1.0
176
     1
 40
1.0
176
     1
  0
VISUALSTYLE
  5
36
102
{ACAD_REACTORS
330
2A
102
}
330
2A
100
AcDbVisualStyle
  2
Brighten
 70
    12
177
     3
291
     1
 70
    58
 90
        2
176
     1
 90
        2
176
     1
 90
        0
176
     1
 90
        0
176
     1
 40
0.6
176
     1
 40
30.0
176
     1
 62
     7
420
 16777215
176
     1
 90
        1
176
     1
 90
        4
176
     1
 62
     7
176
     1
 62
   257
176
     1
 90
        1
176
     1
 90
        1
176
     1
 40
1.0
176
     1
 90
        8
176
     1
 62
     7
176
     1
 40
1.0
176
     1
 90
        1
176
     1
 90
        6
176
     1
 90
        2
176
     1
 62
     7
176
     1
 90
        5
176
     1
 90
        0
176
     1
 90
        0
176
     1
290
     0
176
     1
 90
        1
176
     1
 40
50.0
176
     1
 90
        0
176
     1
290
     0
176
     1
290
     1
176
     1
290
     1
176
     1
290
     0
176
     1
290
     0
176
     1
290
     0
176
     1
290
     0
176
     1
290
     0
176
     1
290
     0
176
     1
 90
       50
176
     1
 40
0.0
176
     1
 40
1.0
176
     1
 90
        0
176
     1
 62
    18
420
        0
176
     1
 90
       50
176
     1
 90
        3
176
     1
 62
     5
420
      255
176
     1
290
     0
176
     1
 90
       50
176
     1
 90
       50
176
     1
 90
       50
176
     1
290
     0
176
     1
 90
       50
176
     1
 62
   256
176
     0
 40
1.0
176
     0
 90
        2
176
     1
  1
strokes_ogs.tif
176
     1
290
     0
176
     1
 40
1.0
176
     1
 40
1.0
176
     1
  0
VISUALSTYLE
  5
3A
102
{ACAD_REACTORS
330
2A
102
}
330
2A
100
AcDbVisualStyle
  2
ColorChange
 70
    16
177
     3
291
     1
 70
    58
 90
        2
176
     1
 90
        2
176
     1
 90
        3
176
     1
 90
        0
176
     1
 40
0.6
176
     1
 40
30.0
176
     1
 62
     8
420
  8421504
176
     1
 90
        1
176
     1
 90
        4
176
     1
 62
     7
176
     1
 62
   257
176
     1
 90
        1
176
     1
 90
        1
176
     1
 40
1.0
176
     1
 90
        8
176
     1
 62
     8
420
  8421504
176
     1
 40
1.0
176
     1
 90
        1
176
     1
 90
        6
176
     1
 90
        2
176
     1
 62
     7
176
     1
 90
        5
176
     1
 90
        0
176
     1
 90
        0
176
     1
290
     0
176
     1
 90
        1
176
     1
 40
0.0
176
     1
 90
        0
176
     1
290
     0
176
     1
290
     1
176
     1
290
     1
176
     1
290
     0
176
     1
290
     0
176
     1
290
     0
176
     1
290
     0
176
     1
290
     0
176
     1
290
     0
176
     1
 90
       50
176
     1
 40
0.0
176
     1
 40
1.0
176
     1
 90
        0
176
     1
 62
    18
420
        0
176
     1
 90
       50
176
     1
 90
        3
176
     1
 62
     5
420
      255
176
     1
290
     0
176
     1
 90
       50
176
     1
 90
       50
176
     1
 90
       50
176
     1
290
     0
176
     1
 90
       50
176
     1
 62
   256
176
     0
 40
1.0
176
     0
 90
        2
176
     1
  1
strokes_ogs.tif
176
     1
290
     0
176
     1
 40
1.0
176
     1
 40
1.0
176
     1
  0
VISUALSTYLE
  5
34
102
{ACAD_REACTORS
330
2A
102
}
330
2A
100
AcDbVisualStyle
  2
Conceptual
 70
     9
177
     3
291
     0
 70
    58
 90
        3
176
     1
 90
        2
176
     1
 90
        0
176
     1
 90
        0
176
     1
 40
0.6
176
     1
 40
30.0
176
     1
 62
     7
420
 16777215
176
     1
 90
        2
176
     1
 90
        2
176
     1
 62
     7
176
     1
 62
   257
176
     1
 90
        1
176
     1
 90
        1
176
     1
 40
179.0
176
     1
 90
        8
176
     1
 62
     7
176
     1
 40
1.0
176
     1
 90
        1
176
     1
 90
        6
176
     1
 90
        2
176
     1
 62
     7
176
     1
 90
        3
176
     1
 90
        0
176
     1
 90
        0
176
     1
290
     0
176
     1
 90
        1
176
     1
 40
0.0
176
     1
 90
        0
176
     1
290
     0
176
     1
290
     1
176
     1
290
     1
176
     1
290
     0
176
     1
290
     0
176
     1
290
     0
176
     1
290
     0
176
     1
290
     0
176
     1
290
     0
176
     1
 90
       50
176
     1
 40
0.0
176
     1
 40
1.0
176
     1
 90
        0
176
     1
 62
    18
420
        0
176
     1
 90
       50
176
     1
 90
        3
176
     1
 62
     5
420
      255
176
     1
290
     0
176
     1
 90
       50
176
     1
 90
       50
176
     1
 90
       50
176
     1
290
     0
176
     1
 90
       50
176
     1
 62
   256
176
     0
 40
1.0
176
     0
 90
        2
176
     1
  1
strokes_ogs.tif
176
     1
290
     0
176
     1
 40
1.0
176
     1
 40
1.0
176
     1
  0
VISUALSTYLE
  5
35
102
{ACAD_REACTORS
330
2A
102
}
330
2A
100
AcDbVisualStyle
  2
Dim
 70
    11
177
     3
291
     1
 70
    58
 90
        2
176
     1
 90
        2
176
     1
 90
        0
176
     1
 90
        0
176
     1
 40
0.6
176
     1
 40
30.0
176
     1
 62
     7
420
 16777215
176
     1
 90
        1
176
     1
 90
        4
176
     1
 62
     7
176
     1
 62
   257
176
     1
 90
        1
176
     1
 90
        1
176
     1
 40
1.0
176
     1
 90
        8
176
     1
 62
     7
176
     1
 40
1.0
176
     1
 90
        1
176
     1
 90
        6
176
     1
 90
        2
176
     1
 62
     7
176
     1
 90
        5
176
     1
 90
        0
176
     1
 90
        0
176
     1
290
     0
176
     1
 90
        1
176
     1
 40
-50.0
176
     1
 90
        0
176
     1
290
     0
176
     1
290
     1
176
     1
290
     1
176
     1
290
     0
176
     1
290
     0
176
     1
290
     0
176
     1
290
     0
176
     1
290
     0
176
     1
290
     0
176
     1
 90
       50
176
     1
 40
0.0
176
     1
 40
1.0
176
     1
 90
        0
176
     1
 62
    18
420
        0
176
     1
 90
       50
176
     1
 90
        3
176
     1
 62
     5
420
      255
176
     1
290
     0
176
     1
 90
       50
176
     1
 90
       50
176
     1
 90
       50
176
     1
290
     0
176
     1
 90
       50
176
     1
 62
   256
176
     0
 40
1.0
176
     0
 90
        2
176
     1
  1
strokes_ogs.tif
176
     1
290
     0
176
     1
 40
1.0
176
     1
 40
1.0
176
     1
  0
VISUALSTYLE
  5
3D
102
{ACAD_REACTORS
330
2A
102
}
330
2A
100
AcDbVisualStyle
  2
EdgeColorOff
 70
    22
177
     3
291
     1
 70
    58
 90
        2
176
     0
 90
        2
176
     0
 90
        0
176
     0
 90
        0
176
     0
 40
0.6
176
     0
 40
30.0
176
     0
 62
     7
420
 16777215
176
     0
 90
        1
176
     0
 90
        4
176
     0
 62
     7
176
     0
 62
   257
176
     0
 90
        1
176
     0
 90
        1
176
     0
 40
1.0
176
     0
 90
        8
176
     2
 62
     7
176
     0
 40
1.0
176
     0
 90
        1
176
     0
 90
        6
176
     0
 90
        2
176
     0
 62
     7
176
     0
 90
        5
176
     0
 90
        0
176
     0
 90
        0
176
     0
290
     0
176
     0
 90
        1
176
     0
 40
0.0
176
     0
 90
        0
176
     0
290
     0
176
     0
290
     1
176
     0
290
     1
176
     0
290
     0
176
     0
290
     0
176
     0
290
     0
176
     0
290
     0
176
     0
290
     0
176
     0
290
     0
176
     0
 90
       50
176
     0
 40
0.0
176
     0
 40
1.0
176
     0
 90
        0
176
     0
 62
    18
420
        0
176
     0
 90
       50
176
     0
 90
        3
176
     0
 62
     5
420
      255
176
     0
290
     0
176
     0
 90
       50
176
     0
 90
       50
176
     0
 90
       50
176
     0
290
     0
176
     0
 90
       50
176
     0
 62
   256
176
     0
 40
1.0
176
     0
 90
        2
176
     0
  1
strokes_ogs.tif
176
     0
290
     0
176
     0
 40
1.0
176
     0
 40
1.0
176
     0
  0
VISUALSTYLE
  5
39
102
{ACAD_REACTORS
330
2A
102
}
330
2A
100
AcDbVisualStyle
  2
Facepattern
 70
    15
177
     3
291
     1
 70
    58
 90
        2
176
     1
 90
        2
176
     1
 90
        0
176
     1
 90
        0
176
     1
 40
0.6
176
     1
 40
30.0
176
     1
 62
     7
420
 16777215
176
     1
 90
        1
176
     1
 90
        4
176
     1
 62
     7
176
     1
 62
   257
176
     1
 90
        1
176
     1
 90
        1
176
     1
 40
1.0
176
     1
 90
        8
176
     1
 62
     7
176
     1
 40
1.0
176
     1
 90
        1
176
     1
 90
        6
176
     1
 90
        2
176
     1
 62
     7
176
     1
 90
        5
176
     1
 90
        0
176
     1
 90
        0
176
     1
290
     0
176
     1
 90
        1
176
     1
 40
0.0
176
     1
 90
        0
176
     1
290
     0
176
     1
290
     1
176
     1
290
     1
176
     1
290
     0
176
     1
290
     0
176
     1
290
     0
176
     1
290
     0
176
     1
290
     0
176
     1
290
     0
176
     1
 90
       50
176
     1
 40
0.0
176
     1
 40
1.0
176
     1
 90
        0
176
     1
 62
    18
420
        0
176
     1
 90
       50
176
     1
 90
        3
176
     1
 62
     5
420
      255
176
     1
290
     0
176
     1
 90
       50
176
     1
 90
       50
176
     1
 90
       50
176
     1
290
     0
176
     1
 90
       50
176
     1
 62
   256
176
     0
 40
1.0
176
     0
 90
        2
176
     1
  1
strokes_ogs.tif
176
     1
290
     0
176
     1
 40
1.0
176
     1
 40
1.0
176
     1
  0
VISUALSTYLE
  5
2B
102
{ACAD_REACTORS
330
2A
102
}
330
2A
100
AcDbVisualStyle
  2
Flat
 70
     0
177
     3
291
     1
 70
    58
 90
        2
176
     1
 90
        1
176
     1
 90
        1
176
     1
 90
        2
176
     1
 40
0.6
176
     1
 40
30.0
176
     1
 62
     7
420
 16777215
176
     1
 90
        0
176
     1
 90
        0
176
     1
 62
     7
176
     1
 62
   257
176
     1
 90
        1
176
     1
 90
        1
176
     1
 40
1.0
176
     1
 90
        8
176
     1
 62
     7
176
     1
 40
1.0
176
     1
 90
        1
176
     1
 90
        6
176
     1
 90
        2
176
     1
 62
     7
176
     1
 90
        5
176
     1
 90
        0
176
     1
 90
        0
176
     1
290
     0
176
     1
 90
       13
176
     1
 40
0.0
176
     1
 90
        0
176
     1
290
     0
176
     1
290
     1
176
     1
290
     1
176
     1
290
     0
176
     1
290
     0
176
     1
290
     0
176
     1
290
     0
176
     1
290
     0
176
     1
290
     0
176
     1
 90
       50
176
     1
 40
0.0
176
     1
 40
1.0
176
     1
 90
        0
176
     1
 62
    18
420
        0
176
     1
 90
       50
176
     1
 90
        3
176
     1
 62
     5
420
      255
176
     1
290
     0
176
     1
 90
       50
176
     1
 90
       50
176
     1
 90
       50
176
     1
290
     0
176
     1
 90
       50
176
     1
 62
   256
176
     0
 40
1.0
176
     0
 90
        2
176
     1
  1
strokes_ogs.tif
176
     1
290
     0
176
     1
 40
1.0
176
     1
 40
1.0
176
     1
  0
VISUALSTYLE
  5
2C
102
{ACAD_REACTORS
330
2A
102
}
330
2A
100
AcDbVisualStyle
  2
FlatWithEdges
 70
     1
177
     3
291
     1
 70
    58
 90
        2
176
     1
 90
        1
176
     1
 90
        1
176
     1
 90
        2
176
     1
 40
0.6
176
     1
 40
30.0
176
     1
 62
     7
420
 16777215
176
     1
 90
        1
176
     1
 90
        0
176
     1
 62
     7
176
     1
 62
   257
176
     1
 90
        1
176
     1
 90
        1
176
     1
 40
1.0
176
     1
 90
        0
176
     1
 62
   257
176
     1
 40
1.0
176
     1
 90
        1
176
     1
 90
        6
176
     1
 90
        2
176
     1
 62
     7
176
     1
 90
        5
176
     1
 90
        0
176
     1
 90
        0
176
     1
290
     0
176
     1
 90
       13
176
     1
 40
0.0
176
     1
 90
        0
176
     1
290
     0
176
     1
290
     1
176
     1
290
     1
176
     1
290
     0
176
     1
290
     0
176
     1
290
     0
176
     1
290
     0
176
     1
290
     0
176
     1
290
     0
176
     1
 90
       50
176
     1
 40
0.0
176
     1
 40
1.0
176
     1
 90
        0
176
     1
 62
    18
420
        0
176
     1
 90
       50
176
     1
 90
        3
176
     1
 62
     5
420
      255
176
     1
290
     0
176
     1
 90
       50
176
     1
 90
       50
176
     1
 90
       50
176
     1
290
     0
176
     1
 90
       50
176
     1
 62
   256
176
     0
 40
1.0
176
     0
 90
        2
176
     1
  1
strokes_ogs.tif
176
     1
290
     0
176
     1
 40
1.0
176
     1
 40
1.0
176
     1
  0
VISUALSTYLE
  5
2D
102
{ACAD_REACTORS
330
2A
102
}
330
2A
100
AcDbVisualStyle
  2
Gouraud
 70
     2
177
     3
291
     1
 70
    58
 90
        2
176
     1
 90
        2
176
     1
 90
        1
176
     1
 90
        2
176
     1
 40
0.6
176
     1
 40
30.0
176
     1
 62
     7
420
 16777215
176
     1
 90
        0
176
     1
 90
        0
176
     1
 62
     7
176
     1
 62
   257
176
     1
 90
        1
176
     1
 90
        1
176
     1
 40
1.0
176
     1
 90
        0
176
     1
 62
     7
176
     1
 40
1.0
176
     1
 90
        1
176
     1
 90
        6
176
     1
 90
        2
176
     1
 62
     7
176
     1
 90
        5
176
     1
 90
        0
176
     1
 90
        0
176
     1
290
     0
176
     1
 90
       13
176
     1
 40
0.0
176
     1
 90
        0
176
     1
290
     0
176
     1
290
     1
176
     1
290
     1
176
     1
290
     0
176
     1
290
     0
176
     1
290
     0
176
     1
290
     0
176
     1
290
     0
176
     1
290
     0
176
     1
 90
       50
176
     1
 40
0.0
176
     1
 40
1.0
176
     1
 90
        0
176
     1
 62
    18
420
        0
176
     1
 90
       50
176
     1
 90
        3
176
     1
 62
     5
420
      255
176
     1
290
     0
176
     1
 90
       50
176
     1
 90
       50
176
     1
 90
       50
176
     1
290
     0
176
     1
 90
       50
176
     1
 62
   256
176
     0
 40
1.0
176
     0
 90
        2
176
     1
  1
strokes_ogs.tif
176
     1
290
     0
176
     1
 40
1.0
176
     1
 40
1.0
176
     1
  0
VISUALSTYLE
  5
2E
102
{ACAD_REACTORS
330
2A
102
}
330
2A
100
AcDbVisualStyle
  2
GouraudWithEdges
 70
     3
177
     3
291
     1
 70
    58
 90
        2
176
     1
 90
        2
176
     1
 90
        1
176
     1
 90
        2
176
     1
 40
0.6
176
     1
 40
30.0
176
     1
 62
     7
420
 16777215
176
     1
 90
        1
176
     1
 90
        0
176
     1
 62
     7
176
     1
 62
   257
176
     1
 90
        1
176
     1
 90
        1
176
     1
 40
1.0
176
     1
 90
        0
176
     1
 62
   257
176
     1
 40
1.0
176
     1
 90
        1
176
     1
 90
        6
176
     1
 90
        2
176
     1
 62
     7
176
     1
 90
        5
176
     1
 90
        0
176
     1
 90
        0
176
     1
290
     0
176
     1
 90
       13
176
     1
 40
0.0
176
     1
 90
        0
176
     1
290
     0
176
     1
290
     1
176
     1
290
     1
176
     1
290
     0
176
     1
290
     0
176
     1
290
     0
176
     1
290
     0
176
     1
290
     0
176
     1
290
     0
176
     1
 90
       50
176
     1
 40
0.0
176
     1
 40
1.0
176
     1
 90
        0
176
     1
 62
    18
420
        0
176
     1
 90
       50
176
     1
 90
        3
176
     1
 62
     5
420
      255
176
     1
290
     0
176
     1
 90
       50
176
     1
 90
       50
176
     1
 90
       50
176
     1
290
     0
176
     1
 90
       50
176
     1
 62
   256
176
     0
 40
1.0
176
     0
 90
        2
176
     1
  1
strokes_ogs.tif
176
     1
290
     0
176
     1
 40
1.0
176
     1
 40
1.0
176
     1
  0
VISUALSTYLE
  5
31
102
{ACAD_REACTORS
330
2A
102
}
330
2A
100
AcDbVisualStyle
  2
Hidden
 70
     6
177
     3
291
     0
 70
    58
 90
        1
176
     1
 90
        2
176
     1
 90
        2
176
     1
 90
        0
176
     1
 40
0.6
176
     1
 40
30.0
176
     1
 62
     7
420
 16777215
176
     1
 90
        2
176
     1
 90
        2
176
     1
 62
     7
176
     1
 62
   257
176
     1
 90
        2
176
     1
 90
        1
176
     1
 40
40.0
176
     1
 90
        0
176
     1
 62
   257
176
     1
 40
1.0
176
     1
 90
        1
176
     1
 90
        6
176
     1
 90
        2
176
     1
 62
     7
176
     1
 90
        3
176
     1
 90
        0
176
     1
 90
        0
176
     1
290
     0
176
     1
 90
        1
176
     1
 40
0.0
176
     1
 90
        0
176
     1
290
     0
176
     1
290
     1
176
     1
290
     1
176
     1
290
     0
176
     1
290
     0
176
     1
290
     0
176
     1
290
     0
176
     1
290
     0
176
     1
290
     0
176
     1
 90
       50
176
     1
 40
0.0
176
     1
 40
1.0
176
     1
 90
        0
176
     1
 62
    18
420
        0
176
     1
 90
       50
176
     1
 90
        3
176
     1
 62
     5
420
      255
176
     1
290
     0
176
     1
 90
       50
176
     1
 90
       50
176
     1
 90
       50
176
     1
290
     0
176
     1
 90
       50
176
     1
 62
   256
176
     0
 40
1.0
176
     0
 90
        2
176
     1
  1
strokes_ogs.tif
176
     1
290
     0
176
     1
 40
1.0
176
     1
 40
1.0
176
     1
  0
VISUALSTYLE
  5
3B
102
{ACAD_REACTORS
330
2A
102
}
330
2A
100
AcDbVisualStyle
  2
JitterOff
 70
    20
177
     3
291
     1
 70
    58
 90
        2
176
     0
 90
        2
176
     0
 90
        0
176
     0
 90
        0
176
     0
 40
0.6
176
     0
 40
30.0
176
     0
 62
     7
420
 16777215
176
     0
 90
        1
176
     0
 90
        4
176
     0
 62
     7
176
     0
 62
   257
176
     0
 90
        1
176
     0
 90
        1
176
     0
 40
1.0
176
     0
 90
       10
176
     2
 62
     7
176
     0
 40
1.0
176
     0
 90
        1
176
     0
 90
        6
176
     0
 90
        2
176
     0
 62
     7
176
     0
 90
        5
176
     0
 90
        0
176
     0
 90
        0
176
     0
290
     0
176
     0
 90
        1
176
     0
 40
0.0
176
     0
 90
        0
176
     0
290
     0
176
     0
290
     1
176
     0
290
     1
176
     0
290
     0
176
     0
290
     0
176
     0
290
     0
176
     0
290
     0
176
     0
290
     0
176
     0
290
     0
176
     0
 90
       50
176
     0
 40
0.0
176
     0
 40
1.0
176
     0
 90
        0
176
     0
 62
    18
420
        0
176
     0
 90
       50
176
     0
 90
        3
176
     0
 62
     5
420
      255
176
     0
290
     0
176
     0
 90
       50
176
     0
 90
       50
176
     0
 90
       50
176
     0
290
     0
176
     0
 90
       50
176
     0
 62
   256
176
     0
 40
1.0
176
     0
 90
        2
176
     0
  1
strokes_ogs.tif
176
     0
290
     0
176
     0
 40
1.0
176
     0
 40
1.0
176
     0
  0
VISUALSTYLE
  5
38
102
{ACAD_REACTORS
330
2A
102
}
330
2A
100
AcDbVisualStyle
  2
Linepattern
 70
    14
177
     3
291
     1
 70
    58
 90
        2
176
     1
 90
        2
176
     1
 90
        0
176
     1
 90
        0
176
     1
 40
0.6
176
     1
 40
30.0
176
     1
 62
     7
420
 16777215
176
     1
 90
        1
176
     1
 90
        4
176
     1
 62
     7
176
     1
 62
   257
176
     1
 90
        7
176
     1
 90
        7
176
     1
 40
1.0
176
     1
 90
        8
176
     1
 62
     7
176
     1
 40
1.0
176
     1
 90
        1
176
     1
 90
        6
176
     1
 90
        2
176
     1
 62
     7
176
     1
 90
        5
176
     1
 90
        0
176
     1
 90
        0
176
     1
290
     0
176
     1
 90
        1
176
     1
 40
0.0
176
     1
 90
        0
176
     1
290
     0
176
     1
290
     1
176
     1
290
     1
176
     1
290
     0
176
     1
290
     0
176
     1
290
     0
176
     1
290
     0
176
     1
290
     0
176
     1
290
     0
176
     1
 90
       50
176
     1
 40
0.0
176
     1
 40
1.0
176
     1
 90
        0
176
     1
 62
    18
420
        0
176
     1
 90
       50
176
     1
 90
        3
176
     1
 62
     5
420
      255
176
     1
290
     0
176
     1
 90
       50
176
     1
 90
       50
176
     1
 90
       50
176
     1
290
     0
176
     1
 90
       50
176
     1
 62
   256
176
     0
 40
1.0
176
     0
 90
        2
176
     1
  1
strokes_ogs.tif
176
     1
290
     0
176
     1
 40
1.0
176
     1
 40
1.0
176
     1
  0
VISUALSTYLE
  5
3C
102
{ACAD_REACTORS
330
2A
102
}
330
2A
100
AcDbVisualStyle
  2
OverhangOff
 70
    21
177
     3
291
     1
 70
    58
 90
        2
176
     0
 90
        2
176
     0
 90
        0
176
     0
 90
        0
176
     0
 40
0.6
176
     0
 40
30.0
176
     0
 62
     7
420
 16777215
176
     0
 90
        1
176
     0
 90
        4
176
     0
 62
     7
176
     0
 62
   257
176
     0
 90
        1
176
     0
 90
        1
176
     0
 40
1.0
176
     0
 90
        9
176
     2
 62
     7
176
     0
 40
1.0
176
     0
 90
        1
176
     0
 90
        6
176
     0
 90
        2
176
     0
 62
     7
176
     0
 90
        5
176
     0
 90
        0
176
     0
 90
        0
176
     0
290
     0
176
     0
 90
        1
176
     0
 40
0.0
176
     0
 90
        0
176
     0
290
     0
176
     0
290
     1
176
     0
290
     1
176
     0
290
     0
176
     0
290
     0
176
     0
290
     0
176
     0
290
     0
176
     0
290
     0
176
     0
290
     0
176
     0
 90
       50
176
     0
 40
0.0
176
     0
 40
1.0
176
     0
 90
        0
176
     0
 62
    18
420
        0
176
     0
 90
       50
176
     0
 90
        3
176
     0
 62
     5
420
      255
176
     0
290
     0
176
     0
 90
       50
176
     0
 90
       50
176
     0
 90
       50
176
     0
290
     0
176
     0
 90
       50
176
     0
 62
   256
176
     0
 40
1.0
176
     0
 90
        2
176
     0
  1
strokes_ogs.tif
176
     0
290
     0
176
     0
 40
1.0
176
     0
 40
1.0
176
     0
  0
VISUALSTYLE
  5
33
102
{ACAD_REACTORS
330
2A
102
}
330
2A
100
AcDbVisualStyle
  2
Realistic
 70
     8
177
     3
291
     0
 70
    58
 90
        2
176
     1
 90
        3
176
     1
 90
        0
176
     1
 90
        2
176
     1
 40
0.6
176
     1
 40
30.0
176
     1
 62
     7
420
 16777215
176
     1
 90
        0
176
     1
 90
        0
176
     1
 62
     7
176
     1
 62
   257
176
     1
 90
        1
176
     1
 90
        1
176
     1
 40
1.0
176
     1
 90
        8
176
     1
 62
   257
176
     1
 40
1.0
176
     1
 90
        1
176
     1
 90
        6
176
     1
 90
        2
176
     1
 62
     7
176
     1
 90
        3
176
     1
 90
        0
176
     1
 90
        0
176
     1
290
     0
176
     1
 90
       13
176
     1
 40
0.0
176
     1
 90
        0
176
     1
290
     0
176
     1
290
     1
176
     1
290
     1
176
     1
290
     0
176
     1
290
     0
176
     1
290
     0
176
     1
290
     0
176
     1
290
     0
176
     1
290
     0
176
     1
 90
       50
176
     1
 40
0.0
176
     1
 40
1.0
176
     1
 90
        0
176
     1
 62
    18
420
        0
176
     1
 90
       50
176
     1
 90
        3
176
     1
 62
     5
420
      255
176
     1
290
     0
176
     1
 90
       50
176
     1
 90
       50
176
     1
 90
       50
176
     1
290
     0
176
     1
 90
       50
176
     1
 62
   256
176
     0
 40
1.0
176
     0
 90
        2
176
     1
  1
strokes_ogs.tif
176
     1
290
     0
176
     1
 40
1.0
176
     1
 40
1.0
176
     1
  0
VISUALSTYLE
  5
42
102
{ACAD_REACTORS
330
2A
102
}
330
2A
100
AcDbVisualStyle
  2
Shaded
 70
    27
177
     3
291
     0
 70
    58
 90
        2
176
     1
 90
        2
176
     1
 90
        1
176
     1
 90
        2
176
     1
 40
0.6
176
     1
 40
30.0
176
     1
 62
     7
420
 16777215
176
     1
 90
        0
176
     1
 90
        4
176
     1
 62
     7
176
     1
 62
   257
176
     1
 90
        1
176
     1
 90
        1
176
     1
 40
1.0
176
     1
 90
        8
176
     1
 62
   257
176
     1
 40
1.0
176
     1
 90
        1
176
     1
 90
        6
176
     1
 90
        2
176
     1
 62
     8
420
  7895160
176
     1
 90
        3
176
     1
 90
        0
176
     1
 90
        0
176
     1
290
     0
176
     1
 90
        5
176
     1
 40
0.0
176
     1
 90
        0
176
     1
290
     0
176
     1
290
     1
176
     1
290
     1
176
     1
290
     0
176
     1
290
     0
176
     1
290
     0
176
     1
290
     0
176
     1
290
     0
176
     1
290
     0
176
     1
 90
       50
176
     1
 40
0.0
176
     1
 40
1.0
176
     1
 90
        0
176
     1
 62
    18
420
        0
176
     1
 90
       50
176
     1
 90
        3
176
     1
 62
     5
420
      255
176
     1
290
     0
176
     1
 90
       50
176
     1
 90
       50
176
     1
 90
       50
176
     1
290
     0
176
     1
 90
       50
176
     1
 62
   256
176
     0
 40
1.0
176
     0
 90
        2
176
     1
  1
strokes_ogs.tif
176
     1
290
     0
176
     1
 40
1.0
176
     1
 40
1.0
176
     1
  0
VISUALSTYLE
  5
41
102
{ACAD_REACTORS
330
2A
102
}
330
2A
100
AcDbVisualStyle
  2
Shaded with edges
 70
    26
177
     3
291
     0
 70
    58
 90
        2
176
     1
 90
        2
176
     1
 90
        1
176
     1
 90
        2
176
     1
 40
0.6
176
     1
 40
30.0
176
     1
 62
     7
420
 16777215
176
     1
 90
        1
176
     1
 90
       10
176
     1
 62
     7
176
     1
 62
   257
176
     1
 90
        2
176
     1
 90
        1
176
     1
 40
1.0
176
     1
 90
        8
176
     1
 62
   257
176
     1
 40
1.0
176
     1
 90
        1
176
     1
 90
        6
176
     1
 90
        2
176
     1
 62
     7
176
     1
 90
        3
176
     1
 90
        0
176
     1
 90
        0
176
     1
290
     0
176
     1
 90
        5
176
     1
 40
0.0
176
     1
 90
        0
176
     1
290
     0
176
     1
290
     1
176
     1
290
     1
176
     1
290
     0
176
     1
290
     0
176
     1
290
     0
176
     1
290
     0
176
     1
290
     0
176
     1
290
     0
176
     1
 90
       50
176
     1
 40
0.0
176
     1
 40
1.0
176
     1
 90
        0
176
     1
 62
    18
420
        0
176
     1
 90
       50
176
     1
 90
        3
176
     1
 62
     5
420
      255
176
     1
290
     0
176
     1
 90
       50
176
     1
 90
       50
176
     1
 90
       50
176
     1
290
     0
176
     1
 90
       50
176
     1
 62
   256
176
     0
 40
1.0
176
     0
 90
        2
176
     1
  1
strokes_ogs.tif
176
     1
290
     0
176
     1
 40
1.0
176
     1
 40
1.0
176
     1
  0
VISUALSTYLE
  5
3E
102
{ACAD_REACTORS
330
2A
102
}
330
2A
100
AcDbVisualStyle
  2
Shades of Gray
 70
    23
177
     3
291
     0
 70
    58
 90
        2
176
     1
 90
        2
176
     1
 90
        3
176
     1
 90
        0
176
     1
 40
0.6
176
     1
 40
30.0
176
     1
 62
     7
420
 16777215
176
     1
 90
        2
176
     1
 90
        2
176
     1
 62
     7
176
     1
 62
     7
176
     1
 90
        1
176
     1
 90
        1
176
     1
 40
40.0
176
     1
 90
        8
176
     1
 62
     7
176
     1
 40
1.0
176
     1
 90
        1
176
     1
 90
        6
176
     1
 90
        2
176
     1
 62
     7
176
     1
 90
        3
176
     1
 90
        0
176
     1
 90
        0
176
     1
290
     0
176
     1
 90
        1
176
     1
 40
0.0
176
     1
 90
        0
176
     1
290
     0
176
     1
290
     1
176
     1
290
     1
176
     1
290
     0
176
     1
290
     0
176
     1
290
     0
176
     1
290
     0
176
     1
290
     0
176
     1
290
     0
176
     1
 90
       50
176
     1
 40
0.0
176
     1
 40
1.0
176
     1
 90
        0
176
     1
 62
    18
420
        0
176
     1
 90
       50
176
     1
 90
        3
176
     1
 62
     5
420
      255
176
     1
290
     0
176
     1
 90
       50
176
     1
 90
       50
176
     1
 90
       50
176
     1
290
     0
176
     1
 90
       50
176
     1
 62
   256
176
     0
 40
1.0
176
     0
 90
        2
176
     1
  1
strokes_ogs.tif
176
     1
290
     0
176
     1
 40
1.0
176
     1
 40
1.0
176
     1
  0
VISUALSTYLE
  5
3F
102
{ACAD_REACTORS
330
2A
102
}
330
2A
100
AcDbVisualStyle
  2
Sketchy
 70
    24
177
     3
291
     0
 70
    58
 90
        1
176
     1
 90
        2
176
     1
 90
        2
176
     1
 90
        0
176
     1
 40
0.6
176
     1
 40
30.0
176
     1
 62
     7
420
 16777215
176
     1
 90
        2
176
     1
 90
        2
176
     1
 62
     7
176
     1
 62
     7
176
     1
 90
        1
176
     1
 90
        1
176
     1
 40
40.0
176
     1
 90
       11
176
     1
 62
     7
176
     1
 40
1.0
176
     1
 90
        1
176
     1
 90
        6
176
     1
 90
        2
176
     1
 62
     7
176
     1
 90
        6
176
     1
 90
        0
176
     1
 90
        0
176
     1
290
     0
176
     1
 90
        1
176
     1
 40
0.0
176
     1
 90
        0
176
     1
290
     0
176
     1
290
     1
176
     1
290
     1
176
     1
290
     0
176
     1
290
     0
176
     1
290
     0
176
     1
290
     0
176
     1
290
     0
176
     1
290
     0
176
     1
 90
       50
176
     1
 40
0.0
176
     1
 40
1.0
176
     1
 90
        0
176
     1
 62
    18
420
        0
176
     1
 90
       50
176
     1
 90
        3
176
     1
 62
     5
420
      255
176
     1
290
     0
176
     1
 90
       50
176
     1
 90
       50
176
     1
 90
       50
176
     1
290
     0
176
     1
 90
       50
176
     1
 62
   256
176
     0
 40
1.0
176
     0
 90
        2
176
     1
  1
strokes_ogs.tif
176
     1
290
     0
176
     1
 40
1.0
176
     1
 40
1.0
176
     1
  0
VISUALSTYLE
  5
37
102
{ACAD_REACTORS
330
2A
102
}
330
2A
100
AcDbVisualStyle
  2
Thicken
 70
    13
177
     3
291
     1
 70
    58
 90
        2
176
     1
 90
        2
176
     1
 90
        0
176
     1
 90
        0
176
     1
 40
0.6
176
     1
 40
30.0
176
     1
 62
     7
420
 16777215
176
     1
 90
        1
176
     1
 90
        4
176
     1
 62
     7
176
     1
 62
   257
176
     1
 90
        1
176
     1
 90
        1
176
     1
 40
1.0
176
     1
 90
       12
176
     1
 62
     7
176
     1
 40
1.0
176
     1
 90
        1
176
     1
 90
        6
176
     1
 90
        2
176
     1
 62
     7
176
     1
 90
        5
176
     1
 90
        0
176
     1
 90
        0
176
     1
290
     0
176
     1
 90
        1
176
     1
 40
0.0
176
     1
 90
        0
176
     1
290
     0
176
     1
290
     1
176
     1
290
     1
176
     1
290
     0
176
     1
290
     0
176
     1
290
     0
176
     1
290
     0
176
     1
290
     0
176
     1
290
     0
176
     1
 90
       50
176
     1
 40
0.0
176
     1
 40
1.0
176
     1
 90
        0
176
     1
 62
    18
420
        0
176
     1
 90
       50
176
     1
 90
        3
176
     1
 62
     5
420
      255
176
     1
290
     0
176
     1
 90
       50
176
     1
 90
       50
176
     1
 90
       50
176
     1
290
     0
176
     1
 90
       50
176
     1
 62
   256
176
     0
 40
1.0
176
     0
 90
        2
176
     1
  1
strokes_ogs.tif
176
     1
290
     0
176
     1
 40
1.0
176
     1
 40
1.0
176
     1
  0
VISUALSTYLE
  5
30
102
{ACAD_REACTORS
330
2A
102
}
330
2A
100
AcDbVisualStyle
  2
Wireframe
 70
     5
177
     3
291
     0
 70
    58
 90
        0
176
     1
 90
        2
176
     1
 90
        0
176
     1
 90
        0
176
     1
 40
0.6
176
     1
 40
30.0
176
     1
 62
     7
420
 16777215
176
     1
 90
        1
176
     1
 90
        4
176
     1
 62
     7
176
     1
 62
   257
176
     1
 90
        1
176
     1
 90
        1
176
     1
 40
1.0
176
     1
 90
        0
176
     1
 62
   257
176
     1
 40
1.0
176
     1
 90
        1
176
     1
 90
        6
176
     1
 90
        2
176
     1
 62
     7
176
     1
 90
        3
176
     1
 90
        0
176
     1
 90
        0
176
     1
290
     0
176
     1
 90
        1
176
     1
 40
0.0
176
     1
 90
        0
176
     1
290
     0
176
     1
290
     1
176
     1
290
     1
176
     1
290
     0
176
     1
290
     0
176
     1
290
     0
176
     1
290
     0
176
     1
290
     0
176
     1
290
     0
176
     1
 90
       50
176
     1
 40
0.0
176
     1
 40
1.0
176
     1
 90
        0
176
     1
 62
    18
420
        0
176
     1
 90
       50
176
     1
 90
        3
176
     1
 62
     5
420
      255
176
     1
290
     0
176
     1
 90
       50
176
     1
 90
       50
176
     1
 90
       50
176
     1
290
     0
176
     1
 90
       50
176
     1
 62
   256
176
     0
 40
1.0
176
     0
 90
        2
176
     1
  1
strokes_ogs.tif
176
     1
290
     0
176
     1
 40
1.0
176
     1
 40
1.0
176
     1
  0
VISUALSTYLE
  5
40
102
{ACAD_REACTORS
330
2A
102
}
330
2A
100
AcDbVisualStyle
  2
X-Ray
 70
    25
177
     3
291
     0
 70
    58
 90
        2
176
     1
 90
        2
176
     1
 90
        1
176
     1
 90
        1
176
     1
 40
0.5
176
     1
 40
30.0
176
     1
 62
     7
420
 16777215
176
     1
 90
        1
176
     1
 90
        0
176
     1
 62
     7
176
     1
 62
   257
176
     1
 90
        1
176
     1
 90
        1
176
     1
 40
1.0
176
     1
 90
        8
176
     1
 62
     7
176
     1
 40
1.0
176
     1
 90
        1
176
     1
 90
        6
176
     1
 90
        2
176
     1
 62
     7
176
     1
 90
        3
176
     1
 90
        0
176
     1
 90
        0
176
     1
290
     0
176
     1
 90
       13
176
     1
 40
0.0
176
     1
 90
        0
176
     1
290
     0
176
     1
290
     1
176
     1
290
     1
176
     1
290
     0
176
     1
290
     0
176
     1
290
     0
176
     1
290
     0
176
     1
290
     0
176
     1
290
     0
176
     1
 90
       50
176
     1
 40
0.0
176
     1
 40
1.0
176
     1
 90
        0
176
     1
 62
    18
420
        0
176
     1
 90
       50
176
     1
 90
        3
176
     1
 62
     5
420
      255
176
     1
290
     0
176
     1
 90
       50
176
     1
 90
       50
176
     1
 90
       50
176
     1
290
     0
176
     1
 90
       50
176
     1
 62
   256
176
     0
 40
1.0
176
     0
 90
        2
176
     1
  1
strokes_ogs.tif
176
     1
290
     0
176
     1
 40
1.0
176
     1
 40
1.0
176
     1
  0
DICTIONARYVAR
  5
223
102
{ACAD_REACTORS
330
222
102
}
330
222
100
DictionaryVariables
280
     0
  1
1:1
  0
DICTIONARYVAR
  5
228
102
{ACAD_REACTORS
330
222
102
}
330
222
100
DictionaryVariables
280
     0
  1
Standard
  0
DICTIONARYVAR
  5
227
102
{ACAD_REACTORS
330
222
102
}
330
222
100
DictionaryVariables
280
     0
  1
Standard
  0
DICTIONARY
  5
224
330
6A
100
AcDbDictionary
280
     1
281
     1
  3
ACAD_ROUNDTRIP_2008_TABLESTYLE_CELLSTYLEMAP
360
225
  0
CELLSTYLEMAP
  5
225
102
{ACAD_REACTORS
330
224
102
}
330
224
100
AcDbCellStyleMap
 90
        3
300
CELLSTYLE
  1
TABLEFORMAT_BEGIN
 90
        5
170
     1
 91
        0
 92
    32768
 62
   257
 93
        1
300
CONTENTFORMAT
  1
CONTENTFORMAT_BEGIN
 90
        0
 91
        0
 92
        4
 93
        0
300

 40
0.0
140
1.0
 94
        5
 62
     0
340
11
144
0.25
309
CONTENTFORMAT_END
171
     1
301
MARGIN
  1
CELLMARGIN_BEGIN
 40
0.06
 40
0.06
 40
0.06
 40
0.06
 40
0.06
 40
0.06
309
CELLMARGIN_END
 94
        6
 95
        1
302
GRIDFORMAT
  1
GRIDFORMAT_BEGIN
 90
        0
 91
        1
 62
     0
 92
       -2
340
14
 93
        0
 40
0.045
309
GRIDFORMAT_END
 95
        2
302
GRIDFORMAT
  1
GRIDFORMAT_BEGIN
 90
        0
 91
        1
 62
     0
 92
       -2
340
14
 93
        0
 40
0.045
309
GRIDFORMAT_END
 95
        4
302
GRIDFORMAT
  1
GRIDFORMAT_BEGIN
 90
        0
 91
        1
 62
     0
 92
       -2
340
14
 93
        0
 40
0.045
309
GRIDFORMAT_END
 95
        8
302
GRIDFORMAT
  1
GRIDFORMAT_BEGIN
 90
        0
 91
        1
 62
     0
 92
       -2
340
14
 93
        0
 40
0.045
309
GRIDFORMAT_END
 95
       16
302
GRIDFORMAT
  1
GRIDFORMAT_BEGIN
 90
        0
 91
        1
 62
     0
 92
       -2
340
14
 93
        0
 40
0.045
309
GRIDFORMAT_END
 95
       32
302
GRIDFORMAT
  1
GRIDFORMAT_BEGIN
 90
        0
 91
        1
 62
     0
 92
       -2
340
14
 93
        0
 40
0.045
309
GRIDFORMAT_END
309
TABLEFORMAT_END
  1
CELLSTYLE_BEGIN
 90
        1
 91
        1
300
_TITLE
309
CELLSTYLE_END
300
CELLSTYLE
  1
TABLEFORMAT_BEGIN
 90
        5
170
     1
 91
        0
 92
        0
 62
   257
 93
        1
300
CONTENTFORMAT
  1
CONTENTFORMAT_BEGIN
 90
        0
 91
        0
 92
        4
 93
        0
300

 40
0.0
140
1.0
 94
        5
 62
     0
340
11
144
0.18
309
CONTENTFORMAT_END
171
     1
301
MARGIN
  1
CELLMARGIN_BEGIN
 40
0.06
 40
0.06
 40
0.06
 40
0.06
 40
0.06
 40
0.06
309
CELLMARGIN_END
 94
        6
 95
        1
302
GRIDFORMAT
  1
GRIDFORMAT_BEGIN
 90
        0
 91
        1
 62
     0
 92
       -2
340
14
 93
        0
 40
0.045
309
GRIDFORMAT_END
 95
        2
302
GRIDFORMAT
  1
GRIDFORMAT_BEGIN
 90
        0
 91
        1
 62
     0
 92
       -2
340
14
 93
        0
 40
0.045
309
GRIDFORMAT_END
 95
        4
302
GRIDFORMAT
  1
GRIDFORMAT_BEGIN
 90
        0
 91
        1
 62
     0
 92
       -2
340
14
 93
        0
 40
0.045
309
GRIDFORMAT_END
 95
        8
302
GRIDFORMAT
  1
GRIDFORMAT_BEGIN
 90
        0
 91
        1
 62
     0
 92
       -2
340
14
 93
        0
 40
0.045
309
GRIDFORMAT_END
 95
       16
302
GRIDFORMAT
  1
GRIDFORMAT_BEGIN
 90
        0
 91
        1
 62
     0
 92
       -2
340
14
 93
        0
 40
0.045
309
GRIDFORMAT_END
 95
       32
302
GRIDFORMAT
  1
GRIDFORMAT_BEGIN
 90
        0
 91
        1
 62
     0
 92
       -2
340
14
 93
        0
 40
0.045
309
GRIDFORMAT_END
309
TABLEFORMAT_END
  1
CELLSTYLE_BEGIN
 90
        2
 91
        1
300
_HEADER
309
CELLSTYLE_END
300
CELLSTYLE
  1
TABLEFORMAT_BEGIN
 90
        5
170
     1
 91
        0
 92
        0
 62
   257
 93
        1
300
CONTENTFORMAT
  1
CONTENTFORMAT_BEGIN
 90
        0
 91
        0
 92
        4
 93
        0
300

 40
0.0
140
1.0
 94
        2
 62
     0
340
11
144
0.18
309
CONTENTFORMAT_END
171
     1
301
MARGIN
  1
CELLMARGIN_BEGIN
 40
0.06
 40
0.06
 40
0.06
 40
0.06
 40
0.06
 40
0.06
309
CELLMARGIN_END
 94
        6
 95
        1
302
GRIDFORMAT
  1
GRIDFORMAT_BEGIN
 90
        0
 91
        1
 62
     0
 92
       -2
340
14
 93
        0
 40
0.045
309
GRIDFORMAT_END
 95
        2
302
GRIDFORMAT
  1
GRIDFORMAT_BEGIN
 90
        0
 91
        1
 62
     0
 92
       -2
340
14
 93
        0
 40
0.045
309
GRIDFORMAT_END
 95
        4
302
GRIDFORMAT
  1
GRIDFORMAT_BEGIN
 90
        0
 91
        1
 62
     0
 92
       -2
340
14
 93
        0
 40
0.045
309
GRIDFORMAT_END
 95
        8
302
GRIDFORMAT
  1
GRIDFORMAT_BEGIN
 90
        0
 91
        1
 62
     0
 92
       -2
340
14
 93
        0
 40
0.045
309
GRIDFORMAT_END
 95
       16
302
GRIDFORMAT
  1
GRIDFORMAT_BEGIN
 90
        0
 91
        1
 62
     0
 92
       -2
340
14
 93
        0
 40
0.045
309
GRIDFORMAT_END
 95
       32
302
GRIDFORMAT
  1
GRIDFORMAT_BEGIN
 90
        0
 91
        1
 62
     0
 92
       -2
340
14
 93
        0
 40
0.045
309
GRIDFORMAT_END
309
TABLEFORMAT_END
  1
CELLSTYLE_BEGIN
 90
        3
 91
        2
300
_DATA
309
CELLSTYLE_END
  0
ENDSEC
  0
EOF