0
SECTION
  2
HEADER
  9
$ACADVER
  1
AC1027
  9
$ACADMAINTVER
 70
     8
  9
$DWGCODEPAGE
  3
ANSI_1252
  9
$REQUIREDVERSIONS
160
                 0
  9
$COMMENTS
  1
File was created by Cadenas
  9
$CUSTOMPROPERTYTAG
  1
NN
  9
$CUSTOMPROPERTY
  1
S-2000 Pillow Block with Type E Dimensions 4-Bolt Labyrinth Seal Non-Expansion
  9
$CUSTOMPROPERTYTAG
  1
NT
  9
$CUSTOMPROPERTY
  1
S-2000 - E Type - Inch
  9
$CUSTOMPROPERTYTAG
  1
NB
  9
$CUSTOMPROPERTY
  1
071455
  9
$CUSTOMPROPERTYTAG
  1
NBSYN
  9
$CUSTOMPROPERTY
  1
$PN.
  9
$CUSTOMPROPERTYTAG
  1
LINA
  9
$CUSTOMPROPERTY
  1
071455
  9
$CUSTOMPROPERTYTAG
  1
SS
  9
$CUSTOMPROPERTY
  1
4-7/16
  9
$CUSTOMPROPERTYTAG
  1
TYPE
  9
$CUSTOMPROPERTY
  1
Non-Expansion
  9
$CUSTOMPROPERTYTAG
  1
PN
  9
$CUSTOMPROPERTY
  1
071455
  9
$CUSTOMPROPERTYTAG
  1
DESCRIPTION
  9
$CUSTOMPROPERTY
  1
EP4B-S2-407L
  9
$CUSTOMPROPERTYTAG
  1
A
  9
$CUSTOMPROPERTY
  1
6.53
  9
$CUSTOMPROPERTYTAG
  1
B
  9
$CUSTOMPROPERTY
  1
16.63
  9
$CUSTOMPROPERTYTAG
  1
C
  9
$CUSTOMPROPERTY
  1
4.63
  9
$CUSTOMPROPERTYTAG
  1
DMIN
  9
$CUSTOMPROPERTY
  1
13.25
  9
$CUSTOMPROPERTYTAG
  1
DMAX
  9
$CUSTOMPROPERTY
  1
13.75
  9
$CUSTOMPROPERTYTAG
  1
E
  9
$CUSTOMPROPERTY
  1
2.5
  9
$CUSTOMPROPERTYTAG
  1
F
  9
$CUSTOMPROPERTY
  1
3/4
  9
$CUSTOMPROPERTYTAG
  1
G
  9
$CUSTOMPROPERTY
  1
1.13
  9
$CUSTOMPROPERTYTAG
  1
H
  9
$CUSTOMPROPERTY
  1
2.75
  9
$CUSTOMPROPERTYTAG
  1
J
  9
$CUSTOMPROPERTY
  1
9.67
  9
$CUSTOMPROPERTYTAG
  1
L
  9
$CUSTOMPROPERTY
  1
6.45
  9
$CUSTOMPROPERTYTAG
  1
M
  9
$CUSTOMPROPERTY
  1
4.75
  9
$CUSTOMPROPERTYTAG
  1
R
  9
$CUSTOMPROPERTY
  1
3.08
  9
$CUSTOMPROPERTYTAG
  1
S
  9
$CUSTOMPROPERTY
  1
3.38
  9
$CUSTOMPROPERTYTAG
  1
X
  9
$CUSTOMPROPERTY
  1
0.38
  9
$CUSTOMPROPERTYTAG
  1
Y
  9
$CUSTOMPROPERTY
  1
N/A
  9
$CUSTOMPROPERTYTAG
  1
Z
  9
$CUSTOMPROPERTY
  1
N/A
  9
$CUSTOMPROPERTYTAG
  1
CS
  9
$CUSTOMPROPERTY
  1
5/8-11
  9
$CUSTOMPROPERTYTAG
  1
TORQUE
  9
$CUSTOMPROPERTY
  1
1325
  9
$CUSTOMPROPERTYTAG
  1
COMPANY
  9
$CUSTOMPROPERTY
  1
baldor
  9
$INSBASE
 10
0.0
 20
0.0
 30
0.0
  9
$EXTMIN
 10
1.000000000000000E+20
 20
1.000000000000000E+20
 30
1.000000000000000E+20
  9
$EXTMAX
 10
-1.000000000000000E+20
 20
-1.000000000000000E+20
 30
-1.000000000000000E+20
  9
$LIMMIN
 10
0.0
 20
0.0
  9
$LIMMAX
 10
12.0
 20
9.0
  9
$ORTHOMODE
 70
     0
  9
$REGENMODE
 70
     1
  9
$FILLMODE
 70
     1
  9
$QTEXTMODE
 70
     0
  9
$MIRRTEXT
 70
     1
  9
$LTSCALE
 40
1.0
  9
$ATTMODE
 70
     1
  9
$TEXTSIZE
 40
0.2
  9
$TRACEWID
 40
0.05
  9
$TEXTSTYLE
  7
Standard
  9
$CLAYER
  8
0
  9
$CELTYPE
  6
ByLayer
  9
$CECOLOR
 62
   256
  9
$CELTSCALE
 40
1.0
  9
$DISPSILH
 70
     0
  9
$DIMSCALE
 40
1.0
  9
$DIMASZ
 40
0.18
  9
$DIMEXO
 40
0.0625
  9
$DIMDLI
 40
0.38
  9
$DIMRND
 40
0.0
  9
$DIMDLE
 40
0.0
  9
$DIMEXE
 40
0.18
  9
$DIMTP
 40
0.0
  9
$DIMTM
 40
0.0
  9
$DIMTXT
 40
0.18
  9
$DIMCEN
 40
0.09
  9
$DIMTSZ
 40
0.0
  9
$DIMTOL
 70
     0
  9
$DIMLIM
 70
     0
  9
$DIMTIH
 70
     1
  9
$DIMTOH
 70
     1
  9
$DIMSE1
 70
     0
  9
$DIMSE2
 70
     0
  9
$DIMTAD
 70
     0
  9
$DIMZIN
 70
     0
  9
$DIMBLK
  1

  9
$DIMASO
 70
     1
  9
$DIMSHO
 70
     1
  9
$DIMPOST
  1

  9
$DIMAPOST
  1

  9
$DIMALT
 70
     0
  9
$DIMALTD
 70
     2
  9
$DIMALTF
 40
25.4
  9
$DIMLFAC
 40
1.0
  9
$DIMTOFL
 70
     0
  9
$DIMTVP
 40
0.0
  9
$DIMTIX
 70
     0
  9
$DIMSOXD
 70
     0
  9
$DIMSAH
 70
     0
  9
$DIMBLK1
  1

  9
$DIMBLK2
  1

  9
$DIMSTYLE
  2
Standard
  9
$DIMCLRD
 70
     0
  9
$DIMCLRE
 70
     0
  9
$DIMCLRT
 70
     0
  9
$DIMTFAC
 40
1.0
  9
$DIMGAP
 40
0.09
  9
$DIMJUST
 70
     0
  9
$DIMSD1
 70
     0
  9
$DIMSD2
 70
     0
  9
$DIMTOLJ
 70
     1
  9
$DIMTZIN
 70
     0
  9
$DIMALTZ
 70
     0
  9
$DIMALTTZ
 70
     0
  9
$DIMUPT
 70
     0
  9
$DIMDEC
 70
     4
  9
$DIMTDEC
 70
     4
  9
$DIMALTU
 70
     2
  9
$DIMALTTD
 70
     2
  9
$DIMTXSTY
  7
Standard
  9
$DIMAUNIT
 70
     0
  9
$DIMADEC
 70
     0
  9
$DIMALTRND
 40
0.0
  9
$DIMAZIN
 70
     0
  9
$DIMDSEP
 70
    46
  9
$DIMATFIT
 70
     3
  9
$DIMFRAC
 70
     0
  9
$DIMLDRBLK
  1

  9
$DIMLUNIT
 70
     2
  9
$DIMLWD
 70
    -2
  9
$DIMLWE
 70
    -2
  9
$DIMTMOVE
 70
     0
  9
$DIMFXL
 40
1.0
  9
$DIMFXLON
 70
     0
  9
$DIMJOGANG
 40
0.7853981633974483
  9
$DIMTFILL
 70
     0
  9
$DIMTFILLCLR
 70
     0
  9
$DIMARCSYM
 70
     0
  9
$DIMLTYPE
  6

  9
$DIMLTEX1
  6

  9
$DIMLTEX2
  6

  9
$DIMTXTDIRECTION
 70
     0
  9
$LUNITS
 70
     2
  9
$LUPREC
 70
     4
  9
$SKETCHINC
 40
0.1
  9
$FILLETRAD
 40
0.5
  9
$AUNITS
 70
     0
  9
$AUPREC
 70
     0
  9
$MENU
  1
.
  9
$ELEVATION
 40
0.0
  9
$PELEVATION
 40
0.0
  9
$THICKNESS
 40
0.0
  9
$LIMCHECK
 70
     0
  9
$CHAMFERA
 40
0.0
  9
$CHAMFERB
 40
0.0
  9
$CHAMFERC
 40
0.0
  9
$CHAMFERD
 40
0.0
  9
$SKPOLY
 70
     0
  9
$TDCREATE
 40
2458168.981680254
  9
$TDUCREATE
 40
2458168.940013588
  9
$TDUPDATE
 40
2458168.981680613
  9
$TDUUPDATE
 40
2458168.940013947
  9
$TDINDWG
 40
0.0000000116
  9
$TDUSRTIMER
 40
0.0000000116
  9
$USRTIMER
 70
     1
  9
$ANGBASE
 50
0.0
  9
$ANGDIR
 70
     0
  9
$PDMODE
 70
     0
  9
$PDSIZE
 40
0.0
  9
$PLINEWID
 40
0.0
  9
$SPLFRAME
 70
     0
  9
$SPLINETYPE
 70
     6
  9
$SPLINESEGS
 70
     8
  9
$HANDSEED
  5
286
  9
$SURFTAB1
 70
     6
  9
$SURFTAB2
 70
     6
  9
$SURFTYPE
 70
     6
  9
$SURFU
 70
     6
  9
$SURFV
 70
     6
  9
$UCSBASE
  2

  9
$UCSNAME
  2

  9
$UCSORG
 10
0.0
 20
0.0
 30
0.0
  9
$UCSXDIR
 10
1.0
 20
0.0
 30
0.0
  9
$UCSYDIR
 10
0.0
 20
1.0
 30
0.0
  9
$UCSORTHOREF
  2

  9
$UCSORTHOVIEW
 70
     0
  9
$UCSORGTOP
 10
0.0
 20
0.0
 30
0.0
  9
$UCSORGBOTTOM
 10
0.0
 20
0.0
 30
0.0
  9
$UCSORGLEFT
 10
0.0
 20
0.0
 30
0.0
  9
$UCSORGRIGHT
 10
0.0
 20
0.0
 30
0.0
  9
$UCSORGFRONT
 10
0.0
 20
0.0
 30
0.0
  9
$UCSORGBACK
 10
0.0
 20
0.0
 30
0.0
  9
$PUCSBASE
  2

  9
$PUCSNAME
  2

  9
$PUCSORG
 10
0.0
 20
0.0
 30
0.0
  9
$PUCSXDIR
 10
1.0
 20
0.0
 30
0.0
  9
$PUCSYDIR
 10
0.0
 20
1.0
 30
0.0
  9
$PUCSORTHOREF
  2

  9
$PUCSORTHOVIEW
 70
     0
  9
$PUCSORGTOP
 10
0.0
 20
0.0
 30
0.0
  9
$PUCSORGBOTTOM
 10
0.0
 20
0.0
 30
0.0
  9
$PUCSORGLEFT
 10
0.0
 20
0.0
 30
0.0
  9
$PUCSORGRIGHT
 10
0.0
 20
0.0
 30
0.0
  9
$PUCSORGFRONT
 10
0.0
 20
0.0
 30
0.0
  9
$PUCSORGBACK
 10
0.0
 20
0.0
 30
0.0
  9
$USERI1
 70
     0
  9
$USERI2
 70
     0
  9
$USERI3
 70
     0
  9
$USERI4
 70
     0
  9
$USERI5
 70
     0
  9
$USERR1
 40
0.0
  9
$USERR2
 40
0.0
  9
$USERR3
 40
0.0
  9
$USERR4
 40
0.0
  9
$USERR5
 40
0.0
  9
$WORLDVIEW
 70
     1
  9
$SHADEDGE
 70
     3
  9
$SHADEDIF
 70
    70
  9
$TILEMODE
 70
     1
  9
$MAXACTVP
 70
    64
  9
$PINSBASE
 10
0.0
 20
0.0
 30
0.0
  9
$PLIMCHECK
 70
     0
  9
$PEXTMIN
 10
1.000000000000000E+20
 20
1.000000000000000E+20
 30
1.000000000000000E+20
  9
$PEXTMAX
 10
-1.000000000000000E+20
 20
-1.000000000000000E+20
 30
-1.000000000000000E+20
  9
$PLIMMIN
 10
0.0
 20
0.0
  9
$PLIMMAX
 10
12.0
 20
9.0
  9
$UNITMODE
 70
     0
  9
$VISRETAIN
 70
     1
  9
$PLINEGEN
 70
     0
  9
$PSLTSCALE
 70
     1
  9
$TREEDEPTH
 70
  3020
  9
$CMLSTYLE
  2
Standard
  9
$CMLJUST
 70
     0
  9
$CMLSCALE
 40
1.0
  9
$PROXYGRAPHICS
 70
     1
  9
$MEASUREMENT
 70
     0
  9
$CELWEIGHT
370
    -1
  9
$ENDCAPS
280
     0
  9
$JOINSTYLE
280
     0
  9
$LWDISPLAY
290
     0
  9
$INSUNITS
 70
     1
  9
$HYPERLINKBASE
  1

  9
$STYLESHEET
  1

  9
$XEDIT
290
     1
  9
$CEPSNTYPE
380
     0
  9
$PSTYLEMODE
290
     1
  9
$FINGERPRINTGUID
  2
{6AD27DA6-DAE2-4E22-8AB5-1044C06AF8EF}
  9
$VERSIONGUID
  2
{FAEB1C32-E019-11D5-929B-00C0DF256EC4}
  9
$EXTNAMES
290
     1
  9
$PSVPSCALE
 40
0.0
  9
$OLESTARTUP
290
     0
  9
$SORTENTS
280
   127
  9
$INDEXCTL
280
     0
  9
$HIDETEXT
280
     1
  9
$XCLIPFRAME
280
     2
  9
$HALOGAP
280
     0
  9
$OBSCOLOR
 70
   257
  9
$OBSLTYPE
280
     0
  9
$INTERSECTIONDISPLAY
280
     0
  9
$INTERSECTIONCOLOR
 70
   257
  9
$DIMASSOC
280
     2
  9
$PROJECTNAME
  1

  9
$CAMERADISPLAY
290
     0
  9
$LENSLENGTH
 40
50.0
  9
$CAMERAHEIGHT
 40
0.0
  9
$STEPSPERSEC
 40
2.0
  9
$STEPSIZE
 40
6.0
  9
$3DDWFPREC
 40
2.0
  9
$PSOLWIDTH
 40
0.25
  9
$PSOLHEIGHT
 40
4.0
  9
$LOFTANG1
 40
1.570796326794897
  9
$LOFTANG2
 40
1.570796326794897
  9
$LOFTMAG1
 40
0.0
  9
$LOFTMAG2
 40
0.0
  9
$LOFTPARAM
 70
     7
  9
$LOFTNORMALS
280
     1
  9
$LATITUDE
 40
37.795
  9
$LONGITUDE
 40
-122.394
  9
$NORTHDIRECTION
 40
0.0
  9
$TIMEZONE
 70
 -8000
  9
$LIGHTGLYPHDISPLAY
280
     1
  9
$TILEMODELIGHTSYNCH
280
     1
  9
$CMATERIAL
347
44
  9
$SOLIDHIST
280
     0
  9
$SHOWHIST
280
     1
  9
$DWFFRAME
280
     2
  9
$DGNFRAME
280
     2
  9
$REALWORLDSCALE
290
     1
  9
$INTERFERECOLOR
 62
   256
  9
$CSHADOW
280
     0
  9
$SHADOWPLANELOCATION
 40
0.0
  0
ENDSEC
  0
SECTION
  2
CLASSES
  0
CLASS
  1
ACDBDICTIONARYWDFLT
  2
AcDbDictionaryWithDefault
  3
ObjectDBX Classes
 90
        0
 91
        4
280
     0
281
     0
  0
CLASS
  1
VISUALSTYLE
  2
AcDbVisualStyle
  3
ObjectDBX Classes
 90
     4095
 91
        4
280
     0
281
     0
  0
CLASS
  1
MATERIAL
  2
AcDbMaterial
  3
ObjectDBX Classes
 90
     1153
 91
        4
280
     0
281
     0
  0
CLASS
  1
SCALE
  2
AcDbScale
  3
ObjectDBX Classes
 90
     1153
 91
        4
280
     0
281
     0
  0
CLASS
  1
TABLESTYLE
  2
AcDbTableStyle
  3
ObjectDBX Classes
 90
     4095
 91
        4
280
     0
281
     0
  0
CLASS
  1
MLEADERSTYLE
  2
AcDbMLeaderStyle
  3
ACDB_MLEADERSTYLE_CLASS
 90
     4095
 91
        4
280
     0
281
     0
  0
CLASS
  1
SUN
  2
AcDbSun
  3
SCENEOE
 90
     1153
 91
        4
280
     0
281
     0
  0
CLASS
  1
DICTIONARYVAR
  2
AcDbDictionaryVar
  3
ObjectDBX Classes
 90
        0
 91
        4
280
     0
281
     0
  0
CLASS
  1
CELLSTYLEMAP
  2
AcDbCellStyleMap
  3
ObjectDBX Classes
 90
     1152
 91
        4
280
     0
281
     0
  0
ENDSEC
  0
SECTION
  2
TABLES
  0
TABLE
  2
VPORT
  5
8
330
0
100
AcDbSymbolTable
 70
     1
  0
VPORT
  5
29
330
8
100
AcDbSymbolTableRecord
100
AcDbViewportTableRecord
  2
*Active
 70
     0
 10
0.0
 20
0.0
 11
1.0
 21
1.0
 12
0.0
 22
-0.1143749999999999
 13
0.0
 23
0.0
 14
0.5
 24
0.5
 15
0.5
 25
0.5
 16
0.0
 26
0.0
 36
1.0
 17
0.0
 27
0.0
 37
0.0
 40
7.328062500000001
 41
2.3147455415398
 42
50.0
 43
0.0
 44
0.0
 50
0.0
 51
0.0
 71
     0
 72
   100
 73
     1
 74
     3
 75
     0
 76
     0
 77
     0
 78
     0
281
     0
 65
     1
110
0.0
120
0.0
130
0.0
111
1.0
121
0.0
131
0.0
112
0.0
122
1.0
132
0.0
 79
     0
146
0.0
348
2F
 60
     3
 61
     5
292
     1
282
     1
141
0.0
142
0.0
 63
   250
361
6D
  0
ENDTAB
  0
TABLE
  2
LTYPE
  5
5
330
0
100
AcDbSymbolTable
 70
     3
  0
LTYPE
  5
14
330
5
100
AcDbSymbolTableRecord
100
AcDbLinetypeTableRecord
  2
ByBlock
 70
     0
  3

 72
    65
 73
     0
 40
0.0
  0
LTYPE
  5
15
330
5
100
AcDbSymbolTableRecord
100
AcDbLinetypeTableRecord
  2
ByLayer
 70
     0
  3

 72
    65
 73
     0
 40
0.0
  0
LTYPE
  5
16
330
5
100
AcDbSymbolTableRecord
100
AcDbLinetypeTableRecord
  2
Continuous
 70
     0
  3
Solid line
 72
    65
 73
     0
 40
0.0
  0
LTYPE
  5
A9
330
5
100
AcDbSymbolTableRecord
100
AcDbLinetypeTableRecord
  2
Dashed
 70
     0
  3

 72
    65
 73
     2
 40
2.0
 49
1.0
 74
     0
 49
-1.0
 74
     0
  0
LTYPE
  5
C0
330
5
100
AcDbSymbolTableRecord
100
AcDbLinetypeTableRecord
  2
Center
 70
     0
  3

 72
    65
 73
     4
 40
1.5
 49
0.45
 74
     0
 49
-0.5
 74
     0
 49
0.05
 74
     0
 49
-0.5
 74
     0
  0
ENDTAB
  0
TABLE
  2
LAYER
  5
2
330
0
100
AcDbSymbolTable
 70
     7
  0
LAYER
  5
10
330
2
100
AcDbSymbolTableRecord
100
AcDbLayerTableRecord
  2
0
 70
     0
 62
     7
  6
Continuous
370
    -3
390
F
347
46
348
0
  0
LAYER
  5
72
330
2
100
AcDbSymbolTableRecord
100
AcDbLayerTableRecord
  2
AM_6
 70
     0
 62
    -2
  6
Continuous
370
    35
390
F
347
46
348
0
  0
LAYER
  5
AA
330
2
100
AcDbSymbolTableRecord
100
AcDbLayerTableRecord
  2
AM_9
 70
     0
 62
     6
  6
Dashed
370
    25
390
F
347
46
348
0
  0
LAYER
  5
BD
330
2
100
AcDbSymbolTableRecord
100
AcDbLayerTableRecord
  2
AM_5
 70
     0
 62
     3
  6
Continuous
370
    25
390
F
347
46
348
0
  0
LAYER
  5
C1
330
2
100
AcDbSymbolTableRecord
100
AcDbLayerTableRecord
  2
AM_7
 70
     0
 62
     7
  6
Center
370
    25
390
F
347
46
348
0
  0
LAYER
  5
C3
330
2
100
AcDbSymbolTableRecord
100
AcDbLayerTableRecord
  2
AM_4
 70
     0
 62
     7
  6
Continuous
370
    50
390
F
347
46
348
0
  0
LAYER
  5
274
330
2
100
AcDbSymbolTableRecord
100
AcDbLayerTableRecord
  2
ConnectionPoints
 70
     0
 62
     7
  6
Continuous
370
    50
390
F
347
46
348
0
  0
ENDTAB
  0
TABLE
  2
STYLE
  5
3
330
0
100
AcDbSymbolTable
 70
     1
  0
STYLE
  5
11
330
3
100
AcDbSymbolTableRecord
100
AcDbTextStyleTableRecord
  2
Standard
 70
     0
 40
0.0
 41
1.0
 50
0.0
 71
     0
 42
0.2
  3
txt
  4

  0
ENDTAB
  0
TABLE
  2
VIEW
  5
6
330
0
100
AcDbSymbolTable
 70
     0
  0
ENDTAB
  0
TABLE
  2
UCS
  5
7
330
0
100
AcDbSymbolTable
 70
     0
  0
ENDTAB
  0
TABLE
  2
APPID
  5
9
330
0
100
AcDbSymbolTable
 70
     1
  0
APPID
  5
12
330
9
100
AcDbSymbolTableRecord
100
AcDbRegAppTableRecord
  2
ACAD
 70
     0
  0
ENDTAB
  0
TABLE
  2
DIMSTYLE
  5
A
330
0
100
AcDbSymbolTable
 70
     1
100
AcDbDimStyleTable
  0
DIMSTYLE
105
27
330
A
100
AcDbSymbolTableRecord
100
AcDbDimStyleTableRecord
  2
Standard
 70
     0
178
     0
340
11
  0
ENDTAB
  0
TABLE
  2
BLOCK_RECORD
  5
1
330
0
100
AcDbSymbolTable
 70
     7
  0
BLOCK_RECORD
  5
1F
330
1
100
AcDbSymbolTableRecord
100
AcDbBlockTableRecord
  2
*Model_Space
340
22
 70
     0
280
     1
281
     0
  0
BLOCK_RECORD
  5
1B
330
1
100
AcDbSymbolTableRecord
100
AcDbBlockTableRecord
  2
*Paper_Space
340
1E
 70
     0
280
     1
281
     0
  0
BLOCK_RECORD
  5
23
330
1
100
AcDbSymbolTableRecord
100
AcDbBlockTableRecord
  2
*Paper_Space0
340
26
 70
     0
280
     1
281
     0
  0
BLOCK_RECORD
  5
6E
330
1
100
AcDbSymbolTableRecord
100
AcDbBlockTableRecord
  2
1_071455_4
340
0
102
{BLKREFS
331
6F
102
}
 70
     0
280
     1
281
     0
  0
BLOCK_RECORD
  5
90
330
1
100
AcDbSymbolTableRecord
100
AcDbBlockTableRecord
  2
2_4_7_16CS2i_1_0_in_071455_4
340
0
102
{BLKREFS
331
91
102
}
 70
     0
280
     1
281
     0
  0
BLOCK_RECORD
  5
E3
330
1
100
AcDbSymbolTableRecord
100
AcDbBlockTableRecord
  2
3_4_7_16CS2i_2_0_in_071455_4
340
0
102
{BLKREFS
331
E4
102
}
 70
     0
280
     1
281
     0
  0
BLOCK_RECORD
  5
12F
330
1
100
AcDbSymbolTableRecord
100
AcDbBlockTableRecord
  2
4_070014i_0_in_071455_4
340
0
102
{BLKREFS
331
130
102
}
 70
     0
280
     1
281
     0
  0
BLOCK_RECORD
  5
190
330
1
100
AcDbSymbolTableRecord
100
AcDbBlockTableRecord
  2
5_405015E_Inch_0_in_071455_4
340
0
102
{BLKREFS
331
191
102
}
 70
     0
280
     1
281
     0
  0
BLOCK_RECORD
  5
1CF
330
1
100
AcDbSymbolTableRecord
100
AcDbBlockTableRecord
  2
6_B071455_0_in_071455_4
340
0
102
{BLKREFS
331
1D0
102
}
 70
     0
280
     1
281
     0
  0
ENDTAB
  0
ENDSEC
  0
SECTION
  2
BLOCKS
  0
BLOCK
  5
20
330
1F
100
AcDbEntity
  8
0
100
AcDbBlockBegin
  2
*Model_Space
 70
     0
 10
0.0
 20
0.0
 30
0.0
  3
*Model_Space
  1

  0
ENDBLK
  5
21
330
1F
100
AcDbEntity
  8
0
100
AcDbBlockEnd
  0
BLOCK
  5
1C
330
1B
100
AcDbEntity
 67
     1
  8
0
100
AcDbBlockBegin
  2
*Paper_Space
 70
     0
 10
0.0
 20
0.0
 30
0.0
  3
*Paper_Space
  1

  0
ENDBLK
  5
1D
330
1B
100
AcDbEntity
 67
     1
  8
0
100
AcDbBlockEnd
  0
BLOCK
  5
24
330
23
100
AcDbEntity
  8
0
100
AcDbBlockBegin
  2
*Paper_Space0
 70
     0
 10
0.0
 20
0.0
 30
0.0
  3
*Paper_Space0
  1

  0
ENDBLK
  5
25
330
23
100
AcDbEntity
  8
0
100
AcDbBlockEnd
  0
BLOCK
  5
70
330
6E
100
AcDbEntity
  8
0
100
AcDbBlockBegin
  2
1_071455_4
 70
     2
 10
0.0
 20
0.0
 30
0.0
  3
1_071455_4
  1

  0
ATTDEF
  5
73
330
6E
100
AcDbEntity
  8
AM_6
100
AcDbText
 10
13.315
 20
3.477812500000001
 30
0.0
 40
0.5
  1
S-2000 Pillow Block with Type E Dimensions 4-Bolt Labyrinth Seal Non-Expansion
100
AcDbAttributeDefinition
  3

  2
NN
 70
     8
280
     0
  0
ATTDEF
  5
74
330
6E
100
AcDbEntity
  8
AM_6
100
AcDbText
 10
13.315
 20
2.977812500000001
 30
0.0
 40
0.5
  1
S-2000 - E Type - Inch
100
AcDbAttributeDefinition
  3

  2
NT
 70
     8
280
     0
  0
ATTDEF
  5
75
330
6E
100
AcDbEntity
  8
AM_6
100
AcDbText
 10
13.315
 20
2.477812500000001
 30
0.0
 40
0.5
  1
071455
100
AcDbAttributeDefinition
  3

  2
NB
 70
     8
280
     0
  0
ATTDEF
  5
76
330
6E
100
AcDbEntity
  8
AM_6
100
AcDbText
 10
13.315
 20
1.977812500000001
 30
0.0
 40
0.5
  1
$PN.
100
AcDbAttributeDefinition
  3

  2
NBSYN
 70
     8
280
     0
  0
ATTDEF
  5
77
330
6E
100
AcDbEntity
  8
AM_6
100
AcDbText
 10
13.315
 20
1.477812500000001
 30
0.0
 40
0.5
  1
071455
100
AcDbAttributeDefinition
  3

  2
LINA
 70
     8
280
     0
  0
ATTDEF
  5
78
330
6E
100
AcDbEntity
  8
AM_6
100
AcDbText
 10
13.315
 20
0.9778125000000006
 30
0.0
 40
0.5
  1
4-7/16
100
AcDbAttributeDefinition
  3

  2
SS
 70
     8
280
     0
  0
ATTDEF
  5
79
330
6E
100
AcDbEntity
  8
AM_6
100
AcDbText
 10
13.315
 20
0.4778125000000006
 30
0.0
 40
0.5
  1
Non-Expansion
100
AcDbAttributeDefinition
  3

  2
TYPE
 70
     8
280
     0
  0
ATTDEF
  5
7A
330
6E
100
AcDbEntity
  8
AM_6
100
AcDbText
 10
13.315
 20
-0.0221874999999994
 30
0.0
 40
0.5
  1
071455
100
AcDbAttributeDefinition
  3

  2
PN
 70
     8
280
     0
  0
ATTDEF
  5
7B
330
6E
100
AcDbEntity
  8
AM_6
100
AcDbText
 10
13.315
 20
-0.5221874999999994
 30
0.0
 40
0.5
  1
EP4B-S2-407L
100
AcDbAttributeDefinition
  3

  2
DESCRIPTION
 70
     8
280
     0
  0
ATTDEF
  5
7C
330
6E
100
AcDbEntity
  8
AM_6
100
AcDbText
 10
13.315
 20
-1.022187499999999
 30
0.0
 40
0.5
  1
6.53
100
AcDbAttributeDefinition
  3

  2
A
 70
     8
280
     0
  0
ATTDEF
  5
7D
330
6E
100
AcDbEntity
  8
AM_6
100
AcDbText
 10
13.315
 20
-1.522187499999999
 30
0.0
 40
0.5
  1
16.63
100
AcDbAttributeDefinition
  3

  2
B
 70
     8
280
     0
  0
ATTDEF
  5
7E
330
6E
100
AcDbEntity
  8
AM_6
100
AcDbText
 10
13.315
 20
-2.022187499999999
 30
0.0
 40
0.5
  1
4.63
100
AcDbAttributeDefinition
  3

  2
C
 70
     8
280
     0
  0
ATTDEF
  5
7F
330
6E
100
AcDbEntity
  8
AM_6
100
AcDbText
 10
13.315
 20
-2.522187499999999
 30
0.0
 40
0.5
  1
13.25
100
AcDbAttributeDefinition
  3

  2
DMIN
 70
     8
280
     0
  0
ATTDEF
  5
80
330
6E
100
AcDbEntity
  8
AM_6
100
AcDbText
 10
13.315
 20
-3.022187499999999
 30
0.0
 40
0.5
  1
13.75
100
AcDbAttributeDefinition
  3

  2
DMAX
 70
     8
280
     0
  0
ATTDEF
  5
81
330
6E
100
AcDbEntity
  8
AM_6
100
AcDbText
 10
13.315
 20
-3.522187499999999
 30
0.0
 40
0.5
  1
2.5
100
AcDbAttributeDefinition
  3

  2
E
 70
     8
280
     0
  0
ATTDEF
  5
82
330
6E
100
AcDbEntity
  8
AM_6
100
AcDbText
 10
13.315
 20
-4.022187499999999
 30
0.0
 40
0.5
  1
3/4
100
AcDbAttributeDefinition
  3

  2
F
 70
     8
280
     0
  0
ATTDEF
  5
83
330
6E
100
AcDbEntity
  8
AM_6
100
AcDbText
 10
13.315
 20
-4.522187499999999
 30
0.0
 40
0.5
  1
1.13
100
AcDbAttributeDefinition
  3

  2
G
 70
     8
280
     0
  0
ATTDEF
  5
84
330
6E
100
AcDbEntity
  8
AM_6
100
AcDbText
 10
13.315
 20
-5.022187499999999
 30
0.0
 40
0.5
  1
2.75
100
AcDbAttributeDefinition
  3

  2
H
 70
     8
280
     0
  0
ATTDEF
  5
85
330
6E
100
AcDbEntity
  8
AM_6
100
AcDbText
 10
13.315
 20
-5.522187499999999
 30
0.0
 40
0.5
  1
9.67
100
AcDbAttributeDefinition
  3

  2
J
 70
     8
280
     0
  0
ATTDEF
  5
86
330
6E
100
AcDbEntity
  8
AM_6
100
AcDbText
 10
13.315
 20
-6.022187499999999
 30
0.0
 40
0.5
  1
6.45
100
AcDbAttributeDefinition
  3

  2
L
 70
     8
280
     0
  0
ATTDEF
  5
87
330
6E
100
AcDbEntity
  8
AM_6
100
AcDbText
 10
13.315
 20
-6.522187499999999
 30
0.0
 40
0.5
  1
4.75
100
AcDbAttributeDefinition
  3

  2
M
 70
     8
280
     0
  0
ATTDEF
  5
88
330
6E
100
AcDbEntity
  8
AM_6
100
AcDbText
 10
13.315
 20
-7.022187499999999
 30
0.0
 40
0.5
  1
3.08
100
AcDbAttributeDefinition
  3

  2
R
 70
     8
280
     0
  0
ATTDEF
  5
89
330
6E
100
AcDbEntity
  8
AM_6
100
AcDbText
 10
13.315
 20
-7.522187499999999
 30
0.0
 40
0.5
  1
3.38
100
AcDbAttributeDefinition
  3

  2
S
 70
     8
280
     0
  0
ATTDEF
  5
8A
330
6E
100
AcDbEntity
  8
AM_6
100
AcDbText
 10
13.315
 20
-8.0221875
 30
0.0
 40
0.5
  1
0.38
100
AcDbAttributeDefinition
  3

  2
X
 70
     8
280
     0
  0
ATTDEF
  5
8B
330
6E
100
AcDbEntity
  8
AM_6
100
AcDbText
 10
13.315
 20
-8.5221875
 30
0.0
 40
0.5
  1
N/A
100
AcDbAttributeDefinition
  3

  2
Y
 70
     8
280
     0
  0
ATTDEF
  5
8C
330
6E
100
AcDbEntity
  8
AM_6
100
AcDbText
 10
13.315
 20
-9.0221875
 30
0.0
 40
0.5
  1
N/A
100
AcDbAttributeDefinition
  3

  2
Z
 70
     8
280
     0
  0
ATTDEF
  5
8D
330
6E
100
AcDbEntity
  8
AM_6
100
AcDbText
 10
13.315
 20
-9.5221875
 30
0.0
 40
0.5
  1
5/8-11
100
AcDbAttributeDefinition
  3

  2
CS
 70
     8
280
     0
  0
ATTDEF
  5
8E
330
6E
100
AcDbEntity
  8
AM_6
100
AcDbText
 10
13.315
 20
-10.0221875
 30
0.0
 40
0.5
  1
1325
100
AcDbAttributeDefinition
  3

  2
TORQUE
 70
     8
280
     0
  0
ATTDEF
  5
8F
330
6E
100
AcDbEntity
  8
AM_6
100
AcDbText
 10
13.315
 20
-10.5221875
 30
0.0
 40
0.5
  1
baldor
100
AcDbAttributeDefinition
  3

  2
COMPANY
 70
     8
280
     0
  0
INSERT
  5
91
330
6E
100
AcDbEntity
  8
0
100
AcDbBlockReference
  2
2_4_7_16CS2i_1_0_in_071455_4
 10
0.0
 20
0.0
 30
0.0
  0
INSERT
  5
E4
330
6E
100
AcDbEntity
  8
0
100
AcDbBlockReference
  2
3_4_7_16CS2i_2_0_in_071455_4
 10
0.0
 20
0.0
 30
0.0
  0
INSERT
  5
130
330
6E
100
AcDbEntity
  8
0
100
AcDbBlockReference
  2
4_070014i_0_in_071455_4
 10
0.0
 20
0.0
 30
0.0
  0
INSERT
  5
191
330
6E
100
AcDbEntity
  8
0
100
AcDbBlockReference
  2
5_405015E_Inch_0_in_071455_4
 10
0.0
 20
0.0
 30
0.0
  0
INSERT
  5
1D0
330
6E
100
AcDbEntity
  8
0
100
AcDbBlockReference
  2
6_B071455_0_in_071455_4
 10
0.0
 20
0.0
 30
0.0
  0
ENDBLK
  5
71
330
6E
100
AcDbEntity
  8
0
100
AcDbBlockEnd
  0
BLOCK
  5
92
330
90
100
AcDbEntity
  8
0
100
AcDbBlockBegin
  2
2_4_7_16CS2i_1_0_in_071455_4
 70
     2
 10
0.0
 20
0.0
 30
0.0
  3
2_4_7_16CS2i_1_0_in_071455_4
  1

  0
ATTDEF
  5
94
330
90
100
AcDbEntity
  8
AM_6
100
AcDbText
 10
8.22656
 20
-2.14
 30
0.0
 40
0.5
  1
S-2000 Collar -Inch
100
AcDbAttributeDefinition
  3

  2
NN
 70
     8
280
     0
  0
ATTDEF
  5
95
330
90
100
AcDbEntity
  8
AM_6
100
AcDbText
 10
8.22656
 20
-2.64
 30
0.0
 40
0.5
  1
S-2000 Bearings
100
AcDbAttributeDefinition
  3

  2
NT
 70
     8
280
     0
  0
ATTDEF
  5
96
330
90
100
AcDbEntity
  8
AM_6
100
AcDbText
 10
8.22656
 20
-3.14
 30
0.0
 40
0.5
  1
4-7/16CS2i
100
AcDbAttributeDefinition
  3

  2
NB
 70
     8
280
     0
  0
ATTDEF
  5
97
330
90
100
AcDbEntity
  8
AM_6
100
AcDbText
 10
8.22656
 20
-3.64
 30
0.0
 40
0.5
  1
$BORE.CS2i
100
AcDbAttributeDefinition
  3

  2
NBSYN
 70
     8
280
     0
  0
ATTDEF
  5
98
330
90
100
AcDbEntity
  8
AM_6
100
AcDbText
 10
8.22656
 20
-4.14
 30
0.0
 40
0.5
  1
4-7/16CS2i
100
AcDbAttributeDefinition
  3

  2
LINA
 70
     8
280
     0
  0
ATTDEF
  5
99
330
90
100
AcDbEntity
  8
AM_6
100
AcDbText
 10
8.22656
 20
-4.64
 30
0.0
 40
0.5
  1
4-7/16
100
AcDbAttributeDefinition
  3

  2
BORE
 70
     8
280
     0
  0
ATTDEF
  5
9A
330
90
100
AcDbEntity
  8
AM_6
100
AcDbText
 10
8.22656
 20
-5.14
 30
0.0
 40
0.5
  1
4.437500
100
AcDbAttributeDefinition
  3

  2
BORE1
 70
     8
280
     0
  0
ATTDEF
  5
9B
330
90
100
AcDbEntity
  8
AM_6
100
AcDbText
 10
8.22656
 20
-5.64
 30
0.0
 40
0.5
  1
6-29/64
100
AcDbAttributeDefinition
  3

  2
L1
 70
     8
280
     0
  0
ATTDEF
  5
9C
330
90
100
AcDbEntity
  8
AM_6
100
AcDbText
 10
8.22656
 20
-6.14
 30
0.0
 40
0.5
  1
6.45313
100
AcDbAttributeDefinition
  3

  2
L
 70
     8
280
     0
  0
ATTDEF
  5
9D
330
90
100
AcDbEntity
  8
AM_6
100
AcDbText
 10
8.22656
 20
-6.64
 30
0.0
 40
0.5
  1
6.45312
100
AcDbAttributeDefinition
  3

  2
L2
 70
     8
280
     0
  0
ATTDEF
  5
9E
330
90
100
AcDbEntity
  8
AM_6
100
AcDbText
 10
8.22656
 20
-7.14
 30
0.0
 40
0.5
  1
6.75
100
AcDbAttributeDefinition
  3

  2
A
 70
     8
280
     0
  0
ATTDEF
  5
9F
330
90
100
AcDbEntity
  8
AM_6
100
AcDbText
 10
8.22656
 20
-7.64
 30
0.0
 40
0.5
  1
3.25
100
AcDbAttributeDefinition
  3

  2
B
 70
     8
280
     0
  0
ATTDEF
  5
A0
330
90
100
AcDbEntity
  8
AM_6
100
AcDbText
 10
8.22656
 20
-8.14
 30
0.0
 40
0.5
  1
5.00
100
AcDbAttributeDefinition
  3

  2
C
 70
     8
280
     0
  0
ATTDEF
  5
A1
330
90
100
AcDbEntity
  8
AM_6
100
AcDbText
 10
8.22656
 20
-8.64
 30
0.0
 40
0.5
  1
7.00
100
AcDbAttributeDefinition
  3

  2
D
 70
     8
280
     0
  0
ATTDEF
  5
A2
330
90
100
AcDbEntity
  8
AM_6
100
AcDbText
 10
8.22656
 20
-9.14
 30
0.0
 40
0.5
  1
0.78
100
AcDbAttributeDefinition
  3

  2
E
 70
     8
280
     0
  0
ATTDEF
  5
A3
330
90
100
AcDbEntity
  8
AM_6
100
AcDbText
 10
8.22656
 20
-9.64
 30
0.0
 40
0.5
  1
0.620
100
AcDbAttributeDefinition
  3

  2
F
 70
     8
280
     0
  0
ATTDEF
  5
A4
330
90
100
AcDbEntity
  8
AM_6
100
AcDbText
 10
8.22656
 20
-10.14
 30
0.0
 40
0.5
  1
5/8-11
100
AcDbAttributeDefinition
  3

  2
CS
 70
     8
280
     0
  0
ATTDEF
  5
A5
330
90
100
AcDbEntity
  8
AM_6
100
AcDbText
 10
8.22656
 20
-10.64
 30
0.0
 40
0.5
  1
0.6250
100
AcDbAttributeDefinition
  3

  2
NDM
 70
     8
280
     0
  0
ATTDEF
  5
A6
330
90
100
AcDbEntity
  8
AM_6
100
AcDbText
 10
8.22656
 20
-11.14
 30
0.0
 40
0.5
  1
0.5270
100
AcDbAttributeDefinition
  3

  2
KDM
 70
     8
280
     0
  0
ATTDEF
  5
A7
330
90
100
AcDbEntity
  8
AM_6
100
AcDbText
 10
8.22656
 20
-11.64
 30
0.0
 40
0.5
  1
2
100
AcDbAttributeDefinition
  3

  2
DD
 70
     8
280
     0
  0
ATTDEF
  5
A8
330
90
100
AcDbEntity
  8
AM_6
100
AcDbText
 10
8.22656
 20
-12.14
 30
0.0
 40
0.5
  1
baldor
100
AcDbAttributeDefinition
  3

  2
COMPANY
 70
     8
280
     0
  0
LINE
  5
AB
330
90
100
AcDbEntity
  8
AM_9
100
AcDbLine
 10
2.324485551990041
 20
-2.527078865920447
 30
0.0
 11
2.316951214773503
 21
-2.517681388178139
 31
0.0
  0
LINE
  5
AC
330
90
100
AcDbEntity
  8
AM_9
100
AcDbLine
 10
2.317044978683475
 20
-3.002201661354729
 30
0.0
 11
2.324485551990041
 21
-2.992921134079552
 31
0.0
  0
LWPOLYLINE
  5
AD
330
90
100
AcDbEntity
  8
AM_9
100
AcDbPolyline
 90
       22
 70
     0
 43
0.0
 10
2.248176291504413
 20
-2.491935790336656
 10
2.23421868177197
 20
-2.497936690580129
 10
2.212556679293271
 20
-2.513886846836243
 10
2.191106055235394
 20
-2.53838463061327
 10
2.172315228900317
 20
-2.568819030695508
 10
2.155509657028694
 20
-2.606723027356618
 10
2.14311438793078
 20
-2.646673209141604
 10
2.134176589205053
 20
-2.691765161661825
 10
2.129940188285243
 20
-2.734845622454929
 10
2.129700571780227
 20
-2.78006226263029
 10
2.133264563277511
 20
-2.821623810947481
 10
2.140541905483726
 20
-2.862611573709104
 10
2.150893648423353
 20
-2.900090616498539
 10
2.164317791394345
 20
-2.934763357779448
 10
2.180394291022512
 20
-2.965488759461327
 10
2.198678054056721
 20
-2.991353949484822
 10
2.218745407269537
 20
-3.011515432420793
 10
2.239893686225772
 20
-3.024902687899306
 10
2.261203448401206
 20
-3.03064287397405
 10
2.282325221725054
 20
-3.028205932498214
 10
2.301834351715848
 20
-3.017557715902776
 10
2.316821277264145
 20
-3.00248068102589
  0
LWPOLYLINE
  5
AE
330
90
100
AcDbEntity
  8
AM_9
100
AcDbPolyline
 90
        4
 70
     0
 43
0.0
 10
2.316814419962599
 20
-2.51751076738921
 10
2.314618024084274
 20
-2.514856192188113
 10
2.297029709621241
 20
-2.498969214820761
 10
2.283246949386383
 20
-2.492102205313149
  0
LWPOLYLINE
  5
AF
330
90
100
AcDbEntity
  8
AM_9
100
AcDbPolyline
 90
       13
 70
     0
 43
0.0
 10
2.316821277264145
 20
-3.00248068102589
 10
2.320044395103427
 20
-2.998272110291938
 10
2.335392505757513
 20
-2.972163330753046
 10
2.348697575827198
 20
-2.938093483908029
 10
2.358583414264854
 20
-2.900554143292768
 10
2.366063938353267
 20
-2.856990272575162
 10
2.370343926006321
 20
-2.81428639005019
 10
2.372166329573059
 20
-2.768458310322242
 10
2.371487078751428
 20
-2.726056316374696
 10
2.36844275688463
 20
-2.683405773149242
 10
2.363293859976327
 20
-2.644346790633993
 10
2.355821569673044
 20
-2.607398153368126
 10
2.340113686257207
 20
-2.558397228143253
  0
LINE
  5
B0
330
90
100
AcDbEntity
  8
AM_9
100
AcDbLine
 10
2.272596986253969
 20
-3.023299999999999
 30
0.0
 11
2.879670641757706
 21
-3.023299999999999
 31
0.0
  0
LINE
  5
B1
330
90
100
AcDbEntity
  8
AM_9
100
AcDbLine
 10
2.879670641757706
 20
-2.4967
 30
0.0
 11
2.272596986253969
 21
-2.4967
 31
0.0
  0
ELLIPSE
  5
B2
330
90
100
AcDbEntity
  8
AM_9
100
AcDbEllipse
 10
2.879670641757704
 20
-2.759999999999998
 30
0.0
 11
-4.836742533232522E-17
 21
-0.2633000000000028
 31
0.0
210
0.0
220
0.0
230
1.0
 40
0.4226182617406902
 41
3.471089693705487
 42
5.92762015075212
  0
LINE
  5
B3
330
90
100
AcDbEntity
  8
AM_9
100
AcDbLine
 10
2.827782076021631
 20
-2.99292113407955
 30
0.0
 11
2.860195094815556
 21
-3.033349457623166
 31
0.0
  0
LINE
  5
B4
330
90
100
AcDbEntity
  8
AM_9
100
AcDbLine
 10
2.857319577635255
 20
-2.490237136382764
 30
0.0
 11
2.827782076021631
 21
-2.527078865920449
 31
0.0
  0
LWPOLYLINE
  5
B5
330
90
100
AcDbEntity
  8
AM_9
100
AcDbPolyline
 90
       39
 70
     0
 43
0.0
 10
-0.2004855335474919
 20
-2.566137936045279
 10
-0.2287714115339829
 20
-2.596302086858131
 10
-0.2522235207574053
 20
-2.630361504859066
 10
-0.2718407512406077
 20
-2.672340915323669
 10
-0.283770859357038
 20
-2.717130709932782
 10
-0.2873756260006186
 20
-2.760786541689404
 10
-0.2835012365354689
 20
-2.804419076317278
 10
-0.2725988802545992
 20
-2.845580349753514
 10
-0.2551744219456224
 20
-2.88441734341629
 10
-0.2311352296960708
 20
-2.920718940027149
 10
-0.2016678074271643
 20
-2.952769979336693
 10
-0.1655396803963745
 20
-2.981219514002438
 10
-0.1253505053837697
 20
-3.003620850913377
 10
-0.0796307171673742
 20
-3.02016455108258
 10
-0.0318205490037119
 20
-3.029161448187614
 10
0.0184921463621229
 20
-3.030243196418068
 10
0.068290890829341
 20
-3.023046082574479
 10
0.1165589449859317
 20
-3.007445323439967
 10
0.1614546016346637
 20
-2.983913561748869
 10
0.2008906782845414
 20
-2.953445010730462
 10
0.2343650563525936
 20
-2.916551847804662
 10
0.2594930322064563
 20
-2.876156169484282
 10
0.2770471746647944
 20
-2.831927023532752
 10
0.2858096581686298
 20
-2.788165803003549
 10
0.2868756933141809
 20
-2.743541870743099
 10
0.2805161315886248
 20
-2.701278228914739
 10
0.267296594514554
 20
-2.660647191448044
 10
0.247448555799395
 20
-2.622491300392792
 10
0.2218009032832165
 20
-2.587975868315245
 10
0.1894554972719356
 20
-2.556549868077671
 10
0.1525499724393796
 20
-2.530600058956833
 10
0.1095353573215369
 20
-2.509706849796729
 10
0.0637083966896327
 20
-2.495931137430504
 10
0.0142123022892928
 20
-2.489525129861821
 10
-0.0356723312723043
 20
-2.491269453099533
 10
-0.0853725506742785
 20
-2.501467614248011
 10
-0.1326316164390688
 20
-2.519835484649315
 10
-0.1682163361413054
 20
-2.540574102201326
 10
-0.2004855335474919
 20
-2.566137936045279
  0
LINE
  5
B6
330
90
100
AcDbEntity
  8
AM_9
100
AcDbLine
 10
2.323671975083615
 20
-2.526940449013322
 30
0.0
 11
2.316814419962599
 21
-2.51751076738921
 31
0.0
  0
LWPOLYLINE
  5
B7
330
90
100
AcDbEntity
  8
AM_9
100
AcDbPolyline
 90
        3
 70
     0
 43
0.0
 10
2.340113686257207
 20
-2.558397228143253
 10
2.328286763600369
 20
-2.534371923010357
 10
2.323671975083615
 20
-2.526940449013322
  0
LINE
  5
B8
330
90
100
AcDbEntity
  8
AM_9
100
AcDbLine
 10
2.5
 20
-3.379999999999999
 30
0.0
 11
2.5
 21
-2.14
 31
0.0
  0
LINE
  5
B9
330
90
100
AcDbEntity
  8
AM_9
100
AcDbLine
 10
-2.5
 20
-2.14
 30
0.0
 11
-2.5
 21
-3.379999999999999
 31
0.0
  0
LINE
  5
BA
330
90
100
AcDbEntity
  8
AM_9
100
AcDbLine
 10
-0.0438259549227972
 20
-2.49293549474528
 30
0.0
 11
-0.1549716393969374
 21
-2.49293549474528
 31
0.0
  0
LINE
  5
BB
330
90
100
AcDbEntity
  8
AM_9
100
AcDbLine
 10
0.1549716393969333
 20
-2.49293549474528
 30
0.0
 11
0.0405556335919628
 21
-2.49293549474528
 31
0.0
  0
LINE
  5
BC
330
90
100
AcDbEntity
  8
AM_9
100
AcDbLine
 10
2.986375396653855
 20
-2.49293549474528
 30
0.0
 11
2.856697122360206
 21
-2.49293549474528
 31
0.0
  0
ARC
  5
BE
330
90
100
AcDbEntity
  8
AM_5
100
AcDbCircle
 10
0.0
 20
-2.759999999999999
 30
0.0
 40
0.3124999999999997
100
AcDbArc
 50
75.00000000000001
 51
14.99999999999994
  0
ELLIPSE
  5
BF
330
90
100
AcDbEntity
  8
AM_9
100
AcDbEllipse
 10
2.27259698625397
 20
-2.76
 30
0.0
 11
-4.836742533232465E-17
 21
-0.2632999999999996
 31
0.0
210
0.0
220
0.0
230
1.0
 40
0.4226182617407002
 41
0.0
 42
6.283185307179586
  0
LINE
  5
C2
330
90
100
AcDbEntity
  8
AM_7
100
AcDbLine
 10
-0.276465
 20
-2.759999999999999
 30
0.0
 11
0.276465
 21
-2.759999999999999
 31
0.0
  0
ELLIPSE
  5
C4
330
90
100
AcDbEntity
  8
AM_4
100
AcDbEllipse
 10
2.879670641757706
 20
-2.759999999999999
 30
0.0
 11
-4.836742533232473E-17
 21
-0.2633000000000001
 31
0.0
210
0.0
220
0.0
230
1.0
 40
0.4226182617406995
 41
5.927620150752114
 42
9.754275000885073
  0
LWPOLYLINE
  5
C5
330
90
100
AcDbEntity
  8
AM_4
100
AcDbPolyline
 90
        5
 70
     0
 43
0.0
 10
2.857230717803461
 20
-2.490347986902108
 10
2.870133268127412
 20
-2.480924094510197
 10
2.897146778782862
 20
-2.476310806074765
 10
2.935938550173305
 20
-2.480375027564242
 10
2.986375396653851
 20
-2.492935494745276
  0
LWPOLYLINE
  5
C6
330
90
100
AcDbEntity
  8
AM_4
100
AcDbPolyline
 90
       15
 70
     0
 43
0.0
 10
2.860372356244009
 20
-3.033570551297669
 10
2.857477744843468
 20
-3.029863158718347
 10
2.839151146497043
 20
-3.001491023066942
 10
2.822425122427435
 20
-2.966305103818514
 10
2.80815988286131
 20
-2.9253561564712
 10
2.796848827518389
 20
-2.879034683201819
 10
2.789217112656367
 20
-2.828921270586167
 10
2.785678900596505
 20
-2.775555837769852
 10
2.786620954893802
 20
-2.721908994886097
 10
2.792212768532099
 20
-2.667818497585177
 10
2.801978682415189
 20
-2.617655489763925
 10
2.816112090303225
 20
-2.570202468423491
 10
2.832903826919759
 20
-2.530424580879627
 10
2.852976366150002
 20
-2.496295061246174
 10
2.855387706931781
 20
-2.492935494745279
  0
LINE
  5
C7
330
90
100
AcDbEntity
  8
AM_4
100
AcDbLine
 10
-3.072914285714285
 20
-2.14
 30
0.0
 11
3.072914285714285
 21
-2.14
 31
0.0
  0
LINE
  5
C8
330
90
100
AcDbEntity
  8
AM_4
100
AcDbLine
 10
3.072914285714285
 20
-2.268384204413472
 30
0.0
 11
3.072914285714285
 21
-2.14
 31
0.0
  0
LINE
  5
C9
330
90
100
AcDbEntity
  8
AM_4
100
AcDbLine
 10
-3.072914285714285
 20
-2.14
 30
0.0
 11
-3.072914285714285
 21
-2.268384204413472
 31
0.0
  0
LINE
  5
CA
330
90
100
AcDbEntity
  8
AM_4
100
AcDbLine
 10
-3.072914285714285
 20
-2.268384204413472
 30
0.0
 11
3.072914285714285
 21
-2.268384204413472
 31
0.0
  0
LINE
  5
CB
330
90
100
AcDbEntity
  8
AM_4
100
AcDbLine
 10
-3.072914285714285
 20
-2.268384204413472
 30
0.0
 11
-3.147863414634147
 21
-2.343333333333333
 31
0.0
  0
LINE
  5
CC
330
90
100
AcDbEntity
  8
AM_4
100
AcDbLine
 10
3.147863414634147
 20
-2.343333333333333
 30
0.0
 11
3.072914285714285
 21
-2.268384204413472
 31
0.0
  0
LINE
  5
CD
330
90
100
AcDbEntity
  8
AM_4
100
AcDbLine
 10
-3.147863414634147
 20
-2.343333333333333
 30
0.0
 11
3.147863414634147
 21
-2.343333333333333
 31
0.0
  0
LINE
  5
CE
330
90
100
AcDbEntity
  8
AM_4
100
AcDbLine
 10
3.147863414634147
 20
-2.447499999999999
 30
0.0
 11
3.147863414634147
 21
-2.343333333333333
 31
0.0
  0
LINE
  5
CF
330
90
100
AcDbEntity
  8
AM_4
100
AcDbLine
 10
-3.147863414634147
 20
-2.343333333333333
 30
0.0
 11
-3.147863414634147
 21
-2.447499999999999
 31
0.0
  0
LWPOLYLINE
  5
D0
330
90
100
AcDbEntity
  8
AM_4
100
AcDbPolyline
 90
       20
 70
     0
 43
0.0
 10
2.986375396653855
 20
-2.492935494745271
 10
2.996499910598927
 20
-2.512283605239229
 10
3.008578308220337
 20
-2.543085387299966
 10
3.018833591055521
 20
-2.579219401432455
 10
3.027646552249137
 20
-2.6236521637208
 10
3.033882790590416
 20
-2.672880120862031
 10
3.037272412988838
 20
-2.724832979063808
 10
3.037724648779595
 20
-2.779201737815234
 10
3.035142880493721
 20
-2.832521627863358
 10
3.029335913712483
 20
-2.885287721891284
 10
3.020679395063113
 20
-2.932821543636781
 10
3.008667192773266
 20
-2.976648055151899
 10
2.994527020776548
 20
-3.01188451856995
 10
2.977274763192616
 20
-3.040690100976484
 10
2.959153559641446
 20
-3.059557080144569
 10
2.938723653163769
 20
-3.070383159691911
 10
2.918651448086296
 20
-3.072188847278148
 10
2.897484314863442
 20
-3.065659794698018
 10
2.877360990694671
 20
-3.051656343286655
 10
2.860372356244009
 20
-3.033570551297669
  0
LINE
  5
D1
330
90
100
AcDbEntity
  8
AM_4
100
AcDbLine
 10
3.22656
 20
-3.173333333333333
 30
0.0
 11
3.22656
 21
-2.49293549474528
 31
0.0
  0
LINE
  5
D2
330
90
100
AcDbEntity
  8
AM_4
100
AcDbLine
 10
-3.22656
 20
-2.49293549474528
 30
0.0
 11
-3.22656
 21
-3.173333333333333
 31
0.0
  0
LINE
  5
D3
330
90
100
AcDbEntity
  8
AM_4
100
AcDbLine
 10
-3.019893333333334
 20
-3.379999999999999
 30
0.0
 11
3.019893333301991
 21
-3.379999999999999
 31
0.0
  0
LINE
  5
D4
330
90
100
AcDbEntity
  8
AM_4
100
AcDbLine
 10
-3.22656
 20
-3.173333333333333
 30
0.0
 11
3.22656
 21
-3.173333333333333
 31
0.0
  0
ARC
  5
D5
330
90
100
AcDbEntity
  8
AM_4
100
AcDbCircle
 10
3.019893333333333
 20
-3.173333333333332
 30
0.0
 40
0.2066666666666674
100
AcDbArc
 50
270.0
 51
0.0000008537736463
  0
ARC
  5
D6
330
90
100
AcDbEntity
  8
AM_4
100
AcDbCircle
 10
-3.019893333333333
 20
-3.173333333333332
 30
0.0
 40
0.2066666666666674
100
AcDbArc
 50
179.9999991462263
 51
270.0
  0
LWPOLYLINE
  5
D7
330
90
100
AcDbEntity
  8
AM_4
100
AcDbPolyline
 90
       33
 70
     0
 43
0.0
 10
0.1549716393969333
 20
-2.492935494745276
 10
0.1611807186241715
 20
-2.4969934456231
 10
0.1995219062239974
 20
-2.527605991497144
 10
0.2324838956122308
 20
-2.56395608233278
 10
0.2599982570162215
 20
-2.606356149407588
 10
0.2808721945460893
 20
-2.653891840296611
 10
0.2939462319154642
 20
-2.704836664070735
 10
0.2986417011306892
 20
-2.758698571723149
 10
0.2944245157162056
 20
-2.81230099283514
 10
0.2809299988206142
 20
-2.865940707861313
 10
0.2592017738188897
 20
-2.915109004559578
 10
0.2284610463572835
 20
-2.961153752591528
 10
0.1921612765332785
 20
-2.99912441162187
 10
0.1484195697285503
 20
-3.031112201670081
 10
0.1031789006777112
 20
-3.053221138293999
 10
0.0532071819604984
 20
-3.067486763229927
 10
0.0052882293073199
 20
-3.072445917245941
 10
-0.0442297750832677
 20
-3.069042826115447
 10
-0.0907180484395466
 20
-3.057673457623017
 10
-0.1347097018402034
 20
-3.038847711434314
 10
-0.1755815836269606
 20
-3.012671234731019
 10
-0.2117315146683223
 20
-2.980283288341223
 10
-0.2430252811025755
 20
-2.941514659564084
 10
-0.2683428458618898
 20
-2.897054971192198
 10
-0.2864521796670999
 20
-2.848305138370184
 10
-0.2966695963443696
 20
-2.795845132696372
 10
-0.2981667480039447
 20
-2.742350614622931
 10
-0.2905594982156016
 20
-2.687841135093939
 10
-0.2742801919947973
 20
-2.636466041399285
 10
-0.2487647926749895
 20
-2.587202434418701
 10
-0.2238065760895936
 20
-2.553217834168937
 10
-0.1944776738653987
 20
-2.522935472918605
 10
-0.1549716393969374
 20
-2.492935494745279
  0
CIRCLE
  5
D8
330
90
100
AcDbEntity
  8
AM_4
100
AcDbCircle
 10
0.0
 20
-2.759999999999999
 30
0.0
 40
0.2633
  0
LWPOLYLINE
  5
D9
330
90
100
AcDbEntity
  8
AM_4
100
AcDbPolyline
 90
        5
 70
     0
 43
0.0
 10
-0.1549716393969374
 20
-2.492935494745279
 10
-0.0812432212758297
 20
-2.480924094510197
 10
-0.0023943729638295
 20
-2.476310806074765
 10
0.0762418415662113
 20
-2.480375027564242
 10
0.1549716393969333
 20
-2.492935494745276
  0
LINE
  5
DA
330
90
100
AcDbEntity
  8
AM_4
100
AcDbLine
 10
0.1549716393969333
 20
-2.492935494745276
 30
0.0
 11
2.855387706931781
 21
-2.49293549474528
 31
0.0
  0
LINE
  5
DB
330
90
100
AcDbEntity
  8
AM_4
100
AcDbLine
 10
2.855387706931781
 20
-2.492935494745279
 30
0.0
 11
2.857230717803461
 21
-2.490347986902108
 31
0.0
  0
LINE
  5
DC
330
90
100
AcDbEntity
  8
AM_4
100
AcDbLine
 10
2.986375396653855
 20
-2.49293549474527
 30
0.0
 11
3.22656
 21
-2.49293549474528
 31
0.0
  0
LINE
  5
DD
330
90
100
AcDbEntity
  8
AM_4
100
AcDbLine
 10
-3.147863414634147
 20
-2.447499999999999
 30
0.0
 11
3.147863414634147
 21
-2.447499999999999
 31
0.0
  0
LINE
  5
DE
330
90
100
AcDbEntity
  8
AM_4
100
AcDbLine
 10
-3.147863414634147
 20
-2.447499999999999
 30
0.0
 11
-3.22656
 21
-2.49293549474528
 31
0.0
  0
LINE
  5
DF
330
90
100
AcDbEntity
  8
AM_4
100
AcDbLine
 10
3.22656
 20
-2.49293549474528
 30
0.0
 11
3.147863414634147
 21
-2.447499999999999
 31
0.0
  0
LINE
  5
E0
330
90
100
AcDbEntity
  8
AM_4
100
AcDbLine
 10
-3.22656
 20
-2.49293549474528
 30
0.0
 11
-0.1549716393969374
 21
-2.492935494745279
 31
0.0
  0
ARC
  5
E1
330
90
100
AcDbEntity
  8
AM_5
100
AcDbCircle
 10
0.0000000000000001
 20
-2.76
 30
0.0
 40
0.3125000000000001
100
AcDbArc
 50
165.0
 51
105.0
  0
ARC
  5
E2
330
90
100
AcDbEntity
  8
AM_5
100
AcDbCircle
 10
0.0000000000000001
 20
-2.76
 30
0.0
 40
0.3125000000000002
100
AcDbArc
 50
105.0
 51
285.0
  0
ENDBLK
  5
93
330
90
100
AcDbEntity
  8
0
100
AcDbBlockEnd
  0
BLOCK
  5
E5
330
E3
100
AcDbEntity
  8
0
100
AcDbBlockBegin
  2
3_4_7_16CS2i_2_0_in_071455_4
 70
     2
 10
0.0
 20
0.0
 30
0.0
  3
3_4_7_16CS2i_2_0_in_071455_4
  1

  0
ATTDEF
  5
E7
330
E3
100
AcDbEntity
  8
AM_6
100
AcDbText
 10
8.226560000000001
 20
3.15125
 30
0.0
 40
0.5
  1
S-2000 Collar -Inch
100
AcDbAttributeDefinition
  3

  2
NN
 70
     8
280
     0
  0
ATTDEF
  5
E8
330
E3
100
AcDbEntity
  8
AM_6
100
AcDbText
 10
8.226560000000001
 20
2.65125
 30
0.0
 40
0.5
  1
S-2000 Bearings
100
AcDbAttributeDefinition
  3

  2
NT
 70
     8
280
     0
  0
ATTDEF
  5
E9
330
E3
100
AcDbEntity
  8
AM_6
100
AcDbText
 10
8.226560000000001
 20
2.15125
 30
0.0
 40
0.5
  1
4-7/16CS2i
100
AcDbAttributeDefinition
  3

  2
NB
 70
     8
280
     0
  0
ATTDEF
  5
EA
330
E3
100
AcDbEntity
  8
AM_6
100
AcDbText
 10
8.226560000000001
 20
1.65125
 30
0.0
 40
0.5
  1
$BORE.CS2i
100
AcDbAttributeDefinition
  3

  2
NBSYN
 70
     8
280
     0
  0
ATTDEF
  5
EB
330
E3
100
AcDbEntity
  8
AM_6
100
AcDbText
 10
8.226560000000001
 20
1.15125
 30
0.0
 40
0.5
  1
4-7/16CS2i
100
AcDbAttributeDefinition
  3

  2
LINA
 70
     8
280
     0
  0
ATTDEF
  5
EC
330
E3
100
AcDbEntity
  8
AM_6
100
AcDbText
 10
8.226560000000001
 20
0.6512500000000001
 30
0.0
 40
0.5
  1
4-7/16
100
AcDbAttributeDefinition
  3

  2
BORE
 70
     8
280
     0
  0
ATTDEF
  5
ED
330
E3
100
AcDbEntity
  8
AM_6
100
AcDbText
 10
8.226560000000001
 20
0.1512500000000001
 30
0.0
 40
0.5
  1
4.437500
100
AcDbAttributeDefinition
  3

  2
BORE1
 70
     8
280
     0
  0
ATTDEF
  5
EE
330
E3
100
AcDbEntity
  8
AM_6
100
AcDbText
 10
8.226560000000001
 20
-0.3487499999999999
 30
0.0
 40
0.5
  1
6-29/64
100
AcDbAttributeDefinition
  3

  2
L1
 70
     8
280
     0
  0
ATTDEF
  5
EF
330
E3
100
AcDbEntity
  8
AM_6
100
AcDbText
 10
8.226560000000001
 20
-0.8487499999999999
 30
0.0
 40
0.5
  1
6.45313
100
AcDbAttributeDefinition
  3

  2
L
 70
     8
280
     0
  0
ATTDEF
  5
F0
330
E3
100
AcDbEntity
  8
AM_6
100
AcDbText
 10
8.226560000000001
 20
-1.34875
 30
0.0
 40
0.5
  1
6.45312
100
AcDbAttributeDefinition
  3

  2
L2
 70
     8
280
     0
  0
ATTDEF
  5
F1
330
E3
100
AcDbEntity
  8
AM_6
100
AcDbText
 10
8.226560000000001
 20
-1.84875
 30
0.0
 40
0.5
  1
6.75
100
AcDbAttributeDefinition
  3

  2
A
 70
     8
280
     0
  0
ATTDEF
  5
F2
330
E3
100
AcDbEntity
  8
AM_6
100
AcDbText
 10
8.226560000000001
 20
-2.34875
 30
0.0
 40
0.5
  1
3.25
100
AcDbAttributeDefinition
  3

  2
B
 70
     8
280
     0
  0
ATTDEF
  5
F3
330
E3
100
AcDbEntity
  8
AM_6
100
AcDbText
 10
8.226560000000001
 20
-2.84875
 30
0.0
 40
0.5
  1
5.00
100
AcDbAttributeDefinition
  3

  2
C
 70
     8
280
     0
  0
ATTDEF
  5
F4
330
E3
100
AcDbEntity
  8
AM_6
100
AcDbText
 10
8.226560000000001
 20
-3.34875
 30
0.0
 40
0.5
  1
7.00
100
AcDbAttributeDefinition
  3

  2
D
 70
     8
280
     0
  0
ATTDEF
  5
F5
330
E3
100
AcDbEntity
  8
AM_6
100
AcDbText
 10
8.226560000000001
 20
-3.84875
 30
0.0
 40
0.5
  1
0.78
100
AcDbAttributeDefinition
  3

  2
E
 70
     8
280
     0
  0
ATTDEF
  5
F6
330
E3
100
AcDbEntity
  8
AM_6
100
AcDbText
 10
8.226560000000001
 20
-4.34875
 30
0.0
 40
0.5
  1
0.620
100
AcDbAttributeDefinition
  3

  2
F
 70
     8
280
     0
  0
ATTDEF
  5
F7
330
E3
100
AcDbEntity
  8
AM_6
100
AcDbText
 10
8.226560000000001
 20
-4.84875
 30
0.0
 40
0.5
  1
5/8-11
100
AcDbAttributeDefinition
  3

  2
CS
 70
     8
280
     0
  0
ATTDEF
  5
F8
330
E3
100
AcDbEntity
  8
AM_6
100
AcDbText
 10
8.226560000000001
 20
-5.34875
 30
0.0
 40
0.5
  1
0.6250
100
AcDbAttributeDefinition
  3

  2
NDM
 70
     8
280
     0
  0
ATTDEF
  5
F9
330
E3
100
AcDbEntity
  8
AM_6
100
AcDbText
 10
8.226560000000001
 20
-5.84875
 30
0.0
 40
0.5
  1
0.5270
100
AcDbAttributeDefinition
  3

  2
KDM
 70
     8
280
     0
  0
ATTDEF
  5
FA
330
E3
100
AcDbEntity
  8
AM_6
100
AcDbText
 10
8.226560000000001
 20
-6.34875
 30
0.0
 40
0.5
  1
2
100
AcDbAttributeDefinition
  3

  2
DD
 70
     8
280
     0
  0
ATTDEF
  5
FB
330
E3
100
AcDbEntity
  8
AM_6
100
AcDbText
 10
8.226560000000001
 20
-6.84875
 30
0.0
 40
0.5
  1
baldor
100
AcDbAttributeDefinition
  3

  2
COMPANY
 70
     8
280
     0
  0
LINE
  5
FC
330
E3
100
AcDbEntity
  8
AM_9
100
AcDbLine
 10
2.324485551990041
 20
2.764171134079553
 30
0.0
 11
2.31689069995176
 21
2.773644091147256
 31
0.0
  0
LINE
  5
FD
330
E3
100
AcDbEntity
  8
AM_9
100
AcDbLine
 10
2.316957937173596
 20
2.288939772937598
 30
0.0
 11
2.324485551990041
 21
2.298328865920447
 31
0.0
  0
LWPOLYLINE
  5
FE
330
E3
100
AcDbEntity
  8
AM_9
100
AcDbPolyline
 90
        3
 70
     0
 43
0.0
 10
2.283964027229756
 20
2.263604400560039
 10
2.300522000073958
 20
2.272717614248012
 10
2.316823402383263
 20
2.288771969500423
  0
LWPOLYLINE
  5
FF
330
E3
100
AcDbEntity
  8
AM_9
100
AcDbPolyline
 90
       23
 70
     0
 43
0.0
 10
2.316818059849384
 20
2.773734693598413
 10
2.315894970570229
 20
2.774870850913378
 10
2.298268077557129
 20
2.791414551082581
 10
2.279033869357457
 20
2.800411448187615
 10
2.257886071061365
 20
2.801493196418069
 10
2.236062992567633
 20
2.79429608257448
 10
2.21404012591565
 20
2.778695323439969
 10
2.192805815700117
 20
2.755163561748869
 10
2.173539747643094
 20
2.724695010730463
 10
2.15674439388938
 20
2.687801847804663
 10
2.143865342138973
 20
2.647406169484282
 10
2.13472853720772
 20
2.603177023532754
 10
2.130128291787391
 20
2.559415803003549
 10
2.129563725415936
 20
2.514791870743099
 10
2.132911557287133
 20
2.472528228914739
 10
2.13981714105874
 20
2.431897191448044
 10
2.150067158717076
 20
2.393741300392792
 10
2.163097459890992
 20
2.359225868315245
 10
2.179184573694872
 20
2.327799868077672
 10
2.197076902243251
 20
2.301850058956834
 10
2.217297585664704
 20
2.280956849796729
 10
2.238109319120772
 20
2.267181137430504
 10
2.248267027583781
 20
2.263157639254608
  0
LWPOLYLINE
  5
100
330
E3
100
AcDbEntity
  8
AM_9
100
AcDbPolyline
 90
        3
 70
     0
 43
0.0
 10
2.323568131944152
 20
2.298033843717649
 10
2.331724041117134
 20
2.311824102201326
 10
2.343200855209431
 20
2.33738793604528
  0
LWPOLYLINE
  5
101
330
E3
100
AcDbEntity
  8
AM_9
100
AcDbPolyline
 90
        3
 70
     0
 43
0.0
 10
2.316823402383263
 20
2.288771969500423
 10
2.318631165513536
 20
2.291085484649315
 10
2.323568131944152
 20
2.298033843717649
  0
LINE
  5
102
330
E3
100
AcDbEntity
  8
AM_9
100
AcDbLine
 10
2.272596986253969
 20
2.26795
 30
0.0
 11
2.879670641757706
 21
2.26795
 31
0.0
  0
LINE
  5
103
330
E3
100
AcDbEntity
  8
AM_9
100
AcDbLine
 10
2.879670641757706
 20
2.79455
 30
0.0
 11
2.272596986253969
 21
2.79455
 31
0.0
  0
LINE
  5
104
330
E3
100
AcDbEntity
  8
AM_9
100
AcDbLine
 10
2.827782076021631
 20
2.29832886592045
 30
0.0
 11
2.857327067185741
 21
2.26147779476691
 31
0.0
  0
LINE
  5
105
330
E3
100
AcDbEntity
  8
AM_9
100
AcDbLine
 10
2.860244845013601
 20
2.804661510377825
 30
0.0
 11
2.827782076021631
 21
2.76417113407955
 31
0.0
  0
ELLIPSE
  5
106
330
E3
100
AcDbEntity
  8
AM_9
100
AcDbEllipse
 10
2.879670641757681
 20
2.531250000000026
 30
0.0
 11
-4.836742533232979E-17
 21
-0.2633000000000276
 31
0.0
210
0.0
220
0.0
230
1.0
 40
0.4226182617406587
 41
3.485996454705361
 42
5.963474358683561
  0
LWPOLYLINE
  5
107
330
E3
100
AcDbEntity
  8
AM_9
100
AcDbPolyline
 90
       13
 70
     0
 43
0.0
 10
2.343200855209431
 20
2.33738793604528
 10
2.352945376819894
 20
2.367552086858132
 10
2.360802977051097
 20
2.401611504859066
 10
2.367221546978597
 20
2.443590915323669
 10
2.371052644364665
 20
2.488380709932782
 10
2.37220302027534
 20
2.532036541689405
 10
2.37096660087238
 20
2.575669076317279
 10
2.367466211115886
 20
2.616830349753514
 10
2.361777273875156
 20
2.655667343416291
 10
2.353746435249324
 20
2.69196894002715
 10
2.343614043835539
 20
2.724019979336694
 10
2.330754074486079
 20
2.752469514002438
 10
2.316818059849384
 20
2.773734693598413
  0
LWPOLYLINE
  5
108
330
E3
100
AcDbEntity
  8
AM_9
100
AcDbPolyline
 90
       38
 70
     0
 43
0.0
 10
-0.1916979582435595
 20
2.329647228143253
 10
-0.1587481795873096
 20
2.305621923010357
 10
-0.121969957738367
 20
2.286106192188113
 10
-0.0764771609340913
 20
2.270219214820762
 10
-0.0276900255873286
 20
2.261681741069181
 10
0.02196593972045
 20
2.261212089025935
 10
0.0724064489605718
 20
2.269186690580129
 10
0.1197574165413572
 20
2.285136846836244
 10
0.1649816966187541
 20
2.30963463061327
 10
0.2033640746405269
 20
2.340069030695509
 10
0.2367937142355052
 20
2.377973027356619
 10
0.2609423744941723
 20
2.417923209141605
 10
0.2781007693577628
 20
2.463015161661826
 10
0.2861615821499207
 20
2.50609562245493
 10
0.2866161512793263
 20
2.55131226263029
 10
0.2798399921101583
 20
2.592873810947482
 10
0.2659023368588905
 20
2.633861573709105
 10
0.2458356522718607
 20
2.67134061649854
 10
0.2193743120801808
 20
2.706013357779448
 10
0.1869961990258741
 20
2.736738759461327
 10
0.1491961647220107
 20
2.762603949484823
 10
0.1064097399665211
 20
2.782765432420794
 10
0.0596985290568685
 20
2.796152687899307
 10
0.0107545150476589
 20
2.801892873974051
 10
-0.0398555911203682
 20
2.799455932498214
 10
-0.088713326358974
 20
2.788807715902776
 10
-0.1364125279017593
 20
2.769522110291939
 10
-0.1784118371972112
 20
2.743413330753046
 10
-0.2163353456705062
 20
2.70934348390803
 10
-0.2455369406606303
 20
2.671804143292769
 10
-0.2682749777841534
 20
2.628240272575162
 10
-0.2815525480306395
 20
2.58553639005019
 10
-0.2872682951268918
 20
2.539708310322243
 10
-0.285133475636432
 20
2.497306316374696
 10
-0.2756297086276784
 20
2.454655773149242
 10
-0.2597872407378028
 20
2.415596790633994
 10
-0.2372849965845636
 20
2.378648153368127
 10
-0.1916979582435593
 20
2.329647228143253
  0
LINE
  5
109
330
E3
100
AcDbEntity
  8
AM_9
100
AcDbLine
 10
-2.5
 20
3.15125
 30
0.0
 11
-2.5
 21
1.91125
 31
0.0
  0
LINE
  5
10A
330
E3
100
AcDbEntity
  8
AM_9
100
AcDbLine
 10
2.5
 20
1.91125
 30
0.0
 11
2.5
 21
3.15125
 31
0.0
  0
LINE
  5
10B
330
E3
100
AcDbEntity
  8
AM_9
100
AcDbLine
 10
2.855926890148893
 20
2.26418549474528
 30
0.0
 11
2.986375396653862
 21
2.26418549474528
 31
0.0
  0
LINE
  5
10C
330
E3
100
AcDbEntity
  8
AM_9
100
AcDbLine
 10
0.0407926431000415
 20
2.26418549474528
 30
0.0
 11
0.1549716393969366
 21
2.26418549474528
 31
0.0
  0
LINE
  5
10D
330
E3
100
AcDbEntity
  8
AM_9
100
AcDbLine
 10
-0.154971639396923
 20
2.26418549474528
 30
0.0
 11
-0.041999385064738
 21
2.26418549474528
 31
0.0
  0
ELLIPSE
  5
10E
330
E3
100
AcDbEntity
  8
AM_9
100
AcDbEllipse
 10
2.27259698625397
 20
2.53125
 30
0.0
 11
-4.836742533232473E-17
 21
-0.2633000000000001
 31
0.0
210
0.0
220
0.0
230
1.0
 40
0.4226182617406995
 41
0.0
 42
6.283185307179586
  0
LINE
  5
10F
330
E3
100
AcDbEntity
  8
AM_7
100
AcDbLine
 10
-0.2764649999999998
 20
2.53125
 30
0.0
 11
0.276465
 21
2.53125
 31
0.0
  0
ELLIPSE
  5
110
330
E3
100
AcDbEntity
  8
AM_4
100
AcDbEllipse
 10
2.879670641757706
 20
2.53125
 30
0.0
 11
-4.836742533232465E-17
 21
-0.2632999999999996
 31
0.0
210
0.0
220
0.0
230
1.0
 40
0.4226182617407002
 41
5.963474358683351
 42
9.76918176188509
  0
LWPOLYLINE
  5
111
330
E3
100
AcDbEntity
  8
AM_4
100
AcDbPolyline
 90
       20
 70
     0
 43
0.0
 10
2.860375163562772
 20
2.804824053611592
 10
2.879155622937212
 20
2.824471138294
 10
2.901372499454115
 20
2.838736763229928
 10
2.922017623467335
 20
2.843695917245941
 10
2.942674002531056
 20
2.840292826115448
 10
2.961435851192036
 20
2.828923457623018
 10
2.978637509812972
 20
2.810097711434315
 10
2.994125695146897
 20
2.783921234731019
 10
3.007435087552521
 20
2.751533288341224
 10
3.018656720714731
 20
2.712764659564086
 10
3.02753235236636
 20
2.668304971192199
 10
3.033769392554488
 20
2.619555138370185
 10
3.037247250549346
 20
2.567095132696373
 10
3.037754364760028
 20
2.513600614622932
 10
3.035171031369941
 20
2.45909113509394
 10
3.029587497834738
 20
2.407716041399286
 10
3.02068476205853
 20
2.358452434418701
 10
3.011797716098813
 20
2.324467834168937
 10
3.001129591014966
 20
2.294185472918606
 10
2.986375396653861
 20
2.26418549474528
  0
LINE
  5
112
330
E3
100
AcDbEntity
  8
AM_4
100
AcDbLine
 10
2.857228491826276
 20
2.261600768608173
 30
0.0
 11
2.855387706931781
 21
2.264185494745279
 31
0.0
  0
CIRCLE
  5
113
330
E3
100
AcDbEntity
  8
AM_4
100
AcDbCircle
 10
0.0000000000000001
 20
2.53125
 30
0.0
 40
0.2632999999999999
  0
LINE
  5
114
330
E3
100
AcDbEntity
  8
AM_4
100
AcDbLine
 10
-3.072914285714285
 20
2.039634204413472
 30
0.0
 11
-3.072914285714285
 21
1.91125
 31
0.0
  0
LINE
  5
115
330
E3
100
AcDbEntity
  8
AM_4
100
AcDbLine
 10
3.072914285714285
 20
1.91125
 30
0.0
 11
3.072914285714285
 21
2.039634204413472
 31
0.0
  0
LINE
  5
116
330
E3
100
AcDbEntity
  8
AM_4
100
AcDbLine
 10
3.072914285714285
 20
1.91125
 30
0.0
 11
-3.072914285714285
 21
1.91125
 31
0.0
  0
LINE
  5
117
330
E3
100
AcDbEntity
  8
AM_4
100
AcDbLine
 10
-3.147863414634147
 20
2.21875
 30
0.0
 11
-3.147863414634147
 21
2.114583333333333
 31
0.0
  0
LINE
  5
118
330
E3
100
AcDbEntity
  8
AM_4
100
AcDbLine
 10
3.147863414634147
 20
2.114583333333333
 30
0.0
 11
3.147863414634147
 21
2.21875
 31
0.0
  0
LINE
  5
119
330
E3
100
AcDbEntity
  8
AM_4
100
AcDbLine
 10
3.072914285714285
 20
2.039634204413472
 30
0.0
 11
3.147863414634147
 21
2.114583333333333
 31
0.0
  0
LINE
  5
11A
330
E3
100
AcDbEntity
  8
AM_4
100
AcDbLine
 10
-3.147863414634147
 20
2.114583333333333
 30
0.0
 11
-3.072914285714285
 21
2.039634204413472
 31
0.0
  0
LINE
  5
11B
330
E3
100
AcDbEntity
  8
AM_4
100
AcDbLine
 10
3.147863414634147
 20
2.114583333333333
 30
0.0
 11
-3.147863414634147
 21
2.114583333333333
 31
0.0
  0
LINE
  5
11C
330
E3
100
AcDbEntity
  8
AM_4
100
AcDbLine
 10
3.072914285714285
 20
2.039634204413472
 30
0.0
 11
-3.072914285714285
 21
2.039634204413472
 31
0.0
  0
LINE
  5
11D
330
E3
100
AcDbEntity
  8
AM_4
100
AcDbLine
 10
3.019893333333333
 20
3.15125
 30
0.0
 11
-3.019893333333333
 21
3.15125
 31
0.0
  0
ARC
  5
11E
330
E3
100
AcDbEntity
  8
AM_4
100
AcDbCircle
 10
-3.019893333333331
 20
2.944583333333332
 30
0.0
 40
0.2066666666666683
100
AcDbArc
 50
90.0
 51
180.0
  0
ARC
  5
11F
330
E3
100
AcDbEntity
  8
AM_4
100
AcDbCircle
 10
3.019893333333331
 20
2.944583333333332
 30
0.0
 40
0.2066666666666683
100
AcDbArc
 50
0.0
 51
90.0
  0
LWPOLYLINE
  5
120
330
E3
100
AcDbEntity
  8
AM_4
100
AcDbPolyline
 90
       33
 70
     0
 43
0.0
 10
-0.154971639396923
 20
2.264185494745271
 10
-0.1819534878530662
 20
2.283533605239229
 10
-0.2148846107418818
 20
2.314335387299967
 10
-0.2435247882313737
 20
2.350469401432455
 10
-0.2686720140526948
 20
2.394902163720801
 10
-0.2867839559762342
 20
2.444130120862032
 10
-0.2967438389682205
 20
2.496082979063809
 10
-0.2980789656505947
 20
2.550451737815234
 10
-0.2904768672342506
 20
2.603771627863359
 10
-0.2735518056605382
 20
2.656537721891285
 10
-0.2487495687245506
 20
2.704071543636781
 10
-0.2151300869096808
 20
2.7478980551519
 10
-0.1766525605470528
 20
2.783134518569951
 10
-0.1311723489010109
 20
2.811940100976485
 10
-0.0849735278891924
 20
2.83080708014457
 10
-0.0346308742629644
 20
2.841633159691912
 10
0.0132046278550022
 20
2.843438847278148
 10
0.0620679160831201
 20
2.836909794698019
 10
0.1071478044399702
 20
2.822906343286657
 10
0.1504823973127963
 20
2.801113158718348
 10
0.1894398612750945
 20
2.772741023066943
 10
0.2242251608925861
 20
2.737555103818516
 10
0.2533452805762358
 20
2.696606156471201
 10
0.276093542211639
 20
2.650284683201819
 10
0.2912776301536334
 20
2.600171270586168
 10
0.2982733867007212
 20
2.546805837769853
 10
0.2964134422190773
 20
2.493158994886098
 10
0.2853329903654895
 20
2.439068497585178
 10
0.2658131931737009
 20
2.388905489763925
 10
0.2371726956943173
 20
2.341452468423491
 10
0.2025159034235151
 20
2.301674580879627
 10
0.1601359241265997
 20
2.267545061246175
 10
0.1549716393969366
 20
2.26418549474528
  0
LWPOLYLINE
  5
121
330
E3
100
AcDbEntity
  8
AM_4
100
AcDbPolyline
 90
       15
 70
     0
 43
0.0
 10
2.855387706931783
 20
2.264185494745277
 10
2.85248760962094
 20
2.268243445623101
 10
2.834337401994245
 20
2.298855991497145
 10
2.81840376264424
 20
2.335206082332781
 10
2.804867032163
 20
2.377606149407589
 10
2.794454081055433
 20
2.425141840296612
 10
2.787869068307277
 20
2.476086664070736
 10
2.785492234087731
 20
2.52994857172315
 10
2.787627249184937
 20
2.583550992835141
 10
2.794425073642983
 20
2.637190707861314
 10
2.805261908162863
 20
2.686359004559578
 10
2.820364987853375
 20
2.732403752591529
 10
2.837854919667722
 20
2.770374411621871
 10
2.858436222467633
 20
2.802362201670082
 10
2.860375163562772
 20
2.804824053611592
  0
LINE
  5
122
330
E3
100
AcDbEntity
  8
AM_4
100
AcDbLine
 10
-3.22656
 20
2.944583333333334
 30
0.0
 11
-3.22656
 21
2.26418549474528
 31
0.0
  0
LINE
  5
123
330
E3
100
AcDbEntity
  8
AM_4
100
AcDbLine
 10
3.22656
 20
2.26418549474528
 30
0.0
 11
3.22656
 21
2.944583333333334
 31
0.0
  0
LINE
  5
124
330
E3
100
AcDbEntity
  8
AM_4
100
AcDbLine
 10
3.22656
 20
2.944583333333334
 30
0.0
 11
-3.22656
 21
2.944583333333334
 31
0.0
  0
LWPOLYLINE
  5
125
330
E3
100
AcDbEntity
  8
AM_4
100
AcDbPolyline
 90
        5
 70
     0
 43
0.0
 10
2.986375396653862
 20
2.26418549474528
 10
2.938803006035022
 20
2.252174094510198
 10
2.899170590262721
 20
2.247560806074766
 10
2.871496161064059
 20
2.251625027564243
 10
2.857228491826276
 20
2.261600768608173
  0
LINE
  5
126
330
E3
100
AcDbEntity
  8
AM_4
100
AcDbLine
 10
2.855387706931783
 20
2.264185494745277
 30
0.0
 11
0.1549716393969366
 21
2.26418549474528
 31
0.0
  0
LWPOLYLINE
  5
127
330
E3
100
AcDbEntity
  8
AM_4
100
AcDbPolyline
 90
        5
 70
     0
 43
0.0
 10
0.1549716393969366
 20
2.26418549474528
 10
0.0812432212758226
 20
2.252174094510198
 10
0.0023943729638152
 20
2.247560806074766
 10
-0.0762418415662135
 20
2.251625027564243
 10
-0.154971639396923
 20
2.264185494745271
  0
LINE
  5
128
330
E3
100
AcDbEntity
  8
AM_4
100
AcDbLine
 10
-0.154971639396923
 20
2.264185494745271
 30
0.0
 11
-3.22656
 21
2.26418549474528
 31
0.0
  0
LINE
  5
129
330
E3
100
AcDbEntity
  8
AM_4
100
AcDbLine
 10
3.147863414634147
 20
2.21875
 30
0.0
 11
3.226560000000001
 21
2.26418549474528
 31
0.0
  0
LINE
  5
12A
330
E3
100
AcDbEntity
  8
AM_4
100
AcDbLine
 10
-3.22656
 20
2.26418549474528
 30
0.0
 11
-3.147863414634147
 21
2.21875
 31
0.0
  0
LINE
  5
12B
330
E3
100
AcDbEntity
  8
AM_4
100
AcDbLine
 10
3.226560000000001
 20
2.26418549474528
 30
0.0
 11
2.986375396653862
 21
2.26418549474528
 31
0.0
  0
LINE
  5
12C
330
E3
100
AcDbEntity
  8
AM_4
100
AcDbLine
 10
3.147863414634147
 20
2.21875
 30
0.0
 11
-3.147863414634147
 21
2.21875
 31
0.0
  0
ARC
  5
12D
330
E3
100
AcDbEntity
  8
AM_5
100
AcDbCircle
 10
0.0000000000000035
 20
2.531250000000007
 30
0.0
 40
0.3124999999999922
100
AcDbArc
 50
63.85157066748187
 51
75.00000000000054
  0
ARC
  5
12E
330
E3
100
AcDbEntity
  8
AM_5
100
AcDbCircle
 10
0.0000000000000021
 20
2.531249999999999
 30
0.0
 40
0.3125000000000006
100
AcDbArc
 50
75.0000000000007
 51
15.00000000000027
  0
ENDBLK
  5
E6
330
E3
100
AcDbEntity
  8
0
100
AcDbBlockEnd
  0
BLOCK
  5
131
330
12F
100
AcDbEntity
  8
0
100
AcDbBlockBegin
  2
4_070014i_0_in_071455_4
 70
     2
 10
0.0
 20
0.0
 30
0.0
  3
4_070014i_0_in_071455_4
  1

  0
ATTDEF
  5
133
330
12F
100
AcDbEntity
  8
AM_6
100
AcDbText
 10
8.937
 20
3.477812500000001
 30
0.0
 40
0.5
  1
S-2000 Insert -Inch
100
AcDbAttributeDefinition
  3

  2
NN
 70
     8
280
     0
  0
ATTDEF
  5
134
330
12F
100
AcDbEntity
  8
AM_6
100
AcDbText
 10
8.937
 20
2.977812500000001
 30
0.0
 40
0.5
  1
S-2000 Bearings
100
AcDbAttributeDefinition
  3

  2
NT
 70
     8
280
     0
  0
ATTDEF
  5
135
330
12F
100
AcDbEntity
  8
AM_6
100
AcDbText
 10
8.937
 20
2.477812500000001
 30
0.0
 40
0.5
  1
070014i
100
AcDbAttributeDefinition
  3

  2
NB
 70
     8
280
     0
  0
ATTDEF
  5
136
330
12F
100
AcDbEntity
  8
AM_6
100
AcDbText
 10
8.937
 20
1.977812500000001
 30
0.0
 40
0.5
  1
$PN.i
100
AcDbAttributeDefinition
  3

  2
NBSYN
 70
     8
280
     0
  0
ATTDEF
  5
137
330
12F
100
AcDbEntity
  8
AM_6
100
AcDbText
 10
8.937
 20
1.477812500000001
 30
0.0
 40
0.5
  1
070014i
100
AcDbAttributeDefinition
  3

  2
LINA
 70
     8
280
     0
  0
ATTDEF
  5
138
330
12F
100
AcDbEntity
  8
AM_6
100
AcDbText
 10
8.937
 20
0.9778125000000006
 30
0.0
 40
0.5
  1
4-7/16
100
AcDbAttributeDefinition
  3

  2
SS
 70
     8
280
     0
  0
ATTDEF
  5
139
330
12F
100
AcDbEntity
  8
AM_6
100
AcDbText
 10
8.937
 20
0.4778125000000006
 30
0.0
 40
0.5
  1
5.00
100
AcDbAttributeDefinition
  3

  2
CC
 70
     8
280
     0
  0
ATTDEF
  5
13A
330
12F
100
AcDbEntity
  8
AM_6
100
AcDbText
 10
8.937
 20
-0.0221874999999994
 30
0.0
 40
0.5
  1
4.437500
100
AcDbAttributeDefinition
  3

  2
SS1
 70
     8
280
     0
  0
ATTDEF
  5
13B
330
12F
100
AcDbEntity
  8
AM_6
100
AcDbText
 10
8.937
 20
-0.5221874999999994
 30
0.0
 40
0.5
  1
070014
100
AcDbAttributeDefinition
  3

  2
PN
 70
     8
280
     0
  0
ATTDEF
  5
13C
330
12F
100
AcDbEntity
  8
AM_6
100
AcDbText
 10
8.937
 20
-1.022187499999999
 30
0.0
 40
0.5
  1
INS-S2-407R
100
AcDbAttributeDefinition
  3

  2
DESCRIPTION
 70
     8
280
     0
  0
ATTDEF
  5
13D
330
12F
100
AcDbEntity
  8
AM_6
100
AcDbText
 10
8.937
 20
-1.522187499999999
 30
0.0
 40
0.5
  1
Contact Seal
100
AcDbAttributeDefinition
  3

  2
ST
 70
     8
280
     0
  0
ATTDEF
  5
13E
330
12F
100
AcDbEntity
  8
AM_6
100
AcDbText
 10
8.937
 20
-2.022187499999999
 30
0.0
 40
0.5
  1
1
100
AcDbAttributeDefinition
  3

  2
ST1
 70
     8
280
     0
  0
ATTDEF
  5
13F
330
12F
100
AcDbEntity
  8
AM_6
100
AcDbText
 10
8.937
 20
-2.522187499999999
 30
0.0
 40
0.5
  1
7.8740
100
AcDbAttributeDefinition
  3

  2
A
 70
     8
280
     0
  0
ATTDEF
  5
140
330
12F
100
AcDbEntity
  8
AM_6
100
AcDbText
 10
8.937
 20
-3.022187499999999
 30
0.0
 40
0.5
  1
2-5/32
100
AcDbAttributeDefinition
  3

  2
B
 70
     8
280
     0
  0
ATTDEF
  5
141
330
12F
100
AcDbEntity
  8
AM_6
100
AcDbText
 10
8.937
 20
-3.522187499999999
 30
0.0
 40
0.5
  1
6-17/32
100
AcDbAttributeDefinition
  3

  2
C
 70
     8
280
     0
  0
ATTDEF
  5
142
330
12F
100
AcDbEntity
  8
AM_6
100
AcDbText
 10
8.937
 20
-4.022187499999999
 30
0.0
 40
0.5
  1
3.266
100
AcDbAttributeDefinition
  3

  2
D
 70
     8
280
     0
  0
ATTDEF
  5
143
330
12F
100
AcDbEntity
  8
AM_6
100
AcDbText
 10
8.937
 20
-4.522187499999999
 30
0.0
 40
0.5
  1
6-29/64
100
AcDbAttributeDefinition
  3

  2
E
 70
     8
280
     0
  0
ATTDEF
  5
144
330
12F
100
AcDbEntity
  8
AM_6
100
AcDbText
 10
8.937
 20
-5.022187499999999
 30
0.0
 40
0.5
  1
0.43750
100
AcDbAttributeDefinition
  3

  2
F
 70
     8
280
     0
  0
ATTDEF
  5
145
330
12F
100
AcDbEntity
  8
AM_6
100
AcDbText
 10
8.937
 20
-5.522187499999999
 30
0.0
 40
0.5
  1
2
100
AcDbAttributeDefinition
  3

  2
DD
 70
     8
280
     0
  0
ATTDEF
  5
146
330
12F
100
AcDbEntity
  8
AM_6
100
AcDbText
 10
8.937
 20
-6.022187499999999
 30
0.0
 40
0.5
  1
baldor
100
AcDbAttributeDefinition
  3

  2
COMPANY
 70
     8
280
     0
  0
LINE
  5
147
330
12F
100
AcDbEntity
  8
AM_9
100
AcDbLine
 10
2.265769467591625
 20
2.92125
 30
0.0
 11
2.010662166385627
 21
2.92125
 31
0.0
  0
LINE
  5
148
330
12F
100
AcDbEntity
  8
AM_9
100
AcDbLine
 10
2.010805980668961
 20
2.14125
 30
0.0
 11
2.265769467591625
 21
2.14125
 31
0.0
  0
LWPOLYLINE
  5
149
330
12F
100
AcDbEntity
  8
AM_9
100
AcDbPolyline
 90
       21
 70
     0
 43
0.0
 10
2.010883452367077
 20
2.921249998777539
 10
1.992637080369742
 20
2.918951460187932
 10
1.963846511410627
 20
2.906577541259198
 10
1.934874597676671
 20
2.883960836839201
 10
1.906642316844467
 20
2.851437112223606
 10
1.880417602268087
 20
2.810134850784742
 10
1.857064509283933
 20
2.760355804049209
 10
1.837993307492582
 20
2.704069289453875
 10
1.824213010542119
 20
2.642665010975739
 10
1.816384413756529
 20
2.578023751407041
 10
1.815023849570296
 20
2.512872729616475
 10
1.819945973882121
 20
2.448245983194444
 10
1.830894232507766
 20
2.38644751132022
 10
1.847217938706389
 20
2.328666700430994
 10
1.86842810107104
 20
2.276026746073042
 10
1.893319418905554
 20
2.23047947931446
 10
1.921159482097264
 20
2.19298542042371
 10
1.950467595558332
 20
2.165070950329588
 10
1.979933548910967
 20
2.147763930682868
 10
2.008647456676044
 20
2.141285292849707
 10
2.010858335313289
 20
2.141250001045221
  0
LWPOLYLINE
  5
14A
330
12F
100
AcDbEntity
  8
AM_9
100
AcDbPolyline
 90
        6
 70
     0
 43
0.0
 10
2.120688109854242
 20
2.288234669612497
 10
2.126716111722927
 20
2.316636965091127
 10
2.135584859885662
 20
2.374652755618054
 10
2.141353117227074
 20
2.437201023882611
 10
2.143626560743487
 20
2.483865885271207
 10
2.144383138759292
 20
2.53125
  0
LWPOLYLINE
  5
14B
330
12F
100
AcDbEntity
  8
AM_9
100
AcDbPolyline
 90
        7
 70
     0
 43
0.0
 10
2.010858335313289
 20
2.141250001045221
 10
2.035295493209872
 20
2.145860731047496
 10
2.059624735854459
 20
2.161033407621372
 10
2.081060729091502
 20
2.186450753495648
 10
2.099414514826627
 20
2.221260416289977
 10
2.114696524089497
 20
2.26522382804516
 10
2.120688109854242
 20
2.288234669612497
  0
LWPOLYLINE
  5
14C
330
12F
100
AcDbEntity
  8
AM_9
100
AcDbPolyline
 90
       21
 70
     0
 43
0.0
 10
2.265783204387584
 20
2.14125000135454
 10
2.247311258350221
 20
2.143615232864152
 10
2.218644363557162
 20
2.156143699057691
 10
2.189964238117227
 20
2.178978232997124
 10
2.162194513097455
 20
2.211747311679949
 10
2.136528697837837
 20
2.25332905070519
 10
2.113849777764381
 20
2.303258316437077
 10
2.09541659512164
 20
2.359655038212915
 10
2.082174709821313
 20
2.421086956083066
 10
2.074717473449861
 20
2.485698771419976
 10
2.073518721305757
 20
2.550958854447165
 10
2.078422346465016
 20
2.61565827812604
 10
2.089205129318325
 20
2.677596153931686
 10
2.105249316332166
 20
2.735460327151315
 10
2.126055398478711
 20
2.788004636571492
 10
2.150502805702975
 20
2.833390952837801
 10
2.17783396176187
 20
2.870561366846314
 10
2.206690727193555
 20
2.898130796168568
 10
2.235843821670368
 20
2.915099697530789
 10
2.2643933853177
 20
2.921236445149262
 10
2.265761144811102
 20
2.921249999502792
  0
LWPOLYLINE
  5
14D
330
12F
100
AcDbEntity
  8
AM_9
100
AcDbPolyline
 90
       11
 70
     0
 43
0.0
 10
2.265761144811102
 20
2.921249999502792
 10
2.291126862745232
 20
2.916305758216104
 10
2.315696239258886
 20
2.900734847233462
 10
2.337517000520263
 20
2.87486645570849
 10
2.356340391291953
 20
2.839568809010774
 10
2.372092646299096
 20
2.795213732736409
 10
2.384565460311587
 20
2.743451460704578
 10
2.393793079604179
 20
2.68526471634766
 10
2.399793556216568
 20
2.622644023199816
 10
2.402086358317878
 20
2.577274649156564
 10
2.402850899037565
 20
2.53125
  0
LINE
  5
14E
330
12F
100
AcDbEntity
  8
AM_9
100
AcDbLine
 10
2.265769467591625
 20
-2.37
 30
0.0
 11
2.010662166385627
 21
-2.37
 31
0.0
  0
LINE
  5
14F
330
12F
100
AcDbEntity
  8
AM_9
100
AcDbLine
 10
2.010805980668961
 20
-3.149999999999999
 30
0.0
 11
2.265769467591625
 21
-3.149999999999999
 31
0.0
  0
LWPOLYLINE
  5
150
330
12F
100
AcDbEntity
  8
AM_9
100
AcDbPolyline
 90
       21
 70
     0
 43
0.0
 10
2.010883452367077
 20
-2.37000000122246
 10
1.992637080369742
 20
-2.372298539812068
 10
1.963846511410627
 20
-2.384672458740801
 10
1.934874597676671
 20
-2.407289163160799
 10
1.906642316844467
 20
-2.439812887776394
 10
1.880417602268087
 20
-2.481115149215257
 10
1.857064509283933
 20
-2.530894195950791
 10
1.837993307492582
 20
-2.587180710546125
 10
1.824213010542119
 20
-2.648584989024261
 10
1.816384413756529
 20
-2.713226248592958
 10
1.815023849570296
 20
-2.778377270383524
 10
1.819945973882121
 20
-2.843004016805556
 10
1.830894232507766
 20
-2.904802488679779
 10
1.847217938706389
 20
-2.962583299569005
 10
1.86842810107104
 20
-3.015223253926958
 10
1.893319418905554
 20
-3.060770520685539
 10
1.921159482097264
 20
-3.09826457957629
 10
1.950467595558331
 20
-3.126179049670411
 10
1.979933548910967
 20
-3.143486069317132
 10
2.008647456676044
 20
-3.149964707150293
 10
2.010858335313289
 20
-3.149999998954779
  0
LWPOLYLINE
  5
151
330
12F
100
AcDbEntity
  8
AM_9
100
AcDbPolyline
 90
        6
 70
     0
 43
0.0
 10
2.120688109854242
 20
-3.003015330387503
 10
2.126716111722927
 20
-2.974613034908872
 10
2.135584859885662
 20
-2.916597244381946
 10
2.141353117227074
 20
-2.854048976117389
 10
2.143626560743487
 20
-2.807384114728793
 10
2.144383138759292
 20
-2.759999999999999
  0
LWPOLYLINE
  5
152
330
12F
100
AcDbEntity
  8
AM_9
100
AcDbPolyline
 90
        7
 70
     0
 43
0.0
 10
2.010858335313289
 20
-3.149999998954779
 10
2.035295493209872
 20
-3.145389268952504
 10
2.059624735854459
 20
-3.130216592378627
 10
2.081060729091502
 20
-3.104799246504352
 10
2.099414514826627
 20
-3.069989583710023
 10
2.114696524089497
 20
-3.02602617195484
 10
2.120688109854242
 20
-3.003015330387503
  0
LWPOLYLINE
  5
153
330
12F
100
AcDbEntity
  8
AM_9
100
AcDbPolyline
 90
       21
 70
     0
 43
0.0
 10
2.265783204387584
 20
-3.149999998645459
 10
2.247311258350221
 20
-3.147634767135848
 10
2.218644363557162
 20
-3.135106300942309
 10
2.189964238117227
 20
-3.112271767002876
 10
2.162194513097455
 20
-3.07950268832005
 10
2.136528697837837
 20
-3.03792094929481
 10
2.113849777764381
 20
-2.987991683562923
 10
2.09541659512164
 20
-2.931594961787085
 10
2.082174709821313
 20
-2.870163043916934
 10
2.074717473449861
 20
-2.805551228580024
 10
2.073518721305757
 20
-2.740291145552835
 10
2.078422346465016
 20
-2.675591721873959
 10
2.089205129318325
 20
-2.613653846068313
 10
2.105249316332166
 20
-2.555789672848685
 10
2.126055398478711
 20
-2.503245363428507
 10
2.150502805702975
 20
-2.457859047162198
 10
2.177833961761869
 20
-2.420688633153686
 10
2.206690727193555
 20
-2.393119203831432
 10
2.235843821670368
 20
-2.37615030246921
 10
2.2643933853177
 20
-2.370013554850737
 10
2.265761144811102
 20
-2.370000000497208
  0
LWPOLYLINE
  5
154
330
12F
100
AcDbEntity
  8
AM_9
100
AcDbPolyline
 90
       11
 70
     0
 43
0.0
 10
2.265761144811102
 20
-2.370000000497208
 10
2.291126862745232
 20
-2.374944241783896
 10
2.315696239258886
 20
-2.390515152766537
 10
2.337517000520263
 20
-2.416383544291509
 10
2.356340391291953
 20
-2.451681190989225
 10
2.372092646299096
 20
-2.49603626726359
 10
2.384565460311587
 20
-2.547798539295421
 10
2.393793079604179
 20
-2.60598528365234
 10
2.399793556216568
 20
-2.668605976800184
 10
2.402086358317878
 20
-2.713975350843436
 10
2.402850899037565
 20
-2.759999999999999
  0
LWPOLYLINE
  5
155
330
12F
100
AcDbEntity
  8
AM_9
100
AcDbPolyline
 90
        7
 70
     0
 43
0.0
 10
2.120664689707141
 20
-2.516885671194609
 10
2.107365949351632
 20
-2.470710235677227
 10
2.090393425047168
 20
-2.430988192161694
 10
2.069976167155672
 20
-2.400418509657787
 10
2.046484404751818
 20
-2.380061397687812
 10
2.020553426311557
 20
-2.37073183338084
 10
2.010883452367077
 20
-2.37000000122246
  0
LWPOLYLINE
  5
156
330
12F
100
AcDbEntity
  8
AM_9
100
AcDbPolyline
 90
        6
 70
     0
 43
0.0
 10
2.144383138759292
 20
-2.759999999999999
 10
2.142953650007355
 20
-2.695099590930385
 10
2.13865334762639
 20
-2.632042431241274
 10
2.131382272697179
 20
-2.572676067840065
 10
2.121050883035888
 20
-2.518528040285473
 10
2.120664689707141
 20
-2.516885671194609
  0
LWPOLYLINE
  5
157
330
12F
100
AcDbEntity
  8
AM_9
100
AcDbPolyline
 90
        7
 70
     0
 43
0.0
 10
2.120664689707141
 20
2.77436432880539
 10
2.107365949351632
 20
2.820539764322771
 10
2.090393425047168
 20
2.860261807838305
 10
2.069976167155672
 20
2.890831490342213
 10
2.046484404751818
 20
2.911188602312188
 10
2.020553426311557
 20
2.920518166619159
 10
2.010883452367077
 20
2.921249998777539
  0
LWPOLYLINE
  5
158
330
12F
100
AcDbEntity
  8
AM_9
100
AcDbPolyline
 90
        6
 70
     0
 43
0.0
 10
2.144383138759292
 20
2.53125
 10
2.142953650007355
 20
2.596150409069614
 10
2.13865334762639
 20
2.659207568758725
 10
2.131382272697179
 20
2.718573932159935
 10
2.121050883035888
 20
2.772721959714527
 10
2.120664689707141
 20
2.77436432880539
  0
LINE
  5
159
330
12F
100
AcDbEntity
  8
AM_9
100
AcDbLine
 10
-2.21875
 20
3.151250000000001
 30
0.0
 11
-2.21875
 21
-3.38
 31
0.0
  0
LINE
  5
15A
330
12F
100
AcDbEntity
  8
AM_9
100
AcDbLine
 10
2.21875
 20
-3.38
 30
0.0
 11
2.21875
 21
3.151250000000001
 31
0.0
  0
LWPOLYLINE
  5
15B
330
12F
100
AcDbEntity
  8
AM_9
100
AcDbPolyline
 90
       11
 70
     0
 43
0.0
 10
2.402850899037565
 20
-2.759999999999999
 10
2.401313441402158
 20
-2.825021506400927
 10
2.396705519739894
 20
-2.888199353951454
 10
2.388953199728143
 20
-2.947686620187095
 10
2.378019814162874
 20
-3.001932398030443
 10
2.363697455559759
 20
-3.049713594016299
 10
2.346108274285411
 20
-3.089374438616161
 10
2.325194356802712
 20
-3.11981710996393
 10
2.301361453803466
 20
-3.140056915059461
 10
2.275230373669896
 20
-3.149302052014112
 10
2.265783204387584
 20
-3.149999998645459
  0
LWPOLYLINE
  5
15C
330
12F
100
AcDbEntity
  8
AM_9
100
AcDbPolyline
 90
       39
 70
     0
 43
0.0
 10
0.3900000000000002
 20
-2.759999999999999
 10
0.3846962846345249
 20
-2.824099676975727
 10
0.3683271991673026
 20
-2.888199353951454
 10
0.3422992160661122
 20
-2.94689902803526
 10
0.305890037077442
 20
-3.001932398030443
 10
0.2617458609152352
 20
-3.049117803488028
 10
0.208836010271909
 20
-3.089374438616161
 10
0.1512378717215656
 20
-3.119481718807968
 10
0.087502807472018
 20
-3.140056915059461
 10
0.023589815808531
 20
-3.149285911111768
 10
-0.042886913010109
 20
-3.147634767135848
 10
-0.1057312018206749
 20
-3.135394343273251
 10
-0.1673457563629012
 20
-3.112271767002876
 10
-0.2228554812324346
 20
-3.080055361593365
 10
-0.2736054567128944
 20
-3.03792094929481
 10
-0.3158492013923911
 20
-2.988777800452291
 10
-0.3502215999753426
 20
-2.931594961787084
 10
-0.373840008211922
 20
-2.871101972350224
 10
-0.3873307186047221
 20
-2.805551228580024
 10
-0.3895482823296129
 20
-2.741234719984816
 10
-0.3807561458253788
 20
-2.67559172187396
 10
-0.3618370530553301
 20
-2.614487295962743
 10
-0.3322621589720276
 20
-2.555789672848685
 10
-0.2941423656774658
 20
-2.50391355226474
 10
-0.246598549505599
 20
-2.457859047162198
 10
-0.1930394363525759
 20
-2.421125722409209
 10
-0.1322818256704894
 20
-2.393119203831432
 10
-0.0697135829966551
 20
-2.376281331773174
 10
-0.0032515534504866
 20
-2.370013554850737
 10
0.0607390841471662
 20
-2.374758824037508
 10
0.124823666285143
 20
-2.390515152766537
 10
0.1836018297002148
 20
-2.415920985628688
 10
0.238829462190445
 20
-2.451681190989225
 10
0.2864412457463024
 20
-2.495327725790353
 10
0.3272163505615865
 20
-2.547798539295421
 10
0.3579127123463262
 20
-2.605085538632133
 10
0.3791399906674994
 20
-2.668605976800183
 10
0.3872353834875072
 20
-2.713645304711567
 10
0.39
 20
-2.759999999999999
  0
LINE
  5
15D
330
12F
100
AcDbEntity
  8
AM_9
100
AcDbLine
 10
-2.5
 20
-2.14
 30
0.0
 11
-2.5
 21
-3.38
 31
0.0
  0
LINE
  5
15E
330
12F
100
AcDbEntity
  8
AM_9
100
AcDbLine
 10
-2.5
 20
-1.7025
 30
0.0
 11
-2.5
 21
-1.851999999999999
 31
0.0
  0
LINE
  5
15F
330
12F
100
AcDbEntity
  8
AM_9
100
AcDbLine
 10
2.5
 20
-1.851999999999999
 30
0.0
 11
2.5
 21
-1.7025
 31
0.0
  0
LINE
  5
160
330
12F
100
AcDbEntity
  8
AM_9
100
AcDbLine
 10
2.5
 20
-3.38
 30
0.0
 11
2.5
 21
-2.14
 31
0.0
  0
LWPOLYLINE
  5
161
330
12F
100
AcDbEntity
  8
AM_9
100
AcDbPolyline
 90
       11
 70
     0
 43
0.0
 10
2.402850899037565
 20
2.53125
 10
2.401313441402158
 20
2.466228493599073
 10
2.396705519739894
 20
2.403050646048546
 10
2.388953199728143
 20
2.343563379812903
 10
2.378019814162874
 20
2.289317601969556
 10
2.363697455559759
 20
2.2415364059837
 10
2.346108274285411
 20
2.201875561383839
 10
2.325194356802712
 20
2.17143289003607
 10
2.301361453803466
 20
2.151193084940538
 10
2.275230373669896
 20
2.141947947985888
 10
2.265783204387584
 20
2.14125000135454
  0
LWPOLYLINE
  5
162
330
12F
100
AcDbEntity
  8
AM_9
100
AcDbPolyline
 90
       39
 70
     0
 43
0.0
 10
0.3900000000000002
 20
2.53125
 10
0.3846962846345249
 20
2.467150323024273
 10
0.3683271991673026
 20
2.403050646048546
 10
0.3422992160661124
 20
2.34435097196474
 10
0.3058900370774422
 20
2.289317601969556
 10
0.2617458609152352
 20
2.242132196511971
 10
0.2088360102719092
 20
2.201875561383839
 10
0.1512378717215659
 20
2.171768281192032
 10
0.0875028074720181
 20
2.151193084940538
 10
0.023589815808531
 20
2.141964088888232
 10
-0.042886913010109
 20
2.143615232864152
 10
-0.1057312018206747
 20
2.155855656726748
 10
-0.1673457563629011
 20
2.178978232997124
 10
-0.2228554812324346
 20
2.211194638406635
 10
-0.2736054567128945
 20
2.25332905070519
 10
-0.315849201392391
 20
2.302472199547708
 10
-0.3502215999753424
 20
2.359655038212915
 10
-0.3738400082119219
 20
2.420148027649775
 10
-0.3873307186047221
 20
2.485698771419976
 10
-0.3895482823296129
 20
2.550015280015184
 10
-0.3807561458253788
 20
2.61565827812604
 10
-0.3618370530553301
 20
2.676762704037257
 10
-0.3322621589720276
 20
2.735460327151315
 10
-0.2941423656774661
 20
2.78733644773526
 10
-0.2465985495055992
 20
2.833390952837801
 10
-0.193039436352576
 20
2.87012427759079
 10
-0.1322818256704893
 20
2.898130796168568
 10
-0.0697135829966551
 20
2.914968668226825
 10
-0.003251553450486
 20
2.921236445149262
 10
0.0607390841471666
 20
2.916491175962491
 10
0.1248236662851432
 20
2.900734847233462
 10
0.1836018297002151
 20
2.875329014371311
 10
0.2388294621904453
 20
2.839568809010775
 10
0.2864412457463024
 20
2.795922274209647
 10
0.3272163505615868
 20
2.743451460704578
 10
0.3579127123463262
 20
2.686164461367865
 10
0.3791399906674994
 20
2.622644023199816
 10
0.3872353834875072
 20
2.577604695288432
 10
0.39
 20
2.53125
  0
LINE
  5
163
330
12F
100
AcDbEntity
  8
AM_9
100
AcDbLine
 10
-2.5
 20
1.851999999999999
 30
0.0
 11
-2.5
 21
1.47375
 31
0.0
  0
LINE
  5
164
330
12F
100
AcDbEntity
  8
AM_9
100
AcDbLine
 10
-2.5
 20
3.151250000000001
 30
0.0
 11
-2.5
 21
1.911250000000001
 31
0.0
  0
LINE
  5
165
330
12F
100
AcDbEntity
  8
AM_9
100
AcDbLine
 10
2.5
 20
1.911249999999999
 30
0.0
 11
2.5
 21
3.151250000000001
 31
0.0
  0
LINE
  5
166
330
12F
100
AcDbEntity
  8
AM_9
100
AcDbLine
 10
2.5
 20
1.47375
 30
0.0
 11
2.5
 21
1.851999999999999
 31
0.0
  0
LINE
  5
167
330
12F
100
AcDbEntity
  8
AM_9
100
AcDbLine
 10
2.933975000000001
 20
-1.7025
 30
0.0
 11
-2.933975000000001
 21
-1.7025
 31
0.0
  0
ARC
  5
168
330
12F
100
AcDbEntity
  8
AM_9
100
AcDbCircle
 10
-2.933974999999999
 20
-1.486875
 30
0.0
 40
0.2156250000000002
100
AcDbArc
 50
180.0
 51
270.0
  0
ARC
  5
169
330
12F
100
AcDbEntity
  8
AM_9
100
AcDbCircle
 10
2.933974999999999
 20
-1.486875
 30
0.0
 40
0.215625
100
AcDbArc
 50
270.0
 51
0.0
  0
LINE
  5
16A
330
12F
100
AcDbEntity
  8
AM_9
100
AcDbLine
 10
2.933975
 20
1.47375
 30
0.0
 11
-2.933975
 21
1.47375
 31
0.0
  0
ARC
  5
16B
330
12F
100
AcDbEntity
  8
AM_9
100
AcDbCircle
 10
-2.933974999999999
 20
1.258125
 30
0.0
 40
0.215625
100
AcDbArc
 50
90.0
 51
180.0
  0
ARC
  5
16C
330
12F
100
AcDbEntity
  8
AM_9
100
AcDbCircle
 10
2.933974999999999
 20
1.258125
 30
0.0
 40
0.2156250000000006
100
AcDbArc
 50
0.0
 51
90.0
  0
LINE
  5
16D
330
12F
100
AcDbEntity
  8
AM_9
100
AcDbLine
 10
-3.1496
 20
1.258125
 30
0.0
 11
-3.1496
 21
0.9637500000000002
 31
0.0
  0
LINE
  5
16E
330
12F
100
AcDbEntity
  8
AM_9
100
AcDbLine
 10
3.1496
 20
0.9637500000000002
 30
0.0
 11
3.1496
 21
1.258125
 31
0.0
  0
LINE
  5
16F
330
12F
100
AcDbEntity
  8
AM_9
100
AcDbLine
 10
3.1496
 20
1.258125
 30
0.0
 11
-3.1496
 21
1.258125
 31
0.0
  0
LINE
  5
170
330
12F
100
AcDbEntity
  8
AM_9
100
AcDbLine
 10
-3.1496
 20
-1.1925
 30
0.0
 11
-3.1496
 21
-1.486875
 31
0.0
  0
LINE
  5
171
330
12F
100
AcDbEntity
  8
AM_9
100
AcDbLine
 10
3.1496
 20
-1.486875
 30
0.0
 11
3.1496
 21
-1.1925
 31
0.0
  0
LINE
  5
172
330
12F
100
AcDbEntity
  8
AM_9
100
AcDbLine
 10
3.1496
 20
-1.486875
 30
0.0
 11
-3.1496
 21
-1.486875
 31
0.0
  0
LINE
  5
173
330
12F
100
AcDbEntity
  8
AM_9
100
AcDbLine
 10
-3.77952
 20
-0.0065624999999946
 30
0.0
 11
-3.77952
 21
-0.2221875000000052
 31
0.0
  0
LINE
  5
174
330
12F
100
AcDbEntity
  8
AM_9
100
AcDbLine
 10
3.77952
 20
-0.2221875000000052
 30
0.0
 11
3.77952
 21
-0.0065624999999946
 31
0.0
  0
LINE
  5
175
330
12F
100
AcDbEntity
  8
AM_9
100
AcDbLine
 10
3.721374999999999
 20
-1.1925
 30
0.0
 11
-3.721374999999999
 21
-1.1925
 31
0.0
  0
ARC
  5
176
330
12F
100
AcDbEntity
  8
AM_9
100
AcDbCircle
 10
-3.721374999999998
 20
-0.9768749999999986
 30
0.0
 40
0.2156250000000011
100
AcDbArc
 50
180.0
 51
270.0
  0
ARC
  5
177
330
12F
100
AcDbEntity
  8
AM_9
100
AcDbCircle
 10
3.721374999999998
 20
-0.9768749999999992
 30
0.0
 40
0.215625000000001
100
AcDbArc
 50
270.0
 51
0.0
  0
LINE
  5
178
330
12F
100
AcDbEntity
  8
AM_9
100
AcDbLine
 10
3.721374999999999
 20
0.9637500000000002
 30
0.0
 11
-3.721374999999999
 21
0.9637500000000002
 31
0.0
  0
ARC
  5
179
330
12F
100
AcDbEntity
  8
AM_9
100
AcDbCircle
 10
-3.721374999999998
 20
0.7481249999999995
 30
0.0
 40
0.2156250000000007
100
AcDbArc
 50
90.0
 51
180.0
  0
ARC
  5
17A
330
12F
100
AcDbEntity
  8
AM_9
100
AcDbCircle
 10
3.721374999999998
 20
0.7481249999999995
 30
0.0
 40
0.2156250000000011
100
AcDbArc
 50
0.0
 51
90.0
  0
LINE
  5
17B
330
12F
100
AcDbEntity
  8
AM_9
100
AcDbLine
 10
-3.936999999999999
 20
0.7481249999999999
 30
0.0
 11
-3.936999999999999
 21
0.0843586203919875
 31
0.0
  0
LINE
  5
17C
330
12F
100
AcDbEntity
  8
AM_9
100
AcDbLine
 10
3.936999999999999
 20
0.0843586203919875
 30
0.0
 11
3.936999999999999
 21
0.7481249999999999
 31
0.0
  0
LINE
  5
17D
330
12F
100
AcDbEntity
  8
AM_9
100
AcDbLine
 10
3.936999999999999
 20
0.7481249999999999
 30
0.0
 11
-3.936999999999999
 21
0.7481249999999999
 31
0.0
  0
LINE
  5
17E
330
12F
100
AcDbEntity
  8
AM_9
100
AcDbLine
 10
3.77952
 20
-0.0065624999999946
 30
0.0
 11
3.936999999999999
 21
0.0843586203919875
 31
0.0
  0
LINE
  5
17F
330
12F
100
AcDbEntity
  8
AM_9
100
AcDbLine
 10
-3.936999999999999
 20
0.0843586203919875
 30
0.0
 11
-3.77952
 21
-0.0065624999999946
 31
0.0
  0
LINE
  5
180
330
12F
100
AcDbEntity
  8
AM_9
100
AcDbLine
 10
2.738076426812905
 20
0.0843586203919877
 30
0.0
 11
-3.936999999999999
 21
0.0843586203919875
 31
0.0
  0
LINE
  5
181
330
12F
100
AcDbEntity
  8
AM_9
100
AcDbLine
 10
3.936999999999999
 20
0.0843586203919875
 30
0.0
 11
2.74999258754938
 21
0.0843586203919877
 31
0.0
  0
LINE
  5
182
330
12F
100
AcDbEntity
  8
AM_9
100
AcDbLine
 10
3.77952
 20
-0.0065624999999946
 30
0.0
 11
-3.77952
 21
-0.0065624999999946
 31
0.0
  0
LINE
  5
183
330
12F
100
AcDbEntity
  8
AM_9
100
AcDbLine
 10
-3.936999999999999
 20
-0.3131086203919873
 30
0.0
 11
-3.936999999999999
 21
-0.9768749999999998
 31
0.0
  0
LINE
  5
184
330
12F
100
AcDbEntity
  8
AM_9
100
AcDbLine
 10
3.936999999999999
 20
-0.9768749999999998
 30
0.0
 11
3.936999999999999
 21
-0.3131086203919873
 31
0.0
  0
LINE
  5
185
330
12F
100
AcDbEntity
  8
AM_9
100
AcDbLine
 10
3.936999999999999
 20
-0.9768749999999998
 30
0.0
 11
-3.936999999999999
 21
-0.9768749999999998
 31
0.0
  0
LINE
  5
186
330
12F
100
AcDbEntity
  8
AM_9
100
AcDbLine
 10
-3.77952
 20
-0.2221875000000052
 30
0.0
 11
-3.936999999999999
 21
-0.3131086203919873
 31
0.0
  0
LINE
  5
187
330
12F
100
AcDbEntity
  8
AM_9
100
AcDbLine
 10
3.936999999999999
 20
-0.3131086203919873
 30
0.0
 11
3.77952
 21
-0.2221875000000052
 31
0.0
  0
LINE
  5
188
330
12F
100
AcDbEntity
  8
AM_9
100
AcDbLine
 10
2.44261716761476
 20
-0.222187500000005
 30
0.0
 11
-3.77952
 21
-0.2221875000000052
 31
0.0
  0
LINE
  5
189
330
12F
100
AcDbEntity
  8
AM_9
100
AcDbLine
 10
3.77952
 20
-0.2221875000000052
 30
0.0
 11
2.669837243563921
 21
-0.222187500000005
 31
0.0
  0
LINE
  5
18A
330
12F
100
AcDbEntity
  8
AM_9
100
AcDbLine
 10
3.936999999999999
 20
-0.3131086203919873
 30
0.0
 11
-3.936999999999999
 21
-0.3131086203919873
 31
0.0
  0
LINE
  5
18B
330
12F
100
AcDbEntity
  8
AM_7
100
AcDbLine
 10
0.0
 20
3.477812500000001
 30
0.0
 11
0.0
 21
-3.7065625
 31
0.0
  0
LINE
  5
18C
330
12F
100
AcDbEntity
  8
AM_4
100
AcDbLine
 10
-2.5
 20
-1.851999999999999
 30
0.0
 11
-2.5
 21
-2.14
 31
0.0
  0
LINE
  5
18D
330
12F
100
AcDbEntity
  8
AM_4
100
AcDbLine
 10
2.5
 20
-2.14
 30
0.0
 11
2.5
 21
-1.851999999999999
 31
0.0
  0
LINE
  5
18E
330
12F
100
AcDbEntity
  8
AM_4
100
AcDbLine
 10
-2.5
 20
1.911250000000001
 30
0.0
 11
-2.5
 21
1.851999999999999
 31
0.0
  0
LINE
  5
18F
330
12F
100
AcDbEntity
  8
AM_4
100
AcDbLine
 10
2.5
 20
1.851999999999999
 30
0.0
 11
2.5
 21
1.911249999999999
 31
0.0
  0
ENDBLK
  5
132
330
12F
100
AcDbEntity
  8
0
100
AcDbBlockEnd
  0
BLOCK
  5
192
330
190
100
AcDbEntity
  8
0
100
AcDbBlockBegin
  2
5_405015E_Inch_0_in_071455_4
 70
     2
 10
0.0
 20
0.0
 30
0.0
  3
5_405015E_Inch_0_in_071455_4
  1

  0
ATTDEF
  5
194
330
190
100
AcDbEntity
  8
AM_6
100
AcDbText
 10
7.786421671481428
 20
0.2187500000000002
 30
0.0
 40
0.5
  1
405015E -Inch
100
AcDbAttributeDefinition
  3

  2
NN
 70
     8
280
     0
  0
ATTDEF
  5
195
330
190
100
AcDbEntity
  8
AM_6
100
AcDbText
 10
7.786421671481428
 20
-0.2812499999999998
 30
0.0
 40
0.5
  1
Grease Fitting
100
AcDbAttributeDefinition
  3

  2
NT
 70
     8
280
     0
  0
ATTDEF
  5
196
330
190
100
AcDbEntity
  8
AM_6
100
AcDbText
 10
7.786421671481428
 20
-0.7812499999999998
 30
0.0
 40
0.5
  1
405015E-Inch
100
AcDbAttributeDefinition
  3

  2
NB
 70
     8
280
     0
  0
ATTDEF
  5
197
330
190
100
AcDbEntity
  8
AM_6
100
AcDbText
 10
7.786421671481428
 20
-1.28125
 30
0.0
 40
0.5
  1
$MN.-Inch
100
AcDbAttributeDefinition
  3

  2
NBSYN
 70
     8
280
     0
  0
ATTDEF
  5
198
330
190
100
AcDbEntity
  8
AM_6
100
AcDbText
 10
7.786421671481428
 20
-1.78125
 30
0.0
 40
0.5
  1
405015E
100
AcDbAttributeDefinition
  3

  2
LINA
 70
     8
280
     0
  0
ATTDEF
  5
199
330
190
100
AcDbEntity
  8
AM_6
100
AcDbText
 10
7.786421671481428
 20
-2.28125
 30
0.0
 40
0.5
  1
405015E
100
AcDbAttributeDefinition
  3

  2
MN
 70
     8
280
     0
  0
ATTDEF
  5
19A
330
190
100
AcDbEntity
  8
AM_6
100
AcDbText
 10
7.786421671481428
 20
-2.78125
 30
0.0
 40
0.5
  1
1/8 x 27PTF
100
AcDbAttributeDefinition
  3

  2
T
 70
     8
280
     0
  0
ATTDEF
  5
19B
330
190
100
AcDbEntity
  8
AM_6
100
AcDbText
 10
7.786421671481428
 20
-3.28125
 30
0.0
 40
0.5
  1
baldor
100
AcDbAttributeDefinition
  3

  2
COMPANY
 70
     8
280
     0
  0
ELLIPSE
  5
19C
330
190
100
AcDbEntity
  8
AM_9
100
AcDbEllipse
 10
2.3775
 20
0.0000000000000003
 30
0.0
 11
9.913691727296317E-18
 21
0.161902872472269
 31
0.0
210
0.0
220
0.0
230
1.0
 40
0.8660254037844397
 41
0.0
 42
6.283185307179586
  0
LINE
  5
19D
330
190
100
AcDbEntity
  8
AM_9
100
AcDbLine
 10
2.71146983047502
 20
0.0385253333431551
 30
0.0
 11
2.733283799848307
 21
0.0000000000000003
 31
0.0
  0
LWPOLYLINE
  5
19E
330
190
100
AcDbEntity
  8
AM_9
100
AcDbPolyline
 90
        3
 70
     0
 43
0.0
 10
2.6740625
 20
0.1093750000000002
 10
2.688038082002
 20
0.0820312500000003
 10
2.698422835668092
 20
0.0624273782317762
  0
LINE
  5
19F
330
190
100
AcDbEntity
  8
AM_9
100
AcDbLine
 10
2.695083823230877
 20
-0.0686701137604398
 30
0.0
 11
2.6740625
 21
-0.1093749999999997
 31
0.0
  0
LINE
  5
1A0
330
190
100
AcDbEntity
  8
AM_9
100
AcDbLine
 10
2.733283799848307
 20
0.0000000000000003
 30
0.0
 11
2.705327544567024
 21
-0.0496855147339977
 31
0.0
  0
LWPOLYLINE
  5
1A1
330
190
100
AcDbEntity
  8
AM_9
100
AcDbPolyline
 90
        4
 70
     0
 43
0.0
 10
2.774216200151693
 20
0.0000000000000003
 10
2.756486748285697
 20
0.0408050906197753
 10
2.737507718547504
 20
0.0818700010907653
 10
2.7240625
 20
0.1093750000000002
  0
LWPOLYLINE
  5
1A2
330
190
100
AcDbEntity
  8
AM_9
100
AcDbPolyline
 90
        4
 70
     0
 43
0.0
 10
2.7240625
 20
-0.1093749999999997
 10
2.737430667998001
 20
-0.0820312499999997
 10
2.750209559607483
 20
-0.0546874999999997
 10
2.774216200151693
 20
0.0000000000000003
  0
LWPOLYLINE
  5
1A3
330
190
100
AcDbEntity
  8
AM_9
100
AcDbPolyline
 90
        4
 70
     0
 43
0.0
 10
2.623908799848308
 20
0.2187500000000002
 10
2.641638251714304
 20
0.1779449093802252
 10
2.660617281452497
 20
0.1368799989092352
 10
2.6740625
 20
0.1093750000000002
  0
LWPOLYLINE
  5
1A4
330
190
100
AcDbEntity
  8
AM_9
100
AcDbPolyline
 90
        4
 70
     0
 43
0.0
 10
2.6740625
 20
-0.1093749999999997
 10
2.660694332002
 20
-0.1367187499999997
 10
2.647900395778899
 20
-0.1640954144832169
 10
2.623908799848308
 20
-0.2187499999999997
  0
LINE
  5
1A5
330
190
100
AcDbEntity
  8
AM_9
100
AcDbLine
 10
2.774216200151693
 20
0.0000000000000003
 30
0.0
 11
2.733283799848307
 21
0.0000000000000003
 31
0.0
  0
LINE
  5
1A6
330
190
100
AcDbEntity
  8
AM_9
100
AcDbLine
 10
2.386546710626155
 20
-0.1983264404626877
 30
0.0
 11
2.50035489783229
 21
-0.2054502516015132
 31
0.0
  0
LINE
  5
1A7
330
190
100
AcDbEntity
  8
AM_9
100
AcDbLine
 10
2.50035489783229
 20
0.2054502516015137
 30
0.0
 11
2.386546710626155
 21
0.1983264404626882
 31
0.0
  0
ELLIPSE
  5
1A8
330
190
100
AcDbEntity
  8
AM_9
100
AcDbEllipse
 10
2.560000000002834
 20
-0.0000000000009686
 30
0.0
 11
-4.018372309737571E-17
 21
-0.2187500000019226
 31
0.0
210
0.0
220
0.0
230
1.0
 40
0.8660254037676055
 41
1.032970329619726
 42
2.108622323977675
  0
ELLIPSE
  5
1A9
330
190
100
AcDbEntity
  8
AM_9
100
AcDbEllipse
 10
2.559999999999995
 20
0.0000000000000014
 30
0.0
 11
-3.926523799766291E-17
 21
-0.2137500000000049
 31
0.0
210
0.0
220
0.0
230
1.0
 40
0.866025403784444
 41
0.9862868522354136
 42
2.15530580135437
  0
ELLIPSE
  5
1AA
330
190
100
AcDbEntity
  8
AM_9
100
AcDbEllipse
 10
2.569159099270442
 20
-0.0000000000000006
 30
0.0
 11
-3.169399141454447E-17
 21
-0.172534053283015
 31
0.0
210
0.0
220
0.0
230
1.0
 40
0.8660254037844374
 41
0.6732704101472384
 42
2.468322243442562
  0
LINE
  5
1AB
330
190
100
AcDbEntity
  8
AM_9
100
AcDbLine
 10
2.68
 20
0.0703562363973518
 30
0.0
 11
2.672760904853149
 21
0.0796165180238023
 31
0.0
  0
LINE
  5
1AC
330
190
100
AcDbEntity
  8
AM_9
100
AcDbLine
 10
2.672760904853149
 20
-0.0796165180238017
 30
0.0
 11
2.68
 21
-0.0703562363973513
 31
0.0
  0
ELLIPSE
  5
1AD
330
190
100
AcDbEntity
  8
AM_9
100
AcDbEllipse
 10
2.596376560809284
 20
0.0000000000000025
 30
0.0
 11
-2.182689656893397E-17
 21
-0.1188200907348998
 31
0.0
210
0.0
220
0.0
230
1.0
 40
0.866025403784442
 41
0.0521714424113906
 42
3.089421211178403
  0
LINE
  5
1AE
330
190
100
AcDbEntity
  8
AM_9
100
AcDbLine
 10
2.6125
 20
-0.1049999999999997
 30
0.0
 11
2.6275
 21
-0.1049999999999997
 31
0.0
  0
LINE
  5
1AF
330
190
100
AcDbEntity
  8
AM_9
100
AcDbLine
 10
2.6275
 20
0.1050000000000003
 30
0.0
 11
2.6125
 21
0.1050000000000003
 31
0.0
  0
ELLIPSE
  5
1B0
330
190
100
AcDbEntity
  8
AM_9
100
AcDbEllipse
 10
2.627500000000002
 20
0.0000000000000008
 30
0.0
 11
-1.928818708657073E-17
 21
-0.1049999999999996
 31
0.0
210
0.0
220
0.0
230
1.0
 40
0.8660254037844488
 41
5.235987755982992
 42
10.47197551196598
  0
ELLIPSE
  5
1B1
330
190
100
AcDbEntity
  8
AM_9
100
AcDbEllipse
 10
2.612499999999994
 20
-0.0000000000000054
 30
0.0
 11
-1.928818708656979E-17
 21
-0.1049999999999944
 31
0.0
210
0.0
220
0.0
230
1.0
 40
0.8660254037844275
 41
5.85810598127176
 42
9.849857286677162
  0
ELLIPSE
  5
1B2
330
190
100
AcDbEntity
  8
AM_9
100
AcDbEllipse
 10
2.657499999999999
 20
0.0000000000000007
 30
0.0
 11
-2.479909768273385E-17
 21
-0.1349999999999997
 31
0.0
210
0.0
220
0.0
230
1.0
 40
0.8660254037844461
 41
0.77510901071512
 42
2.366483642874668
  0
ELLIPSE
  5
1B3
330
190
100
AcDbEntity
  8
AM_9
100
AcDbEllipse
 10
2.51
 20
0.0000000000000013
 30
0.0
 11
-3.779601035290893E-17
 21
-0.2057518972230687
 31
0.0
210
0.0
220
0.0
230
1.0
 40
0.8660254037844415
 41
0.0
 42
6.283185307179586
  0
ELLIPSE
  5
1B4
330
190
100
AcDbEntity
  8
AM_9
100
AcDbEllipse
 10
2.395857377154473
 20
0.0000000000000005
 30
0.0
 11
-3.648546613377882E-17
 21
-0.1986176267812152
 31
0.0
210
0.0
220
0.0
230
1.0
 40
0.8660254037844384
 41
0.0
 42
6.283185307179586
  0
ELLIPSE
  5
1B5
330
190
100
AcDbEntity
  8
AM_9
100
AcDbEllipse
 10
2.509999999999999
 20
0.0000000000000003
 30
0.0
 11
-4.018372309702245E-17
 21
-0.2187499999999996
 31
0.0
210
0.0
220
0.0
230
1.0
 40
0.8660254037844335
 41
0.0
 42
6.283185307179586
  0
LWPOLYLINE
  5
1B6
330
190
100
AcDbEntity
  8
AM_4
100
AcDbPolyline
 90
        4
 70
     0
 43
0.0
 10
2.7240625
 20
0.1093750000000002
 10
2.710086917998001
 20
0.1367187500000002
 10
2.695522059607483
 20
0.1640625000000002
 10
2.664841200151693
 20
0.2187500000000002
  0
LWPOLYLINE
  5
1B7
330
190
100
AcDbEntity
  8
AM_4
100
AcDbPolyline
 90
        4
 70
     0
 43
0.0
 10
2.664841200151693
 20
-0.2187499999999997
 10
2.687916838905472
 20
-0.1779449093802246
 10
2.710002719638269
 20
-0.1368799989092346
 10
2.7240625
 20
-0.1093749999999997
  0
ELLIPSE
  5
1B8
330
190
100
AcDbEntity
  8
AM_4
100
AcDbEllipse
 10
2.560000000000002
 20
0.0000000000000012
 30
0.0
 11
-4.018372309702232E-17
 21
-0.2187499999999989
 31
0.0
210
0.0
220
0.0
230
1.0
 40
0.8660254037844342
 41
2.108622323974759
 42
7.316155636794612
  0
ELLIPSE
  5
1B9
330
190
100
AcDbEntity
  8
AM_4
100
AcDbEllipse
 10
2.56
 20
0.0000000000000001
 30
0.0
 11
-3.926523799766199E-17
 21
-0.2137499999999999
 31
0.0
210
0.0
220
0.0
230
1.0
 40
0.8660254037844375
 41
2.155305801354389
 42
7.269472159414994
  0
LWPOLYLINE
  5
1BA
330
190
100
AcDbEntity
  8
AM_4
100
AcDbPolyline
 90
        4
 70
     0
 43
0.0
 10
2.3959375
 20
0.1093750000000002
 10
2.381961917998001
 20
0.0820312500000002
 10
2.367379189737884
 20
0.0546545855167831
 10
2.336716200151693
 20
0.0000000000000003
  0
LWPOLYLINE
  5
1BB
330
190
100
AcDbEntity
  8
AM_4
100
AcDbPolyline
 90
        4
 70
     0
 43
0.0
 10
2.446091200151693
 20
0.2187500000000002
 10
2.434400889819992
 20
0.1915825951815905
 10
2.409382718547504
 20
0.1368799989092351
 10
2.3959375
 20
0.1093750000000002
  0
LINE
  5
1BC
330
190
100
AcDbEntity
  8
AM_4
100
AcDbLine
 10
2.664841200151693
 20
0.2187500000000002
 30
0.0
 11
2.405158799848308
 21
0.2187500000000002
 31
0.0
  0
LWPOLYLINE
  5
1BD
330
190
100
AcDbEntity
  8
AM_4
100
AcDbPolyline
 90
        4
 70
     0
 43
0.0
 10
2.3459375
 20
0.1093750000000002
 10
2.359913082002
 20
0.1367187500000002
 10
2.374477940392517
 20
0.1640625000000002
 10
2.405158799848308
 20
0.2187500000000002
  0
LWPOLYLINE
  5
1BE
330
190
100
AcDbEntity
  8
AM_4
100
AcDbPolyline
 90
        4
 70
     0
 43
0.0
 10
2.295783799848308
 20
0.0000000000000003
 10
2.313513251714304
 20
0.0408050906197753
 10
2.332492281452496
 20
0.0818700010907653
 10
2.3459375
 20
0.1093750000000002
  0
LINE
  5
1BF
330
190
100
AcDbEntity
  8
AM_4
100
AcDbLine
 10
2.664841200151693
 20
-0.2187499999999997
 30
0.0
 11
2.405158799848308
 21
-0.2187499999999997
 31
0.0
  0
LWPOLYLINE
  5
1C0
330
190
100
AcDbEntity
  8
AM_4
100
AcDbPolyline
 90
        4
 70
     0
 43
0.0
 10
2.3959375
 20
-0.1093749999999997
 10
2.409305667998001
 20
-0.1367187499999997
 10
2.422099604221101
 20
-0.1640954144832169
 10
2.446091200151693
 20
-0.2187499999999997
  0
LWPOLYLINE
  5
1C1
330
190
100
AcDbEntity
  8
AM_4
100
AcDbPolyline
 90
        4
 70
     0
 43
0.0
 10
2.336716200151693
 20
0.0000000000000003
 10
2.352193294638401
 20
-0.0271674048184094
 10
2.381877719638269
 20
-0.0818700010907648
 10
2.3959375
 20
-0.1093749999999997
  0
LINE
  5
1C2
330
190
100
AcDbEntity
  8
AM_4
100
AcDbLine
 10
2.336716200151693
 20
0.0000000000000003
 30
0.0
 11
2.295783799848308
 21
0.0000000000000003
 31
0.0
  0
LWPOLYLINE
  5
1C3
330
190
100
AcDbEntity
  8
AM_4
100
AcDbPolyline
 90
        4
 70
     0
 43
0.0
 10
2.3459375
 20
-0.1093749999999997
 10
2.332569332002
 20
-0.0820312499999997
 10
2.319790440392518
 20
-0.0546874999999997
 10
2.295783799848308
 20
0.0000000000000003
  0
LWPOLYLINE
  5
1C4
330
190
100
AcDbEntity
  8
AM_4
100
AcDbPolyline
 90
        4
 70
     0
 43
0.0
 10
2.405158799848308
 20
-0.2187499999999997
 10
2.382083161094529
 20
-0.1779449093802246
 10
2.359997280361732
 20
-0.1368799989092346
 10
2.3459375
 20
-0.1093749999999997
  0
ELLIPSE
  5
1C5
330
190
100
AcDbEntity
  8
AM_4
100
AcDbEllipse
 10
2.569159099270442
 20
0.0000000000000003
 30
0.0
 11
-3.169399141454463E-17
 21
-0.1725340532830158
 31
0.0
210
0.0
220
0.0
230
1.0
 40
0.8660254037844412
 41
2.468322243442562
 42
6.956455717326818
  0
ELLIPSE
  5
1C6
330
190
100
AcDbEntity
  8
AM_4
100
AcDbEllipse
 10
2.596376560809286
 20
0.0000000000000003
 30
0.0
 11
-2.182689656893355E-17
 21
-0.1188200907348975
 31
0.0
210
0.0
220
0.0
230
1.0
 40
0.8660254037844327
 41
3.089421211178424
 42
6.335356749590956
  0
ELLIPSE
  5
1C7
330
190
100
AcDbEntity
  8
AM_4
100
AcDbEllipse
 10
2.6125
 20
0.0000000000000003
 30
0.0
 11
-1.928818708657079E-17
 21
-0.1049999999999999
 31
0.0
210
0.0
220
0.0
230
1.0
 40
0.8660254037844375
 41
3.566671979497647
 42
5.858105981271732
  0
LINE
  5
1C8
330
190
100
AcDbEntity
  8
AM_4
100
AcDbLine
 10
2.548750000000001
 20
-0.0524999999999998
 30
0.0
 11
2.55625
 21
-0.0674999999999998
 31
0.0
  0
LINE
  5
1C9
330
190
100
AcDbEntity
  8
AM_4
100
AcDbLine
 10
2.55625
 20
0.0675000000000003
 30
0.0
 11
2.548750000000001
 21
0.0525000000000003
 31
0.0
  0
ELLIPSE
  5
1CA
330
190
100
AcDbEntity
  8
AM_4
100
AcDbEllipse
 10
2.657500000000003
 20
0.0000000000000002
 30
0.0
 11
-2.479909768273421E-17
 21
-0.1350000000000017
 31
0.0
210
0.0
220
0.0
230
1.0
 40
0.8660254037844501
 41
2.366483642874697
 42
7.05829431789468
  0
ELLIPSE
  5
1CB
330
190
100
AcDbEntity
  8
AM_4
100
AcDbEllipse
 10
2.627499999999999
 20
0.0000000000000003
 30
0.0
 11
-1.928818708657049E-17
 21
-0.1049999999999982
 31
0.0
210
0.0
220
0.0
230
1.0
 40
0.8660254037844425
 41
4.188790204786379
 42
5.235987755982999
  0
LINE
  5
1CC
330
190
100
AcDbEntity
  8
AM_4
100
AcDbLine
 10
2.759726847792107
 20
0.073347420521869
 30
0.0
 11
2.739315310731619
 21
0.0964365416902994
 31
0.0
  0
LINE
  5
1CD
330
190
100
AcDbEntity
  8
AM_4
100
AcDbLine
 10
2.739315310731619
 20
-0.0964365416902988
 30
0.0
 11
2.759726847792107
 21
-0.0733474205218684
 31
0.0
  0
ELLIPSE
  5
1CE
330
190
100
AcDbEntity
  8
AM_4
100
AcDbEllipse
 10
2.697499999999998
 20
-0.0000000000000002
 30
0.0
 11
-1.886162459184680E-17
 21
-0.1026779019331887
 31
0.0
210
0.0
220
0.0
230
1.0
 40
0.8660254037844515
 41
0.0
 42
6.283185307179586
  0
ENDBLK
  5
193
330
190
100
AcDbEntity
  8
0
100
AcDbBlockEnd
  0
BLOCK
  5
1D1
330
1CF
100
AcDbEntity
  8
0
100
AcDbBlockBegin
  2
6_B071455_0_in_071455_4
 70
     2
 10
0.0
 20
0.0
 30
0.0
  3
6_B071455_0_in_071455_4
  1

  0
ATTDEF
  5
1D3
330
1CF
100
AcDbEntity
  8
AM_6
100
AcDbText
 10
13.315
 20
2.315
 30
0.0
 40
0.5
  1
EP4B-S2-(Labyrinth Seal)-Housing
100
AcDbAttributeDefinition
  3

  2
NN
 70
     8
280
     0
  0
ATTDEF
  5
1D4
330
1CF
100
AcDbEntity
  8
AM_6
100
AcDbText
 10
13.315
 20
1.815
 30
0.0
 40
0.5
  1
S-2000/E Type Pillow Block Bearing -Inch (4-Bolt Base)
100
AcDbAttributeDefinition
  3

  2
NT
 70
     8
280
     0
  0
ATTDEF
  5
1D5
330
1CF
100
AcDbEntity
  8
AM_6
100
AcDbText
 10
13.315
 20
1.315
 30
0.0
 40
0.5
  1
B071455
100
AcDbAttributeDefinition
  3

  2
NB
 70
     8
280
     0
  0
ATTDEF
  5
1D6
330
1CF
100
AcDbEntity
  8
AM_6
100
AcDbText
 10
13.315
 20
0.8150000000000004
 30
0.0
 40
0.5
  1
$PN.
100
AcDbAttributeDefinition
  3

  2
NBSYN
 70
     8
280
     0
  0
ATTDEF
  5
1D7
330
1CF
100
AcDbEntity
  8
AM_6
100
AcDbText
 10
13.315
 20
0.3150000000000004
 30
0.0
 40
0.5
  1
B071455
100
AcDbAttributeDefinition
  3

  2
LINA
 70
     8
280
     0
  0
ATTDEF
  5
1D8
330
1CF
100
AcDbEntity
  8
AM_6
100
AcDbText
 10
13.315
 20
-0.1849999999999996
 30
0.0
 40
0.5
  1
4-7/16
100
AcDbAttributeDefinition
  3

  2
SS
 70
     8
280
     0
  0
ATTDEF
  5
1D9
330
1CF
100
AcDbEntity
  8
AM_6
100
AcDbText
 10
13.315
 20
-0.6849999999999996
 30
0.0
 40
0.5
  1
4.437500
100
AcDbAttributeDefinition
  3

  2
SS1
 70
     8
280
     0
  0
ATTDEF
  5
1DA
330
1CF
100
AcDbEntity
  8
AM_6
100
AcDbText
 10
13.315
 20
-1.185
 30
0.0
 40
0.5
  1
Non-Expansion
100
AcDbAttributeDefinition
  3

  2
TYPE
 70
     8
280
     0
  0
ATTDEF
  5
1DB
330
1CF
100
AcDbEntity
  8
AM_6
100
AcDbText
 10
13.315
 20
-1.685
 30
0.0
 40
0.5
  1
071455
100
AcDbAttributeDefinition
  3

  2
PN1
 70
     8
280
     0
  0
ATTDEF
  5
1DC
330
1CF
100
AcDbEntity
  8
AM_6
100
AcDbText
 10
13.315
 20
-2.185
 30
0.0
 40
0.5
  1
071463
100
AcDbAttributeDefinition
  3

  2
PN2
 70
     8
280
     0
  0
ATTDEF
  5
1DD
330
1CF
100
AcDbEntity
  8
AM_6
100
AcDbText
 10
13.315
 20
-2.685
 30
0.0
 40
0.5
  1
EP4B-S2-407L
100
AcDbAttributeDefinition
  3

  2
DESC1
 70
     8
280
     0
  0
ATTDEF
  5
1DE
330
1CF
100
AcDbEntity
  8
AM_6
100
AcDbText
 10
13.315
 20
-3.185
 30
0.0
 40
0.5
  1
Non-Expansion Type
100
AcDbAttributeDefinition
  3

  2
EF
 70
     8
280
     0
  0
ATTDEF
  5
1DF
330
1CF
100
AcDbEntity
  8
AM_6
100
AcDbText
 10
13.315
 20
-3.685
 30
0.0
 40
0.5
  1
1
100
AcDbAttributeDefinition
  3

  2
EF1
 70
     8
280
     0
  0
ATTDEF
  5
1E0
330
1CF
100
AcDbEntity
  8
AM_6
100
AcDbText
 10
13.315
 20
-4.185
 30
0.0
 40
0.5
  1
6.53
100
AcDbAttributeDefinition
  3

  2
A
 70
     8
280
     0
  0
ATTDEF
  5
1E1
330
1CF
100
AcDbEntity
  8
AM_6
100
AcDbText
 10
13.315
 20
-4.685
 30
0.0
 40
0.5
  1
6.5300000
100
AcDbAttributeDefinition
  3

  2
A1
 70
     8
280
     0
  0
ATTDEF
  5
1E2
330
1CF
100
AcDbEntity
  8
AM_6
100
AcDbText
 10
13.315
 20
-5.185
 30
0.0
 40
0.5
  1
16.63
100
AcDbAttributeDefinition
  3

  2
B
 70
     8
280
     0
  0
ATTDEF
  5
1E3
330
1CF
100
AcDbEntity
  8
AM_6
100
AcDbText
 10
13.315
 20
-5.685
 30
0.0
 40
0.5
  1
16.6300000
100
AcDbAttributeDefinition
  3

  2
B1
 70
     8
280
     0
  0
ATTDEF
  5
1E4
330
1CF
100
AcDbEntity
  8
AM_6
100
AcDbText
 10
13.315
 20
-6.185
 30
0.0
 40
0.5
  1
4.63
100
AcDbAttributeDefinition
  3

  2
C
 70
     8
280
     0
  0
ATTDEF
  5
1E5
330
1CF
100
AcDbEntity
  8
AM_6
100
AcDbText
 10
13.315
 20
-6.685
 30
0.0
 40
0.5
  1
4.6300000
100
AcDbAttributeDefinition
  3

  2
C1
 70
     8
280
     0
  0
ATTDEF
  5
1E6
330
1CF
100
AcDbEntity
  8
AM_6
100
AcDbText
 10
13.315
 20
-7.185
 30
0.0
 40
0.5
  1
13.25
100
AcDbAttributeDefinition
  3

  2
DMIN
 70
     8
280
     0
  0
ATTDEF
  5
1E7
330
1CF
100
AcDbEntity
  8
AM_6
100
AcDbText
 10
13.315
 20
-7.685
 30
0.0
 40
0.5
  1
13.2500000
100
AcDbAttributeDefinition
  3

  2
DMIN1
 70
     8
280
     0
  0
ATTDEF
  5
1E8
330
1CF
100
AcDbEntity
  8
AM_6
100
AcDbText
 10
13.315
 20
-8.184999999999999
 30
0.0
 40
0.5
  1
13.75
100
AcDbAttributeDefinition
  3

  2
DMAX
 70
     8
280
     0
  0
ATTDEF
  5
1E9
330
1CF
100
AcDbEntity
  8
AM_6
100
AcDbText
 10
13.315
 20
-8.684999999999999
 30
0.0
 40
0.5
  1
13.7500000
100
AcDbAttributeDefinition
  3

  2
DMAX1
 70
     8
280
     0
  0
ATTDEF
  5
1EA
330
1CF
100
AcDbEntity
  8
AM_6
100
AcDbText
 10
13.315
 20
-9.184999999999999
 30
0.0
 40
0.5
  1
2.5
100
AcDbAttributeDefinition
  3

  2
E
 70
     8
280
     0
  0
ATTDEF
  5
1EB
330
1CF
100
AcDbEntity
  8
AM_6
100
AcDbText
 10
13.315
 20
-9.684999999999999
 30
0.0
 40
0.5
  1
2.500000
100
AcDbAttributeDefinition
  3

  2
E1
 70
     8
280
     0
  0
ATTDEF
  5
1EC
330
1CF
100
AcDbEntity
  8
AM_6
100
AcDbText
 10
13.315
 20
-10.185
 30
0.0
 40
0.5
  1
3/4
100
AcDbAttributeDefinition
  3

  2
F
 70
     8
280
     0
  0
ATTDEF
  5
1ED
330
1CF
100
AcDbEntity
  8
AM_6
100
AcDbText
 10
13.315
 20
-10.685
 30
0.0
 40
0.5
  1
0.7500000
100
AcDbAttributeDefinition
  3

  2
F1
 70
     8
280
     0
  0
ATTDEF
  5
1EE
330
1CF
100
AcDbEntity
  8
AM_6
100
AcDbText
 10
13.315
 20
-11.185
 30
0.0
 40
0.5
  1
1.13
100
AcDbAttributeDefinition
  3

  2
G
 70
     8
280
     0
  0
ATTDEF
  5
1EF
330
1CF
100
AcDbEntity
  8
AM_6
100
AcDbText
 10
13.315
 20
-11.685
 30
0.0
 40
0.5
  1
1.1300000
100
AcDbAttributeDefinition
  3

  2
G1
 70
     8
280
     0
  0
ATTDEF
  5
1F0
330
1CF
100
AcDbEntity
  8
AM_6
100
AcDbText
 10
13.315
 20
-12.185
 30
0.0
 40
0.5
  1
2.75
100
AcDbAttributeDefinition
  3

  2
H
 70
     8
280
     0
  0
ATTDEF
  5
1F1
330
1CF
100
AcDbEntity
  8
AM_6
100
AcDbText
 10
13.315
 20
-12.685
 30
0.0
 40
0.5
  1
2.7500000
100
AcDbAttributeDefinition
  3

  2
H1
 70
     8
280
     0
  0
ATTDEF
  5
1F2
330
1CF
100
AcDbEntity
  8
AM_6
100
AcDbText
 10
13.315
 20
-13.185
 30
0.0
 40
0.5
  1
9.67
100
AcDbAttributeDefinition
  3

  2
J
 70
     8
280
     0
  0
ATTDEF
  5
1F3
330
1CF
100
AcDbEntity
  8
AM_6
100
AcDbText
 10
13.315
 20
-13.685
 30
0.0
 40
0.5
  1
9.6700000
100
AcDbAttributeDefinition
  3

  2
JJ
 70
     8
280
     0
  0
ATTDEF
  5
1F4
330
1CF
100
AcDbEntity
  8
AM_6
100
AcDbText
 10
13.315
 20
-14.185
 30
0.0
 40
0.5
  1
6.45
100
AcDbAttributeDefinition
  3

  2
L
 70
     8
280
     0
  0
ATTDEF
  5
1F5
330
1CF
100
AcDbEntity
  8
AM_6
100
AcDbText
 10
13.315
 20
-14.685
 30
0.0
 40
0.5
  1
6.4500000
100
AcDbAttributeDefinition
  3

  2
L1
 70
     8
280
     0
  0
ATTDEF
  5
1F6
330
1CF
100
AcDbEntity
  8
AM_6
100
AcDbText
 10
13.315
 20
-15.185
 30
0.0
 40
0.5
  1
4.75
100
AcDbAttributeDefinition
  3

  2
M
 70
     8
280
     0
  0
ATTDEF
  5
1F7
330
1CF
100
AcDbEntity
  8
AM_6
100
AcDbText
 10
13.315
 20
-15.685
 30
0.0
 40
0.5
  1
4.750000
100
AcDbAttributeDefinition
  3

  2
M1
 70
     8
280
     0
  0
ATTDEF
  5
1F8
330
1CF
100
AcDbEntity
  8
AM_6
100
AcDbText
 10
13.315
 20
-16.185
 30
0.0
 40
0.5
  1
3.08
100
AcDbAttributeDefinition
  3

  2
R
 70
     8
280
     0
  0
ATTDEF
  5
1F9
330
1CF
100
AcDbEntity
  8
AM_6
100
AcDbText
 10
13.315
 20
-16.685
 30
0.0
 40
0.5
  1
3.080000
100
AcDbAttributeDefinition
  3

  2
R1
 70
     8
280
     0
  0
ATTDEF
  5
1FA
330
1CF
100
AcDbEntity
  8
AM_6
100
AcDbText
 10
13.315
 20
-17.185
 30
0.0
 40
0.5
  1
3.38
100
AcDbAttributeDefinition
  3

  2
S
 70
     8
280
     0
  0
ATTDEF
  5
1FB
330
1CF
100
AcDbEntity
  8
AM_6
100
AcDbText
 10
13.315
 20
-17.685
 30
0.0
 40
0.5
  1
3.380000
100
AcDbAttributeDefinition
  3

  2
S1
 70
     8
280
     0
  0
ATTDEF
  5
1FC
330
1CF
100
AcDbEntity
  8
AM_6
100
AcDbText
 10
13.315
 20
-18.185
 30
0.0
 40
0.5
  1
0.38
100
AcDbAttributeDefinition
  3

  2
X
 70
     8
280
     0
  0
ATTDEF
  5
1FD
330
1CF
100
AcDbEntity
  8
AM_6
100
AcDbText
 10
13.315
 20
-18.685
 30
0.0
 40
0.5
  1
0.380000
100
AcDbAttributeDefinition
  3

  2
X1
 70
     8
280
     0
  0
ATTDEF
  5
1FE
330
1CF
100
AcDbEntity
  8
AM_6
100
AcDbText
 10
13.315
 20
-19.185
 30
0.0
 40
0.5
  1
0.000
100
AcDbAttributeDefinition
  3

  2
Y
 70
     8
280
     0
  0
ATTDEF
  5
1FF
330
1CF
100
AcDbEntity
  8
AM_6
100
AcDbText
 10
13.315
 20
-19.685
 30
0.0
 40
0.5
  1
5
100
AcDbAttributeDefinition
  3

  2
Z
 70
     8
280
     0
  0
ATTDEF
  5
200
330
1CF
100
AcDbEntity
  8
AM_6
100
AcDbText
 10
13.315
 20
-20.185
 30
0.0
 40
0.5
  1
5.000000
100
AcDbAttributeDefinition
  3

  2
Z1
 70
     8
280
     0
  0
ATTDEF
  5
201
330
1CF
100
AcDbEntity
  8
AM_6
100
AcDbText
 10
13.315
 20
-20.685
 30
0.0
 40
0.5
  1
5/8-11
100
AcDbAttributeDefinition
  3

  2
CS
 70
     8
280
     0
  0
ATTDEF
  5
202
330
1CF
100
AcDbEntity
  8
AM_6
100
AcDbText
 10
13.315
 20
-21.185
 30
0.0
 40
0.5
  1
0.6250
100
AcDbAttributeDefinition
  3

  2
NDM
 70
     8
280
     0
  0
ATTDEF
  5
203
330
1CF
100
AcDbEntity
  8
AM_6
100
AcDbText
 10
13.315
 20
-21.685
 30
0.0
 40
0.5
  1
0.5270
100
AcDbAttributeDefinition
  3

  2
KDM
 70
     8
280
     0
  0
ATTDEF
  5
204
330
1CF
100
AcDbEntity
  8
AM_6
100
AcDbText
 10
13.315
 20
-22.185
 30
0.0
 40
0.5
  1
7.8740
100
AcDbAttributeDefinition
  3

  2
BORE
 70
     8
280
     0
  0
ATTDEF
  5
205
330
1CF
100
AcDbEntity
  8
AM_6
100
AcDbText
 10
13.315
 20
-22.685
 30
0.0
 40
0.5
  1
1
100
AcDbAttributeDefinition
  3

  2
ST1
 70
     8
280
     0
  0
ATTDEF
  5
206
330
1CF
100
AcDbEntity
  8
AM_6
100
AcDbText
 10
13.315
 20
-23.185
 30
0.0
 40
0.5
  1
baldor
100
AcDbAttributeDefinition
  3

  2
COMPANY
 70
     8
280
     0
  0
LINE
  5
207
330
1CF
100
AcDbEntity
  8
AM_9
100
AcDbLine
 10
-1.282146637479503
 20
-1.69
 30
0.0
 11
-1.282146637479503
 21
1.69
 31
0.0
  0
LINE
  5
208
330
1CF
100
AcDbEntity
  8
AM_9
100
AcDbLine
 10
1.282146637479508
 20
1.69
 30
0.0
 11
1.282146637479508
 21
-1.69
 31
0.0
  0
LINE
  5
209
330
1CF
100
AcDbEntity
  8
AM_9
100
AcDbLine
 10
-5.241407407407405
 20
-1.388888880648544
 30
0.0
 11
-5.241407407407405
 21
1.388888888888885
 31
0.0
  0
ARC
  5
20A
330
1CF
100
AcDbEntity
  8
AM_9
100
AcDbCircle
 10
5.619142857142863
 20
-1.388888888888893
 30
0.0
 40
0.5530000000000008
100
AcDbArc
 50
180.0
 51
212.9908245440694
  0
LINE
  5
20B
330
1CF
100
AcDbEntity
  8
AM_9
100
AcDbLine
 10
3.928103072731162
 20
-1.69
 30
0.0
 11
3.928103072731162
 21
1.69
 31
0.0
  0
LINE
  5
20C
330
1CF
100
AcDbEntity
  8
AM_9
100
AcDbLine
 10
5.066142857142863
 20
1.388888897129226
 30
0.0
 11
5.066142857142862
 21
-1.38888888064855
 31
0.0
  0
ARC
  5
20D
330
1CF
100
AcDbEntity
  8
AM_9
100
AcDbCircle
 10
5.619142857142849
 20
1.38888888888889
 30
0.0
 40
0.5529999999999864
100
AcDbArc
 50
147.0091754559294
 51
180.0
  0
ARC
  5
20E
330
1CF
100
AcDbEntity
  8
AM_9
100
AcDbCircle
 10
-5.7944074074074
 20
1.388888888888881
 30
0.0
 40
0.5529999999999946
100
AcDbArc
 50
0.0
 51
32.99082454407122
  0
ARC
  5
20F
330
1CF
100
AcDbEntity
  8
AM_9
100
AcDbCircle
 10
-5.794407407407422
 20
-1.388888888888882
 30
0.0
 40
0.5530000000000169
100
AcDbArc
 50
327.0091754559303
 51
0.0
  0
LINE
  5
210
330
1CF
100
AcDbEntity
  8
AM_9
100
AcDbLine
 10
1.282146637479508
 20
1.69
 30
0.0
 11
5.155309806611283
 21
1.69
 31
0.0
  0
LINE
  5
211
330
1CF
100
AcDbEntity
  8
AM_9
100
AcDbLine
 10
1.282146637479508
 20
-1.69
 30
0.0
 11
5.155309806611278
 21
-1.69
 31
0.0
  0
LINE
  5
212
330
1CF
100
AcDbEntity
  8
AM_9
100
AcDbLine
 10
-3.928103072731165
 20
-1.69
 30
0.0
 11
-3.928103072731165
 21
1.69
 31
0.0
  0
LINE
  5
213
330
1CF
100
AcDbEntity
  8
AM_9
100
AcDbLine
 10
-1.282146637479503
 20
1.69
 30
0.0
 11
-5.33057435687583
 21
1.69
 31
0.0
  0
LINE
  5
214
330
1CF
100
AcDbEntity
  8
AM_9
100
AcDbLine
 10
-1.282146637479503
 20
-1.69
 30
0.0
 11
-5.330574356875825
 21
-1.69
 31
0.0
  0
LINE
  5
215
330
1CF
100
AcDbEntity
  8
AM_9
100
AcDbLine
 10
3.936999999999999
 20
-1.852
 30
0.0
 11
3.936999999999999
 21
1.852
 31
0.0
  0
LINE
  5
216
330
1CF
100
AcDbEntity
  8
AM_9
100
AcDbLine
 10
-3.936999999999999
 20
1.852
 30
0.0
 11
-3.936999999999999
 21
-1.852
 31
0.0
  0
LWPOLYLINE
  5
217
330
1CF
100
AcDbEntity
  8
AM_9
100
AcDbPolyline
 90
        6
 70
     0
 43
0.0
 10
2.793836011573286
 20
-0.3070257993976542
 10
2.817835769535254
 20
-0.2654002606481479
 10
2.849476213397753
 20
-0.1903505592233443
 10
2.870306580746848
 20
-0.1098858100112478
 10
2.877770199402982
 20
-0.0552840487466939
 10
2.880276480073885
 20
0.0000000000000002
  0
LWPOLYLINE
  5
218
330
1CF
100
AcDbEntity
  8
AM_9
100
AcDbPolyline
 90
        8
 70
     0
 43
0.0
 10
2.460007851180537
 20
-0.4999999999178118
 10
2.461141847577702
 20
-0.4999982613067654
 10
2.533148005196975
 20
-0.4926895214256511
 10
2.602421878243025
 20
-0.4716138789175308
 10
2.667022549942116
 20
-0.4371979282996571
 10
2.725369409763809
 20
-0.3905964886849346
 10
2.776107563474987
 20
-0.3326811220565135
 10
2.793836011573286
 20
-0.3070257993976542
  0
ELLIPSE
  5
219
330
1CF
100
AcDbEntity
  8
AM_9
100
AcDbEllipse
 10
2.485000000000205
 20
0.0000000000001423
 30
0.0
 11
3.061616997869258E-17
 21
0.5000000000001428
 31
0.0
210
0.0
220
0.0
230
1.0
 40
0.8660254037843997
 41
3.185777053630485
 42
3.277304666653472
  0
ELLIPSE
  5
21A
330
1CF
100
AcDbEntity
  8
AM_9
100
AcDbEllipse
 10
2.484999999999999
 20
0.0000000000000013
 30
0.0
 11
3.061616997868394E-17
 21
0.5000000000000018
 31
0.0
210
0.0
220
0.0
230
1.0
 40
0.866025403784438
 41
3.286059454436565
 42
6.081187036512901
  0
LINE
  5
21B
330
1CF
100
AcDbEntity
  8
AM_9
100
AcDbLine
 10
2.472521306229412
 20
0.499790556556848
 30
0.0
 11
2.460039716006546
 21
0.499999997896841
 31
0.0
  0
LWPOLYLINE
  5
21C
330
1CF
100
AcDbEntity
  8
AM_9
100
AcDbPolyline
 90
        8
 70
     0
 43
0.0
 10
2.796258165185035
 20
0.3032174002505664
 10
2.790976166609414
 20
0.3114251414330074
 10
2.743050050474217
 20
0.3725804647521407
 10
2.68691677897738
 20
0.4232583056990246
 10
2.623724112470932
 20
0.4619422581353814
 10
2.555319230214607
 20
0.4875721469491524
 10
2.483733506551582
 20
0.4991944651475408
 10
2.472521306229412
 20
0.499790556556848
  0
LWPOLYLINE
  5
21D
330
1CF
100
AcDbEntity
  8
AM_9
100
AcDbPolyline
 90
        5
 70
     0
 43
0.0
 10
2.880276480073885
 20
0.0000000000000002
 10
2.874485728974846
 20
0.0836914703653143
 10
2.857404550702827
 20
0.1650180126826018
 10
2.829298676336555
 20
0.2416134296715219
 10
2.796258165185035
 20
0.3032174002505664
  0
LINE
  5
21E
330
1CF
100
AcDbEntity
  8
AM_7
100
AcDbLine
 10
-7.336999999999999
 20
1.250000000000001
 30
0.0
 11
-6.163
 21
1.250000000000001
 31
0.0
  0
LINE
  5
21F
330
1CF
100
AcDbEntity
  8
AM_7
100
AcDbLine
 10
-6.874999999999998
 20
0.7880000000000005
 30
0.0
 11
-6.874999999999998
 21
1.712000000000001
 31
0.0
  0
LINE
  5
220
330
1CF
100
AcDbEntity
  8
AM_7
100
AcDbLine
 10
-6.625000000000001
 20
0.7880000000000003
 30
0.0
 11
-6.625000000000001
 21
1.712000000000001
 31
0.0
  0
LINE
  5
221
330
1CF
100
AcDbEntity
  8
AM_7
100
AcDbLine
 10
6.163
 20
-1.25
 30
0.0
 11
7.336999999999999
 21
-1.25
 31
0.0
  0
LINE
  5
222
330
1CF
100
AcDbEntity
  8
AM_7
100
AcDbLine
 10
6.625000000000001
 20
-1.712000000000001
 30
0.0
 11
6.625000000000001
 21
-0.7879999999999998
 31
0.0
  0
LINE
  5
223
330
1CF
100
AcDbEntity
  8
AM_7
100
AcDbLine
 10
6.163
 20
1.25
 30
0.0
 11
7.336999999999999
 21
1.25
 31
0.0
  0
LINE
  5
224
330
1CF
100
AcDbEntity
  8
AM_7
100
AcDbLine
 10
6.625000000000001
 20
0.7879999999999996
 30
0.0
 11
6.625000000000001
 21
1.712
 31
0.0
  0
LINE
  5
225
330
1CF
100
AcDbEntity
  8
AM_7
100
AcDbLine
 10
-7.336999999999999
 20
-1.249999999999999
 30
0.0
 11
-6.163
 21
-1.249999999999999
 31
0.0
  0
LINE
  5
226
330
1CF
100
AcDbEntity
  8
AM_7
100
AcDbLine
 10
-6.625000000000001
 20
-1.711999999999999
 30
0.0
 11
-6.625000000000001
 21
-0.7879999999999985
 31
0.0
  0
LINE
  5
227
330
1CF
100
AcDbEntity
  8
AM_7
100
AcDbLine
 10
-6.874999999999999
 20
-1.711999999999999
 30
0.0
 11
-6.874999999999999
 21
-0.7879999999999996
 31
0.0
  0
LINE
  5
228
330
1CF
100
AcDbEntity
  8
AM_7
100
AcDbLine
 10
6.874999999999998
 20
0.7879999999999996
 30
0.0
 11
6.874999999999998
 21
1.712
 31
0.0
  0
LINE
  5
229
330
1CF
100
AcDbEntity
  8
AM_7
100
AcDbLine
 10
6.874999999999999
 20
-1.712
 30
0.0
 11
6.874999999999999
 21
-0.7880000000000007
 31
0.0
  0
ARC
  5
22A
330
1CF
100
AcDbEntity
  8
AM_4
100
AcDbCircle
 10
5.619142857142869
 20
-1.38888888888886
 30
0.0
 40
0.5530000000000336
100
AcDbArc
 50
254.3537178373937
 51
270.0
  0
ARC
  5
22B
330
1CF
100
AcDbEntity
  8
AM_4
100
AcDbCircle
 10
6.874999999999999
 20
1.25
 30
0.0
 40
0.4399999999999998
100
AcDbArc
 50
270.0
 51
90.0
  0
LINE
  5
22C
330
1CF
100
AcDbEntity
  8
AM_4
100
AcDbLine
 10
6.874999999999999
 20
0.8099999999999999
 30
0.0
 11
6.625000000000001
 21
0.8099999999999999
 31
0.0
  0
LINE
  5
22D
330
1CF
100
AcDbEntity
  8
AM_4
100
AcDbLine
 10
5.619142857142863
 20
-1.941888888888893
 30
0.0
 11
7.762000000000002
 21
-1.941888888888892
 31
0.0
  0
ARC
  5
22E
330
1CF
100
AcDbEntity
  8
AM_4
100
AcDbCircle
 10
7.762000000000002
 20
-1.388888888888896
 30
0.0
 40
0.5529999999999964
100
AcDbArc
 50
270.0
 51
0.0
  0
LINE
  5
22F
330
1CF
100
AcDbEntity
  8
AM_4
100
AcDbLine
 10
6.625000000000001
 20
1.69
 30
0.0
 11
6.874999999999999
 21
1.69
 31
0.0
  0
LINE
  5
230
330
1CF
100
AcDbEntity
  8
AM_4
100
AcDbLine
 10
7.762
 20
1.941888888888886
 30
0.0
 11
5.61914285714286
 21
1.941888888888886
 31
0.0
  0
ARC
  5
231
330
1CF
100
AcDbEntity
  8
AM_4
100
AcDbCircle
 10
6.625000000000001
 20
1.25
 30
0.0
 40
0.4400000000000002
100
AcDbArc
 50
90.0
 51
270.0
  0
ARC
  5
232
330
1CF
100
AcDbEntity
  8
AM_4
100
AcDbCircle
 10
7.762000000000003
 20
1.388888888888889
 30
0.0
 40
0.5529999999999964
100
AcDbArc
 50
0.0
 51
90.0
  0
ARC
  5
233
330
1CF
100
AcDbEntity
  8
AM_4
100
AcDbCircle
 10
5.619142857142862
 20
1.388888888888914
 30
0.0
 40
0.552999999999972
100
AcDbArc
 50
90.0
 51
105.6462821626076
  0
LINE
  5
234
330
1CF
100
AcDbEntity
  8
AM_4
100
AcDbLine
 10
6.625000000000001
 20
-0.8100000000000003
 30
0.0
 11
6.874999999999999
 21
-0.8100000000000003
 31
0.0
  0
ARC
  5
235
330
1CF
100
AcDbEntity
  8
AM_4
100
AcDbCircle
 10
6.625000000000001
 20
-1.25
 30
0.0
 40
0.4399999999999999
100
AcDbArc
 50
90.0
 51
270.0
  0
LINE
  5
236
330
1CF
100
AcDbEntity
  8
AM_4
100
AcDbLine
 10
6.874999999999999
 20
-1.69
 30
0.0
 11
6.625000000000001
 21
-1.69
 31
0.0
  0
ARC
  5
237
330
1CF
100
AcDbEntity
  8
AM_4
100
AcDbCircle
 10
6.874999999999999
 20
-1.25
 30
0.0
 40
0.4399999999999997
100
AcDbArc
 50
270.0
 51
90.0
  0
LINE
  5
238
330
1CF
100
AcDbEntity
  8
AM_4
100
AcDbLine
 10
5.415476190476191
 20
2.315
 30
0.0
 11
7.851999999999999
 21
2.315
 31
0.0
  0
LINE
  5
239
330
1CF
100
AcDbEntity
  8
AM_4
100
AcDbLine
 10
8.315
 20
-1.852
 30
0.0
 11
8.315
 21
1.851999999999999
 31
0.0
  0
LINE
  5
23A
330
1CF
100
AcDbEntity
  8
AM_4
100
AcDbLine
 10
7.851999999999999
 20
2.314999999999999
 30
0.0
 11
8.315
 21
1.851999999999999
 31
0.0
  0
LINE
  5
23B
330
1CF
100
AcDbEntity
  8
AM_4
100
AcDbLine
 10
5.415476190476191
 20
-2.315
 30
0.0
 11
7.851999999999999
 21
-2.315
 31
0.0
  0
LINE
  5
23C
330
1CF
100
AcDbEntity
  8
AM_4
100
AcDbLine
 10
8.314999999999998
 20
-1.852000000000001
 30
0.0
 11
7.851999999999999
 21
-2.315
 31
0.0
  0
LINE
  5
23D
330
1CF
100
AcDbEntity
  8
AM_4
100
AcDbLine
 10
-7.851999999999999
 20
2.315
 30
0.0
 11
-5.415476190476191
 21
2.315
 31
0.0
  0
LINE
  5
23E
330
1CF
100
AcDbEntity
  8
AM_4
100
AcDbLine
 10
-8.315000000000001
 20
1.851999999999998
 30
0.0
 11
-7.852000000000001
 21
2.314999999999998
 31
0.0
  0
ARC
  5
23F
330
1CF
100
AcDbEntity
  8
AM_4
100
AcDbCircle
 10
-6.874999999999998
 20
1.250000000000001
 30
0.0
 40
0.4400000000000002
100
AcDbArc
 50
90.0
 51
270.0
  0
LINE
  5
240
330
1CF
100
AcDbEntity
  8
AM_4
100
AcDbLine
 10
-6.874999999999999
 20
1.690000000000001
 30
0.0
 11
-6.625000000000001
 21
1.690000000000001
 31
0.0
  0
ARC
  5
241
330
1CF
100
AcDbEntity
  8
AM_4
100
AcDbCircle
 10
-6.625000000000001
 20
1.250000000000001
 30
0.0
 40
0.4400000000000001
100
AcDbArc
 50
270.0
 51
90.0
  0
LINE
  5
242
330
1CF
100
AcDbEntity
  8
AM_4
100
AcDbLine
 10
-6.625000000000001
 20
0.8100000000000006
 30
0.0
 11
-6.874999999999999
 21
0.8100000000000008
 31
0.0
  0
ARC
  5
243
330
1CF
100
AcDbEntity
  8
AM_4
100
AcDbCircle
 10
-6.874999999999999
 20
-1.249999999999999
 30
0.0
 40
0.4399999999999998
100
AcDbArc
 50
90.0
 51
270.0
  0
LINE
  5
244
330
1CF
100
AcDbEntity
  8
AM_4
100
AcDbLine
 10
-6.874999999999999
 20
-0.8099999999999993
 30
0.0
 11
-6.625000000000001
 21
-0.8099999999999992
 31
0.0
  0
ARC
  5
245
330
1CF
100
AcDbEntity
  8
AM_4
100
AcDbCircle
 10
-6.625000000000001
 20
-1.249999999999999
 30
0.0
 40
0.4399999999999999
100
AcDbArc
 50
270.0
 51
90.0
  0
LINE
  5
246
330
1CF
100
AcDbEntity
  8
AM_4
100
AcDbLine
 10
-6.625000000000001
 20
-1.689999999999999
 30
0.0
 11
-6.874999999999999
 21
-1.689999999999999
 31
0.0
  0
ARC
  5
247
330
1CF
100
AcDbEntity
  8
AM_4
100
AcDbCircle
 10
-5.794407407407404
 20
1.388888888888884
 30
0.0
 40
0.5529999999999964
100
AcDbArc
 50
54.08164414288027
 51
90.0
  0
LINE
  5
248
330
1CF
100
AcDbEntity
  8
AM_4
100
AcDbLine
 10
-5.794407407407403
 20
1.94188888888888
 30
0.0
 11
-7.762
 21
1.94188888888888
 31
0.0
  0
ARC
  5
249
330
1CF
100
AcDbEntity
  8
AM_4
100
AcDbCircle
 10
-7.762
 20
1.388888888888881
 30
0.0
 40
0.5529999999999988
100
AcDbArc
 50
90.0
 51
180.0
  0
ARC
  5
24A
330
1CF
100
AcDbEntity
  8
AM_4
100
AcDbCircle
 10
-7.761999999999998
 20
-1.388888888888886
 30
0.0
 40
0.5530000000000017
100
AcDbArc
 50
180.0
 51
270.0
  0
LINE
  5
24B
330
1CF
100
AcDbEntity
  8
AM_4
100
AcDbLine
 10
-7.761999999999999
 20
-1.941888888888888
 30
0.0
 11
-5.794407407407407
 21
-1.941888888888888
 31
0.0
  0
ARC
  5
24C
330
1CF
100
AcDbEntity
  8
AM_4
100
AcDbCircle
 10
-5.794407407407405
 20
-1.388888888888895
 30
0.0
 40
0.5529999999999933
100
AcDbArc
 50
270.0
 51
305.91835585712
  0
LINE
  5
24D
330
1CF
100
AcDbEntity
  8
AM_4
100
AcDbLine
 10
-7.851999999999999
 20
-2.315
 30
0.0
 11
-5.415476190476192
 21
-2.315
 31
0.0
  0
LINE
  5
24E
330
1CF
100
AcDbEntity
  8
AM_4
100
AcDbLine
 10
-8.315
 20
-1.852
 30
0.0
 11
-8.315
 21
1.851999999999999
 31
0.0
  0
LINE
  5
24F
330
1CF
100
AcDbEntity
  8
AM_4
100
AcDbLine
 10
-7.851999999999999
 20
-2.315000000000001
 30
0.0
 11
-8.315
 21
-1.852000000000001
 31
0.0
  0
LINE
  5
250
330
1CF
100
AcDbEntity
  8
AM_4
100
AcDbLine
 10
-5.151499999999999
 20
-1.389
 30
0.0
 11
-5.151499999999999
 21
1.389
 31
0.0
  0
LINE
  5
251
330
1CF
100
AcDbEntity
  8
AM_4
100
AcDbLine
 10
5.151500000000001
 20
-1.389
 30
0.0
 11
5.151500000000001
 21
1.389
 31
0.0
  0
LINE
  5
252
330
1CF
100
AcDbEntity
  8
AM_4
100
AcDbLine
 10
5.469999999999996
 20
-2.315
 30
0.0
 11
5.469999999999999
 21
-1.389
 31
0.0
  0
LINE
  5
253
330
1CF
100
AcDbEntity
  8
AM_4
100
AcDbLine
 10
5.469999999999999
 20
-1.389
 30
0.0
 11
4.919999999999994
 21
-1.389
 31
0.0
  0
LINE
  5
254
330
1CF
100
AcDbEntity
  8
AM_4
100
AcDbLine
 10
4.919999999999994
 20
1.389
 30
0.0
 11
4.919999999999994
 21
-1.389
 31
0.0
  0
LINE
  5
255
330
1CF
100
AcDbEntity
  8
AM_4
100
AcDbLine
 10
5.469999999999999
 20
1.389
 30
0.0
 11
4.919999999999994
 21
1.389
 31
0.0
  0
LINE
  5
256
330
1CF
100
AcDbEntity
  8
AM_4
100
AcDbLine
 10
5.469999999999999
 20
1.389
 30
0.0
 11
5.469999999999996
 21
2.315
 31
0.0
  0
LWPOLYLINE
  5
257
330
1CF
100
AcDbEntity
  8
AM_4
100
AcDbPolyline
 90
       19
 70
     0
 43
0.0
 10
5.415476190476191
 20
2.315
 10
5.396260424337065
 20
2.314161021531656
 10
5.377190901781054
 20
2.311650471259358
 10
5.358412753389302
 20
2.30748745598659
 10
5.340068892209627
 20
2.301703658773274
 10
5.322298926101932
 20
2.294343097808557
 10
5.305238095238096
 20
2.285461791405807
 10
5.289016242842604
 20
2.27512733166943
 10
5.273756827007206
 20
2.263418370078137
 10
5.2595759811003
 20
2.250424018899701
 10
5.246581629921864
 20
2.236243172992794
 10
5.234872668330571
 20
2.220983757157398
 10
5.224538208594193
 20
2.204761904761905
 10
5.215656902191444
 20
2.187701073898069
 10
5.208296341226727
 20
2.169931107790374
 10
5.202512544013411
 20
2.151587246610699
 10
5.198349528740642
 20
2.132809098218947
 10
5.195838978468344
 20
2.113739575662936
 10
5.195
 20
2.09452380952381
  0
LINE
  5
258
330
1CF
100
AcDbEntity
  8
AM_4
100
AcDbLine
 10
5.195
 20
2.094523809523809
 30
0.0
 11
5.195
 21
2.07247619047619
 31
0.0
  0
LWPOLYLINE
  5
259
330
1CF
100
AcDbEntity
  8
AM_4
100
AcDbPolyline
 90
       19
 70
     0
 43
0.0
 10
4.974523809523808
 20
1.851999999999999
 10
4.993739575662935
 20
1.852838978468343
 10
5.012809098218947
 20
1.855349528740641
 10
5.031587246610697
 20
1.859512544013409
 10
5.049931107790373
 20
1.865296341226725
 10
5.067701073898069
 20
1.872656902191443
 10
5.084761904761905
 20
1.881538208594192
 10
5.100983757157397
 20
1.891872668330569
 10
5.116243172992794
 20
1.903581629921863
 10
5.130424018899701
 20
1.916575981100299
 10
5.143418370078137
 20
1.930756827007206
 10
5.15512733166943
 20
1.946016242842603
 10
5.165461791405807
 20
1.962238095238095
 10
5.174343097808557
 20
1.979298926101932
 10
5.181703658773275
 20
1.997068892209627
 10
5.187487455986591
 20
2.015412753389302
 10
5.191650471259359
 20
2.034190901781054
 10
5.194161021531657
 20
2.053260424337065
 10
5.195
 20
2.072476190476191
  0
LWPOLYLINE
  5
25A
330
1CF
100
AcDbEntity
  8
AM_4
100
AcDbPolyline
 90
       19
 70
     0
 43
0.0
 10
5.194999999999999
 20
-2.072476174381324
 10
5.194161020128895
 20
-2.053260408303442
 10
5.191650468464513
 20
-2.034190885930703
 10
5.187487451820931
 20
-2.015412737842853
 10
5.181703653268505
 20
-1.997068877085398
 10
5.174343091006571
 20
-1.979298911515028
 10
5.165461783358372
 20
-1.962238081299531
 10
5.155127322437792
 20
-1.946016229658459
 10
5.143418359732554
 20
-1.930756814677822
 10
5.13042400751891
 20
-1.916575969719509
 10
5.116243160663409
 20
-1.903581619576282
 10
5.100983743973252
 20
-1.891872659098933
 10
5.084761890823338
 20
-1.881538200546759
 10
5.067701059311163
 20
-1.872656895389458
 10
5.049931092666143
 20
-1.865296335721957
 10
5.031587231064249
 20
-1.859512539847752
 10
5.012809082368594
 20
-1.855349525945798
 10
4.993739559629312
 20
-1.852838977065584
 10
4.974523809523804
 20
-1.852
  0
LINE
  5
25B
330
1CF
100
AcDbEntity
  8
AM_4
100
AcDbLine
 10
5.194999999999999
 20
-2.072476190476192
 30
0.0
 11
5.195
 21
-2.094523809523807
 31
0.0
  0
LWPOLYLINE
  5
25C
330
1CF
100
AcDbEntity
  8
AM_4
100
AcDbPolyline
 90
       19
 70
     0
 43
0.0
 10
5.195
 20
-2.09452380952381
 10
5.195838978468345
 20
-2.113739575662937
 10
5.198349528740642
 20
-2.132809098218948
 10
5.202512544013411
 20
-2.151587246610699
 10
5.208296341226727
 20
-2.169931107790374
 10
5.215656902191444
 20
-2.187701073898069
 10
5.224538208594193
 20
-2.204761904761905
 10
5.234872668330571
 20
-2.220983757157398
 10
5.246581629921864
 20
-2.236243172992795
 10
5.2595759811003
 20
-2.250424018899701
 10
5.273756827007206
 20
-2.263418370078137
 10
5.289016242842603
 20
-2.27512733166943
 10
5.305238095238096
 20
-2.285461791405808
 10
5.322298926101932
 20
-2.294343097808557
 10
5.340068892209627
 20
-2.301703658773274
 10
5.358412753389302
 20
-2.30748745598659
 10
5.377190901781053
 20
-2.311650471259359
 10
5.396260424337065
 20
-2.314161021531657
 10
5.415476190476191
 20
-2.315
  0
LINE
  5
25D
330
1CF
100
AcDbEntity
  8
AM_4
100
AcDbLine
 10
-4.974523809523808
 20
-1.851999999999999
 30
0.0
 11
4.974523809523807
 21
-1.852
 31
0.0
  0
LINE
  5
25E
330
1CF
100
AcDbEntity
  8
AM_4
100
AcDbLine
 10
4.974523809523808
 20
1.851999999999999
 30
0.0
 11
-4.974523809523811
 21
1.852
 31
0.0
  0
LINE
  5
25F
330
1CF
100
AcDbEntity
  8
AM_4
100
AcDbLine
 10
-4.92
 20
-1.389
 30
0.0
 11
-4.92
 21
1.389
 31
0.0
  0
LINE
  5
260
330
1CF
100
AcDbEntity
  8
AM_4
100
AcDbLine
 10
-4.92
 20
-1.389
 30
0.0
 11
-5.470000000000002
 21
-1.389
 31
0.0
  0
LINE
  5
261
330
1CF
100
AcDbEntity
  8
AM_4
100
AcDbLine
 10
-5.469999999999999
 20
-2.315
 30
0.0
 11
-5.470000000000002
 21
-1.389
 31
0.0
  0
LWPOLYLINE
  5
262
330
1CF
100
AcDbEntity
  8
AM_4
100
AcDbPolyline
 90
       19
 70
     0
 43
0.0
 10
-5.415476190476192
 20
-2.315
 10
-5.396260424337066
 20
-2.314161021531656
 10
-5.377190901781054
 20
-2.311650471259358
 10
-5.358412753389303
 20
-2.30748745598659
 10
-5.340068892209628
 20
-2.301703658773274
 10
-5.322298926101933
 20
-2.294343097808556
 10
-5.305238095238097
 20
-2.285461791405807
 10
-5.289016242842604
 20
-2.27512733166943
 10
-5.273756827007207
 20
-2.263418370078136
 10
-5.2595759811003
 20
-2.2504240188997
 10
-5.246581629921865
 20
-2.236243172992794
 10
-5.234872668330571
 20
-2.220983757157397
 10
-5.224538208594194
 20
-2.204761904761904
 10
-5.215656902191444
 20
-2.187701073898068
 10
-5.208296341226727
 20
-2.169931107790373
 10
-5.202512544013411
 20
-2.151587246610698
 10
-5.198349528740643
 20
-2.132809098218947
 10
-5.195838978468345
 20
-2.113739575662935
 10
-5.195
 20
-2.094523809523809
  0
LINE
  5
263
330
1CF
100
AcDbEntity
  8
AM_4
100
AcDbLine
 10
-5.195
 20
-2.094523809523809
 30
0.0
 11
-5.195
 21
-2.07247619047619
 31
0.0
  0
LWPOLYLINE
  5
264
330
1CF
100
AcDbEntity
  8
AM_4
100
AcDbPolyline
 90
       19
 70
     0
 43
0.0
 10
-4.974523809523808
 20
-1.851999999999999
 10
-4.993739575662935
 20
-1.852838978468343
 10
-5.012809098218947
 20
-1.855349528740641
 10
-5.031587246610697
 20
-1.859512544013409
 10
-5.049931107790373
 20
-1.865296341226725
 10
-5.067701073898069
 20
-1.872656902191443
 10
-5.084761904761905
 20
-1.881538208594192
 10
-5.100983757157397
 20
-1.891872668330569
 10
-5.116243172992794
 20
-1.903581629921863
 10
-5.130424018899701
 20
-1.916575981100299
 10
-5.143418370078137
 20
-1.930756827007206
 10
-5.15512733166943
 20
-1.946016242842603
 10
-5.165461791405807
 20
-1.962238095238095
 10
-5.174343097808557
 20
-1.979298926101932
 10
-5.181703658773275
 20
-1.997068892209627
 10
-5.187487455986591
 20
-2.015412753389302
 10
-5.191650471259359
 20
-2.034190901781054
 10
-5.194161021531657
 20
-2.053260424337065
 10
-5.195
 20
-2.072476190476191
  0
LWPOLYLINE
  5
265
330
1CF
100
AcDbEntity
  8
AM_4
100
AcDbPolyline
 90
       19
 70
     0
 43
0.0
 10
-5.195
 20
2.072476190476191
 10
-5.194161021531657
 20
2.053260424337065
 10
-5.191650471259359
 20
2.034190901781054
 10
-5.187487455986591
 20
2.015412753389302
 10
-5.181703658773275
 20
1.997068892209627
 10
-5.174343097808557
 20
1.979298926101932
 10
-5.165461791405808
 20
1.962238095238096
 10
-5.155127331669431
 20
1.946016242842603
 10
-5.143418370078138
 20
1.930756827007206
 10
-5.130424018899701
 20
1.916575981100299
 10
-5.116243172992795
 20
1.903581629921864
 10
-5.100983757157397
 20
1.89187266833057
 10
-5.084761904761906
 20
1.881538208594193
 10
-5.067701073898069
 20
1.872656902191443
 10
-5.049931107790374
 20
1.865296341226726
 10
-5.031587246610698
 20
1.85951254401341
 10
-5.012809098218947
 20
1.855349528740642
 10
-4.993739575662936
 20
1.852838978468344
 10
-4.97452380952381
 20
1.852
  0
LINE
  5
266
330
1CF
100
AcDbEntity
  8
AM_4
100
AcDbLine
 10
-5.195
 20
2.072476190476191
 30
0.0
 11
-5.195
 21
2.094523809523809
 31
0.0
  0
LWPOLYLINE
  5
267
330
1CF
100
AcDbEntity
  8
AM_4
100
AcDbPolyline
 90
       19
 70
     0
 43
0.0
 10
-5.195
 20
2.094523800231433
 10
-5.195838977658461
 20
2.11373956640592
 10
-5.198349527127038
 20
2.132809089067743
 10
-5.202512541608368
 20
2.151587237634952
 10
-5.208296338048546
 20
2.169931099058396
 10
-5.215656898264316
 20
2.187701065476315
 10
-5.224538203948005
 20
2.204761896714471
 10
-5.234872663000683
 20
2.220983749545528
 10
-5.24658162394884
 20
2.236243165874421
 10
-5.259575974529597
 20
2.250424012328998
 10
-5.273756819888834
 20
2.263418364105112
 10
-5.289016235230735
 20
2.275127326339542
 10
-5.305238087190662
 20
2.285461786759619
 10
-5.322298917680179
 20
2.294343093881429
 10
-5.34006888347765
 20
2.301703655595094
 10
-5.358412744413555
 20
2.307487453581546
 10
-5.377190892629849
 20
2.311650469645754
 10
-5.396260415080048
 20
2.314161020721773
 10
-5.415476181183815
 20
2.315
  0
LINE
  5
268
330
1CF
100
AcDbEntity
  8
AM_4
100
AcDbLine
 10
-5.470000000000002
 20
1.389
 30
0.0
 11
-5.469999999999999
 21
2.315
 31
0.0
  0
LINE
  5
269
330
1CF
100
AcDbEntity
  8
AM_4
100
AcDbLine
 10
-4.92
 20
1.389
 30
0.0
 11
-5.470000000000002
 21
1.389
 31
0.0
  0
LINE
  5
26A
330
1CF
100
AcDbEntity
  8
AM_4
100
AcDbLine
 10
2.484999999999999
 20
0.5000000000000006
 30
0.0
 11
2.459917618005173
 21
0.5000000000000006
 31
0.0
  0
LINE
  5
26B
330
1CF
100
AcDbEntity
  8
AM_4
100
AcDbLine
 10
2.459994421696165
 20
-0.5
 30
0.0
 11
2.484999999999999
 21
-0.5
 31
0.0
  0
LWPOLYLINE
  5
26C
330
1CF
100
AcDbEntity
  8
AM_4
100
AcDbPolyline
 90
       20
 70
     0
 43
0.0
 10
2.460039716006546
 20
0.499999997896841
 10
2.410772888857026
 20
0.4967799282272845
 10
2.338783740962517
 20
0.4802871903255116
 10
2.269581835698303
 20
0.4504039372858877
 10
2.205162215810617
 20
0.4077157804865268
 10
2.147531086368944
 20
0.3536388992928853
 10
2.098373681015934
 20
0.2892275918313618
 10
2.059402692864494
 20
0.2166391506055095
 10
2.032040664869604
 20
0.1377987837787363
 10
2.017036838928657
 20
0.0550350596715222
 10
2.015069133554121
 20
-0.0289439094071914
 10
2.02591684409637
 20
-0.1121040548069289
 10
2.049336297595156
 20
-0.1918817283726172
 10
2.084384087280905
 20
-0.2662798822517945
 10
2.130259379773644
 20
-0.3333541074885795
 10
2.18525619956506
 20
-0.3910741530787322
 10
2.248018935034903
 20
-0.4378347832112427
 10
2.316334118615967
 20
-0.4722322849048218
 10
2.388053685034441
 20
-0.4930663980909544
 10
2.460007851180537
 20
-0.4999999999178118
  0
ELLIPSE
  5
26D
330
1CF
100
AcDbEntity
  8
AM_4
100
AcDbEllipse
 10
2.484999999999999
 20
0.0000000000000002
 30
0.0
 11
3.061616997868384E-17
 21
0.5000000000000002
 31
0.0
210
0.0
220
0.0
230
1.0
 40
0.8660254037844388
 41
6.280080366536726
 42
9.42477796076938
  0
ELLIPSE
  5
26E
330
1CF
100
AcDbEntity
  8
AM_4
100
AcDbEllipse
 10
2.509999999999999
 20
0.0000000000000003
 30
0.0
 11
-8.266365894244633E-17
 21
-0.45
 31
0.0
210
0.0
220
0.0
230
1.0
 40
0.866025403784439
 41
0.0
 42
6.283185307179586
  0
LWPOLYLINE
  5
26F
330
1CF
100
AcDbEntity
  8
AM_4
100
AcDbPolyline
 90
       18
 70
     0
 43
0.0
 10
2.924711431702997
 20
0.0000000000000002
 10
2.924093301235026
 20
0.0265272465367596
 10
2.919742816649018
 20
0.0750213689859103
 10
2.911259992737977
 20
0.1228347127819063
 10
2.898719277608607
 20
0.1695001674913584
 10
2.882232347383705
 20
0.2145728318092117
 10
2.861948633470427
 20
0.2576202398226505
 10
2.838055144313258
 20
0.2982263255898716
 10
2.810776054852484
 20
0.3359957678127684
 10
2.780371825250949
 20
0.3705587671626851
 10
2.747137528063401
 20
0.4015762078230611
 10
2.711400043539963
 20
0.4287449719690855
 10
2.673513882099307
 20
0.4518029579300498
 10
2.633855642256493
 20
0.4705331838550784
 10
2.592817473593084
 20
0.4847663501982428
 10
2.550800264548282
 20
0.4943814633469005
 10
2.508207447846366
 20
0.4993045626382436
 10
2.486356083451933
 20
0.4999976271396998
  0
LWPOLYLINE
  5
270
330
1CF
100
AcDbEntity
  8
AM_4
100
AcDbPolyline
 90
       17
 70
     0
 43
0.0
 10
2.504767989954523
 20
-0.4994955193422351
 10
2.536920792310481
 20
-0.4965092906306695
 10
2.579030558699957
 20
-0.488456838600614
 10
2.620230276601302
 20
-0.4758134307388208
 10
2.660147025238044
 20
-0.4586971156566835
 10
2.698417212840445
 20
-0.437262317899732
 10
2.734687957157813
 20
-0.4117009463140466
 10
2.768619848487203
 20
-0.3822434302153513
 10
2.799890911892076
 20
-0.3491588736180971
 10
2.828201224145002
 20
-0.3127538309990412
 10
2.853277516904128
 20
-0.273369625545024
 10
2.874877204967564
 20
-0.2313784815439111
 10
2.892791520120219
 20
-0.1871789220623612
 10
2.90684768554712
 20
-0.1411908842656247
 10
2.91691024804562
 20
-0.0938508908989582
 10
2.922881769780943
 20
-0.0456074679668366
 10
2.924711431702997
 20
0.0000000000000002
  0
ELLIPSE
  5
271
330
1CF
100
AcDbEntity
  8
AM_4
100
AcDbEllipse
 10
2.485000000000724
 20
0.0000000000004732
 30
0.0
 11
3.061616997871280E-17
 21
0.5000000000004732
 31
0.0
210
0.0
220
0.0
230
1.0
 40
0.8660254037844048
 41
3.141592653589793
 42
3.185777053629256
  0
LINE
  5
272
330
1CF
100
AcDbEntity
  8
AM_4
100
AcDbLine
 10
4.807608618181
 20
-1.852
 30
0.0
 11
4.807608618181
 21
1.851999999999999
 31
0.0
  0
LINE
  5
273
330
1CF
100
AcDbEntity
  8
AM_4
100
AcDbLine
 10
-4.807608618180999
 20
-1.852
 30
0.0
 11
-4.807608618180999
 21
1.851999999999999
 31
0.0
  0
ENDBLK
  5
1D2
330
1CF
100
AcDbEntity
  8
0
100
AcDbBlockEnd
  0
ENDSEC
  0
SECTION
  2
ENTITIES
  0
INSERT
  5
6F
330
1F
100
AcDbEntity
  8
0
100
AcDbBlockReference
  2
1_071455_4
 10
0.0
 20
0.0
 30
0.0
  0
POINT
  5
275
330
1F
100
AcDbEntity
  8
ConnectionPoints
100
AcDbPoint
 10
0.0000000000000001
 20
3.15125
 30
-0.0000000000000002
  0
POINT
  5
276
330
1F
100
AcDbEntity
  8
ConnectionPoints
100
AcDbPoint
 10
0.0
 20
-3.38
 30
0.0000000000000002
  0
POINT
  5
277
330
1F
100
AcDbEntity
  8
ConnectionPoints
100
AcDbPoint
 10
0.0
 20
3.15125
 30
-0.0000000000000002
  0
POINT
  5
278
330
1F
100
AcDbEntity
  8
ConnectionPoints
100
AcDbPoint
 10
0.0
 20
-3.38
 30
0.0000000000000002
  0
POINT
  5
279
330
1F
100
AcDbEntity
  8
ConnectionPoints
100
AcDbPoint
 10
2.51
 20
0.0000000000000003
 30
4.347447526997882
  0
POINT
  5
27A
330
1F
100
AcDbEntity
  8
ConnectionPoints
100
AcDbPoint
 10
0.0
 20
-3.0
 30
0.0000000000000002
  0
POINT
  5
27B
330
1F
100
AcDbEntity
  8
ConnectionPoints
100
AcDbPoint
 10
0.0
 20
-3.38
 30
0.0000000000000002
  0
POINT
  5
27C
330
1F
100
AcDbEntity
  8
ConnectionPoints
100
AcDbPoint
 10
2.51
 20
0.0000000000000003
 30
4.347447526997882
  0
ENDSEC
  0
SECTION
  2
OBJECTS
  0
DICTIONARY
  5
C
330
0
100
AcDbDictionary
281
     1
  3
ACAD_DETAILVIEWSTYLE
350
284
  3
ACAD_GROUP
350
D
  3
ACAD_LAYOUT
350
1A
  3
ACAD_MATERIAL
350
43
  3
ACAD_MLEADERSTYLE
350
6B
  3
ACAD_MLINESTYLE
350
17
  3
ACAD_PLOTSETTINGS
350
19
  3
ACAD_PLOTSTYLENAME
350
E
  3
ACAD_SCALELIST
350
47
  3
ACAD_SECTIONVIEWSTYLE
350
285
  3
ACAD_TABLESTYLE
350
69
  3
ACAD_VISUALSTYLE
350
2A
  3
ACDB_RECOMPOSE_DATA
350
281
  3
AcDbVariableDictionary
350
27D
  0
SUN
  5
6D
330
29
100
AcDbSun
 90
        1
290
     0
 63
     7
421
 16777215
 40
1.0
291
     1
 91
  2455826
 92
 54000000
292
     0
 70
     2
 71
   256
280
     1
  0
DICTIONARY
  5
284
102
{ACAD_REACTORS
330
C
102
}
330
C
100
AcDbDictionary
281
     1
  0
DICTIONARY
  5
D
102
{ACAD_REACTORS
330
C
102
}
330
C
100
AcDbDictionary
281
     1
  0
DICTIONARY
  5
1A
102
{ACAD_REACTORS
330
C
102
}
330
C
100
AcDbDictionary
281
     1
  3
Layout1
350
1E
  3
Layout2
350
26
  3
Model
350
22
  0
DICTIONARY
  5
43
102
{ACAD_REACTORS
330
C
102
}
330
C
100
AcDbDictionary
281
     1
  3
ByBlock
350
45
  3
ByLayer
350
44
  3
Global
350
46
  0
DICTIONARY
  5
6B
102
{ACAD_REACTORS
330
C
102
}
330
C
100
AcDbDictionary
281
     1
  3
Standard
350
6C
  0
DICTIONARY
  5
17
102
{ACAD_REACTORS
330
C
102
}
330
C
100
AcDbDictionary
281
     1
  3
Standard
350
18
  0
DICTIONARY
  5
19
102
{ACAD_REACTORS
330
C
102
}
330
C
100
AcDbDictionary
281
     1
  0
ACDBDICTIONARYWDFLT
  5
E
102
{ACAD_REACTORS
330
C
102
}
330
C
100
AcDbDictionary
281
     1
  3
Normal
350
F
100
AcDbDictionaryWithDefault
340
F
  0
DICTIONARY
  5
47
102
{ACAD_REACTORS
330
C
102
}
330
C
100
AcDbDictionary
281
     1
  3
A0
350
48
  3
A1
350
49
  3
A2
350
4A
  3
A3
350
4B
  3
A4
350
4C
  3
A5
350
4D
  3
A6
350
4E
  3
A7
350
4F
  3
A8
350
50
  3
A9
350
51
  3
B0
350
52
  3
B1
350
53
  3
B2
350
54
  3
B3
350
55
  3
B4
350
56
  3
B5
350
57
  3
B6
350
58
  3
B7
350
59
  3
B8
350
5A
  3
B9
350
5B
  3
C0
350
5C
  3
C1
350
5D
  3
C2
350
5E
  3
C3
350
5F
  3
C4
350
60
  3
C5
350
61
  3
C6
350
62
  3
C7
350
63
  3
C8
350
64
  3
C9
350
65
  3
D0
350
66
  3
D1
350
67
  3
D2
350
68
  0
DICTIONARY
  5
285
102
{ACAD_REACTORS
330
C
102
}
330
C
100
AcDbDictionary
281
     1
  0
DICTIONARY
  5
69
102
{ACAD_REACTORS
330
C
102
}
330
C
100
AcDbDictionary
281
     1
  3
Standard
350
6A
  0
DICTIONARY
  5
2A
102
{ACAD_REACTORS
330
C
102
}
330
C
100
AcDbDictionary
281
     1
  3
2dWireframe
350
2F
  3
Basic
350
32
  3
Brighten
350
36
  3
ColorChange
350
3A
  3
Conceptual
350
34
  3
Dim
350
35
  3
EdgeColorOff
350
3D
  3
Facepattern
350
39
  3
Flat
350
2B
  3
FlatWithEdges
350
2C
  3
Gouraud
350
2D
  3
GouraudWithEdges
350
2E
  3
Hidden
350
31
  3
JitterOff
350
3B
  3
Linepattern
350
38
  3
OverhangOff
350
3C
  3
Realistic
350
33
  3
Shaded
350
42
  3
Shaded with edges
350
41
  3
Shades of Gray
350
3E
  3
Sketchy
350
3F
  3
Thicken
350
37
  3
Wireframe
350
30
  3
X-Ray
350
40
  0
XRECORD
  5
281
102
{ACAD_REACTORS
330
C
102
}
330
C
100
AcDbXrecord
280
     1
 90
        1
330
6A
  0
DICTIONARY
  5
27D
102
{ACAD_REACTORS
330
C
102
}
330
C
100
AcDbDictionary
281
     1
  3
CANNOSCALE
350
27E
  3
CMLEADERSTYLE
350
283
  3
CTABLESTYLE
350
282
  0
LAYOUT
  5
1E
102
{ACAD_REACTORS
330
1A
102
}
330
1A
100
AcDbPlotSettings
  1

  2
none_device
  4

  6

 40
0.0
 41
0.0
 42
0.0
 43
0.0
 44
0.0
 45
0.0
 46
0.0
 47
0.0
 48
0.0
 49
0.0
140
0.0
141
0.0
142
1.0
143
1.0
 70
   688
 72
     0
 73
     0
 74
     5
  7

 75
    16
 76
     0
 77
     2
 78
   300
147
1.0
148
0.0
149
0.0
100
AcDbLayout
  1
Layout1
 70
     1
 71
     1
 10
0.0
 20
0.0
 11
12.0
 21
9.0
 12
0.0
 22
0.0
 32
0.0
 14
1.000000000000000E+20
 24
1.000000000000000E+20
 34
1.000000000000000E+20
 15
-1.000000000000000E+20
 25
-1.000000000000000E+20
 35
-1.000000000000000E+20
146
0.0
 13
0.0
 23
0.0
 33
0.0
 16
1.0
 26
0.0
 36
0.0
 17
0.0
 27
1.0
 37
0.0
 76
     0
330
1B
  0
LAYOUT
  5
26
102
{ACAD_REACTORS
330
1A
102
}
330
1A
100
AcDbPlotSettings
  1

  2
none_device
  4

  6

 40
0.0
 41
0.0
 42
0.0
 43
0.0
 44
0.0
 45
0.0
 46
0.0
 47
0.0
 48
0.0
 49
0.0
140
0.0
141
0.0
142
1.0
143
1.0
 70
   688
 72
     0
 73
     0
 74
     5
  7

 75
    16
 76
     0
 77
     2
 78
   300
147
1.0
148
0.0
149
0.0
100
AcDbLayout
  1
Layout2
 70
     1
 71
     2
 10
0.0
 20
0.0
 11
0.0
 21
0.0
 12
0.0
 22
0.0
 32
0.0
 14
0.0
 24
0.0
 34
0.0
 15
0.0
 25
0.0
 35
0.0
146
0.0
 13
0.0
 23
0.0
 33
0.0
 16
1.0
 26
0.0
 36
0.0
 17
0.0
 27
1.0
 37
0.0
 76
     0
330
23
  0
LAYOUT
  5
22
102
{ACAD_REACTORS
330
1A
102
}
330
1A
100
AcDbPlotSettings
  1

  2
none_device
  4
Letter_(8.50_x_11.00_Inches)
  6

 40
6.35
 41
6.35
 42
6.35000508
 43
6.35000508
 44
215.9
 45
279.4
 46
0.0
 47
0.0
 48
0.0
 49
0.0
140
0.0
141
0.0
142
1.0
143
1.0
 70
  1712
 72
     0
 73
     0
 74
     0
  7

 75
     0
 76
     0
 77
     2
 78
   300
147
1.0
148
0.0
149
0.0
100
AcDbLayout
  1
Model
 70
     1
 71
     0
 10
0.0
 20
0.0
 11
12.0
 21
9.0
 12
0.0
 22
0.0
 32
0.0
 14
1.000000000000000E+20
 24
1.000000000000000E+20
 34
1.000000000000000E+20
 15
-1.000000000000000E+20
 25
-1.000000000000000E+20
 35
-1.000000000000000E+20
146
0.0
 13
0.0
 23
0.0
 33
0.0
 16
1.0
 26
0.0
 36
0.0
 17
0.0
 27
1.0
 37
0.0
 76
     0
330
1F
331
29
  0
MATERIAL
  5
45
102
{ACAD_REACTORS
330
43
102
}
330
43
100
AcDbMaterial
  1
ByBlock
 72
     1
 94
      127
  0
MATERIAL
  5
44
102
{ACAD_REACTORS
330
43
102
}
330
43
100
AcDbMaterial
  1
ByLayer
 72
     1
 94
      127
  0
MATERIAL
  5
46
102
{ACAD_REACTORS
330
43
102
}
330
43
100
AcDbMaterial
  1
Global
 72
     1
 94
      127
  0
MLEADERSTYLE
  5
6C
102
{ACAD_REACTORS
330
6B
102
}
330
6B
100
AcDbMLeaderStyle
179
     2
170
     2
171
     1
172
     0
 90
        2
 40
0.0
 41
0.0
173
     1
 91
-1056964608
340
14
 92
       -2
290
     1
 42
0.09
291
     1
 43
0.36
  3
Standard
341
0
 44
0.18
300

342
11
174
     1
178
     6
175
     1
176
     0
 93
-1056964608
 45
0.18
292
     0
297
     0
 46
0.18
343
0
 94
-1056964608
 47
1.0
 49
1.0
140
1.0
293
     1
141
0.0
294
     1
177
     0
142
1.0
295
     0
296
     0
143
0.125
271
     0
272
     9
273
     9
298
     0
  0
MLINESTYLE
  5
18
102
{ACAD_REACTORS
330
17
102
}
330
17
100
AcDbMlineStyle
  2
Standard
 70
     0
  3

 62
   256
 51
90.0
 52
90.0
 71
     2
 49
0.5
 62
   256
  6
BYLAYER
 49
-0.5
 62
   256
  6
BYLAYER
  0
ACDBPLACEHOLDER
  5
F
102
{ACAD_REACTORS
330
E
102
}
330
E
  0
SCALE
  5
48
102
{ACAD_REACTORS
330
47
102
}
330
47
100
AcDbScale
 70
     0
300
1:1
140
1.0
141
1.0
290
     1
  0
SCALE
  5
49
102
{ACAD_REACTORS
330
47
102
}
330
47
100
AcDbScale
 70
     0
300
1:2
140
1.0
141
2.0
290
     0
  0
SCALE
  5
4A
102
{ACAD_REACTORS
330
47
102
}
330
47
100
AcDbScale
 70
     0
300
1:4
140
1.0
141
4.0
290
     0
  0
SCALE
  5
4B
102
{ACAD_REACTORS
330
47
102
}
330
47
100
AcDbScale
 70
     0
300
1:5
140
1.0
141
5.0
290
     0
  0
SCALE
  5
4C
102
{ACAD_REACTORS
330
47
102
}
330
47
100
AcDbScale
 70
     0
300
1:8
140
1.0
141
8.0
290
     0
  0
SCALE
  5
4D
102
{ACAD_REACTORS
330
47
102
}
330
47
100
AcDbScale
 70
     0
300
1:10
140
1.0
141
10.0
290
     0
  0
SCALE
  5
4E
102
{ACAD_REACTORS
330
47
102
}
330
47
100
AcDbScale
 70
     0
300
1:16
140
1.0
141
16.0
290
     0
  0
SCALE
  5
4F
102
{ACAD_REACTORS
330
47
102
}
330
47
100
AcDbScale
 70
     0
300
1:20
140
1.0
141
20.0
290
     0
  0
SCALE
  5
50
102
{ACAD_REACTORS
330
47
102
}
330
47
100
AcDbScale
 70
     0
300
1:30
140
1.0
141
30.0
290
     0
  0
SCALE
  5
51
102
{ACAD_REACTORS
330
47
102
}
330
47
100
AcDbScale
 70
     0
300
1:40
140
1.0
141
40.0
290
     0
  0
SCALE
  5
52
102
{ACAD_REACTORS
330
47
102
}
330
47
100
AcDbScale
 70
     0
300
1:50
140
1.0
141
50.0
290
     0
  0
SCALE
  5
53
102
{ACAD_REACTORS
330
47
102
}
330
47
100
AcDbScale
 70
     0
300
1:100
140
1.0
141
100.0
290
     0
  0
SCALE
  5
54
102
{ACAD_REACTORS
330
47
102
}
330
47
100
AcDbScale
 70
     0
300
2:1
140
2.0
141
1.0
290
     0
  0
SCALE
  5
55
102
{ACAD_REACTORS
330
47
102
}
330
47
100
AcDbScale
 70
     0
300
4:1
140
4.0
141
1.0
290
     0
  0
SCALE
  5
56
102
{ACAD_REACTORS
330
47
102
}
330
47
100
AcDbScale
 70
     0
300
8:1
140
8.0
141
1.0
290
     0
  0
SCALE
  5
57
102
{ACAD_REACTORS
330
47
102
}
330
47
100
AcDbScale
 70
     0
300
10:1
140
10.0
141
1.0
290
     0
  0
SCALE
  5
58
102
{ACAD_REACTORS
330
47
102
}
330
47
100
AcDbScale
 70
     0
300
100:1
140
100.0
141
1.0
290
     0
  0
SCALE
  5
59
102
{ACAD_REACTORS
330
47
102
}
330
47
100
AcDbScale
 70
     0
300
1/128" = 1'-0"
140
0.0078125
141
12.0
290
     0
  0
SCALE
  5
5A
102
{ACAD_REACTORS
330
47
102
}
330
47
100
AcDbScale
 70
     0
300
1/64" = 1'-0"
140
0.015625
141
12.0
290
     0
  0
SCALE
  5
5B
102
{ACAD_REACTORS
330
47
102
}
330
47
100
AcDbScale
 70
     0
300
1/32" = 1'-0"
140
0.03125
141
12.0
290
     0
  0
SCALE
  5
5C
102
{ACAD_REACTORS
330
47
102
}
330
47
100
AcDbScale
 70
     0
300
1/16" = 1'-0"
140
0.0625
141
12.0
290
     0
  0
SCALE
  5
5D
102
{ACAD_REACTORS
330
47
102
}
330
47
100
AcDbScale
 70
     0
300
3/32" = 1'-0"
140
0.09375
141
12.0
290
     0
  0
SCALE
  5
5E
102
{ACAD_REACTORS
330
47
102
}
330
47
100
AcDbScale
 70
     0
300
1/8" = 1'-0"
140
0.125
141
12.0
290
     0
  0
SCALE
  5
5F
102
{ACAD_REACTORS
330
47
102
}
330
47
100
AcDbScale
 70
     0
300
3/16" = 1'-0"
140
0.1875
141
12.0
290
     0
  0
SCALE
  5
60
102
{ACAD_REACTORS
330
47
102
}
330
47
100
AcDbScale
 70
     0
300
1/4" = 1'-0"
140
0.25
141
12.0
290
     0
  0
SCALE
  5
61
102
{ACAD_REACTORS
330
47
102
}
330
47
100
AcDbScale
 70
     0
300
3/8" = 1'-0"
140
0.375
141
12.0
290
     0
  0
SCALE
  5
62
102
{ACAD_REACTORS
330
47
102
}
330
47
100
AcDbScale
 70
     0
300
1/2" = 1'-0"
140
0.5
141
12.0
290
     0
  0
SCALE
  5
63
102
{ACAD_REACTORS
330
47
102
}
330
47
100
AcDbScale
 70
     0
300
3/4" = 1'-0"
140
0.75
141
12.0
290
     0
  0
SCALE
  5
64
102
{ACAD_REACTORS
330
47
102
}
330
47
100
AcDbScale
 70
     0
300
1" = 1'-0"
140
1.0
141
12.0
290
     0
  0
SCALE
  5
65
102
{ACAD_REACTORS
330
47
102
}
330
47
100
AcDbScale
 70
     0
300
1-1/2" = 1'-0"
140
1.5
141
12.0
290
     0
  0
SCALE
  5
66
102
{ACAD_REACTORS
330
47
102
}
330
47
100
AcDbScale
 70
     0
300
3" = 1'-0"
140
3.0
141
12.0
290
     0
  0
SCALE
  5
67
102
{ACAD_REACTORS
330
47
102
}
330
47
100
AcDbScale
 70
     0
300
6" = 1'-0"
140
6.0
141
12.0
290
     0
  0
SCALE
  5
68
102
{ACAD_REACTORS
330
47
102
}
330
47
100
AcDbScale
 70
     0
300
1'-0" = 1'-0"
140
12.0
141
12.0
290
     0
  0
TABLESTYLE
  5
6A
102
{ACAD_REACTORS
330
69
102
}
102
{ACAD_XDICTIONARY
360
27F
102
}
330
69
100
AcDbTableStyle
  3
Standard
 70
     0
 71
     0
 40
0.06
 41
0.06
280
     0
281
     0
  7
Standard
140
0.18
170
     2
 62
     0
 63
   257
283
     0
 90
        4
 91
        0
  1

274
    -2
284
     1
 64
     0
275
    -2
285
     1
 65
     0
276
    -2
286
     1
 66
     0
277
    -2
287
     1
 67
     0
278
    -2
288
     1
 68
     0
279
    -2
289
     1
 69
     0
  7
Standard
140
0.25
170
     5
 62
     0
 63
   257
283
     0
 90
        4
 91
        0
  1

274
    -2
284
     1
 64
     0
275
    -2
285
     1
 65
     0
276
    -2
286
     1
 66
     0
277
    -2
287
     1
 67
     0
278
    -2
288
     1
 68
     0
279
    -2
289
     1
 69
     0
  7
Standard
140
0.18
170
     5
 62
     0
 63
   257
283
     0
 90
        4
 91
        0
  1

274
    -2
284
     1
 64
     0
275
    -2
285
     1
 65
     0
276
    -2
286
     1
 66
     0
277
    -2
287
     1
 67
     0
278
    -2
288
     1
 68
     0
279
    -2
289
     1
 69
     0
  0
VISUALSTYLE
  5
2F
102
{ACAD_REACTORS
330
2A
102
}
330
2A
100
AcDbVisualStyle
  2
2dWireframe
 70
     4
177
     3
291
     0
 70
    58
 90
        0
176
     1
 90
        2
176
     1
 90
        0
176
     1
 90
        0
176
     1
 40
0.6
176
     1
 40
30.0
176
     1
 62
     7
420
 16777215
176
     1
 90
        1
176
     1
 90
        4
176
     1
 62
     7
176
     1
 62
   257
176
     1
 90
        1
176
     1
 90
        1
176
     1
 40
1.0
176
     1
 90
        0
176
     1
 62
   257
176
     1
 40
1.0
176
     1
 90
        1
176
     1
 90
        6
176
     1
 90
        2
176
     1
 62
     7
176
     1
 90
        5
176
     1
 90
        0
176
     1
 90
        0
176
     1
290
     0
176
     1
 90
        1
176
     1
 40
0.0
176
     1
 90
        0
176
     1
290
     1
176
     1
290
     1
176
     1
290
     0
176
     1
290
     0
176
     1
290
     0
176
     1
290
     0
176
     1
290
     0
176
     1
290
     0
176
     1
290
     0
176
     1
 90
       50
176
     1
 40
0.0
176
     1
 40
1.0
176
     1
 90
        0
176
     1
 62
    18
420
        0
176
     1
 90
       50
176
     1
 90
        3
176
     1
 62
     5
420
      255
176
     1
290
     0
176
     1
 90
       50
176
     1
 90
       50
176
     1
 90
       50
176
     1
290
     0
176
     1
 90
       50
176
     1
 62
   256
176
     0
 40
1.0
176
     0
 90
        2
176
     1
  1
strokes_ogs.tif
176
     1
290
     0
176
     1
 40
1.0
176
     1
 40
1.0
176
     1
  0
VISUALSTYLE
  5
32
102
{ACAD_REACTORS
330
2A
102
}
330
2A
100
AcDbVisualStyle
  2
Basic
 70
     7
177
     3
291
     1
 70
    58
 90
        1
176
     1
 90
        0
176
     1
 90
        1
176
     1
 90
        0
176
     1
 40
0.6
176
     1
 40
30.0
176
     1
 62
     7
420
 16777215
176
     1
 90
        0
176
     1
 90
        4
176
     1
 62
     7
176
     1
 62
   257
176
     1
 90
        1
176
     1
 90
        1
176
     1
 40
1.0
176
     1
 90
        8
176
     1
 62
     7
176
     1
 40
1.0
176
     1
 90
        1
176
     1
 90
        6
176
     1
 90
        2
176
     1
 62
     7
176
     1
 90
        5
176
     1
 90
        0
176
     1
 90
        0
176
     1
290
     0
176
     1
 90
        1
176
     1
 40
0.0
176
     1
 90
        0
176
     1
290
     0
176
     1
290
     1
176
     1
290
     1
176
     1
290
     0
176
     1
290
     0
176
     1
290
     0
176
     1
290
     0
176
     1
290
     0
176
     1
290
     0
176
     1
 90
       50
176
     1
 40
0.0
176
     1
 40
1.0
176
     1
 90
        0
176
     1
 62
    18
420
        0
176
     1
 90
       50
176
     1
 90
        3
176
     1
 62
     5
420
      255
176
     1
290
     0
176
     1
 90
       50
176
     1
 90
       50
176
     1
 90
       50
176
     1
290
     0
176
     1
 90
       50
176
     1
 62
   256
176
     0
 40
1.0
176
     0
 90
        2
176
     1
  1
strokes_ogs.tif
176
     1
290
     0
176
     1
 40
1.0
176
     1
 40
1.0
176
     1
  0
VISUALSTYLE
  5
36
102
{ACAD_REACTORS
330
2A
102
}
330
2A
100
AcDbVisualStyle
  2
Brighten
 70
    12
177
     3
291
     1
 70
    58
 90
        2
176
     1
 90
        2
176
     1
 90
        0
176
     1
 90
        0
176
     1
 40
0.6
176
     1
 40
30.0
176
     1
 62
     7
420
 16777215
176
     1
 90
        1
176
     1
 90
        4
176
     1
 62
     7
176
     1
 62
   257
176
     1
 90
        1
176
     1
 90
        1
176
     1
 40
1.0
176
     1
 90
        8
176
     1
 62
     7
176
     1
 40
1.0
176
     1
 90
        1
176
     1
 90
        6
176
     1
 90
        2
176
     1
 62
     7
176
     1
 90
        5
176
     1
 90
        0
176
     1
 90
        0
176
     1
290
     0
176
     1
 90
        1
176
     1
 40
50.0
176
     1
 90
        0
176
     1
290
     0
176
     1
290
     1
176
     1
290
     1
176
     1
290
     0
176
     1
290
     0
176
     1
290
     0
176
     1
290
     0
176
     1
290
     0
176
     1
290
     0
176
     1
 90
       50
176
     1
 40
0.0
176
     1
 40
1.0
176
     1
 90
        0
176
     1
 62
    18
420
        0
176
     1
 90
       50
176
     1
 90
        3
176
     1
 62
     5
420
      255
176
     1
290
     0
176
     1
 90
       50
176
     1
 90
       50
176
     1
 90
       50
176
     1
290
     0
176
     1
 90
       50
176
     1
 62
   256
176
     0
 40
1.0
176
     0
 90
        2
176
     1
  1
strokes_ogs.tif
176
     1
290
     0
176
     1
 40
1.0
176
     1
 40
1.0
176
     1
  0
VISUALSTYLE
  5
3A
102
{ACAD_REACTORS
330
2A
102
}
330
2A
100
AcDbVisualStyle
  2
ColorChange
 70
    16
177
     3
291
     1
 70
    58
 90
        2
176
     1
 90
        2
176
     1
 90
        3
176
     1
 90
        0
176
     1
 40
0.6
176
     1
 40
30.0
176
     1
 62
     8
420
  8421504
176
     1
 90
        1
176
     1
 90
        4
176
     1
 62
     7
176
     1
 62
   257
176
     1
 90
        1
176
     1
 90
        1
176
     1
 40
1.0
176
     1
 90
        8
176
     1
 62
     8
420
  8421504
176
     1
 40
1.0
176
     1
 90
        1
176
     1
 90
        6
176
     1
 90
        2
176
     1
 62
     7
176
     1
 90
        5
176
     1
 90
        0
176
     1
 90
        0
176
     1
290
     0
176
     1
 90
        1
176
     1
 40
0.0
176
     1
 90
        0
176
     1
290
     0
176
     1
290
     1
176
     1
290
     1
176
     1
290
     0
176
     1
290
     0
176
     1
290
     0
176
     1
290
     0
176
     1
290
     0
176
     1
290
     0
176
     1
 90
       50
176
     1
 40
0.0
176
     1
 40
1.0
176
     1
 90
        0
176
     1
 62
    18
420
        0
176
     1
 90
       50
176
     1
 90
        3
176
     1
 62
     5
420
      255
176
     1
290
     0
176
     1
 90
       50
176
     1
 90
       50
176
     1
 90
       50
176
     1
290
     0
176
     1
 90
       50
176
     1
 62
   256
176
     0
 40
1.0
176
     0
 90
        2
176
     1
  1
strokes_ogs.tif
176
     1
290
     0
176
     1
 40
1.0
176
     1
 40
1.0
176
     1
  0
VISUALSTYLE
  5
34
102
{ACAD_REACTORS
330
2A
102
}
330
2A
100
AcDbVisualStyle
  2
Conceptual
 70
     9
177
     3
291
     0
 70
    58
 90
        3
176
     1
 90
        2
176
     1
 90
        0
176
     1
 90
        0
176
     1
 40
0.6
176
     1
 40
30.0
176
     1
 62
     7
420
 16777215
176
     1
 90
        2
176
     1
 90
        2
176
     1
 62
     7
176
     1
 62
   257
176
     1
 90
        1
176
     1
 90
        1
176
     1
 40
179.0
176
     1
 90
        8
176
     1
 62
     7
176
     1
 40
1.0
176
     1
 90
        1
176
     1
 90
        6
176
     1
 90
        2
176
     1
 62
     7
176
     1
 90
        3
176
     1
 90
        0
176
     1
 90
        0
176
     1
290
     0
176
     1
 90
        1
176
     1
 40
0.0
176
     1
 90
        0
176
     1
290
     0
176
     1
290
     1
176
     1
290
     1
176
     1
290
     0
176
     1
290
     0
176
     1
290
     0
176
     1
290
     0
176
     1
290
     0
176
     1
290
     0
176
     1
 90
       50
176
     1
 40
0.0
176
     1
 40
1.0
176
     1
 90
        0
176
     1
 62
    18
420
        0
176
     1
 90
       50
176
     1
 90
        3
176
     1
 62
     5
420
      255
176
     1
290
     0
176
     1
 90
       50
176
     1
 90
       50
176
     1
 90
       50
176
     1
290
     0
176
     1
 90
       50
176
     1
 62
   256
176
     0
 40
1.0
176
     0
 90
        2
176
     1
  1
strokes_ogs.tif
176
     1
290
     0
176
     1
 40
1.0
176
     1
 40
1.0
176
     1
  0
VISUALSTYLE
  5
35
102
{ACAD_REACTORS
330
2A
102
}
330
2A
100
AcDbVisualStyle
  2
Dim
 70
    11
177
     3
291
     1
 70
    58
 90
        2
176
     1
 90
        2
176
     1
 90
        0
176
     1
 90
        0
176
     1
 40
0.6
176
     1
 40
30.0
176
     1
 62
     7
420
 16777215
176
     1
 90
        1
176
     1
 90
        4
176
     1
 62
     7
176
     1
 62
   257
176
     1
 90
        1
176
     1
 90
        1
176
     1
 40
1.0
176
     1
 90
        8
176
     1
 62
     7
176
     1
 40
1.0
176
     1
 90
        1
176
     1
 90
        6
176
     1
 90
        2
176
     1
 62
     7
176
     1
 90
        5
176
     1
 90
        0
176
     1
 90
        0
176
     1
290
     0
176
     1
 90
        1
176
     1
 40
-50.0
176
     1
 90
        0
176
     1
290
     0
176
     1
290
     1
176
     1
290
     1
176
     1
290
     0
176
     1
290
     0
176
     1
290
     0
176
     1
290
     0
176
     1
290
     0
176
     1
290
     0
176
     1
 90
       50
176
     1
 40
0.0
176
     1
 40
1.0
176
     1
 90
        0
176
     1
 62
    18
420
        0
176
     1
 90
       50
176
     1
 90
        3
176
     1
 62
     5
420
      255
176
     1
290
     0
176
     1
 90
       50
176
     1
 90
       50
176
     1
 90
       50
176
     1
290
     0
176
     1
 90
       50
176
     1
 62
   256
176
     0
 40
1.0
176
     0
 90
        2
176
     1
  1
strokes_ogs.tif
176
     1
290
     0
176
     1
 40
1.0
176
     1
 40
1.0
176
     1
  0
VISUALSTYLE
  5
3D
102
{ACAD_REACTORS
330
2A
102
}
330
2A
100
AcDbVisualStyle
  2
EdgeColorOff
 70
    22
177
     3
291
     1
 70
    58
 90
        2
176
     0
 90
        2
176
     0
 90
        0
176
     0
 90
        0
176
     0
 40
0.6
176
     0
 40
30.0
176
     0
 62
     7
420
 16777215
176
     0
 90
        1
176
     0
 90
        4
176
     0
 62
     7
176
     0
 62
   257
176
     0
 90
        1
176
     0
 90
        1
176
     0
 40
1.0
176
     0
 90
        8
176
     2
 62
     7
176
     0
 40
1.0
176
     0
 90
        1
176
     0
 90
        6
176
     0
 90
        2
176
     0
 62
     7
176
     0
 90
        5
176
     0
 90
        0
176
     0
 90
        0
176
     0
290
     0
176
     0
 90
        1
176
     0
 40
0.0
176
     0
 90
        0
176
     0
290
     0
176
     0
290
     1
176
     0
290
     1
176
     0
290
     0
176
     0
290
     0
176
     0
290
     0
176
     0
290
     0
176
     0
290
     0
176
     0
290
     0
176
     0
 90
       50
176
     0
 40
0.0
176
     0
 40
1.0
176
     0
 90
        0
176
     0
 62
    18
420
        0
176
     0
 90
       50
176
     0
 90
        3
176
     0
 62
     5
420
      255
176
     0
290
     0
176
     0
 90
       50
176
     0
 90
       50
176
     0
 90
       50
176
     0
290
     0
176
     0
 90
       50
176
     0
 62
   256
176
     0
 40
1.0
176
     0
 90
        2
176
     0
  1
strokes_ogs.tif
176
     0
290
     0
176
     0
 40
1.0
176
     0
 40
1.0
176
     0
  0
VISUALSTYLE
  5
39
102
{ACAD_REACTORS
330
2A
102
}
330
2A
100
AcDbVisualStyle
  2
Facepattern
 70
    15
177
     3
291
     1
 70
    58
 90
        2
176
     1
 90
        2
176
     1
 90
        0
176
     1
 90
        0
176
     1
 40
0.6
176
     1
 40
30.0
176
     1
 62
     7
420
 16777215
176
     1
 90
        1
176
     1
 90
        4
176
     1
 62
     7
176
     1
 62
   257
176
     1
 90
        1
176
     1
 90
        1
176
     1
 40
1.0
176
     1
 90
        8
176
     1
 62
     7
176
     1
 40
1.0
176
     1
 90
        1
176
     1
 90
        6
176
     1
 90
        2
176
     1
 62
     7
176
     1
 90
        5
176
     1
 90
        0
176
     1
 90
        0
176
     1
290
     0
176
     1
 90
        1
176
     1
 40
0.0
176
     1
 90
        0
176
     1
290
     0
176
     1
290
     1
176
     1
290
     1
176
     1
290
     0
176
     1
290
     0
176
     1
290
     0
176
     1
290
     0
176
     1
290
     0
176
     1
290
     0
176
     1
 90
       50
176
     1
 40
0.0
176
     1
 40
1.0
176
     1
 90
        0
176
     1
 62
    18
420
        0
176
     1
 90
       50
176
     1
 90
        3
176
     1
 62
     5
420
      255
176
     1
290
     0
176
     1
 90
       50
176
     1
 90
       50
176
     1
 90
       50
176
     1
290
     0
176
     1
 90
       50
176
     1
 62
   256
176
     0
 40
1.0
176
     0
 90
        2
176
     1
  1
strokes_ogs.tif
176
     1
290
     0
176
     1
 40
1.0
176
     1
 40
1.0
176
     1
  0
VISUALSTYLE
  5
2B
102
{ACAD_REACTORS
330
2A
102
}
330
2A
100
AcDbVisualStyle
  2
Flat
 70
     0
177
     3
291
     1
 70
    58
 90
        2
176
     1
 90
        1
176
     1
 90
        1
176
     1
 90
        2
176
     1
 40
0.6
176
     1
 40
30.0
176
     1
 62
     7
420
 16777215
176
     1
 90
        0
176
     1
 90
        0
176
     1
 62
     7
176
     1
 62
   257
176
     1
 90
        1
176
     1
 90
        1
176
     1
 40
1.0
176
     1
 90
        8
176
     1
 62
     7
176
     1
 40
1.0
176
     1
 90
        1
176
     1
 90
        6
176
     1
 90
        2
176
     1
 62
     7
176
     1
 90
        5
176
     1
 90
        0
176
     1
 90
        0
176
     1
290
     0
176
     1
 90
       13
176
     1
 40
0.0
176
     1
 90
        0
176
     1
290
     0
176
     1
290
     1
176
     1
290
     1
176
     1
290
     0
176
     1
290
     0
176
     1
290
     0
176
     1
290
     0
176
     1
290
     0
176
     1
290
     0
176
     1
 90
       50
176
     1
 40
0.0
176
     1
 40
1.0
176
     1
 90
        0
176
     1
 62
    18
420
        0
176
     1
 90
       50
176
     1
 90
        3
176
     1
 62
     5
420
      255
176
     1
290
     0
176
     1
 90
       50
176
     1
 90
       50
176
     1
 90
       50
176
     1
290
     0
176
     1
 90
       50
176
     1
 62
   256
176
     0
 40
1.0
176
     0
 90
        2
176
     1
  1
strokes_ogs.tif
176
     1
290
     0
176
     1
 40
1.0
176
     1
 40
1.0
176
     1
  0
VISUALSTYLE
  5
2C
102
{ACAD_REACTORS
330
2A
102
}
330
2A
100
AcDbVisualStyle
  2
FlatWithEdges
 70
     1
177
     3
291
     1
 70
    58
 90
        2
176
     1
 90
        1
176
     1
 90
        1
176
     1
 90
        2
176
     1
 40
0.6
176
     1
 40
30.0
176
     1
 62
     7
420
 16777215
176
     1
 90
        1
176
     1
 90
        0
176
     1
 62
     7
176
     1
 62
   257
176
     1
 90
        1
176
     1
 90
        1
176
     1
 40
1.0
176
     1
 90
        0
176
     1
 62
   257
176
     1
 40
1.0
176
     1
 90
        1
176
     1
 90
        6
176
     1
 90
        2
176
     1
 62
     7
176
     1
 90
        5
176
     1
 90
        0
176
     1
 90
        0
176
     1
290
     0
176
     1
 90
       13
176
     1
 40
0.0
176
     1
 90
        0
176
     1
290
     0
176
     1
290
     1
176
     1
290
     1
176
     1
290
     0
176
     1
290
     0
176
     1
290
     0
176
     1
290
     0
176
     1
290
     0
176
     1
290
     0
176
     1
 90
       50
176
     1
 40
0.0
176
     1
 40
1.0
176
     1
 90
        0
176
     1
 62
    18
420
        0
176
     1
 90
       50
176
     1
 90
        3
176
     1
 62
     5
420
      255
176
     1
290
     0
176
     1
 90
       50
176
     1
 90
       50
176
     1
 90
       50
176
     1
290
     0
176
     1
 90
       50
176
     1
 62
   256
176
     0
 40
1.0
176
     0
 90
        2
176
     1
  1
strokes_ogs.tif
176
     1
290
     0
176
     1
 40
1.0
176
     1
 40
1.0
176
     1
  0
VISUALSTYLE
  5
2D
102
{ACAD_REACTORS
330
2A
102
}
330
2A
100
AcDbVisualStyle
  2
Gouraud
 70
     2
177
     3
291
     1
 70
    58
 90
        2
176
     1
 90
        2
176
     1
 90
        1
176
     1
 90
        2
176
     1
 40
0.6
176
     1
 40
30.0
176
     1
 62
     7
420
 16777215
176
     1
 90
        0
176
     1
 90
        0
176
     1
 62
     7
176
     1
 62
   257
176
     1
 90
        1
176
     1
 90
        1
176
     1
 40
1.0
176
     1
 90
        0
176
     1
 62
     7
176
     1
 40
1.0
176
     1
 90
        1
176
     1
 90
        6
176
     1
 90
        2
176
     1
 62
     7
176
     1
 90
        5
176
     1
 90
        0
176
     1
 90
        0
176
     1
290
     0
176
     1
 90
       13
176
     1
 40
0.0
176
     1
 90
        0
176
     1
290
     0
176
     1
290
     1
176
     1
290
     1
176
     1
290
     0
176
     1
290
     0
176
     1
290
     0
176
     1
290
     0
176
     1
290
     0
176
     1
290
     0
176
     1
 90
       50
176
     1
 40
0.0
176
     1
 40
1.0
176
     1
 90
        0
176
     1
 62
    18
420
        0
176
     1
 90
       50
176
     1
 90
        3
176
     1
 62
     5
420
      255
176
     1
290
     0
176
     1
 90
       50
176
     1
 90
       50
176
     1
 90
       50
176
     1
290
     0
176
     1
 90
       50
176
     1
 62
   256
176
     0
 40
1.0
176
     0
 90
        2
176
     1
  1
strokes_ogs.tif
176
     1
290
     0
176
     1
 40
1.0
176
     1
 40
1.0
176
     1
  0
VISUALSTYLE
  5
2E
102
{ACAD_REACTORS
330
2A
102
}
330
2A
100
AcDbVisualStyle
  2
GouraudWithEdges
 70
     3
177
     3
291
     1
 70
    58
 90
        2
176
     1
 90
        2
176
     1
 90
        1
176
     1
 90
        2
176
     1
 40
0.6
176
     1
 40
30.0
176
     1
 62
     7
420
 16777215
176
     1
 90
        1
176
     1
 90
        0
176
     1
 62
     7
176
     1
 62
   257
176
     1
 90
        1
176
     1
 90
        1
176
     1
 40
1.0
176
     1
 90
        0
176
     1
 62
   257
176
     1
 40
1.0
176
     1
 90
        1
176
     1
 90
        6
176
     1
 90
        2
176
     1
 62
     7
176
     1
 90
        5
176
     1
 90
        0
176
     1
 90
        0
176
     1
290
     0
176
     1
 90
       13
176
     1
 40
0.0
176
     1
 90
        0
176
     1
290
     0
176
     1
290
     1
176
     1
290
     1
176
     1
290
     0
176
     1
290
     0
176
     1
290
     0
176
     1
290
     0
176
     1
290
     0
176
     1
290
     0
176
     1
 90
       50
176
     1
 40
0.0
176
     1
 40
1.0
176
     1
 90
        0
176
     1
 62
    18
420
        0
176
     1
 90
       50
176
     1
 90
        3
176
     1
 62
     5
420
      255
176
     1
290
     0
176
     1
 90
       50
176
     1
 90
       50
176
     1
 90
       50
176
     1
290
     0
176
     1
 90
       50
176
     1
 62
   256
176
     0
 40
1.0
176
     0
 90
        2
176
     1
  1
strokes_ogs.tif
176
     1
290
     0
176
     1
 40
1.0
176
     1
 40
1.0
176
     1
  0
VISUALSTYLE
  5
31
102
{ACAD_REACTORS
330
2A
102
}
330
2A
100
AcDbVisualStyle
  2
Hidden
 70
     6
177
     3
291
     0
 70
    58
 90
        1
176
     1
 90
        2
176
     1
 90
        2
176
     1
 90
        0
176
     1
 40
0.6
176
     1
 40
30.0
176
     1
 62
     7
420
 16777215
176
     1
 90
        2
176
     1
 90
        2
176
     1
 62
     7
176
     1
 62
   257
176
     1
 90
        2
176
     1
 90
        1
176
     1
 40
40.0
176
     1
 90
        0
176
     1
 62
   257
176
     1
 40
1.0
176
     1
 90
        1
176
     1
 90
        6
176
     1
 90
        2
176
     1
 62
     7
176
     1
 90
        3
176
     1
 90
        0
176
     1
 90
        0
176
     1
290
     0
176
     1
 90
        1
176
     1
 40
0.0
176
     1
 90
        0
176
     1
290
     0
176
     1
290
     1
176
     1
290
     1
176
     1
290
     0
176
     1
290
     0
176
     1
290
     0
176
     1
290
     0
176
     1
290
     0
176
     1
290
     0
176
     1
 90
       50
176
     1
 40
0.0
176
     1
 40
1.0
176
     1
 90
        0
176
     1
 62
    18
420
        0
176
     1
 90
       50
176
     1
 90
        3
176
     1
 62
     5
420
      255
176
     1
290
     0
176
     1
 90
       50
176
     1
 90
       50
176
     1
 90
       50
176
     1
290
     0
176
     1
 90
       50
176
     1
 62
   256
176
     0
 40
1.0
176
     0
 90
        2
176
     1
  1
strokes_ogs.tif
176
     1
290
     0
176
     1
 40
1.0
176
     1
 40
1.0
176
     1
  0
VISUALSTYLE
  5
3B
102
{ACAD_REACTORS
330
2A
102
}
330
2A
100
AcDbVisualStyle
  2
JitterOff
 70
    20
177
     3
291
     1
 70
    58
 90
        2
176
     0
 90
        2
176
     0
 90
        0
176
     0
 90
        0
176
     0
 40
0.6
176
     0
 40
30.0
176
     0
 62
     7
420
 16777215
176
     0
 90
        1
176
     0
 90
        4
176
     0
 62
     7
176
     0
 62
   257
176
     0
 90
        1
176
     0
 90
        1
176
     0
 40
1.0
176
     0
 90
       10
176
     2
 62
     7
176
     0
 40
1.0
176
     0
 90
        1
176
     0
 90
        6
176
     0
 90
        2
176
     0
 62
     7
176
     0
 90
        5
176
     0
 90
        0
176
     0
 90
        0
176
     0
290
     0
176
     0
 90
        1
176
     0
 40
0.0
176
     0
 90
        0
176
     0
290
     0
176
     0
290
     1
176
     0
290
     1
176
     0
290
     0
176
     0
290
     0
176
     0
290
     0
176
     0
290
     0
176
     0
290
     0
176
     0
290
     0
176
     0
 90
       50
176
     0
 40
0.0
176
     0
 40
1.0
176
     0
 90
        0
176
     0
 62
    18
420
        0
176
     0
 90
       50
176
     0
 90
        3
176
     0
 62
     5
420
      255
176
     0
290
     0
176
     0
 90
       50
176
     0
 90
       50
176
     0
 90
       50
176
     0
290
     0
176
     0
 90
       50
176
     0
 62
   256
176
     0
 40
1.0
176
     0
 90
        2
176
     0
  1
strokes_ogs.tif
176
     0
290
     0
176
     0
 40
1.0
176
     0
 40
1.0
176
     0
  0
VISUALSTYLE
  5
38
102
{ACAD_REACTORS
330
2A
102
}
330
2A
100
AcDbVisualStyle
  2
Linepattern
 70
    14
177
     3
291
     1
 70
    58
 90
        2
176
     1
 90
        2
176
     1
 90
        0
176
     1
 90
        0
176
     1
 40
0.6
176
     1
 40
30.0
176
     1
 62
     7
420
 16777215
176
     1
 90
        1
176
     1
 90
        4
176
     1
 62
     7
176
     1
 62
   257
176
     1
 90
        7
176
     1
 90
        7
176
     1
 40
1.0
176
     1
 90
        8
176
     1
 62
     7
176
     1
 40
1.0
176
     1
 90
        1
176
     1
 90
        6
176
     1
 90
        2
176
     1
 62
     7
176
     1
 90
        5
176
     1
 90
        0
176
     1
 90
        0
176
     1
290
     0
176
     1
 90
        1
176
     1
 40
0.0
176
     1
 90
        0
176
     1
290
     0
176
     1
290
     1
176
     1
290
     1
176
     1
290
     0
176
     1
290
     0
176
     1
290
     0
176
     1
290
     0
176
     1
290
     0
176
     1
290
     0
176
     1
 90
       50
176
     1
 40
0.0
176
     1
 40
1.0
176
     1
 90
        0
176
     1
 62
    18
420
        0
176
     1
 90
       50
176
     1
 90
        3
176
     1
 62
     5
420
      255
176
     1
290
     0
176
     1
 90
       50
176
     1
 90
       50
176
     1
 90
       50
176
     1
290
     0
176
     1
 90
       50
176
     1
 62
   256
176
     0
 40
1.0
176
     0
 90
        2
176
     1
  1
strokes_ogs.tif
176
     1
290
     0
176
     1
 40
1.0
176
     1
 40
1.0
176
     1
  0
VISUALSTYLE
  5
3C
102
{ACAD_REACTORS
330
2A
102
}
330
2A
100
AcDbVisualStyle
  2
OverhangOff
 70
    21
177
     3
291
     1
 70
    58
 90
        2
176
     0
 90
        2
176
     0
 90
        0
176
     0
 90
        0
176
     0
 40
0.6
176
     0
 40
30.0
176
     0
 62
     7
420
 16777215
176
     0
 90
        1
176
     0
 90
        4
176
     0
 62
     7
176
     0
 62
   257
176
     0
 90
        1
176
     0
 90
        1
176
     0
 40
1.0
176
     0
 90
        9
176
     2
 62
     7
176
     0
 40
1.0
176
     0
 90
        1
176
     0
 90
        6
176
     0
 90
        2
176
     0
 62
     7
176
     0
 90
        5
176
     0
 90
        0
176
     0
 90
        0
176
     0
290
     0
176
     0
 90
        1
176
     0
 40
0.0
176
     0
 90
        0
176
     0
290
     0
176
     0
290
     1
176
     0
290
     1
176
     0
290
     0
176
     0
290
     0
176
     0
290
     0
176
     0
290
     0
176
     0
290
     0
176
     0
290
     0
176
     0
 90
       50
176
     0
 40
0.0
176
     0
 40
1.0
176
     0
 90
        0
176
     0
 62
    18
420
        0
176
     0
 90
       50
176
     0
 90
        3
176
     0
 62
     5
420
      255
176
     0
290
     0
176
     0
 90
       50
176
     0
 90
       50
176
     0
 90
       50
176
     0
290
     0
176
     0
 90
       50
176
     0
 62
   256
176
     0
 40
1.0
176
     0
 90
        2
176
     0
  1
strokes_ogs.tif
176
     0
290
     0
176
     0
 40
1.0
176
     0
 40
1.0
176
     0
  0
VISUALSTYLE
  5
33
102
{ACAD_REACTORS
330
2A
102
}
330
2A
100
AcDbVisualStyle
  2
Realistic
 70
     8
177
     3
291
     0
 70
    58
 90
        2
176
     1
 90
        3
176
     1
 90
        0
176
     1
 90
        2
176
     1
 40
0.6
176
     1
 40
30.0
176
     1
 62
     7
420
 16777215
176
     1
 90
        0
176
     1
 90
        0
176
     1
 62
     7
176
     1
 62
   257
176
     1
 90
        1
176
     1
 90
        1
176
     1
 40
1.0
176
     1
 90
        8
176
     1
 62
   257
176
     1
 40
1.0
176
     1
 90
        1
176
     1
 90
        6
176
     1
 90
        2
176
     1
 62
     7
176
     1
 90
        3
176
     1
 90
        0
176
     1
 90
        0
176
     1
290
     0
176
     1
 90
       13
176
     1
 40
0.0
176
     1
 90
        0
176
     1
290
     0
176
     1
290
     1
176
     1
290
     1
176
     1
290
     0
176
     1
290
     0
176
     1
290
     0
176
     1
290
     0
176
     1
290
     0
176
     1
290
     0
176
     1
 90
       50
176
     1
 40
0.0
176
     1
 40
1.0
176
     1
 90
        0
176
     1
 62
    18
420
        0
176
     1
 90
       50
176
     1
 90
        3
176
     1
 62
     5
420
      255
176
     1
290
     0
176
     1
 90
       50
176
     1
 90
       50
176
     1
 90
       50
176
     1
290
     0
176
     1
 90
       50
176
     1
 62
   256
176
     0
 40
1.0
176
     0
 90
        2
176
     1
  1
strokes_ogs.tif
176
     1
290
     0
176
     1
 40
1.0
176
     1
 40
1.0
176
     1
  0
VISUALSTYLE
  5
42
102
{ACAD_REACTORS
330
2A
102
}
330
2A
100
AcDbVisualStyle
  2
Shaded
 70
    27
177
     3
291
     0
 70
    58
 90
        2
176
     1
 90
        2
176
     1
 90
        1
176
     1
 90
        2
176
     1
 40
0.6
176
     1
 40
30.0
176
     1
 62
     7
420
 16777215
176
     1
 90
        0
176
     1
 90
        4
176
     1
 62
     7
176
     1
 62
   257
176
     1
 90
        1
176
     1
 90
        1
176
     1
 40
1.0
176
     1
 90
        8
176
     1
 62
   257
176
     1
 40
1.0
176
     1
 90
        1
176
     1
 90
        6
176
     1
 90
        2
176
     1
 62
     8
420
  7895160
176
     1
 90
        3
176
     1
 90
        0
176
     1
 90
        0
176
     1
290
     0
176
     1
 90
        5
176
     1
 40
0.0
176
     1
 90
        0
176
     1
290
     0
176
     1
290
     1
176
     1
290
     1
176
     1
290
     0
176
     1
290
     0
176
     1
290
     0
176
     1
290
     0
176
     1
290
     0
176
     1
290
     0
176
     1
 90
       50
176
     1
 40
0.0
176
     1
 40
1.0
176
     1
 90
        0
176
     1
 62
    18
420
        0
176
     1
 90
       50
176
     1
 90
        3
176
     1
 62
     5
420
      255
176
     1
290
     0
176
     1
 90
       50
176
     1
 90
       50
176
     1
 90
       50
176
     1
290
     0
176
     1
 90
       50
176
     1
 62
   256
176
     0
 40
1.0
176
     0
 90
        2
176
     1
  1
strokes_ogs.tif
176
     1
290
     0
176
     1
 40
1.0
176
     1
 40
1.0
176
     1
  0
VISUALSTYLE
  5
41
102
{ACAD_REACTORS
330
2A
102
}
330
2A
100
AcDbVisualStyle
  2
Shaded with edges
 70
    26
177
     3
291
     0
 70
    58
 90
        2
176
     1
 90
        2
176
     1
 90
        1
176
     1
 90
        2
176
     1
 40
0.6
176
     1
 40
30.0
176
     1
 62
     7
420
 16777215
176
     1
 90
        1
176
     1
 90
       10
176
     1
 62
     7
176
     1
 62
   257
176
     1
 90
        2
176
     1
 90
        1
176
     1
 40
1.0
176
     1
 90
        8
176
     1
 62
   257
176
     1
 40
1.0
176
     1
 90
        1
176
     1
 90
        6
176
     1
 90
        2
176
     1
 62
     7
176
     1
 90
        3
176
     1
 90
        0
176
     1
 90
        0
176
     1
290
     0
176
     1
 90
        5
176
     1
 40
0.0
176
     1
 90
        0
176
     1
290
     0
176
     1
290
     1
176
     1
290
     1
176
     1
290
     0
176
     1
290
     0
176
     1
290
     0
176
     1
290
     0
176
     1
290
     0
176
     1
290
     0
176
     1
 90
       50
176
     1
 40
0.0
176
     1
 40
1.0
176
     1
 90
        0
176
     1
 62
    18
420
        0
176
     1
 90
       50
176
     1
 90
        3
176
     1
 62
     5
420
      255
176
     1
290
     0
176
     1
 90
       50
176
     1
 90
       50
176
     1
 90
       50
176
     1
290
     0
176
     1
 90
       50
176
     1
 62
   256
176
     0
 40
1.0
176
     0
 90
        2
176
     1
  1
strokes_ogs.tif
176
     1
290
     0
176
     1
 40
1.0
176
     1
 40
1.0
176
     1
  0
VISUALSTYLE
  5
3E
102
{ACAD_REACTORS
330
2A
102
}
330
2A
100
AcDbVisualStyle
  2
Shades of Gray
 70
    23
177
     3
291
     0
 70
    58
 90
        2
176
     1
 90
        2
176
     1
 90
        3
176
     1
 90
        0
176
     1
 40
0.6
176
     1
 40
30.0
176
     1
 62
     7
420
 16777215
176
     1
 90
        2
176
     1
 90
        2
176
     1
 62
     7
176
     1
 62
     7
176
     1
 90
        1
176
     1
 90
        1
176
     1
 40
40.0
176
     1
 90
        8
176
     1
 62
     7
176
     1
 40
1.0
176
     1
 90
        1
176
     1
 90
        6
176
     1
 90
        2
176
     1
 62
     7
176
     1
 90
        3
176
     1
 90
        0
176
     1
 90
        0
176
     1
290
     0
176
     1
 90
        1
176
     1
 40
0.0
176
     1
 90
        0
176
     1
290
     0
176
     1
290
     1
176
     1
290
     1
176
     1
290
     0
176
     1
290
     0
176
     1
290
     0
176
     1
290
     0
176
     1
290
     0
176
     1
290
     0
176
     1
 90
       50
176
     1
 40
0.0
176
     1
 40
1.0
176
     1
 90
        0
176
     1
 62
    18
420
        0
176
     1
 90
       50
176
     1
 90
        3
176
     1
 62
     5
420
      255
176
     1
290
     0
176
     1
 90
       50
176
     1
 90
       50
176
     1
 90
       50
176
     1
290
     0
176
     1
 90
       50
176
     1
 62
   256
176
     0
 40
1.0
176
     0
 90
        2
176
     1
  1
strokes_ogs.tif
176
     1
290
     0
176
     1
 40
1.0
176
     1
 40
1.0
176
     1
  0
VISUALSTYLE
  5
3F
102
{ACAD_REACTORS
330
2A
102
}
330
2A
100
AcDbVisualStyle
  2
Sketchy
 70
    24
177
     3
291
     0
 70
    58
 90
        1
176
     1
 90
        2
176
     1
 90
        2
176
     1
 90
        0
176
     1
 40
0.6
176
     1
 40
30.0
176
     1
 62
     7
420
 16777215
176
     1
 90
        2
176
     1
 90
        2
176
     1
 62
     7
176
     1
 62
     7
176
     1
 90
        1
176
     1
 90
        1
176
     1
 40
40.0
176
     1
 90
       11
176
     1
 62
     7
176
     1
 40
1.0
176
     1
 90
        1
176
     1
 90
        6
176
     1
 90
        2
176
     1
 62
     7
176
     1
 90
        6
176
     1
 90
        0
176
     1
 90
        0
176
     1
290
     0
176
     1
 90
        1
176
     1
 40
0.0
176
     1
 90
        0
176
     1
290
     0
176
     1
290
     1
176
     1
290
     1
176
     1
290
     0
176
     1
290
     0
176
     1
290
     0
176
     1
290
     0
176
     1
290
     0
176
     1
290
     0
176
     1
 90
       50
176
     1
 40
0.0
176
     1
 40
1.0
176
     1
 90
        0
176
     1
 62
    18
420
        0
176
     1
 90
       50
176
     1
 90
        3
176
     1
 62
     5
420
      255
176
     1
290
     0
176
     1
 90
       50
176
     1
 90
       50
176
     1
 90
       50
176
     1
290
     0
176
     1
 90
       50
176
     1
 62
   256
176
     0
 40
1.0
176
     0
 90
        2
176
     1
  1
strokes_ogs.tif
176
     1
290
     0
176
     1
 40
1.0
176
     1
 40
1.0
176
     1
  0
VISUALSTYLE
  5
37
102
{ACAD_REACTORS
330
2A
102
}
330
2A
100
AcDbVisualStyle
  2
Thicken
 70
    13
177
     3
291
     1
 70
    58
 90
        2
176
     1
 90
        2
176
     1
 90
        0
176
     1
 90
        0
176
     1
 40
0.6
176
     1
 40
30.0
176
     1
 62
     7
420
 16777215
176
     1
 90
        1
176
     1
 90
        4
176
     1
 62
     7
176
     1
 62
   257
176
     1
 90
        1
176
     1
 90
        1
176
     1
 40
1.0
176
     1
 90
       12
176
     1
 62
     7
176
     1
 40
1.0
176
     1
 90
        1
176
     1
 90
        6
176
     1
 90
        2
176
     1
 62
     7
176
     1
 90
        5
176
     1
 90
        0
176
     1
 90
        0
176
     1
290
     0
176
     1
 90
        1
176
     1
 40
0.0
176
     1
 90
        0
176
     1
290
     0
176
     1
290
     1
176
     1
290
     1
176
     1
290
     0
176
     1
290
     0
176
     1
290
     0
176
     1
290
     0
176
     1
290
     0
176
     1
290
     0
176
     1
 90
       50
176
     1
 40
0.0
176
     1
 40
1.0
176
     1
 90
        0
176
     1
 62
    18
420
        0
176
     1
 90
       50
176
     1
 90
        3
176
     1
 62
     5
420
      255
176
     1
290
     0
176
     1
 90
       50
176
     1
 90
       50
176
     1
 90
       50
176
     1
290
     0
176
     1
 90
       50
176
     1
 62
   256
176
     0
 40
1.0
176
     0
 90
        2
176
     1
  1
strokes_ogs.tif
176
     1
290
     0
176
     1
 40
1.0
176
     1
 40
1.0
176
     1
  0
VISUALSTYLE
  5
30
102
{ACAD_REACTORS
330
2A
102
}
330
2A
100
AcDbVisualStyle
  2
Wireframe
 70
     5
177
     3
291
     0
 70
    58
 90
        0
176
     1
 90
        2
176
     1
 90
        0
176
     1
 90
        0
176
     1
 40
0.6
176
     1
 40
30.0
176
     1
 62
     7
420
 16777215
176
     1
 90
        1
176
     1
 90
        4
176
     1
 62
     7
176
     1
 62
   257
176
     1
 90
        1
176
     1
 90
        1
176
     1
 40
1.0
176
     1
 90
        0
176
     1
 62
   257
176
     1
 40
1.0
176
     1
 90
        1
176
     1
 90
        6
176
     1
 90
        2
176
     1
 62
     7
176
     1
 90
        3
176
     1
 90
        0
176
     1
 90
        0
176
     1
290
     0
176
     1
 90
        1
176
     1
 40
0.0
176
     1
 90
        0
176
     1
290
     0
176
     1
290
     1
176
     1
290
     1
176
     1
290
     0
176
     1
290
     0
176
     1
290
     0
176
     1
290
     0
176
     1
290
     0
176
     1
290
     0
176
     1
 90
       50
176
     1
 40
0.0
176
     1
 40
1.0
176
     1
 90
        0
176
     1
 62
    18
420
        0
176
     1
 90
       50
176
     1
 90
        3
176
     1
 62
     5
420
      255
176
     1
290
     0
176
     1
 90
       50
176
     1
 90
       50
176
     1
 90
       50
176
     1
290
     0
176
     1
 90
       50
176
     1
 62
   256
176
     0
 40
1.0
176
     0
 90
        2
176
     1
  1
strokes_ogs.tif
176
     1
290
     0
176
     1
 40
1.0
176
     1
 40
1.0
176
     1
  0
VISUALSTYLE
  5
40
102
{ACAD_REACTORS
330
2A
102
}
330
2A
100
AcDbVisualStyle
  2
X-Ray
 70
    25
177
     3
291
     0
 70
    58
 90
        2
176
     1
 90
        2
176
     1
 90
        1
176
     1
 90
        1
176
     1
 40
0.5
176
     1
 40
30.0
176
     1
 62
     7
420
 16777215
176
     1
 90
        1
176
     1
 90
        0
176
     1
 62
     7
176
     1
 62
   257
176
     1
 90
        1
176
     1
 90
        1
176
     1
 40
1.0
176
     1
 90
        8
176
     1
 62
     7
176
     1
 40
1.0
176
     1
 90
        1
176
     1
 90
        6
176
     1
 90
        2
176
     1
 62
     7
176
     1
 90
        3
176
     1
 90
        0
176
     1
 90
        0
176
     1
290
     0
176
     1
 90
       13
176
     1
 40
0.0
176
     1
 90
        0
176
     1
290
     0
176
     1
290
     1
176
     1
290
     1
176
     1
290
     0
176
     1
290
     0
176
     1
290
     0
176
     1
290
     0
176
     1
290
     0
176
     1
290
     0
176
     1
 90
       50
176
     1
 40
0.0
176
     1
 40
1.0
176
     1
 90
        0
176
     1
 62
    18
420
        0
176
     1
 90
       50
176
     1
 90
        3
176
     1
 62
     5
420
      255
176
     1
290
     0
176
     1
 90
       50
176
     1
 90
       50
176
     1
 90
       50
176
     1
290
     0
176
     1
 90
       50
176
     1
 62
   256
176
     0
 40
1.0
176
     0
 90
        2
176
     1
  1
strokes_ogs.tif
176
     1
290
     0
176
     1
 40
1.0
176
     1
 40
1.0
176
     1
  0
DICTIONARYVAR
  5
27E
102
{ACAD_REACTORS
330
27D
102
}
330
27D
100
DictionaryVariables
280
     0
  1
1:1
  0
DICTIONARYVAR
  5
283
102
{ACAD_REACTORS
330
27D
102
}
330
27D
100
DictionaryVariables
280
     0
  1
Standard
  0
DICTIONARYVAR
  5
282
102
{ACAD_REACTORS
330
27D
102
}
330
27D
100
DictionaryVariables
280
     0
  1
Standard
  0
DICTIONARY
  5
27F
330
6A
100
AcDbDictionary
280
     1
281
     1
  3
ACAD_ROUNDTRIP_2008_TABLESTYLE_CELLSTYLEMAP
360
280
  0
CELLSTYLEMAP
  5
280
102
{ACAD_REACTORS
330
27F
102
}
330
27F
100
AcDbCellStyleMap
 90
        3
300
CELLSTYLE
  1
TABLEFORMAT_BEGIN
 90
        5
170
     1
 91
        0
 92
    32768
 62
   257
 93
        1
300
CONTENTFORMAT
  1
CONTENTFORMAT_BEGIN
 90
        0
 91
        0
 92
        4
 93
        0
300

 40
0.0
140
1.0
 94
        5
 62
     0
340
11
144
0.25
309
CONTENTFORMAT_END
171
     1
301
MARGIN
  1
CELLMARGIN_BEGIN
 40
0.06
 40
0.06
 40
0.06
 40
0.06
 40
0.06
 40
0.06
309
CELLMARGIN_END
 94
        6
 95
        1
302
GRIDFORMAT
  1
GRIDFORMAT_BEGIN
 90
        0
 91
        1
 62
     0
 92
       -2
340
14
 93
        0
 40
0.045
309
GRIDFORMAT_END
 95
        2
302
GRIDFORMAT
  1
GRIDFORMAT_BEGIN
 90
        0
 91
        1
 62
     0
 92
       -2
340
14
 93
        0
 40
0.045
309
GRIDFORMAT_END
 95
        4
302
GRIDFORMAT
  1
GRIDFORMAT_BEGIN
 90
        0
 91
        1
 62
     0
 92
       -2
340
14
 93
        0
 40
0.045
309
GRIDFORMAT_END
 95
        8
302
GRIDFORMAT
  1
GRIDFORMAT_BEGIN
 90
        0
 91
        1
 62
     0
 92
       -2
340
14
 93
        0
 40
0.045
309
GRIDFORMAT_END
 95
       16
302
GRIDFORMAT
  1
GRIDFORMAT_BEGIN
 90
        0
 91
        1
 62
     0
 92
       -2
340
14
 93
        0
 40
0.045
309
GRIDFORMAT_END
 95
       32
302
GRIDFORMAT
  1
GRIDFORMAT_BEGIN
 90
        0
 91
        1
 62
     0
 92
       -2
340
14
 93
        0
 40
0.045
309
GRIDFORMAT_END
309
TABLEFORMAT_END
  1
CELLSTYLE_BEGIN
 90
        1
 91
        1
300
_TITLE
309
CELLSTYLE_END
300
CELLSTYLE
  1
TABLEFORMAT_BEGIN
 90
        5
170
     1
 91
        0
 92
        0
 62
   257
 93
        1
300
CONTENTFORMAT
  1
CONTENTFORMAT_BEGIN
 90
        0
 91
        0
 92
        4
 93
        0
300

 40
0.0
140
1.0
 94
        5
 62
     0
340
11
144
0.18
309
CONTENTFORMAT_END
171
     1
301
MARGIN
  1
CELLMARGIN_BEGIN
 40
0.06
 40
0.06
 40
0.06
 40
0.06
 40
0.06
 40
0.06
309
CELLMARGIN_END
 94
        6
 95
        1
302
GRIDFORMAT
  1
GRIDFORMAT_BEGIN
 90
        0
 91
        1
 62
     0
 92
       -2
340
14
 93
        0
 40
0.045
309
GRIDFORMAT_END
 95
        2
302
GRIDFORMAT
  1
GRIDFORMAT_BEGIN
 90
        0
 91
        1
 62
     0
 92
       -2
340
14
 93
        0
 40
0.045
309
GRIDFORMAT_END
 95
        4
302
GRIDFORMAT
  1
GRIDFORMAT_BEGIN
 90
        0
 91
        1
 62
     0
 92
       -2
340
14
 93
        0
 40
0.045
309
GRIDFORMAT_END
 95
        8
302
GRIDFORMAT
  1
GRIDFORMAT_BEGIN
 90
        0
 91
        1
 62
     0
 92
       -2
340
14
 93
        0
 40
0.045
309
GRIDFORMAT_END
 95
       16
302
GRIDFORMAT
  1
GRIDFORMAT_BEGIN
 90
        0
 91
        1
 62
     0
 92
       -2
340
14
 93
        0
 40
0.045
309
GRIDFORMAT_END
 95
       32
302
GRIDFORMAT
  1
GRIDFORMAT_BEGIN
 90
        0
 91
        1
 62
     0
 92
       -2
340
14
 93
        0
 40
0.045
309
GRIDFORMAT_END
309
TABLEFORMAT_END
  1
CELLSTYLE_BEGIN
 90
        2
 91
        1
300
_HEADER
309
CELLSTYLE_END
300
CELLSTYLE
  1
TABLEFORMAT_BEGIN
 90
        5
170
     1
 91
        0
 92
        0
 62
   257
 93
        1
300
CONTENTFORMAT
  1
CONTENTFORMAT_BEGIN
 90
        0
 91
        0
 92
        4
 93
        0
300

 40
0.0
140
1.0
 94
        2
 62
     0
340
11
144
0.18
309
CONTENTFORMAT_END
171
     1
301
MARGIN
  1
CELLMARGIN_BEGIN
 40
0.06
 40
0.06
 40
0.06
 40
0.06
 40
0.06
 40
0.06
309
CELLMARGIN_END
 94
        6
 95
        1
302
GRIDFORMAT
  1
GRIDFORMAT_BEGIN
 90
        0
 91
        1
 62
     0
 92
       -2
340
14
 93
        0
 40
0.045
309
GRIDFORMAT_END
 95
        2
302
GRIDFORMAT
  1
GRIDFORMAT_BEGIN
 90
        0
 91
        1
 62
     0
 92
       -2
340
14
 93
        0
 40
0.045
309
GRIDFORMAT_END
 95
        4
302
GRIDFORMAT
  1
GRIDFORMAT_BEGIN
 90
        0
 91
        1
 62
     0
 92
       -2
340
14
 93
        0
 40
0.045
309
GRIDFORMAT_END
 95
        8
302
GRIDFORMAT
  1
GRIDFORMAT_BEGIN
 90
        0
 91
        1
 62
     0
 92
       -2
340
14
 93
        0
 40
0.045
309
GRIDFORMAT_END
 95
       16
302
GRIDFORMAT
  1
GRIDFORMAT_BEGIN
 90
        0
 91
        1
 62
     0
 92
       -2
340
14
 93
        0
 40
0.045
309
GRIDFORMAT_END
 95
       32
302
GRIDFORMAT
  1
GRIDFORMAT_BEGIN
 90
        0
 91
        1
 62
     0
 92
       -2
340
14
 93
        0
 40
0.045
309
GRIDFORMAT_END
309
TABLEFORMAT_END
  1
CELLSTYLE_BEGIN
 90
        3
 91
        2
300
_DATA
309
CELLSTYLE_END
  0
ENDSEC
  0
EOF