0
SECTION
  2
HEADER
  9
$ACADVER
  1
AC1027
  9
$ACADMAINTVER
 70
     8
  9
$DWGCODEPAGE
  3
ANSI_1252
  9
$REQUIREDVERSIONS
160
                 0
  9
$COMMENTS
  1
File was created by Cadenas
  9
$CUSTOMPROPERTYTAG
  1
NN
  9
$CUSTOMPROPERTY
  1
S-2000 Pillow Block with Type E Dimensions 4-Bolt Trident Seal Non-Expansion
  9
$CUSTOMPROPERTYTAG
  1
NT
  9
$CUSTOMPROPERTY
  1
S-2000 - E Type - Inch
  9
$CUSTOMPROPERTYTAG
  1
NB
  9
$CUSTOMPROPERTY
  1
071436
  9
$CUSTOMPROPERTYTAG
  1
NBSYN
  9
$CUSTOMPROPERTY
  1
$PN.
  9
$CUSTOMPROPERTYTAG
  1
LINA
  9
$CUSTOMPROPERTY
  1
071436
  9
$CUSTOMPROPERTYTAG
  1
SS
  9
$CUSTOMPROPERTY
  1
3
  9
$CUSTOMPROPERTYTAG
  1
TYPE
  9
$CUSTOMPROPERTY
  1
Non-Expansion
  9
$CUSTOMPROPERTYTAG
  1
PN
  9
$CUSTOMPROPERTY
  1
071436
  9
$CUSTOMPROPERTYTAG
  1
DESCRIPTION
  9
$CUSTOMPROPERTY
  1
EP4B-S2-300R
  9
$CUSTOMPROPERTYTAG
  1
A
  9
$CUSTOMPROPERTY
  1
3.59
  9
$CUSTOMPROPERTYTAG
  1
B
  9
$CUSTOMPROPERTY
  1
12
  9
$CUSTOMPROPERTYTAG
  1
C
  9
$CUSTOMPROPERTY
  1
4
  9
$CUSTOMPROPERTYTAG
  1
DMIN
  9
$CUSTOMPROPERTY
  1
9.18
  9
$CUSTOMPROPERTYTAG
  1
DMAX
  9
$CUSTOMPROPERTY
  1
9.82
  9
$CUSTOMPROPERTYTAG
  1
E
  9
$CUSTOMPROPERTY
  1
2.13
  9
$CUSTOMPROPERTYTAG
  1
F
  9
$CUSTOMPROPERTY
  1
5/8
  9
$CUSTOMPROPERTYTAG
  1
G
  9
$CUSTOMPROPERTY
  1
1
  9
$CUSTOMPROPERTYTAG
  1
H
  9
$CUSTOMPROPERTY
  1
1.88
  9
$CUSTOMPROPERTYTAG
  1
J
  9
$CUSTOMPROPERTY
  1
6.33
  9
$CUSTOMPROPERTYTAG
  1
L
  9
$CUSTOMPROPERTY
  1
4.61
  9
$CUSTOMPROPERTYTAG
  1
M
  9
$CUSTOMPROPERTY
  1
3.125
  9
$CUSTOMPROPERTYTAG
  1
R
  9
$CUSTOMPROPERTY
  1
1.34
  9
$CUSTOMPROPERTYTAG
  1
S
  9
$CUSTOMPROPERTY
  1
2.25
  9
$CUSTOMPROPERTYTAG
  1
X
  9
$CUSTOMPROPERTY
  1
0.25
  9
$CUSTOMPROPERTYTAG
  1
Y
  9
$CUSTOMPROPERTY
  1
0.025
  9
$CUSTOMPROPERTYTAG
  1
Z
  9
$CUSTOMPROPERTY
  1
3.47
  9
$CUSTOMPROPERTYTAG
  1
CS
  9
$CUSTOMPROPERTY
  1
1/2-13
  9
$CUSTOMPROPERTYTAG
  1
TORQUE
  9
$CUSTOMPROPERTY
  1
620
  9
$CUSTOMPROPERTYTAG
  1
COMPANY
  9
$CUSTOMPROPERTY
  1
baldor
  9
$INSBASE
 10
0.0
 20
0.0
 30
0.0
  9
$EXTMIN
 10
1.000000000000000E+20
 20
1.000000000000000E+20
 30
1.000000000000000E+20
  9
$EXTMAX
 10
-1.000000000000000E+20
 20
-1.000000000000000E+20
 30
-1.000000000000000E+20
  9
$LIMMIN
 10
0.0
 20
0.0
  9
$LIMMAX
 10
12.0
 20
9.0
  9
$ORTHOMODE
 70
     0
  9
$REGENMODE
 70
     1
  9
$FILLMODE
 70
     1
  9
$QTEXTMODE
 70
     0
  9
$MIRRTEXT
 70
     1
  9
$LTSCALE
 40
1.0
  9
$ATTMODE
 70
     1
  9
$TEXTSIZE
 40
0.2
  9
$TRACEWID
 40
0.05
  9
$TEXTSTYLE
  7
Standard
  9
$CLAYER
  8
0
  9
$CELTYPE
  6
ByLayer
  9
$CECOLOR
 62
   256
  9
$CELTSCALE
 40
1.0
  9
$DISPSILH
 70
     0
  9
$DIMSCALE
 40
1.0
  9
$DIMASZ
 40
0.18
  9
$DIMEXO
 40
0.0625
  9
$DIMDLI
 40
0.38
  9
$DIMRND
 40
0.0
  9
$DIMDLE
 40
0.0
  9
$DIMEXE
 40
0.18
  9
$DIMTP
 40
0.0
  9
$DIMTM
 40
0.0
  9
$DIMTXT
 40
0.18
  9
$DIMCEN
 40
0.09
  9
$DIMTSZ
 40
0.0
  9
$DIMTOL
 70
     0
  9
$DIMLIM
 70
     0
  9
$DIMTIH
 70
     1
  9
$DIMTOH
 70
     1
  9
$DIMSE1
 70
     0
  9
$DIMSE2
 70
     0
  9
$DIMTAD
 70
     0
  9
$DIMZIN
 70
     0
  9
$DIMBLK
  1

  9
$DIMASO
 70
     1
  9
$DIMSHO
 70
     1
  9
$DIMPOST
  1

  9
$DIMAPOST
  1

  9
$DIMALT
 70
     0
  9
$DIMALTD
 70
     2
  9
$DIMALTF
 40
25.4
  9
$DIMLFAC
 40
1.0
  9
$DIMTOFL
 70
     0
  9
$DIMTVP
 40
0.0
  9
$DIMTIX
 70
     0
  9
$DIMSOXD
 70
     0
  9
$DIMSAH
 70
     0
  9
$DIMBLK1
  1

  9
$DIMBLK2
  1

  9
$DIMSTYLE
  2
Standard
  9
$DIMCLRD
 70
     0
  9
$DIMCLRE
 70
     0
  9
$DIMCLRT
 70
     0
  9
$DIMTFAC
 40
1.0
  9
$DIMGAP
 40
0.09
  9
$DIMJUST
 70
     0
  9
$DIMSD1
 70
     0
  9
$DIMSD2
 70
     0
  9
$DIMTOLJ
 70
     1
  9
$DIMTZIN
 70
     0
  9
$DIMALTZ
 70
     0
  9
$DIMALTTZ
 70
     0
  9
$DIMUPT
 70
     0
  9
$DIMDEC
 70
     4
  9
$DIMTDEC
 70
     4
  9
$DIMALTU
 70
     2
  9
$DIMALTTD
 70
     2
  9
$DIMTXSTY
  7
Standard
  9
$DIMAUNIT
 70
     0
  9
$DIMADEC
 70
     0
  9
$DIMALTRND
 40
0.0
  9
$DIMAZIN
 70
     0
  9
$DIMDSEP
 70
    46
  9
$DIMATFIT
 70
     3
  9
$DIMFRAC
 70
     0
  9
$DIMLDRBLK
  1

  9
$DIMLUNIT
 70
     2
  9
$DIMLWD
 70
    -2
  9
$DIMLWE
 70
    -2
  9
$DIMTMOVE
 70
     0
  9
$DIMFXL
 40
1.0
  9
$DIMFXLON
 70
     0
  9
$DIMJOGANG
 40
0.7853981633974483
  9
$DIMTFILL
 70
     0
  9
$DIMTFILLCLR
 70
     0
  9
$DIMARCSYM
 70
     0
  9
$DIMLTYPE
  6

  9
$DIMLTEX1
  6

  9
$DIMLTEX2
  6

  9
$DIMTXTDIRECTION
 70
     0
  9
$LUNITS
 70
     2
  9
$LUPREC
 70
     4
  9
$SKETCHINC
 40
0.1
  9
$FILLETRAD
 40
0.5
  9
$AUNITS
 70
     0
  9
$AUPREC
 70
     0
  9
$MENU
  1
.
  9
$ELEVATION
 40
0.0
  9
$PELEVATION
 40
0.0
  9
$THICKNESS
 40
0.0
  9
$LIMCHECK
 70
     0
  9
$CHAMFERA
 40
0.0
  9
$CHAMFERB
 40
0.0
  9
$CHAMFERC
 40
0.0
  9
$CHAMFERD
 40
0.0
  9
$SKPOLY
 70
     0
  9
$TDCREATE
 40
2458168.981540255
  9
$TDUCREATE
 40
2458168.939873588
  9
$TDUPDATE
 40
2458168.98154044
  9
$TDUUPDATE
 40
2458168.939873773
  9
$TDINDWG
 40
0.0000000116
  9
$TDUSRTIMER
 40
0.0000000116
  9
$USRTIMER
 70
     1
  9
$ANGBASE
 50
0.0
  9
$ANGDIR
 70
     0
  9
$PDMODE
 70
     0
  9
$PDSIZE
 40
0.0
  9
$PLINEWID
 40
0.0
  9
$SPLFRAME
 70
     0
  9
$SPLINETYPE
 70
     6
  9
$SPLINESEGS
 70
     8
  9
$HANDSEED
  5
239
  9
$SURFTAB1
 70
     6
  9
$SURFTAB2
 70
     6
  9
$SURFTYPE
 70
     6
  9
$SURFU
 70
     6
  9
$SURFV
 70
     6
  9
$UCSBASE
  2

  9
$UCSNAME
  2

  9
$UCSORG
 10
0.0
 20
0.0
 30
0.0
  9
$UCSXDIR
 10
1.0
 20
0.0
 30
0.0
  9
$UCSYDIR
 10
0.0
 20
1.0
 30
0.0
  9
$UCSORTHOREF
  2

  9
$UCSORTHOVIEW
 70
     0
  9
$UCSORGTOP
 10
0.0
 20
0.0
 30
0.0
  9
$UCSORGBOTTOM
 10
0.0
 20
0.0
 30
0.0
  9
$UCSORGLEFT
 10
0.0
 20
0.0
 30
0.0
  9
$UCSORGRIGHT
 10
0.0
 20
0.0
 30
0.0
  9
$UCSORGFRONT
 10
0.0
 20
0.0
 30
0.0
  9
$UCSORGBACK
 10
0.0
 20
0.0
 30
0.0
  9
$PUCSBASE
  2

  9
$PUCSNAME
  2

  9
$PUCSORG
 10
0.0
 20
0.0
 30
0.0
  9
$PUCSXDIR
 10
1.0
 20
0.0
 30
0.0
  9
$PUCSYDIR
 10
0.0
 20
1.0
 30
0.0
  9
$PUCSORTHOREF
  2

  9
$PUCSORTHOVIEW
 70
     0
  9
$PUCSORGTOP
 10
0.0
 20
0.0
 30
0.0
  9
$PUCSORGBOTTOM
 10
0.0
 20
0.0
 30
0.0
  9
$PUCSORGLEFT
 10
0.0
 20
0.0
 30
0.0
  9
$PUCSORGRIGHT
 10
0.0
 20
0.0
 30
0.0
  9
$PUCSORGFRONT
 10
0.0
 20
0.0
 30
0.0
  9
$PUCSORGBACK
 10
0.0
 20
0.0
 30
0.0
  9
$USERI1
 70
     0
  9
$USERI2
 70
     0
  9
$USERI3
 70
     0
  9
$USERI4
 70
     0
  9
$USERI5
 70
     0
  9
$USERR1
 40
0.0
  9
$USERR2
 40
0.0
  9
$USERR3
 40
0.0
  9
$USERR4
 40
0.0
  9
$USERR5
 40
0.0
  9
$WORLDVIEW
 70
     1
  9
$SHADEDGE
 70
     3
  9
$SHADEDIF
 70
    70
  9
$TILEMODE
 70
     1
  9
$MAXACTVP
 70
    64
  9
$PINSBASE
 10
0.0
 20
0.0
 30
0.0
  9
$PLIMCHECK
 70
     0
  9
$PEXTMIN
 10
1.000000000000000E+20
 20
1.000000000000000E+20
 30
1.000000000000000E+20
  9
$PEXTMAX
 10
-1.000000000000000E+20
 20
-1.000000000000000E+20
 30
-1.000000000000000E+20
  9
$PLIMMIN
 10
0.0
 20
0.0
  9
$PLIMMAX
 10
12.0
 20
9.0
  9
$UNITMODE
 70
     0
  9
$VISRETAIN
 70
     1
  9
$PLINEGEN
 70
     0
  9
$PSLTSCALE
 70
     1
  9
$TREEDEPTH
 70
  3020
  9
$CMLSTYLE
  2
Standard
  9
$CMLJUST
 70
     0
  9
$CMLSCALE
 40
1.0
  9
$PROXYGRAPHICS
 70
     1
  9
$MEASUREMENT
 70
     0
  9
$CELWEIGHT
370
    -1
  9
$ENDCAPS
280
     0
  9
$JOINSTYLE
280
     0
  9
$LWDISPLAY
290
     0
  9
$INSUNITS
 70
     1
  9
$HYPERLINKBASE
  1

  9
$STYLESHEET
  1

  9
$XEDIT
290
     1
  9
$CEPSNTYPE
380
     0
  9
$PSTYLEMODE
290
     1
  9
$FINGERPRINTGUID
  2
{89A931CD-96F8-4D34-9F84-708812B0386D}
  9
$VERSIONGUID
  2
{FAEB1C32-E019-11D5-929B-00C0DF256EC4}
  9
$EXTNAMES
290
     1
  9
$PSVPSCALE
 40
0.0
  9
$OLESTARTUP
290
     0
  9
$SORTENTS
280
   127
  9
$INDEXCTL
280
     0
  9
$HIDETEXT
280
     1
  9
$XCLIPFRAME
280
     2
  9
$HALOGAP
280
     0
  9
$OBSCOLOR
 70
   257
  9
$OBSLTYPE
280
     0
  9
$INTERSECTIONDISPLAY
280
     0
  9
$INTERSECTIONCOLOR
 70
   257
  9
$DIMASSOC
280
     2
  9
$PROJECTNAME
  1

  9
$CAMERADISPLAY
290
     0
  9
$LENSLENGTH
 40
50.0
  9
$CAMERAHEIGHT
 40
0.0
  9
$STEPSPERSEC
 40
2.0
  9
$STEPSIZE
 40
6.0
  9
$3DDWFPREC
 40
2.0
  9
$PSOLWIDTH
 40
0.25
  9
$PSOLHEIGHT
 40
4.0
  9
$LOFTANG1
 40
1.570796326794897
  9
$LOFTANG2
 40
1.570796326794897
  9
$LOFTMAG1
 40
0.0
  9
$LOFTMAG2
 40
0.0
  9
$LOFTPARAM
 70
     7
  9
$LOFTNORMALS
280
     1
  9
$LATITUDE
 40
37.795
  9
$LONGITUDE
 40
-122.394
  9
$NORTHDIRECTION
 40
0.0
  9
$TIMEZONE
 70
 -8000
  9
$LIGHTGLYPHDISPLAY
280
     1
  9
$TILEMODELIGHTSYNCH
280
     1
  9
$CMATERIAL
347
44
  9
$SOLIDHIST
280
     0
  9
$SHOWHIST
280
     1
  9
$DWFFRAME
280
     2
  9
$DGNFRAME
280
     2
  9
$REALWORLDSCALE
290
     1
  9
$INTERFERECOLOR
 62
   256
  9
$CSHADOW
280
     0
  9
$SHADOWPLANELOCATION
 40
0.0
  0
ENDSEC
  0
SECTION
  2
CLASSES
  0
CLASS
  1
ACDBDICTIONARYWDFLT
  2
AcDbDictionaryWithDefault
  3
ObjectDBX Classes
 90
        0
 91
        4
280
     0
281
     0
  0
CLASS
  1
VISUALSTYLE
  2
AcDbVisualStyle
  3
ObjectDBX Classes
 90
     4095
 91
        4
280
     0
281
     0
  0
CLASS
  1
MATERIAL
  2
AcDbMaterial
  3
ObjectDBX Classes
 90
     1153
 91
        4
280
     0
281
     0
  0
CLASS
  1
SCALE
  2
AcDbScale
  3
ObjectDBX Classes
 90
     1153
 91
        4
280
     0
281
     0
  0
CLASS
  1
TABLESTYLE
  2
AcDbTableStyle
  3
ObjectDBX Classes
 90
     4095
 91
        4
280
     0
281
     0
  0
CLASS
  1
MLEADERSTYLE
  2
AcDbMLeaderStyle
  3
ACDB_MLEADERSTYLE_CLASS
 90
     4095
 91
        4
280
     0
281
     0
  0
CLASS
  1
SUN
  2
AcDbSun
  3
SCENEOE
 90
     1153
 91
        4
280
     0
281
     0
  0
CLASS
  1
DICTIONARYVAR
  2
AcDbDictionaryVar
  3
ObjectDBX Classes
 90
        0
 91
        4
280
     0
281
     0
  0
CLASS
  1
CELLSTYLEMAP
  2
AcDbCellStyleMap
  3
ObjectDBX Classes
 90
     1152
 91
        4
280
     0
281
     0
  0
ENDSEC
  0
SECTION
  2
TABLES
  0
TABLE
  2
VPORT
  5
8
330
0
100
AcDbSymbolTable
 70
     1
  0
VPORT
  5
29
330
8
100
AcDbSymbolTableRecord
100
AcDbViewportTableRecord
  2
*Active
 70
     0
 10
0.0
 20
0.0
 11
1.0
 21
1.0
 12
0.0349062499999988
 22
0.0566562184466637
 13
0.0
 23
0.0
 14
0.5
 24
0.5
 15
0.5
 25
0.5
 16
0.0
 26
0.0
 36
1.0
 17
0.0
 27
0.0
 37
0.0
 40
6.490578685631194
 41
0.7746260377569184
 42
50.0
 43
0.0
 44
0.0
 50
0.0
 51
0.0
 71
     0
 72
   100
 73
     1
 74
     3
 75
     0
 76
     0
 77
     0
 78
     0
281
     0
 65
     1
110
0.0
120
0.0
130
0.0
111
1.0
121
0.0
131
0.0
112
0.0
122
1.0
132
0.0
 79
     0
146
0.0
348
2F
 60
     3
 61
     5
292
     1
282
     1
141
0.0
142
0.0
 63
   250
361
6D
  0
ENDTAB
  0
TABLE
  2
LTYPE
  5
5
330
0
100
AcDbSymbolTable
 70
     3
  0
LTYPE
  5
14
330
5
100
AcDbSymbolTableRecord
100
AcDbLinetypeTableRecord
  2
ByBlock
 70
     0
  3

 72
    65
 73
     0
 40
0.0
  0
LTYPE
  5
15
330
5
100
AcDbSymbolTableRecord
100
AcDbLinetypeTableRecord
  2
ByLayer
 70
     0
  3

 72
    65
 73
     0
 40
0.0
  0
LTYPE
  5
16
330
5
100
AcDbSymbolTableRecord
100
AcDbLinetypeTableRecord
  2
Continuous
 70
     0
  3
Solid line
 72
    65
 73
     0
 40
0.0
  0
LTYPE
  5
A9
330
5
100
AcDbSymbolTableRecord
100
AcDbLinetypeTableRecord
  2
Dashed
 70
     0
  3

 72
    65
 73
     2
 40
2.0
 49
1.0
 74
     0
 49
-1.0
 74
     0
  0
LTYPE
  5
148
330
5
100
AcDbSymbolTableRecord
100
AcDbLinetypeTableRecord
  2
Center
 70
     0
  3

 72
    65
 73
     4
 40
1.5
 49
0.45
 74
     0
 49
-0.5
 74
     0
 49
0.05
 74
     0
 49
-0.5
 74
     0
  0
ENDTAB
  0
TABLE
  2
LAYER
  5
2
330
0
100
AcDbSymbolTable
 70
     7
  0
LAYER
  5
10
330
2
100
AcDbSymbolTableRecord
100
AcDbLayerTableRecord
  2
0
 70
     0
 62
     7
  6
Continuous
370
    -3
390
F
347
46
348
0
  0
LAYER
  5
72
330
2
100
AcDbSymbolTableRecord
100
AcDbLayerTableRecord
  2
AM_6
 70
     0
 62
    -2
  6
Continuous
370
    35
390
F
347
46
348
0
  0
LAYER
  5
AA
330
2
100
AcDbSymbolTableRecord
100
AcDbLayerTableRecord
  2
AM_9
 70
     0
 62
     6
  6
Dashed
370
    25
390
F
347
46
348
0
  0
LAYER
  5
CE
330
2
100
AcDbSymbolTableRecord
100
AcDbLayerTableRecord
  2
AM_5
 70
     0
 62
     3
  6
Continuous
370
    25
390
F
347
46
348
0
  0
LAYER
  5
D3
330
2
100
AcDbSymbolTableRecord
100
AcDbLayerTableRecord
  2
AM_4
 70
     0
 62
     7
  6
Continuous
370
    50
390
F
347
46
348
0
  0
LAYER
  5
149
330
2
100
AcDbSymbolTableRecord
100
AcDbLayerTableRecord
  2
AM_7
 70
     0
 62
     7
  6
Center
370
    25
390
F
347
46
348
0
  0
LAYER
  5
228
330
2
100
AcDbSymbolTableRecord
100
AcDbLayerTableRecord
  2
ConnectionPoints
 70
     0
 62
     7
  6
Continuous
370
    50
390
F
347
46
348
0
  0
ENDTAB
  0
TABLE
  2
STYLE
  5
3
330
0
100
AcDbSymbolTable
 70
     1
  0
STYLE
  5
11
330
3
100
AcDbSymbolTableRecord
100
AcDbTextStyleTableRecord
  2
Standard
 70
     0
 40
0.0
 41
1.0
 50
0.0
 71
     0
 42
0.2
  3
txt
  4

  0
ENDTAB
  0
TABLE
  2
VIEW
  5
6
330
0
100
AcDbSymbolTable
 70
     0
  0
ENDTAB
  0
TABLE
  2
UCS
  5
7
330
0
100
AcDbSymbolTable
 70
     0
  0
ENDTAB
  0
TABLE
  2
APPID
  5
9
330
0
100
AcDbSymbolTable
 70
     1
  0
APPID
  5
12
330
9
100
AcDbSymbolTableRecord
100
AcDbRegAppTableRecord
  2
ACAD
 70
     0
  0
ENDTAB
  0
TABLE
  2
DIMSTYLE
  5
A
330
0
100
AcDbSymbolTable
 70
     1
100
AcDbDimStyleTable
  0
DIMSTYLE
105
27
330
A
100
AcDbSymbolTableRecord
100
AcDbDimStyleTableRecord
  2
Standard
 70
     0
178
     0
340
11
  0
ENDTAB
  0
TABLE
  2
BLOCK_RECORD
  5
1
330
0
100
AcDbSymbolTable
 70
     6
  0
BLOCK_RECORD
  5
1F
330
1
100
AcDbSymbolTableRecord
100
AcDbBlockTableRecord
  2
*Model_Space
340
22
 70
     0
280
     1
281
     0
  0
BLOCK_RECORD
  5
1B
330
1
100
AcDbSymbolTableRecord
100
AcDbBlockTableRecord
  2
*Paper_Space
340
1E
 70
     0
280
     1
281
     0
  0
BLOCK_RECORD
  5
23
330
1
100
AcDbSymbolTableRecord
100
AcDbBlockTableRecord
  2
*Paper_Space0
340
26
 70
     0
280
     1
281
     0
  0
BLOCK_RECORD
  5
6E
330
1
100
AcDbSymbolTableRecord
100
AcDbBlockTableRecord
  2
1_071436_2
340
0
102
{BLKREFS
331
6F
102
}
 70
     0
280
     1
281
     0
  0
BLOCK_RECORD
  5
90
330
1
100
AcDbSymbolTableRecord
100
AcDbBlockTableRecord
  2
2_3CS2i_0_in_071436_2
340
0
102
{BLKREFS
331
91
102
}
 70
     0
280
     1
281
     0
  0
BLOCK_RECORD
  5
E8
330
1
100
AcDbSymbolTableRecord
100
AcDbBlockTableRecord
  2
3_070011i_0_in_071436_2
340
0
102
{BLKREFS
331
E9
102
}
 70
     0
280
     1
281
     0
  0
BLOCK_RECORD
  5
14C
330
1
100
AcDbSymbolTableRecord
100
AcDbBlockTableRecord
  2
4_405015E_Inch_0_in_071436_2
340
0
102
{BLKREFS
331
14D
102
}
 70
     0
280
     1
281
     0
  0
BLOCK_RECORD
  5
1AC
330
1
100
AcDbSymbolTableRecord
100
AcDbBlockTableRecord
  2
5_B071436_0_in_071436_2
340
0
102
{BLKREFS
331
1AD
102
}
 70
     0
280
     1
281
     0
  0
ENDTAB
  0
ENDSEC
  0
SECTION
  2
BLOCKS
  0
BLOCK
  5
20
330
1F
100
AcDbEntity
  8
0
100
AcDbBlockBegin
  2
*Model_Space
 70
     0
 10
0.0
 20
0.0
 30
0.0
  3
*Model_Space
  1

  0
ENDBLK
  5
21
330
1F
100
AcDbEntity
  8
0
100
AcDbBlockEnd
  0
BLOCK
  5
1C
330
1B
100
AcDbEntity
 67
     1
  8
0
100
AcDbBlockBegin
  2
*Paper_Space
 70
     0
 10
0.0
 20
0.0
 30
0.0
  3
*Paper_Space
  1

  0
ENDBLK
  5
1D
330
1B
100
AcDbEntity
 67
     1
  8
0
100
AcDbBlockEnd
  0
BLOCK
  5
24
330
23
100
AcDbEntity
  8
0
100
AcDbBlockBegin
  2
*Paper_Space0
 70
     0
 10
0.0
 20
0.0
 30
0.0
  3
*Paper_Space0
  1

  0
ENDBLK
  5
25
330
23
100
AcDbEntity
  8
0
100
AcDbBlockEnd
  0
BLOCK
  5
70
330
6E
100
AcDbEntity
  8
0
100
AcDbBlockBegin
  2
1_071436_2
 70
     2
 10
0.0
 20
0.0
 30
0.0
  3
1_071436_2
  1

  0
ATTDEF
  5
73
330
6E
100
AcDbEntity
  8
AM_6
100
AcDbText
 10
7.256410256410257
 20
3.238312436893328
 30
0.0
 40
0.5
  1
S-2000 Pillow Block with Type E Dimensions 4-Bolt Trident Seal Non-Expansion
100
AcDbAttributeDefinition
  3

  2
NN
 70
     8
280
     0
  0
ATTDEF
  5
74
330
6E
100
AcDbEntity
  8
AM_6
100
AcDbText
 10
7.256410256410257
 20
2.738312436893328
 30
0.0
 40
0.5
  1
S-2000 - E Type - Inch
100
AcDbAttributeDefinition
  3

  2
NT
 70
     8
280
     0
  0
ATTDEF
  5
75
330
6E
100
AcDbEntity
  8
AM_6
100
AcDbText
 10
7.256410256410257
 20
2.238312436893328
 30
0.0
 40
0.5
  1
071436
100
AcDbAttributeDefinition
  3

  2
NB
 70
     8
280
     0
  0
ATTDEF
  5
76
330
6E
100
AcDbEntity
  8
AM_6
100
AcDbText
 10
7.256410256410257
 20
1.738312436893328
 30
0.0
 40
0.5
  1
$PN.
100
AcDbAttributeDefinition
  3

  2
NBSYN
 70
     8
280
     0
  0
ATTDEF
  5
77
330
6E
100
AcDbEntity
  8
AM_6
100
AcDbText
 10
7.256410256410257
 20
1.238312436893328
 30
0.0
 40
0.5
  1
071436
100
AcDbAttributeDefinition
  3

  2
LINA
 70
     8
280
     0
  0
ATTDEF
  5
78
330
6E
100
AcDbEntity
  8
AM_6
100
AcDbText
 10
7.256410256410257
 20
0.7383124368933283
 30
0.0
 40
0.5
  1
3
100
AcDbAttributeDefinition
  3

  2
SS
 70
     8
280
     0
  0
ATTDEF
  5
79
330
6E
100
AcDbEntity
  8
AM_6
100
AcDbText
 10
7.256410256410257
 20
0.2383124368933283
 30
0.0
 40
0.5
  1
Non-Expansion
100
AcDbAttributeDefinition
  3

  2
TYPE
 70
     8
280
     0
  0
ATTDEF
  5
7A
330
6E
100
AcDbEntity
  8
AM_6
100
AcDbText
 10
7.256410256410257
 20
-0.2616875631066717
 30
0.0
 40
0.5
  1
071436
100
AcDbAttributeDefinition
  3

  2
PN
 70
     8
280
     0
  0
ATTDEF
  5
7B
330
6E
100
AcDbEntity
  8
AM_6
100
AcDbText
 10
7.256410256410257
 20
-0.7616875631066717
 30
0.0
 40
0.5
  1
EP4B-S2-300R
100
AcDbAttributeDefinition
  3

  2
DESCRIPTION
 70
     8
280
     0
  0
ATTDEF
  5
7C
330
6E
100
AcDbEntity
  8
AM_6
100
AcDbText
 10
7.256410256410257
 20
-1.261687563106672
 30
0.0
 40
0.5
  1
3.59
100
AcDbAttributeDefinition
  3

  2
A
 70
     8
280
     0
  0
ATTDEF
  5
7D
330
6E
100
AcDbEntity
  8
AM_6
100
AcDbText
 10
7.256410256410257
 20
-1.761687563106672
 30
0.0
 40
0.5
  1
12
100
AcDbAttributeDefinition
  3

  2
B
 70
     8
280
     0
  0
ATTDEF
  5
7E
330
6E
100
AcDbEntity
  8
AM_6
100
AcDbText
 10
7.256410256410257
 20
-2.261687563106672
 30
0.0
 40
0.5
  1
4
100
AcDbAttributeDefinition
  3

  2
C
 70
     8
280
     0
  0
ATTDEF
  5
7F
330
6E
100
AcDbEntity
  8
AM_6
100
AcDbText
 10
7.256410256410257
 20
-2.761687563106672
 30
0.0
 40
0.5
  1
9.18
100
AcDbAttributeDefinition
  3

  2
DMIN
 70
     8
280
     0
  0
ATTDEF
  5
80
330
6E
100
AcDbEntity
  8
AM_6
100
AcDbText
 10
7.256410256410257
 20
-3.261687563106672
 30
0.0
 40
0.5
  1
9.82
100
AcDbAttributeDefinition
  3

  2
DMAX
 70
     8
280
     0
  0
ATTDEF
  5
81
330
6E
100
AcDbEntity
  8
AM_6
100
AcDbText
 10
7.256410256410257
 20
-3.761687563106672
 30
0.0
 40
0.5
  1
2.13
100
AcDbAttributeDefinition
  3

  2
E
 70
     8
280
     0
  0
ATTDEF
  5
82
330
6E
100
AcDbEntity
  8
AM_6
100
AcDbText
 10
7.256410256410257
 20
-4.261687563106672
 30
0.0
 40
0.5
  1
5/8
100
AcDbAttributeDefinition
  3

  2
F
 70
     8
280
     0
  0
ATTDEF
  5
83
330
6E
100
AcDbEntity
  8
AM_6
100
AcDbText
 10
7.256410256410257
 20
-4.761687563106672
 30
0.0
 40
0.5
  1
1
100
AcDbAttributeDefinition
  3

  2
G
 70
     8
280
     0
  0
ATTDEF
  5
84
330
6E
100
AcDbEntity
  8
AM_6
100
AcDbText
 10
7.256410256410257
 20
-5.261687563106672
 30
0.0
 40
0.5
  1
1.88
100
AcDbAttributeDefinition
  3

  2
H
 70
     8
280
     0
  0
ATTDEF
  5
85
330
6E
100
AcDbEntity
  8
AM_6
100
AcDbText
 10
7.256410256410257
 20
-5.761687563106672
 30
0.0
 40
0.5
  1
6.33
100
AcDbAttributeDefinition
  3

  2
J
 70
     8
280
     0
  0
ATTDEF
  5
86
330
6E
100
AcDbEntity
  8
AM_6
100
AcDbText
 10
7.256410256410257
 20
-6.261687563106672
 30
0.0
 40
0.5
  1
4.61
100
AcDbAttributeDefinition
  3

  2
L
 70
     8
280
     0
  0
ATTDEF
  5
87
330
6E
100
AcDbEntity
  8
AM_6
100
AcDbText
 10
7.256410256410257
 20
-6.761687563106672
 30
0.0
 40
0.5
  1
3.125
100
AcDbAttributeDefinition
  3

  2
M
 70
     8
280
     0
  0
ATTDEF
  5
88
330
6E
100
AcDbEntity
  8
AM_6
100
AcDbText
 10
7.256410256410257
 20
-7.261687563106672
 30
0.0
 40
0.5
  1
1.34
100
AcDbAttributeDefinition
  3

  2
R
 70
     8
280
     0
  0
ATTDEF
  5
89
330
6E
100
AcDbEntity
  8
AM_6
100
AcDbText
 10
7.256410256410257
 20
-7.761687563106672
 30
0.0
 40
0.5
  1
2.25
100
AcDbAttributeDefinition
  3

  2
S
 70
     8
280
     0
  0
ATTDEF
  5
8A
330
6E
100
AcDbEntity
  8
AM_6
100
AcDbText
 10
7.256410256410257
 20
-8.261687563106673
 30
0.0
 40
0.5
  1
0.25
100
AcDbAttributeDefinition
  3

  2
X
 70
     8
280
     0
  0
ATTDEF
  5
8B
330
6E
100
AcDbEntity
  8
AM_6
100
AcDbText
 10
7.256410256410257
 20
-8.761687563106673
 30
0.0
 40
0.5
  1
0.025
100
AcDbAttributeDefinition
  3

  2
Y
 70
     8
280
     0
  0
ATTDEF
  5
8C
330
6E
100
AcDbEntity
  8
AM_6
100
AcDbText
 10
7.256410256410257
 20
-9.261687563106673
 30
0.0
 40
0.5
  1
3.47
100
AcDbAttributeDefinition
  3

  2
Z
 70
     8
280
     0
  0
ATTDEF
  5
8D
330
6E
100
AcDbEntity
  8
AM_6
100
AcDbText
 10
7.256410256410257
 20
-9.761687563106673
 30
0.0
 40
0.5
  1
1/2-13
100
AcDbAttributeDefinition
  3

  2
CS
 70
     8
280
     0
  0
ATTDEF
  5
8E
330
6E
100
AcDbEntity
  8
AM_6
100
AcDbText
 10
7.256410256410257
 20
-10.26168756310667
 30
0.0
 40
0.5
  1
620
100
AcDbAttributeDefinition
  3

  2
TORQUE
 70
     8
280
     0
  0
ATTDEF
  5
8F
330
6E
100
AcDbEntity
  8
AM_6
100
AcDbText
 10
7.256410256410257
 20
-10.76168756310667
 30
0.0
 40
0.5
  1
baldor
100
AcDbAttributeDefinition
  3

  2
COMPANY
 70
     8
280
     0
  0
INSERT
  5
91
330
6E
100
AcDbEntity
  8
0
100
AcDbBlockReference
  2
2_3CS2i_0_in_071436_2
 10
0.0
 20
0.0
 30
0.0
  0
INSERT
  5
E9
330
6E
100
AcDbEntity
  8
0
100
AcDbBlockReference
  2
3_070011i_0_in_071436_2
 10
0.0
 20
0.0
 30
0.0
  0
INSERT
  5
14D
330
6E
100
AcDbEntity
  8
0
100
AcDbBlockReference
  2
4_405015E_Inch_0_in_071436_2
 10
0.0
 20
0.0
 30
0.0
  0
INSERT
  5
1AD
330
6E
100
AcDbEntity
  8
0
100
AcDbBlockReference
  2
5_B071436_0_in_071436_2
 10
0.0
 20
0.0
 30
0.0
  0
ENDBLK
  5
71
330
6E
100
AcDbEntity
  8
0
100
AcDbBlockEnd
  0
BLOCK
  5
92
330
90
100
AcDbEntity
  8
0
100
AcDbBlockBegin
  2
2_3CS2i_0_in_071436_2
 70
     2
 10
0.0
 20
0.0
 30
0.0
  3
2_3CS2i_0_in_071436_2
  1

  0
ATTDEF
  5
94
330
90
100
AcDbEntity
  8
AM_6
100
AcDbText
 10
3.634
 20
2.3125
 30
0.0
 40
0.5
  1
S-2000 Collar -Inch
100
AcDbAttributeDefinition
  3

  2
NN
 70
     8
280
     0
  0
ATTDEF
  5
95
330
90
100
AcDbEntity
  8
AM_6
100
AcDbText
 10
3.634
 20
1.8125
 30
0.0
 40
0.5
  1
S-2000 Bearings
100
AcDbAttributeDefinition
  3

  2
NT
 70
     8
280
     0
  0
ATTDEF
  5
96
330
90
100
AcDbEntity
  8
AM_6
100
AcDbText
 10
3.634
 20
1.3125
 30
0.0
 40
0.5
  1
3CS2i
100
AcDbAttributeDefinition
  3

  2
NB
 70
     8
280
     0
  0
ATTDEF
  5
97
330
90
100
AcDbEntity
  8
AM_6
100
AcDbText
 10
3.634
 20
0.8125
 30
0.0
 40
0.5
  1
$BORE.CS2i
100
AcDbAttributeDefinition
  3

  2
NBSYN
 70
     8
280
     0
  0
ATTDEF
  5
98
330
90
100
AcDbEntity
  8
AM_6
100
AcDbText
 10
3.634
 20
0.3125
 30
0.0
 40
0.5
  1
3CS2i
100
AcDbAttributeDefinition
  3

  2
LINA
 70
     8
280
     0
  0
ATTDEF
  5
99
330
90
100
AcDbEntity
  8
AM_6
100
AcDbText
 10
3.634
 20
-0.1875
 30
0.0
 40
0.5
  1
3
100
AcDbAttributeDefinition
  3

  2
BORE
 70
     8
280
     0
  0
ATTDEF
  5
9A
330
90
100
AcDbEntity
  8
AM_6
100
AcDbText
 10
3.634
 20
-0.6875
 30
0.0
 40
0.5
  1
3.000000
100
AcDbAttributeDefinition
  3

  2
BORE1
 70
     8
280
     0
  0
ATTDEF
  5
9B
330
90
100
AcDbEntity
  8
AM_6
100
AcDbText
 10
3.634
 20
-1.1875
 30
0.0
 40
0.5
  1
4-45/64
100
AcDbAttributeDefinition
  3

  2
L1
 70
     8
280
     0
  0
ATTDEF
  5
9C
330
90
100
AcDbEntity
  8
AM_6
100
AcDbText
 10
3.634
 20
-1.6875
 30
0.0
 40
0.5
  1
4.70313
100
AcDbAttributeDefinition
  3

  2
L
 70
     8
280
     0
  0
ATTDEF
  5
9D
330
90
100
AcDbEntity
  8
AM_6
100
AcDbText
 10
3.634
 20
-2.1875
 30
0.0
 40
0.5
  1
4.62500
100
AcDbAttributeDefinition
  3

  2
L2
 70
     8
280
     0
  0
ATTDEF
  5
9E
330
90
100
AcDbEntity
  8
AM_6
100
AcDbText
 10
3.634
 20
-2.6875
 30
0.0
 40
0.5
  1
4.50
100
AcDbAttributeDefinition
  3

  2
A
 70
     8
280
     0
  0
ATTDEF
  5
9F
330
90
100
AcDbEntity
  8
AM_6
100
AcDbText
 10
3.634
 20
-3.1875
 30
0.0
 40
0.5
  1
1.94
100
AcDbAttributeDefinition
  3

  2
B
 70
     8
280
     0
  0
ATTDEF
  5
A0
330
90
100
AcDbEntity
  8
AM_6
100
AcDbText
 10
3.634
 20
-3.6875
 30
0.0
 40
0.5
  1
3.47
100
AcDbAttributeDefinition
  3

  2
C
 70
     8
280
     0
  0
ATTDEF
  5
A1
330
90
100
AcDbEntity
  8
AM_6
100
AcDbText
 10
3.634
 20
-4.1875
 30
0.0
 40
0.5
  1
4.78
100
AcDbAttributeDefinition
  3

  2
D
 70
     8
280
     0
  0
ATTDEF
  5
A2
330
90
100
AcDbEntity
  8
AM_6
100
AcDbText
 10
3.634
 20
-4.6875
 30
0.0
 40
0.5
  1
0.54
100
AcDbAttributeDefinition
  3

  2
E
 70
     8
280
     0
  0
ATTDEF
  5
A3
330
90
100
AcDbEntity
  8
AM_6
100
AcDbText
 10
3.634
 20
-5.1875
 30
0.0
 40
0.5
  1
0.442
100
AcDbAttributeDefinition
  3

  2
F
 70
     8
280
     0
  0
ATTDEF
  5
A4
330
90
100
AcDbEntity
  8
AM_6
100
AcDbText
 10
3.634
 20
-5.6875
 30
0.0
 40
0.5
  1
1/2-13
100
AcDbAttributeDefinition
  3

  2
CS
 70
     8
280
     0
  0
ATTDEF
  5
A5
330
90
100
AcDbEntity
  8
AM_6
100
AcDbText
 10
3.634
 20
-6.1875
 30
0.0
 40
0.5
  1
0.5000
100
AcDbAttributeDefinition
  3

  2
NDM
 70
     8
280
     0
  0
ATTDEF
  5
A6
330
90
100
AcDbEntity
  8
AM_6
100
AcDbText
 10
3.634
 20
-6.6875
 30
0.0
 40
0.5
  1
0.4170
100
AcDbAttributeDefinition
  3

  2
KDM
 70
     8
280
     0
  0
ATTDEF
  5
A7
330
90
100
AcDbEntity
  8
AM_6
100
AcDbText
 10
3.634
 20
-7.1875
 30
0.0
 40
0.5
  1
2
100
AcDbAttributeDefinition
  3

  2
DD
 70
     8
280
     0
  0
ATTDEF
  5
A8
330
90
100
AcDbEntity
  8
AM_6
100
AcDbText
 10
3.634
 20
-7.6875
 30
0.0
 40
0.5
  1
baldor
100
AcDbAttributeDefinition
  3

  2
COMPANY
 70
     8
280
     0
  0
LINE
  5
AB
330
90
100
AcDbEntity
  8
AM_9
100
AcDbLine
 10
-1.59965
 20
2.309915
 30
0.0
 11
-1.597065
 21
2.3125
 31
0.0
  0
LINE
  5
AC
330
90
100
AcDbEntity
  8
AM_9
100
AcDbLine
 10
-2.018935
 20
2.3125
 30
0.0
 11
-2.01635
 21
2.309915
 31
0.0
  0
LINE
  5
AD
330
90
100
AcDbEntity
  8
AM_9
100
AcDbLine
 10
-1.630628131528707
 20
2.309915
 30
0.0
 11
-1.59965
 21
2.309915
 31
0.0
  0
LINE
  5
AE
330
90
100
AcDbEntity
  8
AM_9
100
AcDbLine
 10
-1.59965
 20
1.743316666666673
 30
0.0
 11
-1.59965
 21
2.309915
 31
0.0
  0
LINE
  5
AF
330
90
100
AcDbEntity
  8
AM_9
100
AcDbLine
 10
-2.01635
 20
2.309915
 30
0.0
 11
-2.01635
 21
1.743316666666673
 31
0.0
  0
LINE
  5
B0
330
90
100
AcDbEntity
  8
AM_9
100
AcDbLine
 10
-2.01635
 20
2.309915
 30
0.0
 11
-1.985371868471293
 21
2.309915
 31
0.0
  0
LINE
  5
B1
330
90
100
AcDbEntity
  8
AM_9
100
AcDbLine
 10
-2.01635
 20
1.743316666666673
 30
0.0
 11
-1.59965
 21
1.743316666666673
 31
0.0
  0
LINE
  5
B2
330
90
100
AcDbEntity
  8
AM_9
100
AcDbLine
 10
-2.01635
 20
1.743316666666673
 30
0.0
 11
-2.024383499926563
 21
1.735283166740109
 31
0.0
  0
LINE
  5
B3
330
90
100
AcDbEntity
  8
AM_9
100
AcDbLine
 10
-1.591678349708304
 20
1.735345016374976
 30
0.0
 11
-1.59965
 21
1.743316666666673
 31
0.0
  0
LWPOLYLINE
  5
B4
330
90
100
AcDbEntity
  8
AM_9
100
AcDbPolyline
 90
       38
 70
     0
 43
0.0
 10
-1.64755566875648
 20
0.5890254700626273
 10
-1.628059625999029
 20
0.6141961062210206
 10
-1.612490675361797
 20
0.6415065184640436
 10
-1.599404494522095
 20
0.6760599527747676
 10
-1.592461797028241
 20
0.7117782647958321
 10
-1.59196028843404
 20
0.7488859425485238
 10
-1.598170428180735
 20
0.7851620103667715
 10
-1.611187605814691
 20
0.8198680908671245
 10
-1.630629757231113
 20
0.8517504540015436
 10
-1.655641421991176
 20
0.8793522699106655
 10
-1.685854894468448
 20
0.9024724552481196
 10
-1.71862632375807
 20
0.9194273976470282
 10
-1.754437628082111
 20
0.9310007182481745
 10
-1.789318106206523
 20
0.9364023306210596
 10
-1.824778266969308
 20
0.9365686464404309
 10
-1.858006309297699
 20
0.9317852251762073
 10
-1.889855005921874
 20
0.9224310735818811
 10
-1.919822817727668
 20
0.9085724076092785
 10
-1.946868925596461
 20
0.8907712261375367
 10
-1.971714244414015
 20
0.868071826696889
 10
-1.992175428933718
 20
0.8420767489012022
 10
-2.00874308554285
 20
0.8112869058935409
 10
-2.019566887546217
 20
0.7782195829319841
 10
-2.024455950329139
 20
0.7420183810332125
 10
-2.022738766420177
 20
0.7051854586134593
 10
-2.014166359535579
 20
0.6681214688356902
 10
-1.998972840272985
 20
0.6325677012209977
 10
-1.977608146632974
 20
0.599975067788225
 10
-1.950525984542453
 20
0.5711544343957852
 10
-1.919709367588375
 20
0.54820018159056
 10
-1.885052376945248
 20
0.5307967420929365
 10
-1.850306650676083
 20
0.5204789177352633
 10
-1.814196659427123
 20
0.5162103991709194
 10
-1.78018254250781
 20
0.5180049648621361
 10
-1.746963263442653
 20
0.525220883512025
 10
-1.715762826461811
 20
0.537475964708005
 10
-1.686992724445744
 20
0.5542453298024016
 10
-1.64755566875648
 20
0.5890254700626274
  0
LINE
  5
B5
330
90
100
AcDbEntity
  8
AM_9
100
AcDbLine
 10
-2.25
 20
-1.735
 30
0.0
 11
-1.366
 21
-1.735
 31
0.0
  0
LINE
  5
B6
330
90
100
AcDbEntity
  8
AM_9
100
AcDbLine
 10
-1.366
 20
1.735
 30
0.0
 11
-1.592138124101319
 21
1.735
 31
0.0
  0
LINE
  5
B7
330
90
100
AcDbEntity
  8
AM_9
100
AcDbLine
 10
-2.024005839839128
 20
1.735
 30
0.0
 11
-2.25
 21
1.735
 31
0.0
  0
LWPOLYLINE
  5
B8
330
90
100
AcDbEntity
  8
AM_9
100
AcDbPolyline
 90
       21
 70
     0
 43
0.0
 10
-2.024666666666201
 20
1.734999999999933
 10
-2.024411114352767
 20
1.734963553231908
 10
-2.019067220647533
 20
1.734210872143319
 10
-2.007189965200798
 20
1.732602866727684
 10
-1.988340734915684
 20
1.730235875674304
 10
-1.964484769650648
 20
1.72756835787447
 10
-1.934410334238765
 20
1.724733588278365
 10
-1.902571293770886
 20
1.722381168611358
 10
-1.8663464517832
 20
1.720523846078997
 10
-1.83202622961186
 20
1.719574172208164
 10
-1.795831398016386
 20
1.719429892626525
 10
-1.762888599907359
 20
1.720064026576171
 10
-1.730295213212396
 20
1.721407489605135
 10
-1.700422082354886
 20
1.723261129001908
 10
-1.672654236130348
 20
1.725513960970386
 10
-1.647655096308984
 20
1.727974975329969
 10
-1.626388550425186
 20
1.730388278227267
 10
-1.609321425731911
 20
1.732535648310732
 10
-1.597573200158213
 20
1.734121883030203
 10
-1.591831299756216
 20
1.7349290183679
 10
-1.591333333333534
 20
1.734999999999971
  0
ELLIPSE
  5
B9
330
90
100
AcDbEntity
  8
AM_9
100
AcDbEllipse
 10
-1.808000000000539
 20
0.9762122620687375
 30
0.0
 11
0.2083500000005394
 21
0.0
 31
0.0
210
0.0
220
0.0
230
1.0
 40
0.9063077870366393
 41
6.225214001410587
 42
6.283185307179586
  0
ELLIPSE
  5
BA
330
90
100
AcDbEntity
  8
AM_9
100
AcDbEllipse
 10
-1.808000000000002
 20
0.7367574593302613
 30
0.0
 11
0.2083499999999985
 21
3.104656934738137E-9
 31
0.0
210
0.0
220
0.0
230
1.0
 40
0.906307787036648
 41
2.455651569523368
 42
3.141592638688632
  0
LINE
  5
BB
330
90
100
AcDbEntity
  8
AM_9
100
AcDbLine
 10
-1.59965
 20
0.7367574593302598
 30
0.0
 11
-1.59965
 21
0.9762122620687677
 31
0.0
  0
LINE
  5
BC
330
90
100
AcDbEntity
  8
AM_9
100
AcDbLine
 10
-2.01635
 20
0.9762122620687677
 30
0.0
 11
-2.01635
 21
0.7367574593302598
 31
0.0
  0
ELLIPSE
  5
BD
330
90
100
AcDbEntity
  8
AM_9
100
AcDbEllipse
 10
-1.808000000000548
 20
0.9762122620688447
 30
0.0
 11
0.2083500000005478
 21
3.104656934746323E-9
 31
0.0
210
0.0
220
0.0
230
1.0
 40
0.9063077870366336
 41
0.0000017304280906
 42
0.0579712893369984
  0
ELLIPSE
  5
BE
330
90
100
AcDbEntity
  8
AM_9
100
AcDbEllipse
 10
-1.807999999999998
 20
0.7367574593302613
 30
0.0
 11
0.208349999999998
 21
0.0
 31
0.0
210
0.0
220
0.0
230
1.0
 40
0.9063077870366495
 41
3.141592653589793
 42
6.970122910118457
  0
LINE
  5
BF
330
90
100
AcDbEntity
  8
AM_9
100
AcDbLine
 10
-1.420950058072009
 20
-2.202380952380952
 30
0.0
 11
-1.366
 21
-2.202380952380952
 31
0.0
  0
LINE
  5
C0
330
90
100
AcDbEntity
  8
AM_9
100
AcDbLine
 10
-1.366
 20
2.202380952380952
 30
0.0
 11
-1.420950058072009
 21
2.202380952380952
 31
0.0
  0
LINE
  5
C1
330
90
100
AcDbEntity
  8
AM_9
100
AcDbLine
 10
-1.366
 20
2.202380952380952
 30
0.0
 11
-1.366
 21
-2.202380952380952
 31
0.0
  0
LINE
  5
C2
330
90
100
AcDbEntity
  8
AM_9
100
AcDbLine
 10
-1.420950058072009
 20
2.202380952380952
 30
0.0
 11
-1.474666666666667
 21
2.25609756097561
 31
0.0
  0
LINE
  5
C3
330
90
100
AcDbEntity
  8
AM_9
100
AcDbLine
 10
-1.474666666666667
 20
-2.25609756097561
 30
0.0
 11
-1.420950058072009
 21
-2.202380952380952
 31
0.0
  0
LINE
  5
C4
330
90
100
AcDbEntity
  8
AM_9
100
AcDbLine
 10
-1.420950058072009
 20
2.202380952380952
 30
0.0
 11
-1.420950058072009
 21
-2.202380952380952
 31
0.0
  0
LINE
  5
C5
330
90
100
AcDbEntity
  8
AM_9
100
AcDbLine
 10
-1.558
 20
-2.25609756097561
 30
0.0
 11
-1.474666666666667
 21
-2.25609756097561
 31
0.0
  0
LINE
  5
C6
330
90
100
AcDbEntity
  8
AM_9
100
AcDbLine
 10
-1.474666666666667
 20
2.25609756097561
 30
0.0
 11
-1.558
 21
2.25609756097561
 31
0.0
  0
LINE
  5
C7
330
90
100
AcDbEntity
  8
AM_9
100
AcDbLine
 10
-1.474666666666667
 20
2.25609756097561
 30
0.0
 11
-1.474666666666667
 21
-2.25609756097561
 31
0.0
  0
LINE
  5
C8
330
90
100
AcDbEntity
  8
AM_9
100
AcDbLine
 10
-1.558
 20
2.25609756097561
 30
0.0
 11
-1.590563963353683
 21
2.3125
 31
0.0
  0
LINE
  5
C9
330
90
100
AcDbEntity
  8
AM_9
100
AcDbLine
 10
-1.590563963353683
 20
-2.3125
 30
0.0
 11
-1.558
 21
-2.25609756097561
 31
0.0
  0
LINE
  5
CA
330
90
100
AcDbEntity
  8
AM_9
100
AcDbLine
 10
-1.558
 20
2.25609756097561
 30
0.0
 11
-1.558
 21
-2.25609756097561
 31
0.0
  0
LINE
  5
CB
330
90
100
AcDbEntity
  8
AM_9
100
AcDbLine
 10
-2.0
 20
-2.3125
 30
0.0
 11
-1.590563963353683
 21
-2.3125
 31
0.0
  0
LINE
  5
CC
330
90
100
AcDbEntity
  8
AM_9
100
AcDbLine
 10
-1.590563963353683
 20
2.3125
 30
0.0
 11
-1.597065
 21
2.3125
 31
0.0
  0
LINE
  5
CD
330
90
100
AcDbEntity
  8
AM_9
100
AcDbLine
 10
-1.590563963353683
 20
2.3125
 30
0.0
 11
-1.590563963353683
 21
-2.3125
 31
0.0
  0
LINE
  5
CF
330
90
100
AcDbEntity
  8
AM_5
100
AcDbLine
 10
-2.058
 20
2.3125
 30
0.0
 11
-2.058
 21
1.735
 31
0.0
  0
LINE
  5
D0
330
90
100
AcDbEntity
  8
AM_5
100
AcDbLine
 10
-1.933
 20
1.701666666666667
 30
0.0
 11
-2.058
 21
1.701666666666667
 31
0.0
  0
LINE
  5
D1
330
90
100
AcDbEntity
  8
AM_5
100
AcDbLine
 10
-1.558
 20
2.25609756097561
 30
0.0
 11
-1.558
 21
1.735
 31
0.0
  0
LINE
  5
D2
330
90
100
AcDbEntity
  8
AM_5
100
AcDbLine
 10
-1.683
 20
1.701666666666667
 30
0.0
 11
-1.558
 21
1.701666666666667
 31
0.0
  0
ELLIPSE
  5
D4
330
90
100
AcDbEntity
  8
AM_4
100
AcDbEllipse
 10
-1.808000000000001
 20
0.9762122620687711
 30
0.0
 11
0.2083499999999989
 21
0.0
 31
0.0
210
0.0
220
0.0
230
1.0
 40
0.9063077870366462
 41
2.589286508049188
 42
3.141592653589793
  0
ELLIPSE
  5
D5
330
90
100
AcDbEntity
  8
AM_4
100
AcDbEllipse
 10
-1.808000000000333
 20
0.9762122620688247
 30
0.0
 11
0.2083500000003362
 21
0.0
 31
0.0
210
0.0
220
0.0
230
1.0
 40
0.9063077870366524
 41
5.730879161639507
 42
6.225214001410061
  0
ELLIPSE
  5
D6
330
90
100
AcDbEntity
  8
AM_4
100
AcDbEllipse
 10
-1.808
 20
0.7367574593302599
 30
0.0
 11
0.2083499999999998
 21
0.0
 31
0.0
210
0.0
220
0.0
230
1.0
 40
0.9063077870366505
 41
1.570796326794897
 42
2.455651584786836
  0
ELLIPSE
  5
D7
330
90
100
AcDbEntity
  8
AM_4
100
AcDbEllipse
 10
-1.808
 20
0.9762122620687645
 30
0.0
 11
0.20835
 21
0.0
 31
0.0
210
0.0
220
0.0
230
1.0
 40
0.906307787036645
 41
3.141592653589793
 42
3.693898799130395
  0
ELLIPSE
  5
D8
330
90
100
AcDbEntity
  8
AM_4
100
AcDbEllipse
 10
-1.808000000000001
 20
0.9762122620687697
 30
0.0
 11
0.2083500000000014
 21
0.0
 31
0.0
210
0.0
220
0.0
230
1.0
 40
0.9063077870366478
 41
0.0579713057693008
 42
0.5523061455406041
  0
ELLIPSE
  5
D9
330
90
100
AcDbEntity
  8
AM_4
100
AcDbEllipse
 10
-1.808
 20
0.7367574593302584
 30
0.0
 11
0.2083500000000009
 21
0.0
 31
0.0
210
0.0
220
0.0
230
1.0
 40
0.9063077870366529
 41
0.6869376029388725
 42
1.570796326794897
  0
LINE
  5
DA
330
90
100
AcDbEntity
  8
AM_4
100
AcDbLine
 10
-2.25
 20
2.165166666666666
 30
0.0
 11
-2.25
 21
-2.165166666666666
 31
0.0
  0
ARC
  5
DB
330
90
100
AcDbEntity
  8
AM_4
100
AcDbCircle
 10
-2.102666666666666
 20
-2.165166666666666
 30
0.0
 40
0.1473333333333335
100
AcDbArc
 50
180.0
 51
270.0
  0
ARC
  5
DC
330
90
100
AcDbEntity
  8
AM_4
100
AcDbCircle
 10
-2.102666666666666
 20
2.165166666666666
 30
0.0
 40
0.1473333333333335
100
AcDbArc
 50
90.0
 51
180.0
  0
LWPOLYLINE
  5
DD
330
90
100
AcDbEntity
  8
AM_4
100
AcDbPolyline
 90
       13
 70
     0
 43
0.0
 10
-1.630628131528707
 20
2.309915
 10
-1.651529629022775
 20
2.308404662742254
 10
-1.676846169550632
 20
2.306826359902614
 10
-1.705921720354035
 20
2.305358442529732
 10
-1.737888550396748
 20
2.304161917675377
 10
-1.7718342616189
 20
2.303382563684018
 10
-1.806806869751475
 20
2.303095297867587
 10
-1.841688429328725
 20
2.303344971048241
 10
-1.875620168125476
 20
2.304087458113801
 10
-1.907614136057203
 20
2.305250665408642
 10
-1.9368142037131
 20
2.306694523897397
 10
-1.963475403854406
 20
2.30833758281135
 10
-1.985371868471293
 20
2.309914999999999
  0
LINE
  5
DE
330
90
100
AcDbEntity
  8
AM_4
100
AcDbLine
 10
-1.985371868471293
 20
2.309915
 30
0.0
 11
-2.018934999999922
 21
2.312499999999993
 31
0.0
  0
LWPOLYLINE
  5
DF
330
90
100
AcDbEntity
  8
AM_4
100
AcDbPolyline
 90
       13
 70
     0
 43
0.0
 10
-1.630628131528707
 20
0.8771426523500776
 10
-1.651529629022774
 20
0.8509176810520844
 10
-1.676846169550632
 20
0.8281847138923913
 10
-1.705921720354035
 20
0.8096949765267754
 10
-1.737888550396747
 20
0.7959640854058432
 10
-1.7718342616189
 20
0.7875084133639727
 10
-1.806806869751475
 20
0.784504000196556
 10
-1.841688429328725
 20
0.7871104261757476
 10
-1.875620168125475
 20
0.7951418651509049
 10
-1.907614136057202
 20
0.8084135115991802
 10
-1.936814203713099
 20
0.8264362431262525
 10
-1.963475403854406
 20
0.8498760425596207
 10
-1.985371868471293
 20
0.8771426523500775
  0
LWPOLYLINE
  5
E0
330
90
100
AcDbEntity
  8
AM_4
100
AcDbPolyline
 90
        9
 70
     0
 43
0.0
 10
-1.985371868471293
 20
0.8771426523500776
 10
-1.997415941176019
 20
0.896041374061094
 10
-2.010301360017709
 20
0.9252559454487291
 10
-2.017492496888424
 20
0.9558876512163083
 10
-2.018686569585871
 20
0.9857655362824327
 10
-2.014322732606286
 20
1.015205836698636
 10
-2.00464883735203
 20
1.042981443025478
 10
-1.990048728254032
 20
1.068810686184985
 10
-1.985371868471293
 20
1.075281871787458
  0
LWPOLYLINE
  5
E1
330
90
100
AcDbEntity
  8
AM_4
100
AcDbPolyline
 90
       13
 70
     0
 43
0.0
 10
-1.985371868471293
 20
1.075281871787458
 10
-1.964470370977225
 20
1.10023025087243
 10
-1.939153830449367
 20
1.121629178826944
 10
-1.910078279645964
 20
1.138878178815548
 10
-1.878111449603251
 20
1.151597723428326
 10
-1.844165738381099
 20
1.159394657011978
 10
-1.809193130248524
 20
1.1621562626194
 10
-1.774311570671274
 20
1.159760869531432
 10
-1.740379831874523
 20
1.152357007742298
 10
-1.708385863942797
 20
1.140068546584001
 10
-1.679185796286899
 20
1.123266216986364
 10
-1.652524596145593
 20
1.1012151909573
 10
-1.630628131528707
 20
1.075281871787458
  0
LWPOLYLINE
  5
E2
330
90
100
AcDbEntity
  8
AM_4
100
AcDbPolyline
 90
        3
 70
     0
 43
0.0
 10
-1.599043657973207
 20
0.9522270488978102
 10
-1.608121818270482
 20
0.9184461844141483
 10
-1.630628131528695
 20
0.8771426523500598
  0
LWPOLYLINE
  5
E3
330
90
100
AcDbEntity
  8
AM_4
100
AcDbPolyline
 90
        5
 70
     0
 43
0.0
 10
-1.630628131528707
 20
1.075281871787458
 10
-1.630001865382718
 20
1.074450625010707
 10
-1.613382342472556
 20
1.047279590613419
 10
-1.602330798587904
 20
1.017758916203462
 10
-1.599282295072792
 20
1.003692573594043
  0
LINE
  5
E4
330
90
100
AcDbEntity
  8
AM_4
100
AcDbLine
 10
-2.102666666666666
 20
-2.3125
 30
0.0
 11
-2.0
 21
-2.3125
 31
0.0
  0
LINE
  5
E5
330
90
100
AcDbEntity
  8
AM_4
100
AcDbLine
 10
-2.018935
 20
2.3125
 30
0.0
 11
-2.102666666666666
 21
2.3125
 31
0.0
  0
LINE
  5
E6
330
90
100
AcDbEntity
  8
AM_4
100
AcDbLine
 10
-2.102666666666666
 20
2.3125
 30
0.0
 11
-2.102666666666666
 21
-2.3125
 31
0.0
  0
LINE
  5
E7
330
90
100
AcDbEntity
  8
AM_4
100
AcDbLine
 10
-1.597065000000078
 20
2.312499999999993
 30
0.0
 11
-1.630628131528707
 21
2.309915
 31
0.0
  0
ENDBLK
  5
93
330
90
100
AcDbEntity
  8
0
100
AcDbBlockEnd
  0
BLOCK
  5
EA
330
E8
100
AcDbEntity
  8
0
100
AcDbBlockBegin
  2
3_070011i_0_in_071436_2
 70
     2
 10
0.0
 20
0.0
 30
0.0
  3
3_070011i_0_in_071436_2
  1

  0
ATTDEF
  5
EC
330
E8
100
AcDbEntity
  8
AM_6
100
AcDbText
 10
6.34375
 20
2.55905
 30
0.0
 40
0.5
  1
S-2000 Insert -Inch
100
AcDbAttributeDefinition
  3

  2
NN
 70
     8
280
     0
  0
ATTDEF
  5
ED
330
E8
100
AcDbEntity
  8
AM_6
100
AcDbText
 10
6.34375
 20
2.05905
 30
0.0
 40
0.5
  1
S-2000 Bearings
100
AcDbAttributeDefinition
  3

  2
NT
 70
     8
280
     0
  0
ATTDEF
  5
EE
330
E8
100
AcDbEntity
  8
AM_6
100
AcDbText
 10
6.34375
 20
1.55905
 30
0.0
 40
0.5
  1
070011i
100
AcDbAttributeDefinition
  3

  2
NB
 70
     8
280
     0
  0
ATTDEF
  5
EF
330
E8
100
AcDbEntity
  8
AM_6
100
AcDbText
 10
6.34375
 20
1.05905
 30
0.0
 40
0.5
  1
$PN.i
100
AcDbAttributeDefinition
  3

  2
NBSYN
 70
     8
280
     0
  0
ATTDEF
  5
F0
330
E8
100
AcDbEntity
  8
AM_6
100
AcDbText
 10
6.34375
 20
0.55905
 30
0.0
 40
0.5
  1
070011i
100
AcDbAttributeDefinition
  3

  2
LINA
 70
     8
280
     0
  0
ATTDEF
  5
F1
330
E8
100
AcDbEntity
  8
AM_6
100
AcDbText
 10
6.34375
 20
0.05905
 30
0.0
 40
0.5
  1
3
100
AcDbAttributeDefinition
  3

  2
SS
 70
     8
280
     0
  0
ATTDEF
  5
F2
330
E8
100
AcDbEntity
  8
AM_6
100
AcDbText
 10
6.34375
 20
-0.44095
 30
0.0
 40
0.5
  1
3.47
100
AcDbAttributeDefinition
  3

  2
CC
 70
     8
280
     0
  0
ATTDEF
  5
F3
330
E8
100
AcDbEntity
  8
AM_6
100
AcDbText
 10
6.34375
 20
-0.94095
 30
0.0
 40
0.5
  1
3.000000
100
AcDbAttributeDefinition
  3

  2
SS1
 70
     8
280
     0
  0
ATTDEF
  5
F4
330
E8
100
AcDbEntity
  8
AM_6
100
AcDbText
 10
6.34375
 20
-1.44095
 30
0.0
 40
0.5
  1
070011
100
AcDbAttributeDefinition
  3

  2
PN
 70
     8
280
     0
  0
ATTDEF
  5
F5
330
E8
100
AcDbEntity
  8
AM_6
100
AcDbText
 10
6.34375
 20
-1.94095
 30
0.0
 40
0.5
  1
INS-S2-300R
100
AcDbAttributeDefinition
  3

  2
DESCRIPTION
 70
     8
280
     0
  0
ATTDEF
  5
F6
330
E8
100
AcDbEntity
  8
AM_6
100
AcDbText
 10
6.34375
 20
-2.44095
 30
0.0
 40
0.5
  1
Contact Seal
100
AcDbAttributeDefinition
  3

  2
ST
 70
     8
280
     0
  0
ATTDEF
  5
F7
330
E8
100
AcDbEntity
  8
AM_6
100
AcDbText
 10
6.34375
 20
-2.94095
 30
0.0
 40
0.5
  1
1
100
AcDbAttributeDefinition
  3

  2
ST1
 70
     8
280
     0
  0
ATTDEF
  5
F8
330
E8
100
AcDbEntity
  8
AM_6
100
AcDbText
 10
6.34375
 20
-3.44095
 30
0.0
 40
0.5
  1
5.1181
100
AcDbAttributeDefinition
  3

  2
A
 70
     8
280
     0
  0
ATTDEF
  5
F9
330
E8
100
AcDbEntity
  8
AM_6
100
AcDbText
 10
6.34375
 20
-3.94095
 30
0.0
 40
0.5
  1
1-9/32
100
AcDbAttributeDefinition
  3

  2
B
 70
     8
280
     0
  0
ATTDEF
  5
FA
330
E8
100
AcDbEntity
  8
AM_6
100
AcDbText
 10
6.34375
 20
-4.44095
 30
0.0
 40
0.5
  1
3-19/32
100
AcDbAttributeDefinition
  3

  2
C
 70
     8
280
     0
  0
ATTDEF
  5
FB
330
E8
100
AcDbEntity
  8
AM_6
100
AcDbText
 10
6.34375
 20
-4.94095
 30
0.0
 40
0.5
  1
1.219
100
AcDbAttributeDefinition
  3

  2
D
 70
     8
280
     0
  0
ATTDEF
  5
FC
330
E8
100
AcDbEntity
  8
AM_6
100
AcDbText
 10
6.34375
 20
-5.44095
 30
0.0
 40
0.5
  1
4-5/8
100
AcDbAttributeDefinition
  3

  2
E
 70
     8
280
     0
  0
ATTDEF
  5
FD
330
E8
100
AcDbEntity
  8
AM_6
100
AcDbText
 10
6.34375
 20
-5.94095
 30
0.0
 40
0.5
  1
0.53125
100
AcDbAttributeDefinition
  3

  2
F
 70
     8
280
     0
  0
ATTDEF
  5
FE
330
E8
100
AcDbEntity
  8
AM_6
100
AcDbText
 10
6.34375
 20
-6.44095
 30
0.0
 40
0.5
  1
2
100
AcDbAttributeDefinition
  3

  2
DD
 70
     8
280
     0
  0
ATTDEF
  5
FF
330
E8
100
AcDbEntity
  8
AM_6
100
AcDbText
 10
6.34375
 20
-6.94095
 30
0.0
 40
0.5
  1
baldor
100
AcDbAttributeDefinition
  3

  2
COMPANY
 70
     8
280
     0
  0
LINE
  5
100
330
E8
100
AcDbEntity
  8
AM_9
100
AcDbLine
 10
-2.078
 20
1.73486036491284
 30
0.0
 11
-2.078
 21
1.5
 31
0.0
  0
LINE
  5
101
330
E8
100
AcDbEntity
  8
AM_9
100
AcDbLine
 10
-1.538
 20
1.5
 30
0.0
 11
-1.538
 21
1.734973151062446
 31
0.0
  0
LINE
  5
102
330
E8
100
AcDbEntity
  8
AM_9
100
AcDbLine
 10
-2.078
 20
0.7332426841201136
 30
0.0
 11
-2.078
 21
0.6339044250015382
 31
0.0
  0
LINE
  5
103
330
E8
100
AcDbEntity
  8
AM_9
100
AcDbLine
 10
-1.538
 20
0.6338584056043303
 30
0.0
 11
-1.538
 21
0.7332426841201136
 31
0.0
  0
LWPOLYLINE
  5
104
330
E8
100
AcDbEntity
  8
AM_9
100
AcDbPolyline
 90
        4
 70
     0
 43
0.0
 10
-2.072365251614112
 20
0.6832346405228319
 10
-2.073431672072128
 20
0.6782623394930486
 10
-2.077971131139815
 20
0.637503488825393
 10
-2.077999999187361
 20
0.6339463780184773
  0
LWPOLYLINE
  5
105
330
E8
100
AcDbEntity
  8
AM_9
100
AcDbPolyline
 90
        5
 70
     0
 43
0.0
 10
-2.006428548740741
 20
0.7951329471038597
 10
-2.016007518827034
 20
0.7857527379202053
 10
-2.042016093398681
 20
0.7533714025847835
 10
-2.061396141243272
 20
0.7171900568043924
 10
-2.072365251614112
 20
0.6832346405228319
  0
LWPOLYLINE
  5
106
330
E8
100
AcDbEntity
  8
AM_9
100
AcDbPolyline
 90
        4
 70
     0
 43
0.0
 10
-1.947515941020271
 20
0.8358573896689245
 10
-1.947992307580595
 20
0.8356151941283303
 10
-1.984449879504512
 20
0.8132059294687295
 10
-2.006428548740741
 20
0.7951329471038597
  0
LWPOLYLINE
  5
107
330
E8
100
AcDbEntity
  8
AM_9
100
AcDbPolyline
 90
        4
 70
     0
 43
0.0
 10
-1.61174713362591
 20
0.7971228025408092
 10
-1.614773685076431
 20
0.7998118422533433
 10
-1.649212005906733
 20
0.825058432607312
 10
-1.668553893534445
 20
0.8358927984059681
  0
LINE
  5
108
330
E8
100
AcDbEntity
  8
AM_9
100
AcDbLine
 10
-1.599270693120127
 20
0.7850015453483498
 30
0.0
 11
-1.61174713362591
 21
0.7971228025408092
 31
0.0
  0
LWPOLYLINE
  5
109
330
E8
100
AcDbEntity
  8
AM_9
100
AcDbPolyline
 90
        5
 70
     0
 43
0.0
 10
-1.54359501408998
 20
0.6830637895939004
 10
-1.548123044311486
 20
0.6994589587681443
 10
-1.563746474192056
 20
0.7363447880192429
 10
-1.586224093469677
 20
0.7701076672058466
 10
-1.599270693120127
 20
0.7850015453483498
  0
LWPOLYLINE
  5
10A
330
E8
100
AcDbEntity
  8
AM_9
100
AcDbPolyline
 90
        3
 70
     0
 43
0.0
 10
-1.538000000825598
 20
0.6339082562945046
 10
-1.539580832935939
 20
0.6602485430159706
 10
-1.54359501408998
 20
0.6830637895939004
  0
LWPOLYLINE
  5
10B
330
E8
100
AcDbEntity
  8
AM_9
100
AcDbPolyline
 90
       11
 70
     0
 43
0.0
 10
-2.077999999187361
 20
0.6339463780184773
 10
-2.074859551389428
 20
0.5966370614863299
 10
-2.064418062122248
 20
0.5562852980545616
 10
-2.046892598269207
 20
0.5177113351395171
 10
-2.022870706773662
 20
0.4819738384245466
 10
-1.992497104454422
 20
0.4498000651568422
 10
-1.956959583557044
 20
0.4226504065798119
 10
-1.916822343554853
 20
0.4013502802659695
 10
-1.873531613174415
 20
0.3868016867112491
 10
-1.841020059348029
 20
0.380871611059442
 10
-1.808
 20
0.3788701068955351
  0
LWPOLYLINE
  5
10C
330
E8
100
AcDbEntity
  8
AM_9
100
AcDbPolyline
 90
        7
 70
     0
 43
0.0
 10
-1.599892987468043
 20
0.8855344007496108
 10
-1.598808406601096
 20
0.8843929389854571
 10
-1.573079103600343
 20
0.8516496473503784
 10
-1.553996897166227
 20
0.815198592935213
 10
-1.542253418495136
 20
0.7760819607321047
 10
-1.538009176900261
 20
0.735259596211835
 10
-1.538000000337887
 20
0.733254926266177
  0
LINE
  5
10D
330
E8
100
AcDbEntity
  8
AM_9
100
AcDbLine
 10
-1.617706763589178
 20
0.9023569738933835
 30
0.0
 11
-1.599892987468043
 21
0.8855344007496108
 31
0.0
  0
LWPOLYLINE
  5
10E
330
E8
100
AcDbEntity
  8
AM_9
100
AcDbPolyline
 90
       11
 70
     0
 43
0.0
 10
-1.998402866094971
 20
0.9022633213982388
 10
-1.965826430692859
 20
0.9258893966518486
 10
-1.926781192761772
 20
0.9457982923585129
 10
-1.884251049515454
 20
0.9597448171546433
 10
-1.83952014864933
 20
0.9674620266758084
 10
-1.794338706378366
 20
0.9687007404748414
 10
-1.749545868557394
 20
0.9636303508581853
 10
-1.706664073453575
 20
0.9523662257738067
 10
-1.666603240050793
 20
0.9352349712857533
 10
-1.630227649049555
 20
0.9123427445949038
 10
-1.617706763589178
 20
0.9023569738933835
  0
LWPOLYLINE
  5
10F
330
E8
100
AcDbEntity
  8
AM_9
100
AcDbPolyline
 90
        7
 70
     0
 43
0.0
 10
-2.077999999060577
 20
0.7332222712293913
 10
-2.076361689251915
 20
0.760051280386422
 10
-2.067686191475499
 20
0.7994754444077306
 10
-2.051874925706517
 20
0.8366164094441347
 10
-2.029185563952598
 20
0.8706134133622141
 10
-2.000394707038779
 20
0.9005423672521872
 10
-1.998402866094971
 20
0.9022633213982388
  0
LWPOLYLINE
  5
110
330
E8
100
AcDbEntity
  8
AM_9
100
AcDbPolyline
 90
        7
 70
     0
 43
0.0
 10
-1.599568562110777
 20
0.5740980889160303
 10
-1.625281807824553
 20
0.54829009896526
 10
-1.661121540818258
 20
0.5216369625882545
 10
-1.701406783534719
 20
0.5009130518079106
 10
-1.744760450401828
 20
0.4869062310260637
 10
-1.776153786116404
 20
0.4814468153714229
 10
-1.808
 20
0.4796065289345783
  0
LWPOLYLINE
  5
111
330
E8
100
AcDbEntity
  8
AM_9
100
AcDbPolyline
 90
        6
 70
     0
 43
0.0
 10
-1.538000000337887
 20
0.733254926266177
 10
-1.54142719455302
 20
0.6943075068191419
 10
-1.552212070566499
 20
0.6539873103851299
 10
-1.570126624235077
 20
0.6155340832923069
 10
-1.594569579887676
 20
0.5800276648226287
 10
-1.599568562110777
 20
0.5740980889160303
  0
LWPOLYLINE
  5
112
330
E8
100
AcDbEntity
  8
AM_9
100
AcDbPolyline
 90
       11
 70
     0
 43
0.0
 10
-1.808
 20
0.3788701068955351
 10
-1.763088178344394
 20
0.382597289539116
 10
-1.719452390748164
 20
0.3935256102654763
 10
-1.678371808558638
 20
0.4113474908331748
 10
-1.640900258378894
 20
0.4353500568574221
 10
-1.607789872269069
 20
0.4651436523511591
 10
-1.580280330961487
 20
0.4994827162679398
 10
-1.559096498258989
 20
0.5376224763420018
 10
-1.544984446622157
 20
0.5781044478849974
 10
-1.538512108301021
 20
0.6192471438784802
 10
-1.538000000825598
 20
0.6339082562945046
  0
LWPOLYLINE
  5
113
330
E8
100
AcDbEntity
  8
AM_9
100
AcDbPolyline
 90
       11
 70
     0
 43
0.0
 10
-1.808
 20
1.475499915282952
 10
-1.763726195374082
 20
1.476164005040109
 10
-1.719452390748164
 20
1.478154484180938
 10
-1.678912913971461
 20
1.481135873503623
 10
-1.640900258378894
 20
1.484931757236621
 10
-1.608201731320446
 20
1.488965865346599
 10
-1.580280330961487
 20
1.492968937274654
 10
-1.559331573116773
 20
1.496307450535677
 10
-1.544984446622157
 20
1.498758546704122
 10
-1.538524375299841
 20
1.499905701138422
 10
-1.538000000000846
 20
1.499999999999847
  0
LINE
  5
114
330
E8
100
AcDbEntity
  8
AM_9
100
AcDbLine
 10
1.34375
 20
1.5
 30
0.0
 11
-1.538
 21
1.5
 31
0.0
  0
LINE
  5
115
330
E8
100
AcDbEntity
  8
AM_9
100
AcDbLine
 10
-2.078
 20
1.5
 30
0.0
 11
-2.25
 21
1.5
 31
0.0
  0
LINE
  5
116
330
E8
100
AcDbEntity
  8
AM_9
100
AcDbLine
 10
-2.25
 20
-1.5
 30
0.0
 11
1.34375
 21
-1.5
 31
0.0
  0
LINE
  5
117
330
E8
100
AcDbEntity
  8
AM_9
100
AcDbLine
 10
-2.070896976766238
 20
1.498737742366165
 30
0.0
 11
-2.077999999999237
 21
1.499999999999863
 31
0.0
  0
LINE
  5
118
330
E8
100
AcDbEntity
  8
AM_9
100
AcDbLine
 10
-1.791545625447825
 20
1.475591659790024
 30
0.0
 11
-1.815163363825368
 21
1.475517303789181
 31
0.0
  0
LWPOLYLINE
  5
119
330
E8
100
AcDbEntity
  8
AM_9
100
AcDbPolyline
 90
       11
 70
     0
 43
0.0
 10
-2.077999999999237
 20
1.499999999999863
 10
-2.074983489999138
 20
1.499459964097781
 10
-2.064418062122248
 20
1.497614844538651
 10
-2.047204961162604
 20
1.49476386544658
 10
-2.022870706773662
 20
1.491063184653626
 10
-1.992980786497007
 20
1.48705006350595
 10
-1.956959583557044
 20
1.482999985682228
 10
-1.917446967832078
 20
1.479553526834239
 10
-1.873531613174414
 20
1.476954431363825
 10
-1.841276356774468
 20
1.475875101734622
 10
-1.808
 20
1.475499915282952
  0
LINE
  5
11A
330
E8
100
AcDbEntity
  8
AM_9
100
AcDbLine
 10
1.34375
 20
1.735
 30
0.0
 11
1.08425
 21
1.735
 31
0.0
  0
LINE
  5
11B
330
E8
100
AcDbEntity
  8
AM_9
100
AcDbLine
 10
1.08425
 20
-1.735
 30
0.0
 11
1.34375
 21
-1.735
 31
0.0
  0
LINE
  5
11C
330
E8
100
AcDbEntity
  8
AM_9
100
AcDbLine
 10
1.34375
 20
-1.735
 30
0.0
 11
1.34375
 21
1.735
 31
0.0
  0
LWPOLYLINE
  5
11D
330
E8
100
AcDbEntity
  8
AM_9
100
AcDbPolyline
 90
       11
 70
     0
 43
0.0
 10
-1.808
 20
0.4796065289345783
 10
-1.853016402455498
 20
0.4833101015160274
 10
-1.896756420371638
 20
0.4941765714991641
 10
-1.937941422842958
 20
0.5119166763251392
 10
-1.975497412273244
 20
0.5358357738896399
 10
-2.008576240282542
 20
0.565477112603116
 10
-2.036032979761296
 20
0.5996662737626878
 10
-2.057107090367962
 20
0.6375998093529771
 10
-2.071117799535108
 20
0.6778983930364383
 10
-2.077517223934402
 20
0.7190153699496271
 10
-2.077999999060577
 20
0.7332222712293913
  0
LWPOLYLINE
  5
11E
330
E8
100
AcDbEntity
  8
AM_9
100
AcDbPolyline
 90
       11
 70
     0
 43
0.0
 10
-1.808
 20
1.713862596592854
 10
-1.852378210185819
 20
1.714437057911225
 10
-1.896756420371638
 20
1.716159288107368
 10
-1.937396105547303
 20
1.718740338774537
 10
-1.975497412273244
 20
1.72202798557928
 10
-2.008163761151045
 20
1.725511672310023
 10
-2.036032979761295
 20
1.728966176609252
 10
-2.056874938649829
 20
1.731838253154133
 10
-2.071117799535108
 20
1.733942322118068
 10
-2.077506065422806
 20
1.73492320270947
 10
-2.077999999999459
 20
1.734999999999916
  0
LINE
  5
11F
330
E8
100
AcDbEntity
  8
AM_9
100
AcDbLine
 10
-0.8347499999999998
 20
1.735
 30
0.0
 11
-1.538174445653871
 21
1.735
 31
0.0
  0
LINE
  5
120
330
E8
100
AcDbEntity
  8
AM_9
100
AcDbLine
 10
-2.077100169706478
 20
1.735
 30
0.0
 11
-2.25
 21
1.735
 31
0.0
  0
LINE
  5
121
330
E8
100
AcDbEntity
  8
AM_9
100
AcDbLine
 10
-2.25
 20
-1.735
 30
0.0
 11
-0.8347499999999998
 21
-1.735
 31
0.0
  0
LINE
  5
122
330
E8
100
AcDbEntity
  8
AM_9
100
AcDbLine
 10
-1.545206690005512
 20
1.733893111981779
 30
0.0
 11
-1.538000000000178
 21
1.734999999999972
 31
0.0
  0
LINE
  5
123
330
E8
100
AcDbEntity
  8
AM_9
100
AcDbLine
 10
-1.823904569536441
 20
1.713936391857096
 30
0.0
 11
-1.799883402334593
 21
1.713881815983139
 31
0.0
  0
LWPOLYLINE
  5
124
330
E8
100
AcDbEntity
  8
AM_9
100
AcDbPolyline
 90
        7
 70
     0
 43
0.0
 10
-1.599578839282599
 20
1.726489032758328
 10
-1.624791180495764
 20
1.7236271265979
 10
-1.661121540818258
 20
1.720144843253499
 10
-1.700783910902559
 20
1.717212942462684
 10
-1.744760450401828
 20
1.715028932885209
 10
-1.77592568463712
 20
1.714162699893449
 10
-1.808
 20
1.713862596592854
  0
LWPOLYLINE
  5
125
330
E8
100
AcDbEntity
  8
AM_9
100
AcDbPolyline
 90
        6
 70
     0
 43
0.0
 10
-1.538000000000178
 20
1.734999999999972
 10
-1.541298762514923
 20
1.734489708841212
 10
-1.552212070566499
 20
1.732845193559966
 10
-1.569806273893857
 20
1.730335589172323
 10
-1.594569579887676
 20
1.727100907367408
 10
-1.599578839282599
 20
1.726489032758328
  0
LINE
  5
126
330
E8
100
AcDbEntity
  8
AM_9
100
AcDbLine
 10
0.9561249999999994
 20
2.04724
 30
0.0
 11
0.7653749999999999
 21
2.04724
 31
0.0
  0
LINE
  5
127
330
E8
100
AcDbEntity
  8
AM_9
100
AcDbLine
 10
0.7653749999999999
 20
-2.04724
 30
0.0
 11
0.9561249999999994
 21
-2.04724
 31
0.0
  0
LINE
  5
128
330
E8
100
AcDbEntity
  8
AM_9
100
AcDbLine
 10
1.08425
 20
-1.919115
 30
0.0
 11
1.08425
 21
1.919115
 31
0.0
  0
ARC
  5
129
330
E8
100
AcDbEntity
  8
AM_9
100
AcDbCircle
 10
0.9561249999999994
 20
1.919115
 30
0.0
 40
0.128125
100
AcDbArc
 50
0.0
 51
90.0
  0
ARC
  5
12A
330
E8
100
AcDbEntity
  8
AM_9
100
AcDbCircle
 10
0.9561249999999994
 20
-1.919115
 30
0.0
 40
0.128125
100
AcDbArc
 50
270.0
 51
0.0
  0
LINE
  5
12B
330
E8
100
AcDbEntity
  8
AM_9
100
AcDbLine
 10
0.9561249999999994
 20
-2.04724
 30
0.0
 11
0.9561249999999994
 21
2.04724
 31
0.0
  0
LINE
  5
12C
330
E8
100
AcDbEntity
  8
AM_9
100
AcDbLine
 10
-0.5158750000000003
 20
2.04724
 30
0.0
 11
-0.7066249999999996
 21
2.04724
 31
0.0
  0
LINE
  5
12D
330
E8
100
AcDbEntity
  8
AM_9
100
AcDbLine
 10
-0.7066249999999996
 20
-2.04724
 30
0.0
 11
-0.5158750000000003
 21
-2.04724
 31
0.0
  0
LINE
  5
12E
330
E8
100
AcDbEntity
  8
AM_9
100
AcDbLine
 10
-0.8347500000000003
 20
-1.919115
 30
0.0
 11
-0.8347500000000003
 21
1.919115
 31
0.0
  0
ARC
  5
12F
330
E8
100
AcDbEntity
  8
AM_9
100
AcDbCircle
 10
-0.7066249999999992
 20
1.919114999999999
 30
0.0
 40
0.1281250000000012
100
AcDbArc
 50
90.0
 51
180.0
  0
ARC
  5
130
330
E8
100
AcDbEntity
  8
AM_9
100
AcDbCircle
 10
-0.7066249999999992
 20
-1.919114999999999
 30
0.0
 40
0.1281250000000012
100
AcDbArc
 50
180.0
 51
270.0
  0
LINE
  5
131
330
E8
100
AcDbEntity
  8
AM_9
100
AcDbLine
 10
-0.7066249999999996
 20
-2.04724
 30
0.0
 11
-0.7066249999999996
 21
2.04724
 31
0.0
  0
LINE
  5
132
330
E8
100
AcDbEntity
  8
AM_9
100
AcDbLine
 10
0.1888124999999959
 20
2.456688
 30
0.0
 11
0.0606875000000034
 21
2.456688
 31
0.0
  0
LINE
  5
133
330
E8
100
AcDbEntity
  8
AM_9
100
AcDbLine
 10
0.0606875000000034
 20
-2.456688
 30
0.0
 11
0.1888124999999959
 21
-2.456688
 31
0.0
  0
LINE
  5
134
330
E8
100
AcDbEntity
  8
AM_9
100
AcDbLine
 10
0.6372499999999998
 20
2.55905
 30
0.0
 11
0.247911228254784
 21
2.55905
 31
0.0
  0
LINE
  5
135
330
E8
100
AcDbEntity
  8
AM_9
100
AcDbLine
 10
0.247911228254784
 20
-2.55905
 30
0.0
 11
0.6372499999999998
 21
-2.55905
 31
0.0
  0
LINE
  5
136
330
E8
100
AcDbEntity
  8
AM_9
100
AcDbLine
 10
0.0015887717452154
 20
2.55905
 30
0.0
 11
-0.3877500000000009
 21
2.55905
 31
0.0
  0
LINE
  5
137
330
E8
100
AcDbEntity
  8
AM_9
100
AcDbLine
 10
-0.3877500000000009
 20
-2.55905
 30
0.0
 11
0.0015887717452154
 21
-2.55905
 31
0.0
  0
LINE
  5
138
330
E8
100
AcDbEntity
  8
AM_9
100
AcDbLine
 10
-0.515875
 20
-2.430925
 30
0.0
 11
-0.515875
 21
2.430925
 31
0.0
  0
ARC
  5
139
330
E8
100
AcDbEntity
  8
AM_9
100
AcDbCircle
 10
-0.3877500000000011
 20
2.430925000000001
 30
0.0
 40
0.1281249999999989
100
AcDbArc
 50
90.0
 51
180.0
  0
ARC
  5
13A
330
E8
100
AcDbEntity
  8
AM_9
100
AcDbCircle
 10
-0.3877500000000011
 20
-2.430925000000001
 30
0.0
 40
0.1281249999999989
100
AcDbArc
 50
180.0
 51
270.0
  0
LINE
  5
13B
330
E8
100
AcDbEntity
  8
AM_9
100
AcDbLine
 10
-0.3877500000000009
 20
-2.55905
 30
0.0
 11
-0.3877500000000009
 21
2.55905
 31
0.0
  0
LINE
  5
13C
330
E8
100
AcDbEntity
  8
AM_9
100
AcDbLine
 10
0.1888124999999959
 20
-2.456688
 30
0.0
 11
0.247911228254784
 21
-2.55905
 31
0.0
  0
LINE
  5
13D
330
E8
100
AcDbEntity
  8
AM_9
100
AcDbLine
 10
0.247911228254784
 20
2.55905
 30
0.0
 11
0.1888124999999959
 21
2.456688
 31
0.0
  0
LINE
  5
13E
330
E8
100
AcDbEntity
  8
AM_9
100
AcDbLine
 10
0.247911228254784
 20
-2.55905
 30
0.0
 11
0.247911228254784
 21
2.55905
 31
0.0
  0
LINE
  5
13F
330
E8
100
AcDbEntity
  8
AM_9
100
AcDbLine
 10
0.1888124999999959
 20
-2.456688
 30
0.0
 11
0.1888124999999959
 21
2.456688
 31
0.0
  0
LINE
  5
140
330
E8
100
AcDbEntity
  8
AM_9
100
AcDbLine
 10
0.7653749999999994
 20
-2.430925000000001
 30
0.0
 11
0.7653749999999994
 21
2.430925000000001
 31
0.0
  0
ARC
  5
141
330
E8
100
AcDbEntity
  8
AM_9
100
AcDbCircle
 10
0.6372500000000006
 20
2.430925000000001
 30
0.0
 40
0.1281249999999987
100
AcDbArc
 50
0.0
 51
90.0
  0
ARC
  5
142
330
E8
100
AcDbEntity
  8
AM_9
100
AcDbCircle
 10
0.6372500000000006
 20
-2.430925000000001
 30
0.0
 40
0.1281249999999989
100
AcDbArc
 50
270.0
 51
0.0
  0
LINE
  5
143
330
E8
100
AcDbEntity
  8
AM_9
100
AcDbLine
 10
0.6372499999999998
 20
-2.55905
 30
0.0
 11
0.6372499999999998
 21
2.55905
 31
0.0
  0
LINE
  5
144
330
E8
100
AcDbEntity
  8
AM_9
100
AcDbLine
 10
0.0606875000000034
 20
2.456688
 30
0.0
 11
0.0015887717452154
 21
2.55905
 31
0.0
  0
LINE
  5
145
330
E8
100
AcDbEntity
  8
AM_9
100
AcDbLine
 10
0.0015887717452154
 20
-2.55905
 30
0.0
 11
0.0606875000000034
 21
-2.456688
 31
0.0
  0
LINE
  5
146
330
E8
100
AcDbEntity
  8
AM_9
100
AcDbLine
 10
0.0606875000000034
 20
-2.456688
 30
0.0
 11
0.0606875000000034
 21
2.456688
 31
0.0
  0
LINE
  5
147
330
E8
100
AcDbEntity
  8
AM_9
100
AcDbLine
 10
0.0015887717452154
 20
-2.55905
 30
0.0
 11
0.0015887717452154
 21
2.55905
 31
0.0
  0
LINE
  5
14A
330
E8
100
AcDbEntity
  8
AM_7
100
AcDbLine
 10
-1.808
 20
-0.088974358974359
 30
0.0
 11
-1.808
 21
2.384059916666667
 31
0.0
  0
LWPOLYLINE
  5
14B
330
E8
100
AcDbEntity
  8
AM_4
100
AcDbPolyline
 90
        8
 70
     0
 43
0.0
 10
-1.668553893534445
 20
0.8358927984059681
 10
-1.688161728084135
 20
0.8449057950951289
 10
-1.730668119637438
 20
0.8588573281658097
 10
-1.775424617406099
 20
0.8666407466762277
 10
-1.820512188115559
 20
0.8680146782944637
 10
-1.865242562971944
 20
0.8631827122649722
 10
-1.908003757703713
 20
0.8522813572297425
 10
-1.947515941020271
 20
0.8358573896689245
  0
ENDBLK
  5
EB
330
E8
100
AcDbEntity
  8
0
100
AcDbBlockEnd
  0
BLOCK
  5
14E
330
14C
100
AcDbEntity
  8
0
100
AcDbBlockBegin
  2
4_405015E_Inch_0_in_071436_2
 70
     2
 10
0.0
 20
0.0
 30
0.0
  3
4_405015E_Inch_0_in_071436_2
  1

  0
ATTDEF
  5
150
330
14C
100
AcDbEntity
  8
AM_6
100
AcDbText
 10
5.21875
 20
3.238312436893328
 30
0.0
 40
0.5
  1
405015E -Inch
100
AcDbAttributeDefinition
  3

  2
NN
 70
     8
280
     0
  0
ATTDEF
  5
151
330
14C
100
AcDbEntity
  8
AM_6
100
AcDbText
 10
5.21875
 20
2.738312436893328
 30
0.0
 40
0.5
  1
Grease Fitting
100
AcDbAttributeDefinition
  3

  2
NT
 70
     8
280
     0
  0
ATTDEF
  5
152
330
14C
100
AcDbEntity
  8
AM_6
100
AcDbText
 10
5.21875
 20
2.238312436893328
 30
0.0
 40
0.5
  1
405015E-Inch
100
AcDbAttributeDefinition
  3

  2
NB
 70
     8
280
     0
  0
ATTDEF
  5
153
330
14C
100
AcDbEntity
  8
AM_6
100
AcDbText
 10
5.21875
 20
1.738312436893328
 30
0.0
 40
0.5
  1
$MN.-Inch
100
AcDbAttributeDefinition
  3

  2
NBSYN
 70
     8
280
     0
  0
ATTDEF
  5
154
330
14C
100
AcDbEntity
  8
AM_6
100
AcDbText
 10
5.21875
 20
1.238312436893328
 30
0.0
 40
0.5
  1
405015E
100
AcDbAttributeDefinition
  3

  2
LINA
 70
     8
280
     0
  0
ATTDEF
  5
155
330
14C
100
AcDbEntity
  8
AM_6
100
AcDbText
 10
5.21875
 20
0.7383124368933283
 30
0.0
 40
0.5
  1
405015E
100
AcDbAttributeDefinition
  3

  2
MN
 70
     8
280
     0
  0
ATTDEF
  5
156
330
14C
100
AcDbEntity
  8
AM_6
100
AcDbText
 10
5.21875
 20
0.2383124368933283
 30
0.0
 40
0.5
  1
1/8 x 27PTF
100
AcDbAttributeDefinition
  3

  2
T
 70
     8
280
     0
  0
ATTDEF
  5
157
330
14C
100
AcDbEntity
  8
AM_6
100
AcDbText
 10
5.21875
 20
-0.2616875631066717
 30
0.0
 40
0.5
  1
baldor
100
AcDbAttributeDefinition
  3

  2
COMPANY
 70
     8
280
     0
  0
ELLIPSE
  5
158
330
14C
100
AcDbEntity
  8
AM_9
100
AcDbEllipse
 10
0.0000000000000001
 20
2.862213959507568
 30
0.0
 11
0.2187499999999996
 21
3.259629011154169E-9
 31
0.0
210
0.0
220
0.0
230
1.0
 40
0.500000000000009
 41
1.04719753815808
 42
2.094395089354681
  0
LWPOLYLINE
  5
159
330
14C
100
AcDbEntity
  8
AM_9
100
AcDbPolyline
 90
        4
 70
     0
 43
0.0
 10
0.0000000000000001
 20
2.996362102581416
 10
0.0408050906197751
 20
2.9799527538964
 10
0.0818700010907651
 20
2.965407723451963
 10
0.1093750000000001
 20
2.956935488046492
  0
LWPOLYLINE
  5
15A
330
14C
100
AcDbEntity
  8
AM_9
100
AcDbPolyline
 90
        4
 70
     0
 43
0.0
 10
-0.1093749999999999
 20
2.956935488046492
 10
-0.0820312499999999
 20
2.965354984716147
 10
-0.0546545855167827
 20
2.97480708636674
 10
0.0000000000000001
 20
2.996362102581416
  0
LWPOLYLINE
  5
15B
330
14C
100
AcDbEntity
  8
AM_9
100
AcDbPolyline
 90
        4
 70
     0
 43
0.0
 10
0.0982286618842514
 20
3.046667911554404
 10
0.08203125
 20
3.050905453178435
 10
0.0546545855167829
 20
3.057259276136742
 10
0.0000000000000001
 20
3.067259099582628
  0
LINE
  5
15C
330
14C
100
AcDbEntity
  8
AM_9
100
AcDbLine
 10
0.1059651768586834
 20
3.044514137677111
 30
0.0
 11
0.0982286618842514
 21
3.046667911554404
 31
0.0
  0
LINE
  5
15D
330
14C
100
AcDbEntity
  8
AM_9
100
AcDbLine
 10
-0.0982294883748473
 20
3.046667685974128
 30
0.0
 11
-0.1059654017505044
 21
3.044514073840847
 31
0.0
  0
LWPOLYLINE
  5
15E
330
14C
100
AcDbEntity
  8
AM_9
100
AcDbPolyline
 90
        4
 70
     0
 43
0.0
 10
0.0000000000000001
 20
3.067259099582628
 10
-0.0544692324180688
 20
3.057298979124459
 10
-0.081870001090765
 20
3.050945811543773
 10
-0.0982294883748473
 20
3.046667685974128
  0
LWPOLYLINE
  5
15F
330
14C
100
AcDbEntity
  8
AM_9
100
AcDbPolyline
 90
        4
 70
     0
 43
0.0
 10
-0.2187499999999999
 20
2.933214416888801
 10
-0.1642807675819309
 20
2.94317453734697
 10
-0.1368799989092348
 20
2.949527704927656
 10
-0.1093749999999999
 20
2.956935488046492
  0
LINE
  5
160
330
14C
100
AcDbEntity
  8
AM_9
100
AcDbLine
 10
0.0000000000000001
 20
3.067259099582628
 30
0.0
 11
0.0000000000000001
 21
2.996362102581416
 31
0.0
  0
LWPOLYLINE
  5
161
330
14C
100
AcDbEntity
  8
AM_9
100
AcDbPolyline
 90
        4
 70
     0
 43
0.0
 10
0.1093750000000001
 20
2.956935488046492
 10
0.13671875
 20
2.949568063292993
 10
0.1640625000000001
 20
2.943221295184108
 10
0.2187500000000001
 20
2.933214416888801
  0
ELLIPSE
  5
162
330
14C
100
AcDbEntity
  8
AM_9
100
AcDbEllipse
 10
0.0000000000000006
 20
2.86221395950757
 30
0.0
 11
0.2187500000000006
 21
0.0
 31
0.0
210
0.0
220
0.0
230
1.0
 40
0.4999999999999944
 41
2.094395102393199
 42
3.141592653589793
  0
ELLIPSE
  5
163
330
14C
100
AcDbEntity
  8
AM_9
100
AcDbEllipse
 10
0.0000000000000009
 20
2.632717227504693
 30
0.0
 11
0.1619028724722676
 21
0.0
 31
0.0
210
0.0
220
0.0
230
1.0
 40
0.5000000000000044
 41
4.71238898038469
 42
5.667705598509202
  0
LINE
  5
164
330
14C
100
AcDbEntity
  8
AM_9
100
AcDbLine
 10
0.1321931418159854
 20
2.585979894002474
 30
0.0
 11
0.1621706131788417
 21
2.607177167285975
 31
0.0
  0
LINE
  5
165
330
14C
100
AcDbEntity
  8
AM_9
100
AcDbLine
 10
-0.1621706131788415
 20
2.607177167285975
 30
0.0
 11
-0.1321931418159852
 21
2.585979894002474
 31
0.0
  0
ELLIPSE
  5
166
330
14C
100
AcDbEntity
  8
AM_9
100
AcDbEllipse
 10
-0.0000000000000002
 20
2.66451313742995
 30
0.0
 11
0.1986176267812157
 21
0.0
 31
0.0
210
0.0
220
0.0
230
1.0
 40
0.5000000000000093
 41
4.71238898038469
 42
9.44282203747387
  0
ELLIPSE
  5
167
330
14C
100
AcDbEntity
  8
AM_9
100
AcDbEllipse
 10
-0.000000000000001
 20
2.664513137429946
 30
0.0
 11
0.1986176267812136
 21
2.959633272606338E-9
 31
0.0
210
0.0
220
0.0
230
1.0
 40
0.5000000000000079
 41
3.159636700499206
 42
4.71238898038469
  0
ELLIPSE
  5
168
330
14C
100
AcDbEntity
  8
AM_9
100
AcDbEllipse
 10
0.0000000000000001
 20
2.632717227504693
 30
0.0
 11
0.1619028724722688
 21
0.0
 31
0.0
210
0.0
220
0.0
230
1.0
 40
0.5000000000000011
 41
5.667705598509194
 42
10.04025766943977
  0
ELLIPSE
  5
169
330
14C
100
AcDbEntity
  8
AM_9
100
AcDbEllipse
 10
-0.0000000000000004
 20
2.632717227504693
 30
0.0
 11
0.1619028724722679
 21
0.0
 31
0.0
210
0.0
220
0.0
230
1.0
 40
0.5000000000000066
 41
3.757072362260178
 42
4.71238898038469
  0
ELLIPSE
  5
16A
330
14C
100
AcDbEntity
  8
AM_9
100
AcDbEllipse
 10
0.0000000000000002
 20
2.862213959507569
 30
0.0
 11
0.2187500000000002
 21
0.0
 31
0.0
210
0.0
220
0.0
230
1.0
 40
0.4999999999999974
 41
3.141592653589793
 42
4.188790204786391
  0
ELLIPSE
  5
16B
330
14C
100
AcDbEntity
  8
AM_9
100
AcDbEllipse
 10
0.0000000000000008
 20
2.862213959507569
 30
0.0
 11
0.2057518972230687
 21
0.0
 31
0.0
210
0.0
220
0.0
230
1.0
 40
0.4999999999999995
 41
4.71238898038469
 42
6.265141230475132
  0
LINE
  5
16C
330
14C
100
AcDbEntity
  8
AM_9
100
AcDbLine
 10
0.1985852938306409
 20
2.662721298821125
 30
0.0
 11
0.2057184028850728
 21
2.86035775872994
 31
0.0
  0
LINE
  5
16D
330
14C
100
AcDbEntity
  8
AM_9
100
AcDbLine
 10
-0.2057184028850726
 20
2.86035775872994
 30
0.0
 11
-0.1985852938306407
 21
2.662721298821125
 31
0.0
  0
ELLIPSE
  5
16E
330
14C
100
AcDbEntity
  8
AM_9
100
AcDbEllipse
 10
0.0000000000000001
 20
2.86221395950757
 30
0.0
 11
0.2057518972230695
 21
0.0
 31
0.0
210
0.0
220
0.0
230
1.0
 40
0.5000000000000214
 41
6.265141230475137
 42
9.442822037473833
  0
ELLIPSE
  5
16F
330
14C
100
AcDbEntity
  8
AM_9
100
AcDbEllipse
 10
-0.0000000000000006
 20
2.86221395950757
 30
0.0
 11
0.2057518972230687
 21
3.065942186460924E-9
 31
0.0
210
0.0
220
0.0
230
1.0
 40
0.4999999999999994
 41
3.159636700499192
 42
4.71238898038469
  0
ELLIPSE
  5
170
330
14C
100
AcDbEntity
  8
AM_9
100
AcDbEllipse
 10
0.0000000000000001
 20
2.862213959507571
 30
0.0
 11
0.2187499999999998
 21
0.0
 31
0.0
210
0.0
220
0.0
230
1.0
 40
0.5000000000000105
 41
4.18879020478639
 42
7.330382858376166
  0
LINE
  5
171
330
14C
100
AcDbEntity
  8
AM_9
100
AcDbLine
 10
-0.1017810272422099
 20
3.052649333671856
 30
0.0
 11
-0.1049999999999999
 21
3.046346939032329
 31
0.0
  0
LINE
  5
172
330
14C
100
AcDbEntity
  8
AM_9
100
AcDbLine
 10
0.1050000000000001
 20
3.046346939032329
 30
0.0
 11
0.1017810272422101
 21
3.052649333671856
 31
0.0
  0
ELLIPSE
  5
173
330
14C
100
AcDbEntity
  8
AM_9
100
AcDbEllipse
 10
0.0000000000000001
 20
3.03974916728338
 30
0.0
 11
0.105
 21
0.0
 31
0.0
210
0.0
220
0.0
230
1.0
 40
0.4999999999999936
 41
0.250032893098795
 42
3.141592653589793
  0
ELLIPSE
  5
174
330
14C
100
AcDbEntity
  8
AM_9
100
AcDbEllipse
 10
-0.0000000000000011
 20
3.011822551412311
 30
0.0
 11
0.1188200907348988
 21
0.0
 31
0.0
210
0.0
220
0.0
230
1.0
 40
0.5000000000000198
 41
0.2500328930988722
 42
2.535447513394651
  0
LINE
  5
175
330
14C
100
AcDbEntity
  8
AM_9
100
AcDbLine
 10
0.1050000000000001
 20
3.057987396095839
 30
0.0
 11
0.1050000000000001
 21
3.065729929396912
 31
0.0
  0
LINE
  5
176
330
14C
100
AcDbEntity
  8
AM_9
100
AcDbLine
 10
-0.1049999999999999
 20
3.065729929396912
 30
0.0
 11
-0.1049999999999999
 21
3.057987396095839
 31
0.0
  0
ELLIPSE
  5
177
330
14C
100
AcDbEntity
  8
AM_9
100
AcDbEllipse
 10
0.0000000000000001
 20
3.065729929396912
 30
0.0
 11
0.1049999999999999
 21
1.564621925354003E-9
 31
0.0
210
0.0
220
0.0
230
1.0
 40
0.5000000000000024
 41
0.0000017195196831
 42
3.434435397378693
  0
ELLIPSE
  5
178
330
14C
100
AcDbEntity
  8
AM_9
100
AcDbEllipse
 10
-0.0000000000000034
 20
3.039749167283365
 30
0.0
 11
0.1050000000000035
 21
1.564621925354056E-9
 31
0.0
210
0.0
220
0.0
230
1.0
 40
0.5000000000000067
 41
0.0000017195196831
 42
0.2500328646651954
  0
LINE
  5
179
330
14C
100
AcDbEntity
  8
AM_9
100
AcDbLine
 10
-0.0976523208201057
 20
3.045668667144762
 30
0.0
 11
-0.1098343496897824
 21
3.036881814017912
 31
0.0
  0
LINE
  5
17A
330
14C
100
AcDbEntity
  8
AM_9
100
AcDbLine
 10
0.1098343496897826
 20
3.036881814017911
 30
0.0
 11
0.0976523208201059
 21
3.045668667144762
 31
0.0
  0
ELLIPSE
  5
17B
330
14C
100
AcDbEntity
  8
AM_9
100
AcDbEllipse
 10
0.0000000000000017
 20
3.011822551412311
 30
0.0
 11
0.1188200907348993
 21
0.0
 31
0.0
210
0.0
220
0.0
230
1.0
 40
0.5000000000000215
 41
2.535447513394664
 42
2.891559760490923
  0
ELLIPSE
  5
17C
330
14C
100
AcDbEntity
  8
AM_9
100
AcDbEllipse
 10
0.0000000000000001
 20
2.964680525173983
 30
0.0
 11
0.1725340532830155
 21
0.0
 31
0.0
210
0.0
220
0.0
230
1.0
 40
0.5000000000000067
 41
0.6061451401950873
 42
2.535447513394707
  0
ELLIPSE
  5
17D
330
14C
100
AcDbEntity
  8
AM_9
100
AcDbEllipse
 10
0.0000000000000001
 20
2.948816499886012
 30
0.0
 11
0.2187499999999992
 21
0.0
 31
0.0
210
0.0
220
0.0
230
1.0
 40
0.500000000000008
 41
1.06524463825123
 42
2.076348015338563
  0
ELLIPSE
  5
17E
330
14C
100
AcDbEntity
  8
AM_9
100
AcDbEllipse
 10
-0.0000000000026543
 20
2.948816499889898
 30
0.0
 11
0.2137499999946502
 21
0.0
 31
0.0
210
0.0
220
0.0
230
1.0
 40
0.4999999999936539
 41
-4.198889882951844
 42
-4.184564777755199
  0
ELLIPSE
  5
17F
330
14C
100
AcDbEntity
  8
AM_9
100
AcDbEllipse
 10
0.0000000000004721
 20
2.94881649988248
 30
0.0
 11
0.2137500000009948
 21
0.0
 31
0.0
210
0.0
220
0.0
230
1.0
 40
0.5000000000126528
 41
-4.21735630659896
 42
-4.198889882956938
  0
ELLIPSE
  5
180
330
14C
100
AcDbEntity
  8
AM_9
100
AcDbEllipse
 10
0.0000000000025225
 20
2.948816499889785
 30
0.0
 11
0.2137499999949138
 21
3.185123205109147E-9
 31
0.0
210
0.0
220
0.0
230
1.0
 40
0.4999999999936481
 41
1.042972111044906
 42
2.06582898811067
  0
ELLIPSE
  5
181
330
14C
100
AcDbEntity
  8
AM_9
100
AcDbEllipse
 10
-0.0000000000000034
 20
3.065729929396902
 30
0.0
 11
0.1050000000000035
 21
0.0
 31
0.0
210
0.0
220
0.0
230
1.0
 40
0.4999999999999896
 41
5.990342535451206
 42
6.283185307179586
  0
ELLIPSE
  5
182
330
14C
100
AcDbEntity
  8
AM_9
100
AcDbEllipse
 10
0.0000000000000001
 20
3.117691453623979
 30
0.0
 11
0.135
 21
0.0
 31
0.0
210
0.0
220
0.0
230
1.0
 40
0.4999999999999959
 41
0.2354336045415613
 42
2.906159049048232
  0
LINE
  5
183
330
14C
100
AcDbEntity
  8
AM_4
100
AcDbLine
 10
0.109375
 20
3.043538028424936
 30
0.0
 11
0.1059651768586834
 21
3.044514137677111
 31
0.0
  0
LINE
  5
184
330
14C
100
AcDbEntity
  8
AM_4
100
AcDbLine
 10
-0.1059654017505044
 20
3.044514073840847
 30
0.0
 11
-0.1093749999999999
 21
3.043538028424936
 31
0.0
  0
LWPOLYLINE
  5
185
330
14C
100
AcDbEntity
  8
AM_4
100
AcDbPolyline
 90
        4
 70
     0
 43
0.0
 10
0.2187500000000001
 20
3.004111413890012
 10
0.1642807675819311
 20
3.025599119430968
 10
0.1368799989092349
 20
3.035065793019466
 10
0.109375
 20
3.043538028424936
  0
LWPOLYLINE
  5
186
330
14C
100
AcDbEntity
  8
AM_4
100
AcDbPolyline
 90
        4
 70
     0
 43
0.0
 10
-0.1093749999999999
 20
3.043538028424936
 10
-0.1367187499999999
 20
3.035118531755282
 10
-0.164095414483217
 20
3.025666430104688
 10
-0.2187499999999999
 20
3.004111413890012
  0
LINE
  5
187
330
14C
100
AcDbEntity
  8
AM_4
100
AcDbLine
 10
-0.1049999999999999
 20
3.046346939032329
 30
0.0
 11
-0.1151252948555657
 21
3.026522725277515
 31
0.0
  0
LINE
  5
188
330
14C
100
AcDbEntity
  8
AM_4
100
AcDbLine
 10
0.1151252948555659
 20
3.026522725277515
 30
0.0
 11
0.1050000000000001
 21
3.046346939032329
 31
0.0
  0
ELLIPSE
  5
189
330
14C
100
AcDbEntity
  8
AM_4
100
AcDbEllipse
 10
0.0
 20
3.011822551412316
 30
0.0
 11
0.1188200907348974
 21
0.0
 31
0.0
210
0.0
220
0.0
230
1.0
 40
0.4999999999999994
 41
2.891559760490989
 42
4.71238898038469
  0
ELLIPSE
  5
18A
330
14C
100
AcDbEntity
  8
AM_4
100
AcDbEllipse
 10
0.0000000000000005
 20
3.039749167283379
 30
0.0
 11
0.1049999999999995
 21
0.0
 31
0.0
210
0.0
220
0.0
230
1.0
 40
0.5000000000000044
 41
4.71238898038469
 42
6.283185307179586
  0
LINE
  5
18B
330
14C
100
AcDbEntity
  8
AM_4
100
AcDbLine
 10
0.1050000000000001
 20
3.039749167283379
 30
0.0
 11
0.1050000000000001
 21
3.057987396095839
 31
0.0
  0
LINE
  5
18C
330
14C
100
AcDbEntity
  8
AM_4
100
AcDbLine
 10
-0.1049999999999999
 20
3.057987396095839
 30
0.0
 11
-0.1049999999999999
 21
3.039749167283379
 31
0.0
  0
ELLIPSE
  5
18D
330
14C
100
AcDbEntity
  8
AM_4
100
AcDbEllipse
 10
-0.0000000000000003
 20
3.03974916728338
 30
0.0
 11
0.1049999999999996
 21
0.0
 31
0.0
210
0.0
220
0.0
230
1.0
 40
0.5000000000000038
 41
3.141592653589793
 42
4.71238898038469
  0
ELLIPSE
  5
18E
330
14C
100
AcDbEntity
  8
AM_4
100
AcDbEllipse
 10
0.0000000000000002
 20
3.011822551412316
 30
0.0
 11
0.1188200907348974
 21
0.0
 31
0.0
210
0.0
220
0.0
230
1.0
 40
0.4999999999999994
 41
4.71238898038469
 42
6.533218200278391
  0
LINE
  5
18F
330
14C
100
AcDbEntity
  8
AM_4
100
AcDbLine
 10
-0.1098343496897824
 20
3.036881814017912
 30
0.0
 11
-0.1417971541629017
 21
3.013827159376055
 31
0.0
  0
LINE
  5
190
330
14C
100
AcDbEntity
  8
AM_4
100
AcDbLine
 10
0.1417971541629019
 20
3.013827159376055
 30
0.0
 11
0.1098343496897826
 21
3.036881814017911
 31
0.0
  0
ELLIPSE
  5
191
330
14C
100
AcDbEntity
  8
AM_4
100
AcDbEllipse
 10
0.0000000000000001
 20
2.964680525173984
 30
0.0
 11
0.1725340532830155
 21
0.0
 31
0.0
210
0.0
220
0.0
230
1.0
 40
0.4999999999999988
 41
2.535447513394702
 42
6.889330447374678
  0
ELLIPSE
  5
192
330
14C
100
AcDbEntity
  8
AM_4
100
AcDbEllipse
 10
0.000000000000001
 20
2.948816499886013
 30
0.0
 11
0.2187500000000009
 21
3.259629011154188E-9
 31
0.0
210
0.0
220
0.0
230
1.0
 40
0.4999999999999979
 41
2.094395089354682
 42
4.188790191747874
  0
ELLIPSE
  5
193
330
14C
100
AcDbEntity
  8
AM_4
100
AcDbEllipse
 10
0.000000000000001
 20
2.948816499886013
 30
0.0
 11
0.2187499999999991
 21
0.0
 31
0.0
210
0.0
220
0.0
230
1.0
 40
0.5000000000000021
 41
4.188790204786386
 42
7.348429945430818
  0
ELLIPSE
  5
194
330
14C
100
AcDbEntity
  8
AM_4
100
AcDbEllipse
 10
0.0000000000004196
 20
2.948816499882776
 30
0.0
 11
0.2187500000008615
 21
0.0
 31
0.0
210
0.0
220
0.0
230
1.0
 40
0.5000000000113931
 41
-4.206837291844023
 42
-4.188790204789658
  0
ELLIPSE
  5
195
330
14C
100
AcDbEntity
  8
AM_4
100
AcDbEllipse
 10
-0.0000000000000002
 20
2.948816499886013
 30
0.0
 11
0.2137499999999997
 21
0.0
 31
0.0
210
0.0
220
0.0
230
1.0
 40
0.500000000000001
 41
2.098620529422329
 42
7.326157431347049
  0
ELLIPSE
  5
196
330
14C
100
AcDbEntity
  8
AM_4
100
AcDbEllipse
 10
-0.000000000000001
 20
3.065729929396912
 30
0.0
 11
0.1050000000000016
 21
0.0
 31
0.0
210
0.0
220
0.0
230
1.0
 40
0.4999999999999861
 41
4.71238898038469
 42
5.99034253545102
  0
LINE
  5
197
330
14C
100
AcDbEntity
  8
AM_4
100
AcDbLine
 10
0.1005298463144156
 20
3.050574484830685
 30
0.0
 11
0.1292526595471058
 21
3.098205882038829
 31
0.0
  0
LINE
  5
198
330
14C
100
AcDbEntity
  8
AM_4
100
AcDbLine
 10
-0.1292526595471055
 20
3.098205882038829
 30
0.0
 11
-0.1005298463144154
 21
3.050574484830685
 31
0.0
  0
ELLIPSE
  5
199
330
14C
100
AcDbEntity
  8
AM_4
100
AcDbEllipse
 10
0.0
 20
3.117691453623976
 30
0.0
 11
0.1350000000000001
 21
0.0
 31
0.0
210
0.0
220
0.0
230
1.0
 40
0.4999999999999987
 41
4.71238898038469
 42
6.518618911721184
  0
ELLIPSE
  5
19A
330
14C
100
AcDbEntity
  8
AM_4
100
AcDbEllipse
 10
0.0000000000000007
 20
3.11769145362398
 30
0.0
 11
0.135000000000001
 21
0.0
 31
0.0
210
0.0
220
0.0
230
1.0
 40
0.5000000000000056
 41
3.434435425318382
 42
4.71238898038469
  0
ELLIPSE
  5
19B
330
14C
100
AcDbEntity
  8
AM_4
100
AcDbEllipse
 10
0.0000000000000012
 20
3.065729929396912
 30
0.0
 11
0.1050000000000016
 21
0.0
 31
0.0
210
0.0
220
0.0
230
1.0
 40
0.4999999999999861
 41
3.434435425318359
 42
4.71238898038469
  0
LINE
  5
19C
330
14C
100
AcDbEntity
  8
AM_4
100
AcDbLine
 10
0.2187500000000001
 20
3.004111413890012
 30
0.0
 11
0.2187500000000001
 21
2.80691904550357
 31
0.0
  0
LWPOLYLINE
  5
19D
330
14C
100
AcDbEntity
  8
AM_4
100
AcDbPolyline
 90
        4
 70
     0
 43
0.0
 10
0.109375
 20
2.85409497134709
 10
0.1367187500000001
 20
2.861462396100589
 10
0.1640954144832172
 20
2.867816219058895
 10
0.2187500000000001
 20
2.877816042504782
  0
LWPOLYLINE
  5
19E
330
14C
100
AcDbEntity
  8
AM_4
100
AcDbPolyline
 90
        4
 70
     0
 43
0.0
 10
0.0000000000000001
 20
2.814668356812166
 10
0.054469232418069
 20
2.836156062353122
 10
0.0818700010907652
 20
2.84562273594162
 10
0.109375
 20
2.85409497134709
  0
LWPOLYLINE
  5
19F
330
14C
100
AcDbEntity
  8
AM_4
100
AcDbPolyline
 90
        4
 70
     0
 43
0.0
 10
0.1093750000000001
 20
2.767492430968646
 10
0.0820312500000001
 20
2.760125006215147
 10
0.0546545855167829
 20
2.75377118325684
 10
0.0000000000000001
 20
2.743771359810955
  0
LWPOLYLINE
  5
1A0
330
14C
100
AcDbEntity
  8
AM_4
100
AcDbPolyline
 90
        4
 70
     0
 43
0.0
 10
0.2187500000000001
 20
2.80691904550357
 10
0.1642807675819312
 20
2.785431339962614
 10
0.136879998909235
 20
2.775964666374116
 10
0.1093750000000001
 20
2.767492430968646
  0
LINE
  5
1A1
330
14C
100
AcDbEntity
  8
AM_4
100
AcDbLine
 10
0.0000000000000001
 20
2.814668356812166
 30
0.0
 11
0.0000000000000001
 21
2.743771359810955
 31
0.0
  0
LWPOLYLINE
  5
1A2
330
14C
100
AcDbEntity
  8
AM_4
100
AcDbPolyline
 90
        4
 70
     0
 43
0.0
 10
-0.1093749999999999
 20
2.85409497134709
 10
-0.0820312499999999
 20
2.845675474677436
 10
-0.0546545855167827
 20
2.836223373026843
 10
0.0000000000000001
 20
2.814668356812166
  0
LWPOLYLINE
  5
1A3
330
14C
100
AcDbEntity
  8
AM_4
100
AcDbPolyline
 90
        4
 70
     0
 43
0.0
 10
-0.2187499999999999
 20
2.877816042504782
 10
-0.1642807675819309
 20
2.867855922046613
 10
-0.1368799989092347
 20
2.861502754465927
 10
-0.1093749999999999
 20
2.85409497134709
  0
LINE
  5
1A4
330
14C
100
AcDbEntity
  8
AM_4
100
AcDbLine
 10
-0.2187499999999999
 20
3.004111413890012
 30
0.0
 11
-0.2187499999999999
 21
2.80691904550357
 31
0.0
  0
LWPOLYLINE
  5
1A5
330
14C
100
AcDbEntity
  8
AM_4
100
AcDbPolyline
 90
        4
 70
     0
 43
0.0
 10
-0.1093749999999999
 20
2.767492430968646
 10
-0.1367187499999998
 20
2.775911927638301
 10
-0.1640624999999999
 20
2.78535208095257
 10
-0.2187499999999999
 20
2.80691904550357
  0
LWPOLYLINE
  5
1A6
330
14C
100
AcDbEntity
  8
AM_4
100
AcDbPolyline
 90
        4
 70
     0
 43
0.0
 10
0.0000000000000001
 20
2.743771359810955
 10
-0.0408050906197749
 20
2.750920841179572
 10
-0.0818700010907649
 20
2.760084647849809
 10
-0.1093749999999999
 20
2.767492430968646
  0
ELLIPSE
  5
1A7
330
14C
100
AcDbEntity
  8
AM_4
100
AcDbEllipse
 10
0.0000000000000004
 20
3.186973485926734
 30
0.0
 11
0.1026779019331873
 21
0.0
 31
0.0
210
0.0
220
0.0
230
1.0
 40
0.5000000000000014
 41
4.71238898038469
 42
9.189344356227823
  0
LINE
  5
1A8
330
14C
100
AcDbEntity
  8
AM_4
100
AcDbLine
 10
-0.0998453562378796
 20
3.198949048367933
 30
0.0
 11
-0.1312757938985218
 21
3.133436817515556
 31
0.0
  0
LINE
  5
1A9
330
14C
100
AcDbEntity
  8
AM_4
100
AcDbLine
 10
0.131275793898522
 20
3.133436817515556
 30
0.0
 11
0.0998453562378799
 21
3.198949048367933
 31
0.0
  0
ELLIPSE
  5
1AA
330
14C
100
AcDbEntity
  8
AM_4
100
AcDbEllipse
 10
-0.0000000000000002
 20
3.186973485926734
 30
0.0
 11
0.1026779019331873
 21
1.530019967752506E-9
 31
0.0
210
0.0
220
0.0
230
1.0
 40
0.5000000000000016
 41
2.906159020462125
 42
4.71238898038469
  0
ELLIPSE
  5
1AB
330
14C
100
AcDbEntity
  8
AM_4
100
AcDbEllipse
 10
-0.0000000000000006
 20
3.117691453623976
 30
0.0
 11
0.1349999999999993
 21
0.0
 31
0.0
210
0.0
220
0.0
230
1.0
 40
0.4999999999999986
 41
2.906159049048194
 42
3.434435425318333
  0
ENDBLK
  5
14F
330
14C
100
AcDbEntity
  8
0
100
AcDbBlockEnd
  0
BLOCK
  5
1AE
330
1AC
100
AcDbEntity
  8
0
100
AcDbBlockBegin
  2
5_B071436_0_in_071436_2
 70
     2
 10
0.0
 20
0.0
 30
0.0
  3
5_B071436_0_in_071436_2
  1

  0
ATTDEF
  5
1B0
330
1AC
100
AcDbEntity
  8
AM_6
100
AcDbText
 10
7.256410256410257
 20
3.205000000000003
 30
0.0
 40
0.5
  1
EP4B-S2-(Contact Seal)-Housing
100
AcDbAttributeDefinition
  3

  2
NN
 70
     8
280
     0
  0
ATTDEF
  5
1B1
330
1AC
100
AcDbEntity
  8
AM_6
100
AcDbText
 10
7.256410256410257
 20
2.705000000000003
 30
0.0
 40
0.5
  1
S-2000/E Type Pillow Block Bearing -Inch (4-Bolt Base)
100
AcDbAttributeDefinition
  3

  2
NT
 70
     8
280
     0
  0
ATTDEF
  5
1B2
330
1AC
100
AcDbEntity
  8
AM_6
100
AcDbText
 10
7.256410256410257
 20
2.205000000000003
 30
0.0
 40
0.5
  1
B071436
100
AcDbAttributeDefinition
  3

  2
NB
 70
     8
280
     0
  0
ATTDEF
  5
1B3
330
1AC
100
AcDbEntity
  8
AM_6
100
AcDbText
 10
7.256410256410257
 20
1.705000000000003
 30
0.0
 40
0.5
  1
$PN.
100
AcDbAttributeDefinition
  3

  2
NBSYN
 70
     8
280
     0
  0
ATTDEF
  5
1B4
330
1AC
100
AcDbEntity
  8
AM_6
100
AcDbText
 10
7.256410256410257
 20
1.205000000000003
 30
0.0
 40
0.5
  1
B071436
100
AcDbAttributeDefinition
  3

  2
LINA
 70
     8
280
     0
  0
ATTDEF
  5
1B5
330
1AC
100
AcDbEntity
  8
AM_6
100
AcDbText
 10
7.256410256410257
 20
0.7050000000000027
 30
0.0
 40
0.5
  1
3
100
AcDbAttributeDefinition
  3

  2
SS
 70
     8
280
     0
  0
ATTDEF
  5
1B6
330
1AC
100
AcDbEntity
  8
AM_6
100
AcDbText
 10
7.256410256410257
 20
0.2050000000000027
 30
0.0
 40
0.5
  1
3.000000
100
AcDbAttributeDefinition
  3

  2
SS1
 70
     8
280
     0
  0
ATTDEF
  5
1B7
330
1AC
100
AcDbEntity
  8
AM_6
100
AcDbText
 10
7.256410256410257
 20
-0.2949999999999973
 30
0.0
 40
0.5
  1
Non-Expansion
100
AcDbAttributeDefinition
  3

  2
TYPE
 70
     8
280
     0
  0
ATTDEF
  5
1B8
330
1AC
100
AcDbEntity
  8
AM_6
100
AcDbText
 10
7.256410256410257
 20
-0.7949999999999973
 30
0.0
 40
0.5
  1
071436
100
AcDbAttributeDefinition
  3

  2
PN1
 70
     8
280
     0
  0
ATTDEF
  5
1B9
330
1AC
100
AcDbEntity
  8
AM_6
100
AcDbText
 10
7.256410256410257
 20
-1.294999999999997
 30
0.0
 40
0.5
  1
071444
100
AcDbAttributeDefinition
  3

  2
PN2
 70
     8
280
     0
  0
ATTDEF
  5
1BA
330
1AC
100
AcDbEntity
  8
AM_6
100
AcDbText
 10
7.256410256410257
 20
-1.794999999999997
 30
0.0
 40
0.5
  1
EP4B-S2-300R
100
AcDbAttributeDefinition
  3

  2
DESC1
 70
     8
280
     0
  0
ATTDEF
  5
1BB
330
1AC
100
AcDbEntity
  8
AM_6
100
AcDbText
 10
7.256410256410257
 20
-2.294999999999997
 30
0.0
 40
0.5
  1
Non-Expansion Type
100
AcDbAttributeDefinition
  3

  2
EF
 70
     8
280
     0
  0
ATTDEF
  5
1BC
330
1AC
100
AcDbEntity
  8
AM_6
100
AcDbText
 10
7.256410256410257
 20
-2.794999999999997
 30
0.0
 40
0.5
  1
1
100
AcDbAttributeDefinition
  3

  2
EF1
 70
     8
280
     0
  0
ATTDEF
  5
1BD
330
1AC
100
AcDbEntity
  8
AM_6
100
AcDbText
 10
7.256410256410257
 20
-3.294999999999997
 30
0.0
 40
0.5
  1
3.59
100
AcDbAttributeDefinition
  3

  2
A
 70
     8
280
     0
  0
ATTDEF
  5
1BE
330
1AC
100
AcDbEntity
  8
AM_6
100
AcDbText
 10
7.256410256410257
 20
-3.794999999999997
 30
0.0
 40
0.5
  1
3.5900000
100
AcDbAttributeDefinition
  3

  2
A1
 70
     8
280
     0
  0
ATTDEF
  5
1BF
330
1AC
100
AcDbEntity
  8
AM_6
100
AcDbText
 10
7.256410256410257
 20
-4.294999999999997
 30
0.0
 40
0.5
  1
12
100
AcDbAttributeDefinition
  3

  2
B
 70
     8
280
     0
  0
ATTDEF
  5
1C0
330
1AC
100
AcDbEntity
  8
AM_6
100
AcDbText
 10
7.256410256410257
 20
-4.794999999999997
 30
0.0
 40
0.5
  1
12.0000000
100
AcDbAttributeDefinition
  3

  2
B1
 70
     8
280
     0
  0
ATTDEF
  5
1C1
330
1AC
100
AcDbEntity
  8
AM_6
100
AcDbText
 10
7.256410256410257
 20
-5.294999999999997
 30
0.0
 40
0.5
  1
4
100
AcDbAttributeDefinition
  3

  2
C
 70
     8
280
     0
  0
ATTDEF
  5
1C2
330
1AC
100
AcDbEntity
  8
AM_6
100
AcDbText
 10
7.256410256410257
 20
-5.794999999999997
 30
0.0
 40
0.5
  1
4.0000000
100
AcDbAttributeDefinition
  3

  2
C1
 70
     8
280
     0
  0
ATTDEF
  5
1C3
330
1AC
100
AcDbEntity
  8
AM_6
100
AcDbText
 10
7.256410256410257
 20
-6.294999999999997
 30
0.0
 40
0.5
  1
9.18
100
AcDbAttributeDefinition
  3

  2
DMIN
 70
     8
280
     0
  0
ATTDEF
  5
1C4
330
1AC
100
AcDbEntity
  8
AM_6
100
AcDbText
 10
7.256410256410257
 20
-6.794999999999997
 30
0.0
 40
0.5
  1
9.1800000
100
AcDbAttributeDefinition
  3

  2
DMIN1
 70
     8
280
     0
  0
ATTDEF
  5
1C5
330
1AC
100
AcDbEntity
  8
AM_6
100
AcDbText
 10
7.256410256410257
 20
-7.294999999999997
 30
0.0
 40
0.5
  1
9.82
100
AcDbAttributeDefinition
  3

  2
DMAX
 70
     8
280
     0
  0
ATTDEF
  5
1C6
330
1AC
100
AcDbEntity
  8
AM_6
100
AcDbText
 10
7.256410256410257
 20
-7.794999999999997
 30
0.0
 40
0.5
  1
9.8200000
100
AcDbAttributeDefinition
  3

  2
DMAX1
 70
     8
280
     0
  0
ATTDEF
  5
1C7
330
1AC
100
AcDbEntity
  8
AM_6
100
AcDbText
 10
7.256410256410257
 20
-8.294999999999998
 30
0.0
 40
0.5
  1
2.13
100
AcDbAttributeDefinition
  3

  2
E
 70
     8
280
     0
  0
ATTDEF
  5
1C8
330
1AC
100
AcDbEntity
  8
AM_6
100
AcDbText
 10
7.256410256410257
 20
-8.794999999999998
 30
0.0
 40
0.5
  1
2.130000
100
AcDbAttributeDefinition
  3

  2
E1
 70
     8
280
     0
  0
ATTDEF
  5
1C9
330
1AC
100
AcDbEntity
  8
AM_6
100
AcDbText
 10
7.256410256410257
 20
-9.294999999999998
 30
0.0
 40
0.5
  1
5/8
100
AcDbAttributeDefinition
  3

  2
F
 70
     8
280
     0
  0
ATTDEF
  5
1CA
330
1AC
100
AcDbEntity
  8
AM_6
100
AcDbText
 10
7.256410256410257
 20
-9.794999999999998
 30
0.0
 40
0.5
  1
0.6250000
100
AcDbAttributeDefinition
  3

  2
F1
 70
     8
280
     0
  0
ATTDEF
  5
1CB
330
1AC
100
AcDbEntity
  8
AM_6
100
AcDbText
 10
7.256410256410257
 20
-10.295
 30
0.0
 40
0.5
  1
1
100
AcDbAttributeDefinition
  3

  2
G
 70
     8
280
     0
  0
ATTDEF
  5
1CC
330
1AC
100
AcDbEntity
  8
AM_6
100
AcDbText
 10
7.256410256410257
 20
-10.795
 30
0.0
 40
0.5
  1
1.0000000
100
AcDbAttributeDefinition
  3

  2
G1
 70
     8
280
     0
  0
ATTDEF
  5
1CD
330
1AC
100
AcDbEntity
  8
AM_6
100
AcDbText
 10
7.256410256410257
 20
-11.295
 30
0.0
 40
0.5
  1
1.88
100
AcDbAttributeDefinition
  3

  2
H
 70
     8
280
     0
  0
ATTDEF
  5
1CE
330
1AC
100
AcDbEntity
  8
AM_6
100
AcDbText
 10
7.256410256410257
 20
-11.795
 30
0.0
 40
0.5
  1
1.8800000
100
AcDbAttributeDefinition
  3

  2
H1
 70
     8
280
     0
  0
ATTDEF
  5
1CF
330
1AC
100
AcDbEntity
  8
AM_6
100
AcDbText
 10
7.256410256410257
 20
-12.295
 30
0.0
 40
0.5
  1
6.33
100
AcDbAttributeDefinition
  3

  2
J
 70
     8
280
     0
  0
ATTDEF
  5
1D0
330
1AC
100
AcDbEntity
  8
AM_6
100
AcDbText
 10
7.256410256410257
 20
-12.795
 30
0.0
 40
0.5
  1
6.3300000
100
AcDbAttributeDefinition
  3

  2
JJ
 70
     8
280
     0
  0
ATTDEF
  5
1D1
330
1AC
100
AcDbEntity
  8
AM_6
100
AcDbText
 10
7.256410256410257
 20
-13.295
 30
0.0
 40
0.5
  1
4.61
100
AcDbAttributeDefinition
  3

  2
L
 70
     8
280
     0
  0
ATTDEF
  5
1D2
330
1AC
100
AcDbEntity
  8
AM_6
100
AcDbText
 10
7.256410256410257
 20
-13.795
 30
0.0
 40
0.5
  1
4.6100000
100
AcDbAttributeDefinition
  3

  2
L1
 70
     8
280
     0
  0
ATTDEF
  5
1D3
330
1AC
100
AcDbEntity
  8
AM_6
100
AcDbText
 10
7.256410256410257
 20
-14.295
 30
0.0
 40
0.5
  1
3.125
100
AcDbAttributeDefinition
  3

  2
M
 70
     8
280
     0
  0
ATTDEF
  5
1D4
330
1AC
100
AcDbEntity
  8
AM_6
100
AcDbText
 10
7.256410256410257
 20
-14.795
 30
0.0
 40
0.5
  1
3.125000
100
AcDbAttributeDefinition
  3

  2
M1
 70
     8
280
     0
  0
ATTDEF
  5
1D5
330
1AC
100
AcDbEntity
  8
AM_6
100
AcDbText
 10
7.256410256410257
 20
-15.295
 30
0.0
 40
0.5
  1
1.34
100
AcDbAttributeDefinition
  3

  2
R
 70
     8
280
     0
  0
ATTDEF
  5
1D6
330
1AC
100
AcDbEntity
  8
AM_6
100
AcDbText
 10
7.256410256410257
 20
-15.795
 30
0.0
 40
0.5
  1
1.340000
100
AcDbAttributeDefinition
  3

  2
R1
 70
     8
280
     0
  0
ATTDEF
  5
1D7
330
1AC
100
AcDbEntity
  8
AM_6
100
AcDbText
 10
7.256410256410257
 20
-16.295
 30
0.0
 40
0.5
  1
2.25
100
AcDbAttributeDefinition
  3

  2
S
 70
     8
280
     0
  0
ATTDEF
  5
1D8
330
1AC
100
AcDbEntity
  8
AM_6
100
AcDbText
 10
7.256410256410257
 20
-16.795
 30
0.0
 40
0.5
  1
2.250000
100
AcDbAttributeDefinition
  3

  2
S1
 70
     8
280
     0
  0
ATTDEF
  5
1D9
330
1AC
100
AcDbEntity
  8
AM_6
100
AcDbText
 10
7.256410256410257
 20
-17.295
 30
0.0
 40
0.5
  1
0.25
100
AcDbAttributeDefinition
  3

  2
X
 70
     8
280
     0
  0
ATTDEF
  5
1DA
330
1AC
100
AcDbEntity
  8
AM_6
100
AcDbText
 10
7.256410256410257
 20
-17.795
 30
0.0
 40
0.5
  1
0.250000
100
AcDbAttributeDefinition
  3

  2
X1
 70
     8
280
     0
  0
ATTDEF
  5
1DB
330
1AC
100
AcDbEntity
  8
AM_6
100
AcDbText
 10
7.256410256410257
 20
-18.295
 30
0.0
 40
0.5
  1
0.025
100
AcDbAttributeDefinition
  3

  2
Y
 70
     8
280
     0
  0
ATTDEF
  5
1DC
330
1AC
100
AcDbEntity
  8
AM_6
100
AcDbText
 10
7.256410256410257
 20
-18.795
 30
0.0
 40
0.5
  1
3.47
100
AcDbAttributeDefinition
  3

  2
Z
 70
     8
280
     0
  0
ATTDEF
  5
1DD
330
1AC
100
AcDbEntity
  8
AM_6
100
AcDbText
 10
7.256410256410257
 20
-19.295
 30
0.0
 40
0.5
  1
3.468750
100
AcDbAttributeDefinition
  3

  2
Z1
 70
     8
280
     0
  0
ATTDEF
  5
1DE
330
1AC
100
AcDbEntity
  8
AM_6
100
AcDbText
 10
7.256410256410257
 20
-19.795
 30
0.0
 40
0.5
  1
1/2-13
100
AcDbAttributeDefinition
  3

  2
CS
 70
     8
280
     0
  0
ATTDEF
  5
1DF
330
1AC
100
AcDbEntity
  8
AM_6
100
AcDbText
 10
7.256410256410257
 20
-20.295
 30
0.0
 40
0.5
  1
0.5000
100
AcDbAttributeDefinition
  3

  2
NDM
 70
     8
280
     0
  0
ATTDEF
  5
1E0
330
1AC
100
AcDbEntity
  8
AM_6
100
AcDbText
 10
7.256410256410257
 20
-20.795
 30
0.0
 40
0.5
  1
0.4170
100
AcDbAttributeDefinition
  3

  2
KDM
 70
     8
280
     0
  0
ATTDEF
  5
1E1
330
1AC
100
AcDbEntity
  8
AM_6
100
AcDbText
 10
7.256410256410257
 20
-21.295
 30
0.0
 40
0.5
  1
5.1181
100
AcDbAttributeDefinition
  3

  2
BORE
 70
     8
280
     0
  0
ATTDEF
  5
1E2
330
1AC
100
AcDbEntity
  8
AM_6
100
AcDbText
 10
7.256410256410257
 20
-21.795
 30
0.0
 40
0.5
  1
1
100
AcDbAttributeDefinition
  3

  2
ST1
 70
     8
280
     0
  0
ATTDEF
  5
1E3
330
1AC
100
AcDbEntity
  8
AM_6
100
AcDbText
 10
7.256410256410257
 20
-22.295
 30
0.0
 40
0.5
  1
baldor
100
AcDbAttributeDefinition
  3

  2
COMPANY
 70
     8
280
     0
  0
LWPOLYLINE
  5
1E4
330
1AC
100
AcDbEntity
  8
AM_9
100
AcDbPolyline
 90
       12
 70
     0
 43
0.0
 10
1.623333333333318
 20
-1.611778541957368
 10
1.619103359248531
 20
-1.568545302126511
 10
1.606551892231085
 20
-1.524962510254411
 10
1.585886615136357
 20
-1.48190724717598
 10
1.557156355124329
 20
-1.440011687338225
 10
1.520229996078731
 20
-1.399823617703164
 10
1.475369286830681
 20
-1.362652047353462
 10
1.423210230477859
 20
-1.330003709779658
 10
1.363593883773642
 20
-1.30281128340385
 10
1.308472375493388
 20
-1.285547859440977
 10
1.249749196868053
 20
-1.274327958615294
 10
1.183333333333322
 20
-1.270013463891171
  0
LWPOLYLINE
  5
1E5
330
1AC
100
AcDbEntity
  8
AM_9
100
AcDbPolyline
 90
       13
 70
     0
 43
0.0
 10
-1.183333333333327
 20
-1.270013463891171
 10
-1.24491016741464
 20
-1.273763351890039
 10
-1.304515675996345
 20
-1.284536508703554
 10
-1.360121836665423
 20
-1.301534493539572
 10
-1.41111758918794
 20
-1.323677924163666
 10
-1.452582910518098
 20
-1.347215707191604
 10
-1.489720695330109
 20
-1.373483112374563
 10
-1.522240436991807
 20
-1.401726240229171
 10
-1.556383053155137
 20
-1.439027855504766
 10
-1.583616315150448
 20
-1.478076455400625
 10
-1.603787840820834
 20
-1.517984767561501
 10
-1.618401017054355
 20
-1.564979877518013
 10
-1.623333333333326
 20
-1.611778541957369
  0
LINE
  5
1E6
330
1AC
100
AcDbEntity
  8
AM_9
100
AcDbLine
 10
1.183333333333322
 20
-1.270013463891171
 30
0.0
 11
-1.183333333333327
 21
-1.270013463891171
 31
0.0
  0
LWPOLYLINE
  5
1E7
330
1AC
100
AcDbEntity
  8
AM_9
100
AcDbPolyline
 90
       16
 70
     0
 43
0.0
 10
-0.0338573125240101
 20
2.991209997663942
 10
-0.0531733997643466
 20
2.99058644141502
 10
-0.1082152049524246
 20
2.98730283777475
 10
-0.161576739934377
 20
2.981770336749433
 10
-0.2130883339211993
 20
2.973977632190027
 10
-0.2618074918807444
 20
2.963975144677771
 10
-0.3076090401497702
 20
2.951608223025405
 10
-0.3497153630345292
 20
2.936956750414419
 10
-0.387359676179329
 20
2.920150602698146
 10
-0.420408177424402
 20
2.900988302798752
 10
-0.4482525150465858
 20
2.879685796837544
 10
-0.4703597302620242
 20
2.856519241242426
 10
-0.4863731360751202
 20
2.83166887963842
 10
-0.496313543136198
 20
2.805241274304289
 10
-0.499982615647616
 20
2.777693779672061
 10
-0.4999999998908886
 20
2.775616641924568
  0
LWPOLYLINE
  5
1E8
330
1AC
100
AcDbEntity
  8
AM_9
100
AcDbPolyline
 90
        3
 70
     0
 43
0.0
 10
0.0378094581361742
 20
2.991106751458477
 10
0.0027187559760604
 20
2.99161492807335
 10
-0.0338573125240101
 20
2.991209997663942
  0
LWPOLYLINE
  5
1E9
330
1AC
100
AcDbEntity
  8
AM_9
100
AcDbPolyline
 90
       15
 70
     0
 43
0.0
 10
0.4999999999760626
 20
2.775608972841292
 10
0.4969676757754633
 20
2.802694443292208
 10
0.4877764629771297
 20
2.828828589980713
 10
0.4725666364216405
 20
2.853612431018393
 10
0.4516306386476148
 20
2.87665831197728
 10
0.4249764062278013
 20
2.897898893104756
 10
0.3930064162432764
 20
2.917194812923295
 10
0.3563092774824455
 20
2.934325398582568
 10
0.3146969379836843
 20
2.9493910795016
 10
0.2689766802078379
 20
2.962230806100011
 10
0.2199940067006085
 20
2.972739760674342
 10
0.1681135449407326
 20
2.980922989416973
 10
0.1139037726078591
 20
2.986816257397019
 10
0.0583994768769829
 20
2.9903823695214
 10
0.0378094581361742
 20
2.991106751458477
  0
ELLIPSE
  5
1EA
330
1AC
100
AcDbEntity
  8
AM_9
100
AcDbEllipse
 10
0.0000000000000001
 20
2.862213959507572
 30
0.0
 11
-0.4499999999999976
 21
5.510910596163061E-17
 31
0.0
210
0.0
220
0.0
230
1.0
 40
0.4999999999999969
 41
4.447327559919907
 42
4.977450400849472
  0
LWPOLYLINE
  5
1EB
330
1AC
100
AcDbEntity
  8
AM_9
100
AcDbPolyline
 90
        9
 70
     0
 43
0.0
 10
0.1218711105141116
 20
3.08596804212829
 10
0.1209156899326007
 20
3.086094141697479
 10
0.0827204806350507
 20
3.090284675208097
 10
0.0440577973714959
 20
3.092888944194569
 10
0.0051484728115149
 20
3.093898737991972
 10
-0.0337851539109222
 20
3.093311201661973
 10
-0.0725183829565673
 20
3.091129176677032
 10
-0.1108264967740246
 20
3.08736149273719
 10
-0.1218545145125444
 20
3.0859702415609
  0
ELLIPSE
  5
1EC
330
1AC
100
AcDbEntity
  8
AM_9
100
AcDbEllipse
 10
0.0000000000000002
 20
2.818912689318348
 30
0.0
 11
-0.4999999999999993
 21
6.123233995736757E-17
 31
0.0
210
0.0
220
0.0
230
1.0
 40
0.5000000000000558
 41
3.143867990547673
 42
6.280366512383395
  0
LINE
  5
1ED
330
1AC
100
AcDbEntity
  8
AM_9
100
AcDbLine
 10
-1.6
 20
-2.55905
 30
0.0
 11
1.6
 21
-2.55905
 31
0.0
  0
LINE
  5
1EE
330
1AC
100
AcDbEntity
  8
AM_9
100
AcDbLine
 10
1.6
 20
2.55905
 30
0.0
 11
-1.6
 21
2.55905
 31
0.0
  0
LINE
  5
1EF
330
1AC
100
AcDbEntity
  8
AM_9
100
AcDbLine
 10
-1.405
 20
-3.095792273256464
 30
0.0
 11
1.405
 21
-3.095792273256464
 31
0.0
  0
LINE
  5
1F0
330
1AC
100
AcDbEntity
  8
AM_9
100
AcDbLine
 10
0.0961401617788647
 20
3.205000000000003
 30
0.0
 11
-0.0961401617788644
 21
3.205000000000003
 31
0.0
  0
LINE
  5
1F1
330
1AC
100
AcDbEntity
  8
AM_9
100
AcDbLine
 10
1.790476190476191
 20
-0.4382500243996704
 30
0.0
 11
1.790476190476191
 21
-3.125
 31
0.0
  0
LINE
  5
1F2
330
1AC
100
AcDbEntity
  8
AM_9
100
AcDbLine
 10
1.6
 20
0.3791258374041113
 30
0.0
 11
1.6
 21
-2.498333333333331
 31
0.0
  0
LINE
  5
1F3
330
1AC
100
AcDbEntity
  8
AM_9
100
AcDbLine
 10
-1.6
 20
0.3791258374041075
 30
0.0
 11
-1.6
 21
-2.49833333333333
 31
0.0
  0
LINE
  5
1F4
330
1AC
100
AcDbEntity
  8
AM_9
100
AcDbLine
 10
-1.79047619047619
 20
-0.4382500243996765
 30
0.0
 11
-1.79047619047619
 21
-3.125
 31
0.0
  0
LINE
  5
1F5
330
1AC
100
AcDbEntity
  8
AM_9
100
AcDbLine
 10
1.183333333333323
 20
-2.498333333333334
 30
0.0
 11
1.183333333333323
 21
-3.125
 31
0.0
  0
LINE
  5
1F6
330
1AC
100
AcDbEntity
  8
AM_9
100
AcDbLine
 10
-1.183333333333343
 20
-2.498333333333334
 30
0.0
 11
-1.183333333333343
 21
-3.125
 31
0.0
  0
LINE
  5
1F7
330
1AC
100
AcDbEntity
  8
AM_9
100
AcDbLine
 10
1.405
 20
-1.903
 30
0.0
 11
-1.405
 21
-1.903
 31
0.0
  0
LINE
  5
1F8
330
1AC
100
AcDbEntity
  8
AM_9
100
AcDbLine
 10
1.809523809523809
 20
-0.4382500243996737
 30
0.0
 11
1.809523809523809
 21
-3.125
 31
0.0
  0
LINE
  5
1F9
330
1AC
100
AcDbEntity
  8
AM_9
100
AcDbLine
 10
-1.80952380952381
 20
-0.4382500243996748
 30
0.0
 11
-1.80952380952381
 21
-3.125
 31
0.0
  0
LINE
  5
1FA
330
1AC
100
AcDbEntity
  8
AM_9
100
AcDbLine
 10
1.405
 20
-1.245
 30
0.0
 11
1.405
 21
-3.125
 31
0.0
  0
LINE
  5
1FB
330
1AC
100
AcDbEntity
  8
AM_9
100
AcDbLine
 10
0.7250000000000003
 20
-1.245
 30
0.0
 11
0.7250000000000003
 21
-3.125
 31
0.0
  0
LINE
  5
1FC
330
1AC
100
AcDbEntity
  8
AM_9
100
AcDbLine
 10
-0.7249999999999998
 20
-1.245
 30
0.0
 11
-0.7249999999999998
 21
-3.125
 31
0.0
  0
LINE
  5
1FD
330
1AC
100
AcDbEntity
  8
AM_9
100
AcDbLine
 10
-1.405
 20
-1.245
 30
0.0
 11
-1.405
 21
-3.125
 31
0.0
  0
LWPOLYLINE
  5
1FE
330
1AC
100
AcDbEntity
  8
AM_9
100
AcDbPolyline
 90
       10
 70
     0
 43
0.0
 10
1.453137154731041
 20
-1.244999999999996
 10
1.489538667929578
 20
-1.272241473384626
 10
1.521509203806108
 20
-1.301515266828813
 10
1.550084384235922
 20
-1.333579867301555
 10
1.573947885546811
 20
-1.366841230319507
 10
1.59026326347061
 20
-1.395201452226932
 10
1.603337798628316
 20
-1.423933054079388
 10
1.613330775869738
 20
-1.453461032448791
 10
1.619917345323069
 20
-1.483029553472681
 10
1.623333333333323
 20
-1.5241194922925
  0
LWPOLYLINE
  5
1FF
330
1AC
100
AcDbEntity
  8
AM_9
100
AcDbPolyline
 90
       10
 70
     0
 43
0.0
 10
-1.623333333333344
 20
-1.524119492292502
 10
-1.621110068632025
 20
-1.491036707650893
 10
-1.614498790496356
 20
-1.457751285324698
 10
-1.603199686953881
 20
-1.423587978730775
 10
-1.587374540424669
 20
-1.389707046642503
 10
-1.566903490219355
 20
-1.356211614795294
 10
-1.541845593607369
 20
-1.32362373684139
 10
-1.510974973878198
 20
-1.291216491526983
 10
-1.475080875543902
 20
-1.260739918760001
 10
-1.453137154731067
 20
-1.245
  0
LINE
  5
200
330
1AC
100
AcDbEntity
  8
AM_7
100
AcDbLine
 10
2.256410256410257
 20
0.0
 30
0.0
 11
-2.4296875
 21
0.0
 31
0.0
  0
LINE
  5
201
330
1AC
100
AcDbEntity
  8
AM_4
100
AcDbLine
 10
-0.4999999999999997
 20
2.818912689318348
 30
0.0
 11
-0.4999999999999997
 21
2.775581789895026
 31
0.0
  0
LINE
  5
202
330
1AC
100
AcDbEntity
  8
AM_4
100
AcDbLine
 10
0.4999999999999998
 20
2.775594083610823
 30
0.0
 11
0.4999999999999998
 21
2.818912689318348
 31
0.0
  0
LWPOLYLINE
  5
203
330
1AC
100
AcDbEntity
  8
AM_4
100
AcDbPolyline
 90
       15
 70
     0
 43
0.0
 10
-0.4999999998908886
 20
2.775616641924568
 10
-0.4973129047081704
 20
2.749553545230467
 10
-0.4884941116043309
 20
2.720839762292519
 10
-0.4736988040606838
 20
2.69213453331921
 10
-0.4530140321157285
 20
2.663793130996526
 10
-0.4267115144880176
 20
2.636149911624328
 10
-0.3952811649368503
 20
2.609820482485659
 10
-0.3585525065181097
 20
2.584944263250082
 10
-0.3172239967210259
 20
2.56214332003989
 10
-0.2720540746204533
 20
2.541978193749452
 10
-0.2231171474077372
 20
2.524729489147711
 10
-0.1711627291337599
 20
2.510765953695938
 10
-0.1171728354979935
 20
2.500465968273561
 10
-0.0590064776741651
 20
2.493859980569916
 10
0.0000000000000001
 20
2.491627026055879
  0
ELLIPSE
  5
204
330
1AC
100
AcDbEntity
  8
AM_4
100
AcDbEllipse
 10
0.0000000000000002
 20
2.86221395950757
 30
0.0
 11
-0.4499999999999999
 21
5.510910596163088E-17
 31
0.0
210
0.0
220
0.0
230
1.0
 40
0.4999999999999993
 41
4.977450400849471
 42
10.7305128670995
  0
ELLIPSE
  5
205
330
1AC
100
AcDbEntity
  8
AM_4
100
AcDbEllipse
 10
0.0000000000000001
 20
2.818912689318348
 30
0.0
 11
-0.4999999999999993
 21
6.123233995736757E-17
 31
0.0
210
0.0
220
0.0
230
1.0
 40
0.4999999999999998
 41
6.280366512383395
 42
9.427053297727259
  0
LWPOLYLINE
  5
206
330
1AC
100
AcDbEntity
  8
AM_4
100
AcDbPolyline
 90
       18
 70
     0
 43
0.0
 10
-0.1218545145125444
 20
3.0859702415609
 10
-0.14849206842566
 20
3.082022002404071
 10
-0.1853023628977848
 20
3.075128846127578
 10
-0.2210505630460727
 20
3.066703409304244
 10
-0.2555365762804437
 20
3.056768956633215
 10
-0.2885671393556034
 20
3.045349015300855
 10
-0.3199548012065082
 20
3.032465730317968
 10
-0.3495151926235365
 20
3.018138741343406
 10
-0.3770618852683383
 20
3.002385760450866
 10
-0.4023984225884897
 20
2.985227068499466
 10
-0.4252983761064713
 20
2.966706364457933
 10
-0.4454993660145875
 20
2.946922331661786
 10
-0.4627447983713835
 20
2.926033289901417
 10
-0.4768093828887426
 20
2.904276484258094
 10
-0.4875508907324431
 20
2.881943014585936
 10
-0.494937354695101
 20
2.859324713307727
 10
-0.4990285890683629
 20
2.836668126628317
 10
-0.4999974045327211
 20
2.819831124741663
  0
LWPOLYLINE
  5
207
330
1AC
100
AcDbEntity
  8
AM_4
100
AcDbPolyline
 90
       18
 70
     0
 43
0.0
 10
0.499998293947497
 20
2.819657313830444
 10
0.4988279923481318
 20
2.838412517119405
 10
0.4946648716822581
 20
2.860389701055843
 10
0.487567896981294
 20
2.881900725963538
 10
0.4775667952072404
 20
2.9029164698653
 10
0.4646483556570735
 20
2.923400977998933
 10
0.4487881820312837
 20
2.943283927894506
 10
0.4299968492416513
 20
2.962445302121988
 10
0.4083591526194549
 20
2.980723770523809
 10
0.3840422715290165
 20
2.997946926133185
 10
0.3572701740999433
 20
3.013964135580664
 10
0.3282969693616038
 20
3.028658173986709
 10
0.2973731056283374
 20
3.041950021110958
 10
0.2647158330928644
 20
3.053794602110875
 10
0.2305343772014688
 20
3.064157800312695
 10
0.19503509988326
 20
3.073011303493166
 10
0.1584253657203099
 20
3.080330507042736
 10
0.1218711105141116
 20
3.08596804212829
  0
LINE
  5
208
330
1AC
100
AcDbEntity
  8
AM_4
100
AcDbLine
 10
1.6
 20
0.3791258374041113
 30
0.0
 11
1.6
 21
3.205000000000003
 31
0.0
  0
LWPOLYLINE
  5
209
330
1AC
100
AcDbEntity
  8
AM_4
100
AcDbPolyline
 90
       16
 70
     0
 43
0.0
 10
0.0000000000000001
 20
2.491627026055879
 10
0.0556631504736094
 20
2.493635378762018
 10
0.1107959392977468
 20
2.499551561952754
 10
0.1643580541885474
 20
2.509212263236575
 10
0.2157997622001969
 20
2.522500767267983
 10
0.2647010563895668
 20
2.539130049614061
 10
0.3101695661047081
 20
2.558671121723942
 10
0.3520493054143053
 20
2.581030269945149
 10
0.3896489978347793
 20
2.605684216611375
 10
0.4222747837461561
 20
2.632040223324279
 10
0.4496766483952684
 20
2.659885098448557
 10
0.4714777470162452
 20
2.688693604011495
 10
0.4872524103762017
 20
2.717818944393869
 10
0.4966978902586096
 20
2.746657003326059
 10
0.4999579986952226
 20
2.775135797959619
 10
0.4999999999760626
 20
2.775608972841292
  0
LINE
  5
20A
330
1AC
100
AcDbEntity
  8
AM_4
100
AcDbLine
 10
-0.0961401617788644
 20
3.205000000000003
 30
0.0
 11
-1.6
 21
3.205000000000003
 31
0.0
  0
LINE
  5
20B
330
1AC
100
AcDbEntity
  8
AM_4
100
AcDbLine
 10
1.6
 20
3.205000000000003
 30
0.0
 11
0.0961401617788647
 21
3.205000000000003
 31
0.0
  0
LINE
  5
20C
330
1AC
100
AcDbEntity
  8
AM_4
100
AcDbLine
 10
-1.6
 20
3.205000000000003
 30
0.0
 11
-1.6
 21
0.3791258374041075
 31
0.0
  0
LINE
  5
20D
330
1AC
100
AcDbEntity
  8
AM_4
100
AcDbLine
 10
-1.2
 20
-1.045
 30
0.0
 11
1.2
 21
-1.045
 31
0.0
  0
LINE
  5
20E
330
1AC
100
AcDbEntity
  8
AM_4
100
AcDbLine
 10
-1.2
 20
-1.245
 30
0.0
 11
-1.2
 21
0.3684999512007044
 31
0.0
  0
LINE
  5
20F
330
1AC
100
AcDbEntity
  8
AM_4
100
AcDbLine
 10
1.2
 20
-1.245
 30
0.0
 11
1.2
 21
0.3684999512007044
 31
0.0
  0
LINE
  5
210
330
1AC
100
AcDbEntity
  8
AM_4
100
AcDbLine
 10
1.2
 20
0.3684999512007044
 30
0.0
 11
-1.2
 21
0.3684999512007044
 31
0.0
  0
LINE
  5
211
330
1AC
100
AcDbEntity
  8
AM_4
100
AcDbLine
 10
1.809523809523809
 20
-0.4382500243996737
 30
0.0
 11
1.790476190476191
 21
-0.4382500243996704
 31
0.0
  0
LWPOLYLINE
  5
212
330
1AC
100
AcDbEntity
  8
AM_4
100
AcDbPolyline
 90
       19
 70
     0
 43
0.0
 10
1.6
 20
0.3791258374041116
 10
1.600724819411096
 20
0.3078868370645958
 10
1.602893761331008
 20
0.2371900085329483
 10
1.606490318802082
 20
0.1675733973622069
 10
1.611487119850303
 20
0.0995668279990403
 10
1.617846135802543
 20
0.0336878714997914
 10
1.625518970707726
 20
-0.0295620934977791
 10
1.63444722965924
 20
-0.0897016965686665
 10
1.644562963215433
 20
-0.1462732390202163
 10
1.655789184535896
 20
-0.1988461772555408
 10
1.668040455297802
 20
-0.2470203994702611
 10
1.681223535933134
 20
-0.2904292707449327
 10
1.695238095238095
 20
-0.3287424233581623
 10
1.709977473954152
 20
-0.3616682710844488
 10
1.725329496509397
 20
-0.388956228341425
 10
1.741177324742377
 20
-0.4103986172974462
 10
1.757400347111061
 20
-0.4258322484252887
 10
1.773875096619494
 20
-0.435139662472988
 10
1.790476182966712
 20
-0.4382500243996707
  0
LINE
  5
213
330
1AC
100
AcDbEntity
  8
AM_4
100
AcDbLine
 10
-1.6
 20
0.7273841639200821
 30
0.0
 11
1.6
 21
0.7273841639200821
 31
0.0
  0
LWPOLYLINE
  5
214
330
1AC
100
AcDbEntity
  8
AM_4
100
AcDbPolyline
 90
       19
 70
     0
 43
0.0
 10
-1.79047619047619
 20
-0.4382500243996755
 10
-1.773875096619493
 20
-0.4351396624729924
 10
-1.757400347111061
 20
-0.4258322484252933
 10
-1.741177324742377
 20
-0.4103986172974511
 10
-1.725329496509396
 20
-0.3889562283414303
 10
-1.709977473954152
 20
-0.3616682710844544
 10
-1.695238095238095
 20
-0.3287424233581682
 10
-1.681223535933134
 20
-0.290429270744939
 10
-1.668040455297802
 20
-0.2470203994702678
 10
-1.655789184535896
 20
-0.1988461772555478
 10
-1.644562963215433
 20
-0.1462732390202237
 10
-1.63444722965924
 20
-0.0897016965686744
 10
-1.625518970707726
 20
-0.0295620934977873
 10
-1.617846135802543
 20
0.0336878714997828
 10
-1.611487119850303
 20
0.0995668279990314
 10
-1.606490318802082
 20
0.1675733973621977
 10
-1.602893761331008
 20
0.2371900085329387
 10
-1.600724819411096
 20
0.3078868370645859
 10
-1.6
 20
0.3791258374041013
  0
LINE
  5
215
330
1AC
100
AcDbEntity
  8
AM_4
100
AcDbLine
 10
-1.79047619047619
 20
-0.4382500243996765
 30
0.0
 11
-1.80952380952381
 21
-0.4382500243996748
 31
0.0
  0
LWPOLYLINE
  5
216
330
1AC
100
AcDbEntity
  8
AM_4
100
AcDbPolyline
 90
       19
 70
     0
 43
0.0
 10
1.999983904081824
 20
-1.244999999999996
 10
1.999043331700419
 20
-1.173807454315409
 10
1.996660401320233
 20
-1.103237596300811
 10
1.992853248480313
 20
-1.033827505186936
 10
1.987650847912593
 20
-0.9661054336781221
 10
1.981092793026687
 20
-0.9005867876302542
 10
1.97322899458014
 20
-0.8377702035009977
 10
1.96411930082742
 20
-0.7781337534252665
 10
1.953833042038571
 20
-0.7221313067976097
 10
1.942448502853987
 20
-0.670189076052066
 10
1.930052326491036
 20
-0.6227023729281853
 10
1.916738855336856
 20
-0.5800325999099957
 10
1.902609412945824
 20
-0.5425044997348787
 10
1.887771532906127
 20
-0.5104036839052536
 10
1.872338140444223
 20
-0.4839744590125866
 10
1.856426692995685
 20
-0.4634179674167128
 10
1.84015828628319
 20
-0.448890656431026
 10
1.823656732704954
 20
-0.4405030876639575
 10
1.809523809523809
 20
-0.4382500243996739
  0
LWPOLYLINE
  5
217
330
1AC
100
AcDbEntity
  8
AM_4
100
AcDbPolyline
 90
       19
 70
     0
 43
0.0
 10
-1.80952380952381
 20
-0.4382500243996762
 10
-1.826124903380506
 20
-0.4413603863263593
 10
-1.842599652888939
 20
-0.4506678003740585
 10
-1.858822675257623
 20
-0.4661014315019005
 10
-1.874670503490603
 20
-0.4875438204579215
 10
-1.890022526045847
 20
-0.5148317777148974
 10
-1.904761904761905
 20
-0.5477576254411838
 10
-1.918776464066866
 20
-0.5860707780544129
 10
-1.931959544702198
 20
-0.6294796493290843
 10
-1.944210815464104
 20
-0.6776538715438044
 10
-1.955437036784567
 20
-0.7302268097791286
 10
-1.96555277034076
 20
-0.786798352230678
 10
-1.974481029292274
 20
-0.8469379553015651
 10
-1.982153864197457
 20
-0.9101879202991352
 10
-1.988512880149697
 20
-0.976066876798384
 10
-1.993509681197918
 20
-1.04407344616155
 10
-1.997106238668992
 20
-1.113690057332291
 10
-1.999275180588904
 20
-1.184386885863939
 10
-1.999983904081823
 20
-1.244999999999995
  0
LINE
  5
218
330
1AC
100
AcDbEntity
  8
AM_4
100
AcDbLine
 10
-1.183333333333345
 20
-1.245
 30
0.0
 11
-1.183333333333345
 21
-2.498333333333334
 31
0.0
  0
LINE
  5
219
330
1AC
100
AcDbEntity
  8
AM_4
100
AcDbLine
 10
-1.623333333333343
 20
-1.245
 30
0.0
 11
-1.623333333333343
 21
-2.371561135043671
 31
0.0
  0
LINE
  5
21A
330
1AC
100
AcDbEntity
  8
AM_4
100
AcDbLine
 10
1.623333333333322
 20
-1.245
 30
0.0
 11
1.623333333333323
 21
-2.37156113504367
 31
0.0
  0
LINE
  5
21B
330
1AC
100
AcDbEntity
  8
AM_4
100
AcDbLine
 10
1.183333333333323
 20
-1.245
 30
0.0
 11
1.183333333333323
 21
-2.498333333333334
 31
0.0
  0
LWPOLYLINE
  5
21C
330
1AC
100
AcDbEntity
  8
AM_4
100
AcDbPolyline
 90
       14
 70
     0
 43
0.0
 10
1.623333333333322
 20
-2.371561135043671
 10
1.620390981794442
 20
-2.388034691094559
 10
1.611621661512989
 20
-2.403907472982276
 10
1.597111973991741
 20
-2.418907386290255
 10
1.5767974971703
 20
-2.432928278966028
 10
1.550894006875746
 20
-2.445872246862696
 10
1.51984282118632
 20
-2.457534269079255
 10
1.485075654216155
 20
-2.467518065080649
 10
1.446022546266491
 20
-2.476210862159181
 10
1.403436173739141
 20
-2.48349872879402
 10
1.336491481464547
 20
-2.491486561507716
 10
1.264997381027126
 20
-2.496448488130808
 10
1.224354135692808
 20
-2.497861070002973
 10
1.183333333333323
 20
-2.498333333333333
  0
LINE
  5
21D
330
1AC
100
AcDbEntity
  8
AM_4
100
AcDbLine
 10
1.183333333333323
 20
-2.498333333333334
 30
0.0
 11
1.6
 21
-2.498333333333331
 31
0.0
  0
LINE
  5
21E
330
1AC
100
AcDbEntity
  8
AM_4
100
AcDbLine
 10
-1.999983904081823
 20
-1.244999999999996
 30
0.0
 11
1.999983904081823
 21
-1.244999999999996
 31
0.0
  0
LINE
  5
21F
330
1AC
100
AcDbEntity
  8
AM_4
100
AcDbLine
 10
-1.6
 20
-2.498333333333331
 30
0.0
 11
-1.183333333333345
 21
-2.498333333333334
 31
0.0
  0
LWPOLYLINE
  5
220
330
1AC
100
AcDbEntity
  8
AM_4
100
AcDbPolyline
 90
       11
 70
     0
 43
0.0
 10
-1.183333333333345
 20
-2.498333333333333
 10
-1.25546572523228
 20
-2.496858337693736
 10
-1.325550794149919
 20
-2.492474803557772
 10
-1.39153153926841
 20
-2.485187653225017
 10
-1.451713363018709
 20
-2.47509393089874
 10
-1.504897285169867
 20
-2.462131616983128
 10
-1.549270146480113
 20
-2.446592352411565
 10
-1.58450865727974
 20
-2.428157724309155
 10
-1.608692769632154
 20
-2.407592540175522
 10
-1.619661862256538
 20
-2.389999653073655
 10
-1.623333333333343
 20
-2.371561135043671
  0
LINE
  5
221
330
1AC
100
AcDbEntity
  8
AM_4
100
AcDbLine
 10
-2.0
 20
-3.125
 30
0.0
 11
2.0
 21
-3.125
 31
0.0
  0
LINE
  5
222
330
1AC
100
AcDbEntity
  8
AM_4
100
AcDbLine
 10
2.000000000000001
 20
-2.384655476408888
 30
0.0
 11
1.6
 21
-2.498333333333333
 31
0.0
  0
LINE
  5
223
330
1AC
100
AcDbEntity
  8
AM_4
100
AcDbLine
 10
1.6
 20
-2.498333333333331
 30
0.0
 11
1.6
 21
-3.125
 31
0.0
  0
LINE
  5
224
330
1AC
100
AcDbEntity
  8
AM_4
100
AcDbLine
 10
1.999983904081825
 20
-1.244999999999996
 30
0.0
 11
2.0
 21
-3.125
 31
0.0
  0
LINE
  5
225
330
1AC
100
AcDbEntity
  8
AM_4
100
AcDbLine
 10
-1.599999999999999
 20
-2.498333333333334
 30
0.0
 11
-2.0
 21
-2.384655476408888
 31
0.0
  0
LINE
  5
226
330
1AC
100
AcDbEntity
  8
AM_4
100
AcDbLine
 10
-1.999983904081823
 20
-1.244999999999995
 30
0.0
 11
-2.0
 21
-3.125
 31
0.0
  0
LINE
  5
227
330
1AC
100
AcDbEntity
  8
AM_4
100
AcDbLine
 10
-1.6
 20
-2.498333333333331
 30
0.0
 11
-1.6
 21
-3.125
 31
0.0
  0
ENDBLK
  5
1AF
330
1AC
100
AcDbEntity
  8
0
100
AcDbBlockEnd
  0
ENDSEC
  0
SECTION
  2
ENTITIES
  0
INSERT
  5
6F
330
1F
100
AcDbEntity
  8
0
100
AcDbBlockReference
  2
1_071436_2
 10
0.0
 20
0.0
 30
0.0
  0
POINT
  5
229
330
1F
100
AcDbEntity
  8
ConnectionPoints
100
AcDbPoint
 10
-2.25
 20
0.0
 30
0.0000000000000001
  0
POINT
  5
22A
330
1F
100
AcDbEntity
  8
ConnectionPoints
100
AcDbPoint
 10
2.499499999999999
 20
0.0
 30
-0.0000000000000002
  0
POINT
  5
22B
330
1F
100
AcDbEntity
  8
ConnectionPoints
100
AcDbPoint
 10
-2.25
 20
0.0
 30
0.0000000000000001
  0
POINT
  5
22C
330
1F
100
AcDbEntity
  8
ConnectionPoints
100
AcDbPoint
 10
0.0000000000000001
 20
2.86221395950757
 30
1.652500000000001
  0
POINT
  5
22D
330
1F
100
AcDbEntity
  8
ConnectionPoints
100
AcDbPoint
 10
-2.0
 20
0.0
 30
0.0000000000000001
  0
POINT
  5
22E
330
1F
100
AcDbEntity
  8
ConnectionPoints
100
AcDbPoint
 10
-2.25
 20
0.0
 30
0.0000000000000001
  0
POINT
  5
22F
330
1F
100
AcDbEntity
  8
ConnectionPoints
100
AcDbPoint
 10
0.0000000000000001
 20
2.86221395950757
 30
1.652500000000001
  0
ENDSEC
  0
SECTION
  2
OBJECTS
  0
DICTIONARY
  5
C
330
0
100
AcDbDictionary
281
     1
  3
ACAD_DETAILVIEWSTYLE
350
237
  3
ACAD_GROUP
350
D
  3
ACAD_LAYOUT
350
1A
  3
ACAD_MATERIAL
350
43
  3
ACAD_MLEADERSTYLE
350
6B
  3
ACAD_MLINESTYLE
350
17
  3
ACAD_PLOTSETTINGS
350
19
  3
ACAD_PLOTSTYLENAME
350
E
  3
ACAD_SCALELIST
350
47
  3
ACAD_SECTIONVIEWSTYLE
350
238
  3
ACAD_TABLESTYLE
350
69
  3
ACAD_VISUALSTYLE
350
2A
  3
ACDB_RECOMPOSE_DATA
350
234
  3
AcDbVariableDictionary
350
230
  0
SUN
  5
6D
330
29
100
AcDbSun
 90
        1
290
     0
 63
     7
421
 16777215
 40
1.0
291
     1
 91
  2455826
 92
 54000000
292
     0
 70
     2
 71
   256
280
     1
  0
DICTIONARY
  5
237
102
{ACAD_REACTORS
330
C
102
}
330
C
100
AcDbDictionary
281
     1
  0
DICTIONARY
  5
D
102
{ACAD_REACTORS
330
C
102
}
330
C
100
AcDbDictionary
281
     1
  0
DICTIONARY
  5
1A
102
{ACAD_REACTORS
330
C
102
}
330
C
100
AcDbDictionary
281
     1
  3
Layout1
350
1E
  3
Layout2
350
26
  3
Model
350
22
  0
DICTIONARY
  5
43
102
{ACAD_REACTORS
330
C
102
}
330
C
100
AcDbDictionary
281
     1
  3
ByBlock
350
45
  3
ByLayer
350
44
  3
Global
350
46
  0
DICTIONARY
  5
6B
102
{ACAD_REACTORS
330
C
102
}
330
C
100
AcDbDictionary
281
     1
  3
Standard
350
6C
  0
DICTIONARY
  5
17
102
{ACAD_REACTORS
330
C
102
}
330
C
100
AcDbDictionary
281
     1
  3
Standard
350
18
  0
DICTIONARY
  5
19
102
{ACAD_REACTORS
330
C
102
}
330
C
100
AcDbDictionary
281
     1
  0
ACDBDICTIONARYWDFLT
  5
E
102
{ACAD_REACTORS
330
C
102
}
330
C
100
AcDbDictionary
281
     1
  3
Normal
350
F
100
AcDbDictionaryWithDefault
340
F
  0
DICTIONARY
  5
47
102
{ACAD_REACTORS
330
C
102
}
330
C
100
AcDbDictionary
281
     1
  3
A0
350
48
  3
A1
350
49
  3
A2
350
4A
  3
A3
350
4B
  3
A4
350
4C
  3
A5
350
4D
  3
A6
350
4E
  3
A7
350
4F
  3
A8
350
50
  3
A9
350
51
  3
B0
350
52
  3
B1
350
53
  3
B2
350
54
  3
B3
350
55
  3
B4
350
56
  3
B5
350
57
  3
B6
350
58
  3
B7
350
59
  3
B8
350
5A
  3
B9
350
5B
  3
C0
350
5C
  3
C1
350
5D
  3
C2
350
5E
  3
C3
350
5F
  3
C4
350
60
  3
C5
350
61
  3
C6
350
62
  3
C7
350
63
  3
C8
350
64
  3
C9
350
65
  3
D0
350
66
  3
D1
350
67
  3
D2
350
68
  0
DICTIONARY
  5
238
102
{ACAD_REACTORS
330
C
102
}
330
C
100
AcDbDictionary
281
     1
  0
DICTIONARY
  5
69
102
{ACAD_REACTORS
330
C
102
}
330
C
100
AcDbDictionary
281
     1
  3
Standard
350
6A
  0
DICTIONARY
  5
2A
102
{ACAD_REACTORS
330
C
102
}
330
C
100
AcDbDictionary
281
     1
  3
2dWireframe
350
2F
  3
Basic
350
32
  3
Brighten
350
36
  3
ColorChange
350
3A
  3
Conceptual
350
34
  3
Dim
350
35
  3
EdgeColorOff
350
3D
  3
Facepattern
350
39
  3
Flat
350
2B
  3
FlatWithEdges
350
2C
  3
Gouraud
350
2D
  3
GouraudWithEdges
350
2E
  3
Hidden
350
31
  3
JitterOff
350
3B
  3
Linepattern
350
38
  3
OverhangOff
350
3C
  3
Realistic
350
33
  3
Shaded
350
42
  3
Shaded with edges
350
41
  3
Shades of Gray
350
3E
  3
Sketchy
350
3F
  3
Thicken
350
37
  3
Wireframe
350
30
  3
X-Ray
350
40
  0
XRECORD
  5
234
102
{ACAD_REACTORS
330
C
102
}
330
C
100
AcDbXrecord
280
     1
 90
        1
330
6A
  0
DICTIONARY
  5
230
102
{ACAD_REACTORS
330
C
102
}
330
C
100
AcDbDictionary
281
     1
  3
CANNOSCALE
350
231
  3
CMLEADERSTYLE
350
236
  3
CTABLESTYLE
350
235
  0
LAYOUT
  5
1E
102
{ACAD_REACTORS
330
1A
102
}
330
1A
100
AcDbPlotSettings
  1

  2
none_device
  4

  6

 40
0.0
 41
0.0
 42
0.0
 43
0.0
 44
0.0
 45
0.0
 46
0.0
 47
0.0
 48
0.0
 49
0.0
140
0.0
141
0.0
142
1.0
143
1.0
 70
   688
 72
     0
 73
     0
 74
     5
  7

 75
    16
 76
     0
 77
     2
 78
   300
147
1.0
148
0.0
149
0.0
100
AcDbLayout
  1
Layout1
 70
     1
 71
     1
 10
0.0
 20
0.0
 11
12.0
 21
9.0
 12
0.0
 22
0.0
 32
0.0
 14
1.000000000000000E+20
 24
1.000000000000000E+20
 34
1.000000000000000E+20
 15
-1.000000000000000E+20
 25
-1.000000000000000E+20
 35
-1.000000000000000E+20
146
0.0
 13
0.0
 23
0.0
 33
0.0
 16
1.0
 26
0.0
 36
0.0
 17
0.0
 27
1.0
 37
0.0
 76
     0
330
1B
  0
LAYOUT
  5
26
102
{ACAD_REACTORS
330
1A
102
}
330
1A
100
AcDbPlotSettings
  1

  2
none_device
  4

  6

 40
0.0
 41
0.0
 42
0.0
 43
0.0
 44
0.0
 45
0.0
 46
0.0
 47
0.0
 48
0.0
 49
0.0
140
0.0
141
0.0
142
1.0
143
1.0
 70
   688
 72
     0
 73
     0
 74
     5
  7

 75
    16
 76
     0
 77
     2
 78
   300
147
1.0
148
0.0
149
0.0
100
AcDbLayout
  1
Layout2
 70
     1
 71
     2
 10
0.0
 20
0.0
 11
0.0
 21
0.0
 12
0.0
 22
0.0
 32
0.0
 14
0.0
 24
0.0
 34
0.0
 15
0.0
 25
0.0
 35
0.0
146
0.0
 13
0.0
 23
0.0
 33
0.0
 16
1.0
 26
0.0
 36
0.0
 17
0.0
 27
1.0
 37
0.0
 76
     0
330
23
  0
LAYOUT
  5
22
102
{ACAD_REACTORS
330
1A
102
}
330
1A
100
AcDbPlotSettings
  1

  2
none_device
  4
Letter_(8.50_x_11.00_Inches)
  6

 40
6.35
 41
6.35
 42
6.35000508
 43
6.35000508
 44
215.9
 45
279.4
 46
0.0
 47
0.0
 48
0.0
 49
0.0
140
0.0
141
0.0
142
1.0
143
1.0
 70
  1712
 72
     0
 73
     0
 74
     0
  7

 75
     0
 76
     0
 77
     2
 78
   300
147
1.0
148
0.0
149
0.0
100
AcDbLayout
  1
Model
 70
     1
 71
     0
 10
0.0
 20
0.0
 11
12.0
 21
9.0
 12
0.0
 22
0.0
 32
0.0
 14
1.000000000000000E+20
 24
1.000000000000000E+20
 34
1.000000000000000E+20
 15
-1.000000000000000E+20
 25
-1.000000000000000E+20
 35
-1.000000000000000E+20
146
0.0
 13
0.0
 23
0.0
 33
0.0
 16
1.0
 26
0.0
 36
0.0
 17
0.0
 27
1.0
 37
0.0
 76
     0
330
1F
331
29
  0
MATERIAL
  5
45
102
{ACAD_REACTORS
330
43
102
}
330
43
100
AcDbMaterial
  1
ByBlock
 72
     1
 94
      127
  0
MATERIAL
  5
44
102
{ACAD_REACTORS
330
43
102
}
330
43
100
AcDbMaterial
  1
ByLayer
 72
     1
 94
      127
  0
MATERIAL
  5
46
102
{ACAD_REACTORS
330
43
102
}
330
43
100
AcDbMaterial
  1
Global
 72
     1
 94
      127
  0
MLEADERSTYLE
  5
6C
102
{ACAD_REACTORS
330
6B
102
}
330
6B
100
AcDbMLeaderStyle
179
     2
170
     2
171
     1
172
     0
 90
        2
 40
0.0
 41
0.0
173
     1
 91
-1056964608
340
14
 92
       -2
290
     1
 42
0.09
291
     1
 43
0.36
  3
Standard
341
0
 44
0.18
300

342
11
174
     1
178
     6
175
     1
176
     0
 93
-1056964608
 45
0.18
292
     0
297
     0
 46
0.18
343
0
 94
-1056964608
 47
1.0
 49
1.0
140
1.0
293
     1
141
0.0
294
     1
177
     0
142
1.0
295
     0
296
     0
143
0.125
271
     0
272
     9
273
     9
298
     0
  0
MLINESTYLE
  5
18
102
{ACAD_REACTORS
330
17
102
}
330
17
100
AcDbMlineStyle
  2
Standard
 70
     0
  3

 62
   256
 51
90.0
 52
90.0
 71
     2
 49
0.5
 62
   256
  6
BYLAYER
 49
-0.5
 62
   256
  6
BYLAYER
  0
ACDBPLACEHOLDER
  5
F
102
{ACAD_REACTORS
330
E
102
}
330
E
  0
SCALE
  5
48
102
{ACAD_REACTORS
330
47
102
}
330
47
100
AcDbScale
 70
     0
300
1:1
140
1.0
141
1.0
290
     1
  0
SCALE
  5
49
102
{ACAD_REACTORS
330
47
102
}
330
47
100
AcDbScale
 70
     0
300
1:2
140
1.0
141
2.0
290
     0
  0
SCALE
  5
4A
102
{ACAD_REACTORS
330
47
102
}
330
47
100
AcDbScale
 70
     0
300
1:4
140
1.0
141
4.0
290
     0
  0
SCALE
  5
4B
102
{ACAD_REACTORS
330
47
102
}
330
47
100
AcDbScale
 70
     0
300
1:5
140
1.0
141
5.0
290
     0
  0
SCALE
  5
4C
102
{ACAD_REACTORS
330
47
102
}
330
47
100
AcDbScale
 70
     0
300
1:8
140
1.0
141
8.0
290
     0
  0
SCALE
  5
4D
102
{ACAD_REACTORS
330
47
102
}
330
47
100
AcDbScale
 70
     0
300
1:10
140
1.0
141
10.0
290
     0
  0
SCALE
  5
4E
102
{ACAD_REACTORS
330
47
102
}
330
47
100
AcDbScale
 70
     0
300
1:16
140
1.0
141
16.0
290
     0
  0
SCALE
  5
4F
102
{ACAD_REACTORS
330
47
102
}
330
47
100
AcDbScale
 70
     0
300
1:20
140
1.0
141
20.0
290
     0
  0
SCALE
  5
50
102
{ACAD_REACTORS
330
47
102
}
330
47
100
AcDbScale
 70
     0
300
1:30
140
1.0
141
30.0
290
     0
  0
SCALE
  5
51
102
{ACAD_REACTORS
330
47
102
}
330
47
100
AcDbScale
 70
     0
300
1:40
140
1.0
141
40.0
290
     0
  0
SCALE
  5
52
102
{ACAD_REACTORS
330
47
102
}
330
47
100
AcDbScale
 70
     0
300
1:50
140
1.0
141
50.0
290
     0
  0
SCALE
  5
53
102
{ACAD_REACTORS
330
47
102
}
330
47
100
AcDbScale
 70
     0
300
1:100
140
1.0
141
100.0
290
     0
  0
SCALE
  5
54
102
{ACAD_REACTORS
330
47
102
}
330
47
100
AcDbScale
 70
     0
300
2:1
140
2.0
141
1.0
290
     0
  0
SCALE
  5
55
102
{ACAD_REACTORS
330
47
102
}
330
47
100
AcDbScale
 70
     0
300
4:1
140
4.0
141
1.0
290
     0
  0
SCALE
  5
56
102
{ACAD_REACTORS
330
47
102
}
330
47
100
AcDbScale
 70
     0
300
8:1
140
8.0
141
1.0
290
     0
  0
SCALE
  5
57
102
{ACAD_REACTORS
330
47
102
}
330
47
100
AcDbScale
 70
     0
300
10:1
140
10.0
141
1.0
290
     0
  0
SCALE
  5
58
102
{ACAD_REACTORS
330
47
102
}
330
47
100
AcDbScale
 70
     0
300
100:1
140
100.0
141
1.0
290
     0
  0
SCALE
  5
59
102
{ACAD_REACTORS
330
47
102
}
330
47
100
AcDbScale
 70
     0
300
1/128" = 1'-0"
140
0.0078125
141
12.0
290
     0
  0
SCALE
  5
5A
102
{ACAD_REACTORS
330
47
102
}
330
47
100
AcDbScale
 70
     0
300
1/64" = 1'-0"
140
0.015625
141
12.0
290
     0
  0
SCALE
  5
5B
102
{ACAD_REACTORS
330
47
102
}
330
47
100
AcDbScale
 70
     0
300
1/32" = 1'-0"
140
0.03125
141
12.0
290
     0
  0
SCALE
  5
5C
102
{ACAD_REACTORS
330
47
102
}
330
47
100
AcDbScale
 70
     0
300
1/16" = 1'-0"
140
0.0625
141
12.0
290
     0
  0
SCALE
  5
5D
102
{ACAD_REACTORS
330
47
102
}
330
47
100
AcDbScale
 70
     0
300
3/32" = 1'-0"
140
0.09375
141
12.0
290
     0
  0
SCALE
  5
5E
102
{ACAD_REACTORS
330
47
102
}
330
47
100
AcDbScale
 70
     0
300
1/8" = 1'-0"
140
0.125
141
12.0
290
     0
  0
SCALE
  5
5F
102
{ACAD_REACTORS
330
47
102
}
330
47
100
AcDbScale
 70
     0
300
3/16" = 1'-0"
140
0.1875
141
12.0
290
     0
  0
SCALE
  5
60
102
{ACAD_REACTORS
330
47
102
}
330
47
100
AcDbScale
 70
     0
300
1/4" = 1'-0"
140
0.25
141
12.0
290
     0
  0
SCALE
  5
61
102
{ACAD_REACTORS
330
47
102
}
330
47
100
AcDbScale
 70
     0
300
3/8" = 1'-0"
140
0.375
141
12.0
290
     0
  0
SCALE
  5
62
102
{ACAD_REACTORS
330
47
102
}
330
47
100
AcDbScale
 70
     0
300
1/2" = 1'-0"
140
0.5
141
12.0
290
     0
  0
SCALE
  5
63
102
{ACAD_REACTORS
330
47
102
}
330
47
100
AcDbScale
 70
     0
300
3/4" = 1'-0"
140
0.75
141
12.0
290
     0
  0
SCALE
  5
64
102
{ACAD_REACTORS
330
47
102
}
330
47
100
AcDbScale
 70
     0
300
1" = 1'-0"
140
1.0
141
12.0
290
     0
  0
SCALE
  5
65
102
{ACAD_REACTORS
330
47
102
}
330
47
100
AcDbScale
 70
     0
300
1-1/2" = 1'-0"
140
1.5
141
12.0
290
     0
  0
SCALE
  5
66
102
{ACAD_REACTORS
330
47
102
}
330
47
100
AcDbScale
 70
     0
300
3" = 1'-0"
140
3.0
141
12.0
290
     0
  0
SCALE
  5
67
102
{ACAD_REACTORS
330
47
102
}
330
47
100
AcDbScale
 70
     0
300
6" = 1'-0"
140
6.0
141
12.0
290
     0
  0
SCALE
  5
68
102
{ACAD_REACTORS
330
47
102
}
330
47
100
AcDbScale
 70
     0
300
1'-0" = 1'-0"
140
12.0
141
12.0
290
     0
  0
TABLESTYLE
  5
6A
102
{ACAD_REACTORS
330
69
102
}
102
{ACAD_XDICTIONARY
360
232
102
}
330
69
100
AcDbTableStyle
  3
Standard
 70
     0
 71
     0
 40
0.06
 41
0.06
280
     0
281
     0
  7
Standard
140
0.18
170
     2
 62
     0
 63
   257
283
     0
 90
        4
 91
        0
  1

274
    -2
284
     1
 64
     0
275
    -2
285
     1
 65
     0
276
    -2
286
     1
 66
     0
277
    -2
287
     1
 67
     0
278
    -2
288
     1
 68
     0
279
    -2
289
     1
 69
     0
  7
Standard
140
0.25
170
     5
 62
     0
 63
   257
283
     0
 90
        4
 91
        0
  1

274
    -2
284
     1
 64
     0
275
    -2
285
     1
 65
     0
276
    -2
286
     1
 66
     0
277
    -2
287
     1
 67
     0
278
    -2
288
     1
 68
     0
279
    -2
289
     1
 69
     0
  7
Standard
140
0.18
170
     5
 62
     0
 63
   257
283
     0
 90
        4
 91
        0
  1

274
    -2
284
     1
 64
     0
275
    -2
285
     1
 65
     0
276
    -2
286
     1
 66
     0
277
    -2
287
     1
 67
     0
278
    -2
288
     1
 68
     0
279
    -2
289
     1
 69
     0
  0
VISUALSTYLE
  5
2F
102
{ACAD_REACTORS
330
2A
102
}
330
2A
100
AcDbVisualStyle
  2
2dWireframe
 70
     4
177
     3
291
     0
 70
    58
 90
        0
176
     1
 90
        2
176
     1
 90
        0
176
     1
 90
        0
176
     1
 40
0.6
176
     1
 40
30.0
176
     1
 62
     7
420
 16777215
176
     1
 90
        1
176
     1
 90
        4
176
     1
 62
     7
176
     1
 62
   257
176
     1
 90
        1
176
     1
 90
        1
176
     1
 40
1.0
176
     1
 90
        0
176
     1
 62
   257
176
     1
 40
1.0
176
     1
 90
        1
176
     1
 90
        6
176
     1
 90
        2
176
     1
 62
     7
176
     1
 90
        5
176
     1
 90
        0
176
     1
 90
        0
176
     1
290
     0
176
     1
 90
        1
176
     1
 40
0.0
176
     1
 90
        0
176
     1
290
     1
176
     1
290
     1
176
     1
290
     0
176
     1
290
     0
176
     1
290
     0
176
     1
290
     0
176
     1
290
     0
176
     1
290
     0
176
     1
290
     0
176
     1
 90
       50
176
     1
 40
0.0
176
     1
 40
1.0
176
     1
 90
        0
176
     1
 62
    18
420
        0
176
     1
 90
       50
176
     1
 90
        3
176
     1
 62
     5
420
      255
176
     1
290
     0
176
     1
 90
       50
176
     1
 90
       50
176
     1
 90
       50
176
     1
290
     0
176
     1
 90
       50
176
     1
 62
   256
176
     0
 40
1.0
176
     0
 90
        2
176
     1
  1
strokes_ogs.tif
176
     1
290
     0
176
     1
 40
1.0
176
     1
 40
1.0
176
     1
  0
VISUALSTYLE
  5
32
102
{ACAD_REACTORS
330
2A
102
}
330
2A
100
AcDbVisualStyle
  2
Basic
 70
     7
177
     3
291
     1
 70
    58
 90
        1
176
     1
 90
        0
176
     1
 90
        1
176
     1
 90
        0
176
     1
 40
0.6
176
     1
 40
30.0
176
     1
 62
     7
420
 16777215
176
     1
 90
        0
176
     1
 90
        4
176
     1
 62
     7
176
     1
 62
   257
176
     1
 90
        1
176
     1
 90
        1
176
     1
 40
1.0
176
     1
 90
        8
176
     1
 62
     7
176
     1
 40
1.0
176
     1
 90
        1
176
     1
 90
        6
176
     1
 90
        2
176
     1
 62
     7
176
     1
 90
        5
176
     1
 90
        0
176
     1
 90
        0
176
     1
290
     0
176
     1
 90
        1
176
     1
 40
0.0
176
     1
 90
        0
176
     1
290
     0
176
     1
290
     1
176
     1
290
     1
176
     1
290
     0
176
     1
290
     0
176
     1
290
     0
176
     1
290
     0
176
     1
290
     0
176
     1
290
     0
176
     1
 90
       50
176
     1
 40
0.0
176
     1
 40
1.0
176
     1
 90
        0
176
     1
 62
    18
420
        0
176
     1
 90
       50
176
     1
 90
        3
176
     1
 62
     5
420
      255
176
     1
290
     0
176
     1
 90
       50
176
     1
 90
       50
176
     1
 90
       50
176
     1
290
     0
176
     1
 90
       50
176
     1
 62
   256
176
     0
 40
1.0
176
     0
 90
        2
176
     1
  1
strokes_ogs.tif
176
     1
290
     0
176
     1
 40
1.0
176
     1
 40
1.0
176
     1
  0
VISUALSTYLE
  5
36
102
{ACAD_REACTORS
330
2A
102
}
330
2A
100
AcDbVisualStyle
  2
Brighten
 70
    12
177
     3
291
     1
 70
    58
 90
        2
176
     1
 90
        2
176
     1
 90
        0
176
     1
 90
        0
176
     1
 40
0.6
176
     1
 40
30.0
176
     1
 62
     7
420
 16777215
176
     1
 90
        1
176
     1
 90
        4
176
     1
 62
     7
176
     1
 62
   257
176
     1
 90
        1
176
     1
 90
        1
176
     1
 40
1.0
176
     1
 90
        8
176
     1
 62
     7
176
     1
 40
1.0
176
     1
 90
        1
176
     1
 90
        6
176
     1
 90
        2
176
     1
 62
     7
176
     1
 90
        5
176
     1
 90
        0
176
     1
 90
        0
176
     1
290
     0
176
     1
 90
        1
176
     1
 40
50.0
176
     1
 90
        0
176
     1
290
     0
176
     1
290
     1
176
     1
290
     1
176
     1
290
     0
176
     1
290
     0
176
     1
290
     0
176
     1
290
     0
176
     1
290
     0
176
     1
290
     0
176
     1
 90
       50
176
     1
 40
0.0
176
     1
 40
1.0
176
     1
 90
        0
176
     1
 62
    18
420
        0
176
     1
 90
       50
176
     1
 90
        3
176
     1
 62
     5
420
      255
176
     1
290
     0
176
     1
 90
       50
176
     1
 90
       50
176
     1
 90
       50
176
     1
290
     0
176
     1
 90
       50
176
     1
 62
   256
176
     0
 40
1.0
176
     0
 90
        2
176
     1
  1
strokes_ogs.tif
176
     1
290
     0
176
     1
 40
1.0
176
     1
 40
1.0
176
     1
  0
VISUALSTYLE
  5
3A
102
{ACAD_REACTORS
330
2A
102
}
330
2A
100
AcDbVisualStyle
  2
ColorChange
 70
    16
177
     3
291
     1
 70
    58
 90
        2
176
     1
 90
        2
176
     1
 90
        3
176
     1
 90
        0
176
     1
 40
0.6
176
     1
 40
30.0
176
     1
 62
     8
420
  8421504
176
     1
 90
        1
176
     1
 90
        4
176
     1
 62
     7
176
     1
 62
   257
176
     1
 90
        1
176
     1
 90
        1
176
     1
 40
1.0
176
     1
 90
        8
176
     1
 62
     8
420
  8421504
176
     1
 40
1.0
176
     1
 90
        1
176
     1
 90
        6
176
     1
 90
        2
176
     1
 62
     7
176
     1
 90
        5
176
     1
 90
        0
176
     1
 90
        0
176
     1
290
     0
176
     1
 90
        1
176
     1
 40
0.0
176
     1
 90
        0
176
     1
290
     0
176
     1
290
     1
176
     1
290
     1
176
     1
290
     0
176
     1
290
     0
176
     1
290
     0
176
     1
290
     0
176
     1
290
     0
176
     1
290
     0
176
     1
 90
       50
176
     1
 40
0.0
176
     1
 40
1.0
176
     1
 90
        0
176
     1
 62
    18
420
        0
176
     1
 90
       50
176
     1
 90
        3
176
     1
 62
     5
420
      255
176
     1
290
     0
176
     1
 90
       50
176
     1
 90
       50
176
     1
 90
       50
176
     1
290
     0
176
     1
 90
       50
176
     1
 62
   256
176
     0
 40
1.0
176
     0
 90
        2
176
     1
  1
strokes_ogs.tif
176
     1
290
     0
176
     1
 40
1.0
176
     1
 40
1.0
176
     1
  0
VISUALSTYLE
  5
34
102
{ACAD_REACTORS
330
2A
102
}
330
2A
100
AcDbVisualStyle
  2
Conceptual
 70
     9
177
     3
291
     0
 70
    58
 90
        3
176
     1
 90
        2
176
     1
 90
        0
176
     1
 90
        0
176
     1
 40
0.6
176
     1
 40
30.0
176
     1
 62
     7
420
 16777215
176
     1
 90
        2
176
     1
 90
        2
176
     1
 62
     7
176
     1
 62
   257
176
     1
 90
        1
176
     1
 90
        1
176
     1
 40
179.0
176
     1
 90
        8
176
     1
 62
     7
176
     1
 40
1.0
176
     1
 90
        1
176
     1
 90
        6
176
     1
 90
        2
176
     1
 62
     7
176
     1
 90
        3
176
     1
 90
        0
176
     1
 90
        0
176
     1
290
     0
176
     1
 90
        1
176
     1
 40
0.0
176
     1
 90
        0
176
     1
290
     0
176
     1
290
     1
176
     1
290
     1
176
     1
290
     0
176
     1
290
     0
176
     1
290
     0
176
     1
290
     0
176
     1
290
     0
176
     1
290
     0
176
     1
 90
       50
176
     1
 40
0.0
176
     1
 40
1.0
176
     1
 90
        0
176
     1
 62
    18
420
        0
176
     1
 90
       50
176
     1
 90
        3
176
     1
 62
     5
420
      255
176
     1
290
     0
176
     1
 90
       50
176
     1
 90
       50
176
     1
 90
       50
176
     1
290
     0
176
     1
 90
       50
176
     1
 62
   256
176
     0
 40
1.0
176
     0
 90
        2
176
     1
  1
strokes_ogs.tif
176
     1
290
     0
176
     1
 40
1.0
176
     1
 40
1.0
176
     1
  0
VISUALSTYLE
  5
35
102
{ACAD_REACTORS
330
2A
102
}
330
2A
100
AcDbVisualStyle
  2
Dim
 70
    11
177
     3
291
     1
 70
    58
 90
        2
176
     1
 90
        2
176
     1
 90
        0
176
     1
 90
        0
176
     1
 40
0.6
176
     1
 40
30.0
176
     1
 62
     7
420
 16777215
176
     1
 90
        1
176
     1
 90
        4
176
     1
 62
     7
176
     1
 62
   257
176
     1
 90
        1
176
     1
 90
        1
176
     1
 40
1.0
176
     1
 90
        8
176
     1
 62
     7
176
     1
 40
1.0
176
     1
 90
        1
176
     1
 90
        6
176
     1
 90
        2
176
     1
 62
     7
176
     1
 90
        5
176
     1
 90
        0
176
     1
 90
        0
176
     1
290
     0
176
     1
 90
        1
176
     1
 40
-50.0
176
     1
 90
        0
176
     1
290
     0
176
     1
290
     1
176
     1
290
     1
176
     1
290
     0
176
     1
290
     0
176
     1
290
     0
176
     1
290
     0
176
     1
290
     0
176
     1
290
     0
176
     1
 90
       50
176
     1
 40
0.0
176
     1
 40
1.0
176
     1
 90
        0
176
     1
 62
    18
420
        0
176
     1
 90
       50
176
     1
 90
        3
176
     1
 62
     5
420
      255
176
     1
290
     0
176
     1
 90
       50
176
     1
 90
       50
176
     1
 90
       50
176
     1
290
     0
176
     1
 90
       50
176
     1
 62
   256
176
     0
 40
1.0
176
     0
 90
        2
176
     1
  1
strokes_ogs.tif
176
     1
290
     0
176
     1
 40
1.0
176
     1
 40
1.0
176
     1
  0
VISUALSTYLE
  5
3D
102
{ACAD_REACTORS
330
2A
102
}
330
2A
100
AcDbVisualStyle
  2
EdgeColorOff
 70
    22
177
     3
291
     1
 70
    58
 90
        2
176
     0
 90
        2
176
     0
 90
        0
176
     0
 90
        0
176
     0
 40
0.6
176
     0
 40
30.0
176
     0
 62
     7
420
 16777215
176
     0
 90
        1
176
     0
 90
        4
176
     0
 62
     7
176
     0
 62
   257
176
     0
 90
        1
176
     0
 90
        1
176
     0
 40
1.0
176
     0
 90
        8
176
     2
 62
     7
176
     0
 40
1.0
176
     0
 90
        1
176
     0
 90
        6
176
     0
 90
        2
176
     0
 62
     7
176
     0
 90
        5
176
     0
 90
        0
176
     0
 90
        0
176
     0
290
     0
176
     0
 90
        1
176
     0
 40
0.0
176
     0
 90
        0
176
     0
290
     0
176
     0
290
     1
176
     0
290
     1
176
     0
290
     0
176
     0
290
     0
176
     0
290
     0
176
     0
290
     0
176
     0
290
     0
176
     0
290
     0
176
     0
 90
       50
176
     0
 40
0.0
176
     0
 40
1.0
176
     0
 90
        0
176
     0
 62
    18
420
        0
176
     0
 90
       50
176
     0
 90
        3
176
     0
 62
     5
420
      255
176
     0
290
     0
176
     0
 90
       50
176
     0
 90
       50
176
     0
 90
       50
176
     0
290
     0
176
     0
 90
       50
176
     0
 62
   256
176
     0
 40
1.0
176
     0
 90
        2
176
     0
  1
strokes_ogs.tif
176
     0
290
     0
176
     0
 40
1.0
176
     0
 40
1.0
176
     0
  0
VISUALSTYLE
  5
39
102
{ACAD_REACTORS
330
2A
102
}
330
2A
100
AcDbVisualStyle
  2
Facepattern
 70
    15
177
     3
291
     1
 70
    58
 90
        2
176
     1
 90
        2
176
     1
 90
        0
176
     1
 90
        0
176
     1
 40
0.6
176
     1
 40
30.0
176
     1
 62
     7
420
 16777215
176
     1
 90
        1
176
     1
 90
        4
176
     1
 62
     7
176
     1
 62
   257
176
     1
 90
        1
176
     1
 90
        1
176
     1
 40
1.0
176
     1
 90
        8
176
     1
 62
     7
176
     1
 40
1.0
176
     1
 90
        1
176
     1
 90
        6
176
     1
 90
        2
176
     1
 62
     7
176
     1
 90
        5
176
     1
 90
        0
176
     1
 90
        0
176
     1
290
     0
176
     1
 90
        1
176
     1
 40
0.0
176
     1
 90
        0
176
     1
290
     0
176
     1
290
     1
176
     1
290
     1
176
     1
290
     0
176
     1
290
     0
176
     1
290
     0
176
     1
290
     0
176
     1
290
     0
176
     1
290
     0
176
     1
 90
       50
176
     1
 40
0.0
176
     1
 40
1.0
176
     1
 90
        0
176
     1
 62
    18
420
        0
176
     1
 90
       50
176
     1
 90
        3
176
     1
 62
     5
420
      255
176
     1
290
     0
176
     1
 90
       50
176
     1
 90
       50
176
     1
 90
       50
176
     1
290
     0
176
     1
 90
       50
176
     1
 62
   256
176
     0
 40
1.0
176
     0
 90
        2
176
     1
  1
strokes_ogs.tif
176
     1
290
     0
176
     1
 40
1.0
176
     1
 40
1.0
176
     1
  0
VISUALSTYLE
  5
2B
102
{ACAD_REACTORS
330
2A
102
}
330
2A
100
AcDbVisualStyle
  2
Flat
 70
     0
177
     3
291
     1
 70
    58
 90
        2
176
     1
 90
        1
176
     1
 90
        1
176
     1
 90
        2
176
     1
 40
0.6
176
     1
 40
30.0
176
     1
 62
     7
420
 16777215
176
     1
 90
        0
176
     1
 90
        0
176
     1
 62
     7
176
     1
 62
   257
176
     1
 90
        1
176
     1
 90
        1
176
     1
 40
1.0
176
     1
 90
        8
176
     1
 62
     7
176
     1
 40
1.0
176
     1
 90
        1
176
     1
 90
        6
176
     1
 90
        2
176
     1
 62
     7
176
     1
 90
        5
176
     1
 90
        0
176
     1
 90
        0
176
     1
290
     0
176
     1
 90
       13
176
     1
 40
0.0
176
     1
 90
        0
176
     1
290
     0
176
     1
290
     1
176
     1
290
     1
176
     1
290
     0
176
     1
290
     0
176
     1
290
     0
176
     1
290
     0
176
     1
290
     0
176
     1
290
     0
176
     1
 90
       50
176
     1
 40
0.0
176
     1
 40
1.0
176
     1
 90
        0
176
     1
 62
    18
420
        0
176
     1
 90
       50
176
     1
 90
        3
176
     1
 62
     5
420
      255
176
     1
290
     0
176
     1
 90
       50
176
     1
 90
       50
176
     1
 90
       50
176
     1
290
     0
176
     1
 90
       50
176
     1
 62
   256
176
     0
 40
1.0
176
     0
 90
        2
176
     1
  1
strokes_ogs.tif
176
     1
290
     0
176
     1
 40
1.0
176
     1
 40
1.0
176
     1
  0
VISUALSTYLE
  5
2C
102
{ACAD_REACTORS
330
2A
102
}
330
2A
100
AcDbVisualStyle
  2
FlatWithEdges
 70
     1
177
     3
291
     1
 70
    58
 90
        2
176
     1
 90
        1
176
     1
 90
        1
176
     1
 90
        2
176
     1
 40
0.6
176
     1
 40
30.0
176
     1
 62
     7
420
 16777215
176
     1
 90
        1
176
     1
 90
        0
176
     1
 62
     7
176
     1
 62
   257
176
     1
 90
        1
176
     1
 90
        1
176
     1
 40
1.0
176
     1
 90
        0
176
     1
 62
   257
176
     1
 40
1.0
176
     1
 90
        1
176
     1
 90
        6
176
     1
 90
        2
176
     1
 62
     7
176
     1
 90
        5
176
     1
 90
        0
176
     1
 90
        0
176
     1
290
     0
176
     1
 90
       13
176
     1
 40
0.0
176
     1
 90
        0
176
     1
290
     0
176
     1
290
     1
176
     1
290
     1
176
     1
290
     0
176
     1
290
     0
176
     1
290
     0
176
     1
290
     0
176
     1
290
     0
176
     1
290
     0
176
     1
 90
       50
176
     1
 40
0.0
176
     1
 40
1.0
176
     1
 90
        0
176
     1
 62
    18
420
        0
176
     1
 90
       50
176
     1
 90
        3
176
     1
 62
     5
420
      255
176
     1
290
     0
176
     1
 90
       50
176
     1
 90
       50
176
     1
 90
       50
176
     1
290
     0
176
     1
 90
       50
176
     1
 62
   256
176
     0
 40
1.0
176
     0
 90
        2
176
     1
  1
strokes_ogs.tif
176
     1
290
     0
176
     1
 40
1.0
176
     1
 40
1.0
176
     1
  0
VISUALSTYLE
  5
2D
102
{ACAD_REACTORS
330
2A
102
}
330
2A
100
AcDbVisualStyle
  2
Gouraud
 70
     2
177
     3
291
     1
 70
    58
 90
        2
176
     1
 90
        2
176
     1
 90
        1
176
     1
 90
        2
176
     1
 40
0.6
176
     1
 40
30.0
176
     1
 62
     7
420
 16777215
176
     1
 90
        0
176
     1
 90
        0
176
     1
 62
     7
176
     1
 62
   257
176
     1
 90
        1
176
     1
 90
        1
176
     1
 40
1.0
176
     1
 90
        0
176
     1
 62
     7
176
     1
 40
1.0
176
     1
 90
        1
176
     1
 90
        6
176
     1
 90
        2
176
     1
 62
     7
176
     1
 90
        5
176
     1
 90
        0
176
     1
 90
        0
176
     1
290
     0
176
     1
 90
       13
176
     1
 40
0.0
176
     1
 90
        0
176
     1
290
     0
176
     1
290
     1
176
     1
290
     1
176
     1
290
     0
176
     1
290
     0
176
     1
290
     0
176
     1
290
     0
176
     1
290
     0
176
     1
290
     0
176
     1
 90
       50
176
     1
 40
0.0
176
     1
 40
1.0
176
     1
 90
        0
176
     1
 62
    18
420
        0
176
     1
 90
       50
176
     1
 90
        3
176
     1
 62
     5
420
      255
176
     1
290
     0
176
     1
 90
       50
176
     1
 90
       50
176
     1
 90
       50
176
     1
290
     0
176
     1
 90
       50
176
     1
 62
   256
176
     0
 40
1.0
176
     0
 90
        2
176
     1
  1
strokes_ogs.tif
176
     1
290
     0
176
     1
 40
1.0
176
     1
 40
1.0
176
     1
  0
VISUALSTYLE
  5
2E
102
{ACAD_REACTORS
330
2A
102
}
330
2A
100
AcDbVisualStyle
  2
GouraudWithEdges
 70
     3
177
     3
291
     1
 70
    58
 90
        2
176
     1
 90
        2
176
     1
 90
        1
176
     1
 90
        2
176
     1
 40
0.6
176
     1
 40
30.0
176
     1
 62
     7
420
 16777215
176
     1
 90
        1
176
     1
 90
        0
176
     1
 62
     7
176
     1
 62
   257
176
     1
 90
        1
176
     1
 90
        1
176
     1
 40
1.0
176
     1
 90
        0
176
     1
 62
   257
176
     1
 40
1.0
176
     1
 90
        1
176
     1
 90
        6
176
     1
 90
        2
176
     1
 62
     7
176
     1
 90
        5
176
     1
 90
        0
176
     1
 90
        0
176
     1
290
     0
176
     1
 90
       13
176
     1
 40
0.0
176
     1
 90
        0
176
     1
290
     0
176
     1
290
     1
176
     1
290
     1
176
     1
290
     0
176
     1
290
     0
176
     1
290
     0
176
     1
290
     0
176
     1
290
     0
176
     1
290
     0
176
     1
 90
       50
176
     1
 40
0.0
176
     1
 40
1.0
176
     1
 90
        0
176
     1
 62
    18
420
        0
176
     1
 90
       50
176
     1
 90
        3
176
     1
 62
     5
420
      255
176
     1
290
     0
176
     1
 90
       50
176
     1
 90
       50
176
     1
 90
       50
176
     1
290
     0
176
     1
 90
       50
176
     1
 62
   256
176
     0
 40
1.0
176
     0
 90
        2
176
     1
  1
strokes_ogs.tif
176
     1
290
     0
176
     1
 40
1.0
176
     1
 40
1.0
176
     1
  0
VISUALSTYLE
  5
31
102
{ACAD_REACTORS
330
2A
102
}
330
2A
100
AcDbVisualStyle
  2
Hidden
 70
     6
177
     3
291
     0
 70
    58
 90
        1
176
     1
 90
        2
176
     1
 90
        2
176
     1
 90
        0
176
     1
 40
0.6
176
     1
 40
30.0
176
     1
 62
     7
420
 16777215
176
     1
 90
        2
176
     1
 90
        2
176
     1
 62
     7
176
     1
 62
   257
176
     1
 90
        2
176
     1
 90
        1
176
     1
 40
40.0
176
     1
 90
        0
176
     1
 62
   257
176
     1
 40
1.0
176
     1
 90
        1
176
     1
 90
        6
176
     1
 90
        2
176
     1
 62
     7
176
     1
 90
        3
176
     1
 90
        0
176
     1
 90
        0
176
     1
290
     0
176
     1
 90
        1
176
     1
 40
0.0
176
     1
 90
        0
176
     1
290
     0
176
     1
290
     1
176
     1
290
     1
176
     1
290
     0
176
     1
290
     0
176
     1
290
     0
176
     1
290
     0
176
     1
290
     0
176
     1
290
     0
176
     1
 90
       50
176
     1
 40
0.0
176
     1
 40
1.0
176
     1
 90
        0
176
     1
 62
    18
420
        0
176
     1
 90
       50
176
     1
 90
        3
176
     1
 62
     5
420
      255
176
     1
290
     0
176
     1
 90
       50
176
     1
 90
       50
176
     1
 90
       50
176
     1
290
     0
176
     1
 90
       50
176
     1
 62
   256
176
     0
 40
1.0
176
     0
 90
        2
176
     1
  1
strokes_ogs.tif
176
     1
290
     0
176
     1
 40
1.0
176
     1
 40
1.0
176
     1
  0
VISUALSTYLE
  5
3B
102
{ACAD_REACTORS
330
2A
102
}
330
2A
100
AcDbVisualStyle
  2
JitterOff
 70
    20
177
     3
291
     1
 70
    58
 90
        2
176
     0
 90
        2
176
     0
 90
        0
176
     0
 90
        0
176
     0
 40
0.6
176
     0
 40
30.0
176
     0
 62
     7
420
 16777215
176
     0
 90
        1
176
     0
 90
        4
176
     0
 62
     7
176
     0
 62
   257
176
     0
 90
        1
176
     0
 90
        1
176
     0
 40
1.0
176
     0
 90
       10
176
     2
 62
     7
176
     0
 40
1.0
176
     0
 90
        1
176
     0
 90
        6
176
     0
 90
        2
176
     0
 62
     7
176
     0
 90
        5
176
     0
 90
        0
176
     0
 90
        0
176
     0
290
     0
176
     0
 90
        1
176
     0
 40
0.0
176
     0
 90
        0
176
     0
290
     0
176
     0
290
     1
176
     0
290
     1
176
     0
290
     0
176
     0
290
     0
176
     0
290
     0
176
     0
290
     0
176
     0
290
     0
176
     0
290
     0
176
     0
 90
       50
176
     0
 40
0.0
176
     0
 40
1.0
176
     0
 90
        0
176
     0
 62
    18
420
        0
176
     0
 90
       50
176
     0
 90
        3
176
     0
 62
     5
420
      255
176
     0
290
     0
176
     0
 90
       50
176
     0
 90
       50
176
     0
 90
       50
176
     0
290
     0
176
     0
 90
       50
176
     0
 62
   256
176
     0
 40
1.0
176
     0
 90
        2
176
     0
  1
strokes_ogs.tif
176
     0
290
     0
176
     0
 40
1.0
176
     0
 40
1.0
176
     0
  0
VISUALSTYLE
  5
38
102
{ACAD_REACTORS
330
2A
102
}
330
2A
100
AcDbVisualStyle
  2
Linepattern
 70
    14
177
     3
291
     1
 70
    58
 90
        2
176
     1
 90
        2
176
     1
 90
        0
176
     1
 90
        0
176
     1
 40
0.6
176
     1
 40
30.0
176
     1
 62
     7
420
 16777215
176
     1
 90
        1
176
     1
 90
        4
176
     1
 62
     7
176
     1
 62
   257
176
     1
 90
        7
176
     1
 90
        7
176
     1
 40
1.0
176
     1
 90
        8
176
     1
 62
     7
176
     1
 40
1.0
176
     1
 90
        1
176
     1
 90
        6
176
     1
 90
        2
176
     1
 62
     7
176
     1
 90
        5
176
     1
 90
        0
176
     1
 90
        0
176
     1
290
     0
176
     1
 90
        1
176
     1
 40
0.0
176
     1
 90
        0
176
     1
290
     0
176
     1
290
     1
176
     1
290
     1
176
     1
290
     0
176
     1
290
     0
176
     1
290
     0
176
     1
290
     0
176
     1
290
     0
176
     1
290
     0
176
     1
 90
       50
176
     1
 40
0.0
176
     1
 40
1.0
176
     1
 90
        0
176
     1
 62
    18
420
        0
176
     1
 90
       50
176
     1
 90
        3
176
     1
 62
     5
420
      255
176
     1
290
     0
176
     1
 90
       50
176
     1
 90
       50
176
     1
 90
       50
176
     1
290
     0
176
     1
 90
       50
176
     1
 62
   256
176
     0
 40
1.0
176
     0
 90
        2
176
     1
  1
strokes_ogs.tif
176
     1
290
     0
176
     1
 40
1.0
176
     1
 40
1.0
176
     1
  0
VISUALSTYLE
  5
3C
102
{ACAD_REACTORS
330
2A
102
}
330
2A
100
AcDbVisualStyle
  2
OverhangOff
 70
    21
177
     3
291
     1
 70
    58
 90
        2
176
     0
 90
        2
176
     0
 90
        0
176
     0
 90
        0
176
     0
 40
0.6
176
     0
 40
30.0
176
     0
 62
     7
420
 16777215
176
     0
 90
        1
176
     0
 90
        4
176
     0
 62
     7
176
     0
 62
   257
176
     0
 90
        1
176
     0
 90
        1
176
     0
 40
1.0
176
     0
 90
        9
176
     2
 62
     7
176
     0
 40
1.0
176
     0
 90
        1
176
     0
 90
        6
176
     0
 90
        2
176
     0
 62
     7
176
     0
 90
        5
176
     0
 90
        0
176
     0
 90
        0
176
     0
290
     0
176
     0
 90
        1
176
     0
 40
0.0
176
     0
 90
        0
176
     0
290
     0
176
     0
290
     1
176
     0
290
     1
176
     0
290
     0
176
     0
290
     0
176
     0
290
     0
176
     0
290
     0
176
     0
290
     0
176
     0
290
     0
176
     0
 90
       50
176
     0
 40
0.0
176
     0
 40
1.0
176
     0
 90
        0
176
     0
 62
    18
420
        0
176
     0
 90
       50
176
     0
 90
        3
176
     0
 62
     5
420
      255
176
     0
290
     0
176
     0
 90
       50
176
     0
 90
       50
176
     0
 90
       50
176
     0
290
     0
176
     0
 90
       50
176
     0
 62
   256
176
     0
 40
1.0
176
     0
 90
        2
176
     0
  1
strokes_ogs.tif
176
     0
290
     0
176
     0
 40
1.0
176
     0
 40
1.0
176
     0
  0
VISUALSTYLE
  5
33
102
{ACAD_REACTORS
330
2A
102
}
330
2A
100
AcDbVisualStyle
  2
Realistic
 70
     8
177
     3
291
     0
 70
    58
 90
        2
176
     1
 90
        3
176
     1
 90
        0
176
     1
 90
        2
176
     1
 40
0.6
176
     1
 40
30.0
176
     1
 62
     7
420
 16777215
176
     1
 90
        0
176
     1
 90
        0
176
     1
 62
     7
176
     1
 62
   257
176
     1
 90
        1
176
     1
 90
        1
176
     1
 40
1.0
176
     1
 90
        8
176
     1
 62
   257
176
     1
 40
1.0
176
     1
 90
        1
176
     1
 90
        6
176
     1
 90
        2
176
     1
 62
     7
176
     1
 90
        3
176
     1
 90
        0
176
     1
 90
        0
176
     1
290
     0
176
     1
 90
       13
176
     1
 40
0.0
176
     1
 90
        0
176
     1
290
     0
176
     1
290
     1
176
     1
290
     1
176
     1
290
     0
176
     1
290
     0
176
     1
290
     0
176
     1
290
     0
176
     1
290
     0
176
     1
290
     0
176
     1
 90
       50
176
     1
 40
0.0
176
     1
 40
1.0
176
     1
 90
        0
176
     1
 62
    18
420
        0
176
     1
 90
       50
176
     1
 90
        3
176
     1
 62
     5
420
      255
176
     1
290
     0
176
     1
 90
       50
176
     1
 90
       50
176
     1
 90
       50
176
     1
290
     0
176
     1
 90
       50
176
     1
 62
   256
176
     0
 40
1.0
176
     0
 90
        2
176
     1
  1
strokes_ogs.tif
176
     1
290
     0
176
     1
 40
1.0
176
     1
 40
1.0
176
     1
  0
VISUALSTYLE
  5
42
102
{ACAD_REACTORS
330
2A
102
}
330
2A
100
AcDbVisualStyle
  2
Shaded
 70
    27
177
     3
291
     0
 70
    58
 90
        2
176
     1
 90
        2
176
     1
 90
        1
176
     1
 90
        2
176
     1
 40
0.6
176
     1
 40
30.0
176
     1
 62
     7
420
 16777215
176
     1
 90
        0
176
     1
 90
        4
176
     1
 62
     7
176
     1
 62
   257
176
     1
 90
        1
176
     1
 90
        1
176
     1
 40
1.0
176
     1
 90
        8
176
     1
 62
   257
176
     1
 40
1.0
176
     1
 90
        1
176
     1
 90
        6
176
     1
 90
        2
176
     1
 62
     8
420
  7895160
176
     1
 90
        3
176
     1
 90
        0
176
     1
 90
        0
176
     1
290
     0
176
     1
 90
        5
176
     1
 40
0.0
176
     1
 90
        0
176
     1
290
     0
176
     1
290
     1
176
     1
290
     1
176
     1
290
     0
176
     1
290
     0
176
     1
290
     0
176
     1
290
     0
176
     1
290
     0
176
     1
290
     0
176
     1
 90
       50
176
     1
 40
0.0
176
     1
 40
1.0
176
     1
 90
        0
176
     1
 62
    18
420
        0
176
     1
 90
       50
176
     1
 90
        3
176
     1
 62
     5
420
      255
176
     1
290
     0
176
     1
 90
       50
176
     1
 90
       50
176
     1
 90
       50
176
     1
290
     0
176
     1
 90
       50
176
     1
 62
   256
176
     0
 40
1.0
176
     0
 90
        2
176
     1
  1
strokes_ogs.tif
176
     1
290
     0
176
     1
 40
1.0
176
     1
 40
1.0
176
     1
  0
VISUALSTYLE
  5
41
102
{ACAD_REACTORS
330
2A
102
}
330
2A
100
AcDbVisualStyle
  2
Shaded with edges
 70
    26
177
     3
291
     0
 70
    58
 90
        2
176
     1
 90
        2
176
     1
 90
        1
176
     1
 90
        2
176
     1
 40
0.6
176
     1
 40
30.0
176
     1
 62
     7
420
 16777215
176
     1
 90
        1
176
     1
 90
       10
176
     1
 62
     7
176
     1
 62
   257
176
     1
 90
        2
176
     1
 90
        1
176
     1
 40
1.0
176
     1
 90
        8
176
     1
 62
   257
176
     1
 40
1.0
176
     1
 90
        1
176
     1
 90
        6
176
     1
 90
        2
176
     1
 62
     7
176
     1
 90
        3
176
     1
 90
        0
176
     1
 90
        0
176
     1
290
     0
176
     1
 90
        5
176
     1
 40
0.0
176
     1
 90
        0
176
     1
290
     0
176
     1
290
     1
176
     1
290
     1
176
     1
290
     0
176
     1
290
     0
176
     1
290
     0
176
     1
290
     0
176
     1
290
     0
176
     1
290
     0
176
     1
 90
       50
176
     1
 40
0.0
176
     1
 40
1.0
176
     1
 90
        0
176
     1
 62
    18
420
        0
176
     1
 90
       50
176
     1
 90
        3
176
     1
 62
     5
420
      255
176
     1
290
     0
176
     1
 90
       50
176
     1
 90
       50
176
     1
 90
       50
176
     1
290
     0
176
     1
 90
       50
176
     1
 62
   256
176
     0
 40
1.0
176
     0
 90
        2
176
     1
  1
strokes_ogs.tif
176
     1
290
     0
176
     1
 40
1.0
176
     1
 40
1.0
176
     1
  0
VISUALSTYLE
  5
3E
102
{ACAD_REACTORS
330
2A
102
}
330
2A
100
AcDbVisualStyle
  2
Shades of Gray
 70
    23
177
     3
291
     0
 70
    58
 90
        2
176
     1
 90
        2
176
     1
 90
        3
176
     1
 90
        0
176
     1
 40
0.6
176
     1
 40
30.0
176
     1
 62
     7
420
 16777215
176
     1
 90
        2
176
     1
 90
        2
176
     1
 62
     7
176
     1
 62
     7
176
     1
 90
        1
176
     1
 90
        1
176
     1
 40
40.0
176
     1
 90
        8
176
     1
 62
     7
176
     1
 40
1.0
176
     1
 90
        1
176
     1
 90
        6
176
     1
 90
        2
176
     1
 62
     7
176
     1
 90
        3
176
     1
 90
        0
176
     1
 90
        0
176
     1
290
     0
176
     1
 90
        1
176
     1
 40
0.0
176
     1
 90
        0
176
     1
290
     0
176
     1
290
     1
176
     1
290
     1
176
     1
290
     0
176
     1
290
     0
176
     1
290
     0
176
     1
290
     0
176
     1
290
     0
176
     1
290
     0
176
     1
 90
       50
176
     1
 40
0.0
176
     1
 40
1.0
176
     1
 90
        0
176
     1
 62
    18
420
        0
176
     1
 90
       50
176
     1
 90
        3
176
     1
 62
     5
420
      255
176
     1
290
     0
176
     1
 90
       50
176
     1
 90
       50
176
     1
 90
       50
176
     1
290
     0
176
     1
 90
       50
176
     1
 62
   256
176
     0
 40
1.0
176
     0
 90
        2
176
     1
  1
strokes_ogs.tif
176
     1
290
     0
176
     1
 40
1.0
176
     1
 40
1.0
176
     1
  0
VISUALSTYLE
  5
3F
102
{ACAD_REACTORS
330
2A
102
}
330
2A
100
AcDbVisualStyle
  2
Sketchy
 70
    24
177
     3
291
     0
 70
    58
 90
        1
176
     1
 90
        2
176
     1
 90
        2
176
     1
 90
        0
176
     1
 40
0.6
176
     1
 40
30.0
176
     1
 62
     7
420
 16777215
176
     1
 90
        2
176
     1
 90
        2
176
     1
 62
     7
176
     1
 62
     7
176
     1
 90
        1
176
     1
 90
        1
176
     1
 40
40.0
176
     1
 90
       11
176
     1
 62
     7
176
     1
 40
1.0
176
     1
 90
        1
176
     1
 90
        6
176
     1
 90
        2
176
     1
 62
     7
176
     1
 90
        6
176
     1
 90
        0
176
     1
 90
        0
176
     1
290
     0
176
     1
 90
        1
176
     1
 40
0.0
176
     1
 90
        0
176
     1
290
     0
176
     1
290
     1
176
     1
290
     1
176
     1
290
     0
176
     1
290
     0
176
     1
290
     0
176
     1
290
     0
176
     1
290
     0
176
     1
290
     0
176
     1
 90
       50
176
     1
 40
0.0
176
     1
 40
1.0
176
     1
 90
        0
176
     1
 62
    18
420
        0
176
     1
 90
       50
176
     1
 90
        3
176
     1
 62
     5
420
      255
176
     1
290
     0
176
     1
 90
       50
176
     1
 90
       50
176
     1
 90
       50
176
     1
290
     0
176
     1
 90
       50
176
     1
 62
   256
176
     0
 40
1.0
176
     0
 90
        2
176
     1
  1
strokes_ogs.tif
176
     1
290
     0
176
     1
 40
1.0
176
     1
 40
1.0
176
     1
  0
VISUALSTYLE
  5
37
102
{ACAD_REACTORS
330
2A
102
}
330
2A
100
AcDbVisualStyle
  2
Thicken
 70
    13
177
     3
291
     1
 70
    58
 90
        2
176
     1
 90
        2
176
     1
 90
        0
176
     1
 90
        0
176
     1
 40
0.6
176
     1
 40
30.0
176
     1
 62
     7
420
 16777215
176
     1
 90
        1
176
     1
 90
        4
176
     1
 62
     7
176
     1
 62
   257
176
     1
 90
        1
176
     1
 90
        1
176
     1
 40
1.0
176
     1
 90
       12
176
     1
 62
     7
176
     1
 40
1.0
176
     1
 90
        1
176
     1
 90
        6
176
     1
 90
        2
176
     1
 62
     7
176
     1
 90
        5
176
     1
 90
        0
176
     1
 90
        0
176
     1
290
     0
176
     1
 90
        1
176
     1
 40
0.0
176
     1
 90
        0
176
     1
290
     0
176
     1
290
     1
176
     1
290
     1
176
     1
290
     0
176
     1
290
     0
176
     1
290
     0
176
     1
290
     0
176
     1
290
     0
176
     1
290
     0
176
     1
 90
       50
176
     1
 40
0.0
176
     1
 40
1.0
176
     1
 90
        0
176
     1
 62
    18
420
        0
176
     1
 90
       50
176
     1
 90
        3
176
     1
 62
     5
420
      255
176
     1
290
     0
176
     1
 90
       50
176
     1
 90
       50
176
     1
 90
       50
176
     1
290
     0
176
     1
 90
       50
176
     1
 62
   256
176
     0
 40
1.0
176
     0
 90
        2
176
     1
  1
strokes_ogs.tif
176
     1
290
     0
176
     1
 40
1.0
176
     1
 40
1.0
176
     1
  0
VISUALSTYLE
  5
30
102
{ACAD_REACTORS
330
2A
102
}
330
2A
100
AcDbVisualStyle
  2
Wireframe
 70
     5
177
     3
291
     0
 70
    58
 90
        0
176
     1
 90
        2
176
     1
 90
        0
176
     1
 90
        0
176
     1
 40
0.6
176
     1
 40
30.0
176
     1
 62
     7
420
 16777215
176
     1
 90
        1
176
     1
 90
        4
176
     1
 62
     7
176
     1
 62
   257
176
     1
 90
        1
176
     1
 90
        1
176
     1
 40
1.0
176
     1
 90
        0
176
     1
 62
   257
176
     1
 40
1.0
176
     1
 90
        1
176
     1
 90
        6
176
     1
 90
        2
176
     1
 62
     7
176
     1
 90
        3
176
     1
 90
        0
176
     1
 90
        0
176
     1
290
     0
176
     1
 90
        1
176
     1
 40
0.0
176
     1
 90
        0
176
     1
290
     0
176
     1
290
     1
176
     1
290
     1
176
     1
290
     0
176
     1
290
     0
176
     1
290
     0
176
     1
290
     0
176
     1
290
     0
176
     1
290
     0
176
     1
 90
       50
176
     1
 40
0.0
176
     1
 40
1.0
176
     1
 90
        0
176
     1
 62
    18
420
        0
176
     1
 90
       50
176
     1
 90
        3
176
     1
 62
     5
420
      255
176
     1
290
     0
176
     1
 90
       50
176
     1
 90
       50
176
     1
 90
       50
176
     1
290
     0
176
     1
 90
       50
176
     1
 62
   256
176
     0
 40
1.0
176
     0
 90
        2
176
     1
  1
strokes_ogs.tif
176
     1
290
     0
176
     1
 40
1.0
176
     1
 40
1.0
176
     1
  0
VISUALSTYLE
  5
40
102
{ACAD_REACTORS
330
2A
102
}
330
2A
100
AcDbVisualStyle
  2
X-Ray
 70
    25
177
     3
291
     0
 70
    58
 90
        2
176
     1
 90
        2
176
     1
 90
        1
176
     1
 90
        1
176
     1
 40
0.5
176
     1
 40
30.0
176
     1
 62
     7
420
 16777215
176
     1
 90
        1
176
     1
 90
        0
176
     1
 62
     7
176
     1
 62
   257
176
     1
 90
        1
176
     1
 90
        1
176
     1
 40
1.0
176
     1
 90
        8
176
     1
 62
     7
176
     1
 40
1.0
176
     1
 90
        1
176
     1
 90
        6
176
     1
 90
        2
176
     1
 62
     7
176
     1
 90
        3
176
     1
 90
        0
176
     1
 90
        0
176
     1
290
     0
176
     1
 90
       13
176
     1
 40
0.0
176
     1
 90
        0
176
     1
290
     0
176
     1
290
     1
176
     1
290
     1
176
     1
290
     0
176
     1
290
     0
176
     1
290
     0
176
     1
290
     0
176
     1
290
     0
176
     1
290
     0
176
     1
 90
       50
176
     1
 40
0.0
176
     1
 40
1.0
176
     1
 90
        0
176
     1
 62
    18
420
        0
176
     1
 90
       50
176
     1
 90
        3
176
     1
 62
     5
420
      255
176
     1
290
     0
176
     1
 90
       50
176
     1
 90
       50
176
     1
 90
       50
176
     1
290
     0
176
     1
 90
       50
176
     1
 62
   256
176
     0
 40
1.0
176
     0
 90
        2
176
     1
  1
strokes_ogs.tif
176
     1
290
     0
176
     1
 40
1.0
176
     1
 40
1.0
176
     1
  0
DICTIONARYVAR
  5
231
102
{ACAD_REACTORS
330
230
102
}
330
230
100
DictionaryVariables
280
     0
  1
1:1
  0
DICTIONARYVAR
  5
236
102
{ACAD_REACTORS
330
230
102
}
330
230
100
DictionaryVariables
280
     0
  1
Standard
  0
DICTIONARYVAR
  5
235
102
{ACAD_REACTORS
330
230
102
}
330
230
100
DictionaryVariables
280
     0
  1
Standard
  0
DICTIONARY
  5
232
330
6A
100
AcDbDictionary
280
     1
281
     1
  3
ACAD_ROUNDTRIP_2008_TABLESTYLE_CELLSTYLEMAP
360
233
  0
CELLSTYLEMAP
  5
233
102
{ACAD_REACTORS
330
232
102
}
330
232
100
AcDbCellStyleMap
 90
        3
300
CELLSTYLE
  1
TABLEFORMAT_BEGIN
 90
        5
170
     1
 91
        0
 92
    32768
 62
   257
 93
        1
300
CONTENTFORMAT
  1
CONTENTFORMAT_BEGIN
 90
        0
 91
        0
 92
        4
 93
        0
300

 40
0.0
140
1.0
 94
        5
 62
     0
340
11
144
0.25
309
CONTENTFORMAT_END
171
     1
301
MARGIN
  1
CELLMARGIN_BEGIN
 40
0.06
 40
0.06
 40
0.06
 40
0.06
 40
0.06
 40
0.06
309
CELLMARGIN_END
 94
        6
 95
        1
302
GRIDFORMAT
  1
GRIDFORMAT_BEGIN
 90
        0
 91
        1
 62
     0
 92
       -2
340
14
 93
        0
 40
0.045
309
GRIDFORMAT_END
 95
        2
302
GRIDFORMAT
  1
GRIDFORMAT_BEGIN
 90
        0
 91
        1
 62
     0
 92
       -2
340
14
 93
        0
 40
0.045
309
GRIDFORMAT_END
 95
        4
302
GRIDFORMAT
  1
GRIDFORMAT_BEGIN
 90
        0
 91
        1
 62
     0
 92
       -2
340
14
 93
        0
 40
0.045
309
GRIDFORMAT_END
 95
        8
302
GRIDFORMAT
  1
GRIDFORMAT_BEGIN
 90
        0
 91
        1
 62
     0
 92
       -2
340
14
 93
        0
 40
0.045
309
GRIDFORMAT_END
 95
       16
302
GRIDFORMAT
  1
GRIDFORMAT_BEGIN
 90
        0
 91
        1
 62
     0
 92
       -2
340
14
 93
        0
 40
0.045
309
GRIDFORMAT_END
 95
       32
302
GRIDFORMAT
  1
GRIDFORMAT_BEGIN
 90
        0
 91
        1
 62
     0
 92
       -2
340
14
 93
        0
 40
0.045
309
GRIDFORMAT_END
309
TABLEFORMAT_END
  1
CELLSTYLE_BEGIN
 90
        1
 91
        1
300
_TITLE
309
CELLSTYLE_END
300
CELLSTYLE
  1
TABLEFORMAT_BEGIN
 90
        5
170
     1
 91
        0
 92
        0
 62
   257
 93
        1
300
CONTENTFORMAT
  1
CONTENTFORMAT_BEGIN
 90
        0
 91
        0
 92
        4
 93
        0
300

 40
0.0
140
1.0
 94
        5
 62
     0
340
11
144
0.18
309
CONTENTFORMAT_END
171
     1
301
MARGIN
  1
CELLMARGIN_BEGIN
 40
0.06
 40
0.06
 40
0.06
 40
0.06
 40
0.06
 40
0.06
309
CELLMARGIN_END
 94
        6
 95
        1
302
GRIDFORMAT
  1
GRIDFORMAT_BEGIN
 90
        0
 91
        1
 62
     0
 92
       -2
340
14
 93
        0
 40
0.045
309
GRIDFORMAT_END
 95
        2
302
GRIDFORMAT
  1
GRIDFORMAT_BEGIN
 90
        0
 91
        1
 62
     0
 92
       -2
340
14
 93
        0
 40
0.045
309
GRIDFORMAT_END
 95
        4
302
GRIDFORMAT
  1
GRIDFORMAT_BEGIN
 90
        0
 91
        1
 62
     0
 92
       -2
340
14
 93
        0
 40
0.045
309
GRIDFORMAT_END
 95
        8
302
GRIDFORMAT
  1
GRIDFORMAT_BEGIN
 90
        0
 91
        1
 62
     0
 92
       -2
340
14
 93
        0
 40
0.045
309
GRIDFORMAT_END
 95
       16
302
GRIDFORMAT
  1
GRIDFORMAT_BEGIN
 90
        0
 91
        1
 62
     0
 92
       -2
340
14
 93
        0
 40
0.045
309
GRIDFORMAT_END
 95
       32
302
GRIDFORMAT
  1
GRIDFORMAT_BEGIN
 90
        0
 91
        1
 62
     0
 92
       -2
340
14
 93
        0
 40
0.045
309
GRIDFORMAT_END
309
TABLEFORMAT_END
  1
CELLSTYLE_BEGIN
 90
        2
 91
        1
300
_HEADER
309
CELLSTYLE_END
300
CELLSTYLE
  1
TABLEFORMAT_BEGIN
 90
        5
170
     1
 91
        0
 92
        0
 62
   257
 93
        1
300
CONTENTFORMAT
  1
CONTENTFORMAT_BEGIN
 90
        0
 91
        0
 92
        4
 93
        0
300

 40
0.0
140
1.0
 94
        2
 62
     0
340
11
144
0.18
309
CONTENTFORMAT_END
171
     1
301
MARGIN
  1
CELLMARGIN_BEGIN
 40
0.06
 40
0.06
 40
0.06
 40
0.06
 40
0.06
 40
0.06
309
CELLMARGIN_END
 94
        6
 95
        1
302
GRIDFORMAT
  1
GRIDFORMAT_BEGIN
 90
        0
 91
        1
 62
     0
 92
       -2
340
14
 93
        0
 40
0.045
309
GRIDFORMAT_END
 95
        2
302
GRIDFORMAT
  1
GRIDFORMAT_BEGIN
 90
        0
 91
        1
 62
     0
 92
       -2
340
14
 93
        0
 40
0.045
309
GRIDFORMAT_END
 95
        4
302
GRIDFORMAT
  1
GRIDFORMAT_BEGIN
 90
        0
 91
        1
 62
     0
 92
       -2
340
14
 93
        0
 40
0.045
309
GRIDFORMAT_END
 95
        8
302
GRIDFORMAT
  1
GRIDFORMAT_BEGIN
 90
        0
 91
        1
 62
     0
 92
       -2
340
14
 93
        0
 40
0.045
309
GRIDFORMAT_END
 95
       16
302
GRIDFORMAT
  1
GRIDFORMAT_BEGIN
 90
        0
 91
        1
 62
     0
 92
       -2
340
14
 93
        0
 40
0.045
309
GRIDFORMAT_END
 95
       32
302
GRIDFORMAT
  1
GRIDFORMAT_BEGIN
 90
        0
 91
        1
 62
     0
 92
       -2
340
14
 93
        0
 40
0.045
309
GRIDFORMAT_END
309
TABLEFORMAT_END
  1
CELLSTYLE_BEGIN
 90
        3
 91
        2
300
_DATA
309
CELLSTYLE_END
  0
ENDSEC
  0
EOF