0
SECTION
  2
HEADER
  9
$ACADVER
  1
AC1027
  9
$ACADMAINTVER
 70
     8
  9
$DWGCODEPAGE
  3
ANSI_1252
  9
$REQUIREDVERSIONS
160
                 0
  9
$COMMENTS
  1
File was created by Cadenas
  9
$CUSTOMPROPERTYTAG
  1
NN
  9
$CUSTOMPROPERTY
  1
S-2000 Pillow Block with Type E Dimensions 2-Bolt Labyrinth Seal Non-Expansion
  9
$CUSTOMPROPERTYTAG
  1
NT
  9
$CUSTOMPROPERTY
  1
S-2000 - E Type - Inch
  9
$CUSTOMPROPERTYTAG
  1
NB
  9
$CUSTOMPROPERTY
  1
071421
  9
$CUSTOMPROPERTYTAG
  1
NBSYN
  9
$CUSTOMPROPERTY
  1
$PN.
  9
$CUSTOMPROPERTYTAG
  1
LINA
  9
$CUSTOMPROPERTY
  1
071421
  9
$CUSTOMPROPERTYTAG
  1
SS
  9
$CUSTOMPROPERTY
  1
3-7/16
  9
$CUSTOMPROPERTYTAG
  1
TYPE
  9
$CUSTOMPROPERTY
  1
Non-Expansion
  9
$CUSTOMPROPERTYTAG
  1
PN
  9
$CUSTOMPROPERTY
  1
071421
  9
$CUSTOMPROPERTYTAG
  1
DESCRIPTION
  9
$CUSTOMPROPERTY
  1
EP2B-S2-307L
  9
$CUSTOMPROPERTYTAG
  1
A
  9
$CUSTOMPROPERTY
  1
4.01
  9
$CUSTOMPROPERTYTAG
  1
B
  9
$CUSTOMPROPERTY
  1
14
  9
$CUSTOMPROPERTYTAG
  1
C
  9
$CUSTOMPROPERTY
  1
3.49
  9
$CUSTOMPROPERTYTAG
  1
DMIN
  9
$CUSTOMPROPERTY
  1
10.81
  9
$CUSTOMPROPERTYTAG
  1
DMAX
  9
$CUSTOMPROPERTY
  1
11.19
  9
$CUSTOMPROPERTYTAG
  1
F
  9
$CUSTOMPROPERTY
  1
7/8
  9
$CUSTOMPROPERTYTAG
  1
G
  9
$CUSTOMPROPERTY
  1
1.19
  9
$CUSTOMPROPERTYTAG
  1
H
  9
$CUSTOMPROPERTY
  1
2.25
  9
$CUSTOMPROPERTYTAG
  1
J
  9
$CUSTOMPROPERTY
  1
7.69
  9
$CUSTOMPROPERTYTAG
  1
L
  9
$CUSTOMPROPERTY
  1
5.5
  9
$CUSTOMPROPERTYTAG
  1
M
  9
$CUSTOMPROPERTY
  1
3.75
  9
$CUSTOMPROPERTYTAG
  1
R
  9
$CUSTOMPROPERTY
  1
1.51
  9
$CUSTOMPROPERTYTAG
  1
S
  9
$CUSTOMPROPERTY
  1
2.5
  9
$CUSTOMPROPERTYTAG
  1
X
  9
$CUSTOMPROPERTY
  1
0.25
  9
$CUSTOMPROPERTYTAG
  1
Y
  9
$CUSTOMPROPERTY
  1
0.025
  9
$CUSTOMPROPERTYTAG
  1
Z
  9
$CUSTOMPROPERTY
  1
4.05
  9
$CUSTOMPROPERTYTAG
  1
CS
  9
$CUSTOMPROPERTY
  1
1/2-13
  9
$CUSTOMPROPERTYTAG
  1
TORQUE
  9
$CUSTOMPROPERTY
  1
620
  9
$CUSTOMPROPERTYTAG
  1
COMPANY
  9
$CUSTOMPROPERTY
  1
baldor
  9
$INSBASE
 10
0.0
 20
0.0
 30
0.0
  9
$EXTMIN
 10
1.000000000000000E+20
 20
1.000000000000000E+20
 30
1.000000000000000E+20
  9
$EXTMAX
 10
-1.000000000000000E+20
 20
-1.000000000000000E+20
 30
-1.000000000000000E+20
  9
$LIMMIN
 10
0.0
 20
0.0
  9
$LIMMAX
 10
12.0
 20
9.0
  9
$ORTHOMODE
 70
     0
  9
$REGENMODE
 70
     1
  9
$FILLMODE
 70
     1
  9
$QTEXTMODE
 70
     0
  9
$MIRRTEXT
 70
     1
  9
$LTSCALE
 40
1.0
  9
$ATTMODE
 70
     1
  9
$TEXTSIZE
 40
0.2
  9
$TRACEWID
 40
0.05
  9
$TEXTSTYLE
  7
Standard
  9
$CLAYER
  8
0
  9
$CELTYPE
  6
ByLayer
  9
$CECOLOR
 62
   256
  9
$CELTSCALE
 40
1.0
  9
$DISPSILH
 70
     0
  9
$DIMSCALE
 40
1.0
  9
$DIMASZ
 40
0.18
  9
$DIMEXO
 40
0.0625
  9
$DIMDLI
 40
0.38
  9
$DIMRND
 40
0.0
  9
$DIMDLE
 40
0.0
  9
$DIMEXE
 40
0.18
  9
$DIMTP
 40
0.0
  9
$DIMTM
 40
0.0
  9
$DIMTXT
 40
0.18
  9
$DIMCEN
 40
0.09
  9
$DIMTSZ
 40
0.0
  9
$DIMTOL
 70
     0
  9
$DIMLIM
 70
     0
  9
$DIMTIH
 70
     1
  9
$DIMTOH
 70
     1
  9
$DIMSE1
 70
     0
  9
$DIMSE2
 70
     0
  9
$DIMTAD
 70
     0
  9
$DIMZIN
 70
     0
  9
$DIMBLK
  1

  9
$DIMASO
 70
     1
  9
$DIMSHO
 70
     1
  9
$DIMPOST
  1

  9
$DIMAPOST
  1

  9
$DIMALT
 70
     0
  9
$DIMALTD
 70
     2
  9
$DIMALTF
 40
25.4
  9
$DIMLFAC
 40
1.0
  9
$DIMTOFL
 70
     0
  9
$DIMTVP
 40
0.0
  9
$DIMTIX
 70
     0
  9
$DIMSOXD
 70
     0
  9
$DIMSAH
 70
     0
  9
$DIMBLK1
  1

  9
$DIMBLK2
  1

  9
$DIMSTYLE
  2
Standard
  9
$DIMCLRD
 70
     0
  9
$DIMCLRE
 70
     0
  9
$DIMCLRT
 70
     0
  9
$DIMTFAC
 40
1.0
  9
$DIMGAP
 40
0.09
  9
$DIMJUST
 70
     0
  9
$DIMSD1
 70
     0
  9
$DIMSD2
 70
     0
  9
$DIMTOLJ
 70
     1
  9
$DIMTZIN
 70
     0
  9
$DIMALTZ
 70
     0
  9
$DIMALTTZ
 70
     0
  9
$DIMUPT
 70
     0
  9
$DIMDEC
 70
     4
  9
$DIMTDEC
 70
     4
  9
$DIMALTU
 70
     2
  9
$DIMALTTD
 70
     2
  9
$DIMTXSTY
  7
Standard
  9
$DIMAUNIT
 70
     0
  9
$DIMADEC
 70
     0
  9
$DIMALTRND
 40
0.0
  9
$DIMAZIN
 70
     0
  9
$DIMDSEP
 70
    46
  9
$DIMATFIT
 70
     3
  9
$DIMFRAC
 70
     0
  9
$DIMLDRBLK
  1

  9
$DIMLUNIT
 70
     2
  9
$DIMLWD
 70
    -2
  9
$DIMLWE
 70
    -2
  9
$DIMTMOVE
 70
     0
  9
$DIMFXL
 40
1.0
  9
$DIMFXLON
 70
     0
  9
$DIMJOGANG
 40
0.7853981633974483
  9
$DIMTFILL
 70
     0
  9
$DIMTFILLCLR
 70
     0
  9
$DIMARCSYM
 70
     0
  9
$DIMLTYPE
  6

  9
$DIMLTEX1
  6

  9
$DIMLTEX2
  6

  9
$DIMTXTDIRECTION
 70
     0
  9
$LUNITS
 70
     2
  9
$LUPREC
 70
     4
  9
$SKETCHINC
 40
0.1
  9
$FILLETRAD
 40
0.5
  9
$AUNITS
 70
     0
  9
$AUPREC
 70
     0
  9
$MENU
  1
.
  9
$ELEVATION
 40
0.0
  9
$PELEVATION
 40
0.0
  9
$THICKNESS
 40
0.0
  9
$LIMCHECK
 70
     0
  9
$CHAMFERA
 40
0.0
  9
$CHAMFERB
 40
0.0
  9
$CHAMFERC
 40
0.0
  9
$CHAMFERD
 40
0.0
  9
$SKPOLY
 70
     0
  9
$TDCREATE
 40
2458168.975861481
  9
$TDUCREATE
 40
2458168.934194815
  9
$TDUPDATE
 40
2458168.975861667
  9
$TDUUPDATE
 40
2458168.934195
  9
$TDINDWG
 40
0.0000000116
  9
$TDUSRTIMER
 40
0.0000000116
  9
$USRTIMER
 70
     1
  9
$ANGBASE
 50
0.0
  9
$ANGDIR
 70
     0
  9
$PDMODE
 70
     0
  9
$PDSIZE
 40
0.0
  9
$PLINEWID
 40
0.0
  9
$SPLFRAME
 70
     0
  9
$SPLINETYPE
 70
     6
  9
$SPLINESEGS
 70
     8
  9
$HANDSEED
  5
220
  9
$SURFTAB1
 70
     6
  9
$SURFTAB2
 70
     6
  9
$SURFTYPE
 70
     6
  9
$SURFU
 70
     6
  9
$SURFV
 70
     6
  9
$UCSBASE
  2

  9
$UCSNAME
  2

  9
$UCSORG
 10
0.0
 20
0.0
 30
0.0
  9
$UCSXDIR
 10
1.0
 20
0.0
 30
0.0
  9
$UCSYDIR
 10
0.0
 20
1.0
 30
0.0
  9
$UCSORTHOREF
  2

  9
$UCSORTHOVIEW
 70
     0
  9
$UCSORGTOP
 10
0.0
 20
0.0
 30
0.0
  9
$UCSORGBOTTOM
 10
0.0
 20
0.0
 30
0.0
  9
$UCSORGLEFT
 10
0.0
 20
0.0
 30
0.0
  9
$UCSORGRIGHT
 10
0.0
 20
0.0
 30
0.0
  9
$UCSORGFRONT
 10
0.0
 20
0.0
 30
0.0
  9
$UCSORGBACK
 10
0.0
 20
0.0
 30
0.0
  9
$PUCSBASE
  2

  9
$PUCSNAME
  2

  9
$PUCSORG
 10
0.0
 20
0.0
 30
0.0
  9
$PUCSXDIR
 10
1.0
 20
0.0
 30
0.0
  9
$PUCSYDIR
 10
0.0
 20
1.0
 30
0.0
  9
$PUCSORTHOREF
  2

  9
$PUCSORTHOVIEW
 70
     0
  9
$PUCSORGTOP
 10
0.0
 20
0.0
 30
0.0
  9
$PUCSORGBOTTOM
 10
0.0
 20
0.0
 30
0.0
  9
$PUCSORGLEFT
 10
0.0
 20
0.0
 30
0.0
  9
$PUCSORGRIGHT
 10
0.0
 20
0.0
 30
0.0
  9
$PUCSORGFRONT
 10
0.0
 20
0.0
 30
0.0
  9
$PUCSORGBACK
 10
0.0
 20
0.0
 30
0.0
  9
$USERI1
 70
     0
  9
$USERI2
 70
     0
  9
$USERI3
 70
     0
  9
$USERI4
 70
     0
  9
$USERI5
 70
     0
  9
$USERR1
 40
0.0
  9
$USERR2
 40
0.0
  9
$USERR3
 40
0.0
  9
$USERR4
 40
0.0
  9
$USERR5
 40
0.0
  9
$WORLDVIEW
 70
     1
  9
$SHADEDGE
 70
     3
  9
$SHADEDIF
 70
    70
  9
$TILEMODE
 70
     1
  9
$MAXACTVP
 70
    64
  9
$PINSBASE
 10
0.0
 20
0.0
 30
0.0
  9
$PLIMCHECK
 70
     0
  9
$PEXTMIN
 10
1.000000000000000E+20
 20
1.000000000000000E+20
 30
1.000000000000000E+20
  9
$PEXTMAX
 10
-1.000000000000000E+20
 20
-1.000000000000000E+20
 30
-1.000000000000000E+20
  9
$PLIMMIN
 10
0.0
 20
0.0
  9
$PLIMMAX
 10
12.0
 20
9.0
  9
$UNITMODE
 70
     0
  9
$VISRETAIN
 70
     1
  9
$PLINEGEN
 70
     0
  9
$PSLTSCALE
 70
     1
  9
$TREEDEPTH
 70
  3020
  9
$CMLSTYLE
  2
Standard
  9
$CMLJUST
 70
     0
  9
$CMLSCALE
 40
1.0
  9
$PROXYGRAPHICS
 70
     1
  9
$MEASUREMENT
 70
     0
  9
$CELWEIGHT
370
    -1
  9
$ENDCAPS
280
     0
  9
$JOINSTYLE
280
     0
  9
$LWDISPLAY
290
     0
  9
$INSUNITS
 70
     1
  9
$HYPERLINKBASE
  1

  9
$STYLESHEET
  1

  9
$XEDIT
290
     1
  9
$CEPSNTYPE
380
     0
  9
$PSTYLEMODE
290
     1
  9
$FINGERPRINTGUID
  2
{FF94EE61-F20C-4B11-8515-63AF7054C259}
  9
$VERSIONGUID
  2
{FAEB1C32-E019-11D5-929B-00C0DF256EC4}
  9
$EXTNAMES
290
     1
  9
$PSVPSCALE
 40
0.0
  9
$OLESTARTUP
290
     0
  9
$SORTENTS
280
   127
  9
$INDEXCTL
280
     0
  9
$HIDETEXT
280
     1
  9
$XCLIPFRAME
280
     2
  9
$HALOGAP
280
     0
  9
$OBSCOLOR
 70
   257
  9
$OBSLTYPE
280
     0
  9
$INTERSECTIONDISPLAY
280
     0
  9
$INTERSECTIONCOLOR
 70
   257
  9
$DIMASSOC
280
     2
  9
$PROJECTNAME
  1

  9
$CAMERADISPLAY
290
     0
  9
$LENSLENGTH
 40
50.0
  9
$CAMERAHEIGHT
 40
0.0
  9
$STEPSPERSEC
 40
2.0
  9
$STEPSIZE
 40
6.0
  9
$3DDWFPREC
 40
2.0
  9
$PSOLWIDTH
 40
0.25
  9
$PSOLHEIGHT
 40
4.0
  9
$LOFTANG1
 40
1.570796326794897
  9
$LOFTANG2
 40
1.570796326794897
  9
$LOFTMAG1
 40
0.0
  9
$LOFTMAG2
 40
0.0
  9
$LOFTPARAM
 70
     7
  9
$LOFTNORMALS
280
     1
  9
$LATITUDE
 40
37.795
  9
$LONGITUDE
 40
-122.394
  9
$NORTHDIRECTION
 40
0.0
  9
$TIMEZONE
 70
 -8000
  9
$LIGHTGLYPHDISPLAY
280
     1
  9
$TILEMODELIGHTSYNCH
280
     1
  9
$CMATERIAL
347
44
  9
$SOLIDHIST
280
     0
  9
$SHOWHIST
280
     1
  9
$DWFFRAME
280
     2
  9
$DGNFRAME
280
     2
  9
$REALWORLDSCALE
290
     1
  9
$INTERFERECOLOR
 62
   256
  9
$CSHADOW
280
     0
  9
$SHADOWPLANELOCATION
 40
0.0
  0
ENDSEC
  0
SECTION
  2
CLASSES
  0
CLASS
  1
ACDBDICTIONARYWDFLT
  2
AcDbDictionaryWithDefault
  3
ObjectDBX Classes
 90
        0
 91
        4
280
     0
281
     0
  0
CLASS
  1
VISUALSTYLE
  2
AcDbVisualStyle
  3
ObjectDBX Classes
 90
     4095
 91
        4
280
     0
281
     0
  0
CLASS
  1
MATERIAL
  2
AcDbMaterial
  3
ObjectDBX Classes
 90
     1153
 91
        4
280
     0
281
     0
  0
CLASS
  1
SCALE
  2
AcDbScale
  3
ObjectDBX Classes
 90
     1153
 91
        4
280
     0
281
     0
  0
CLASS
  1
TABLESTYLE
  2
AcDbTableStyle
  3
ObjectDBX Classes
 90
     4095
 91
        4
280
     0
281
     0
  0
CLASS
  1
MLEADERSTYLE
  2
AcDbMLeaderStyle
  3
ACDB_MLEADERSTYLE_CLASS
 90
     4095
 91
        4
280
     0
281
     0
  0
CLASS
  1
SUN
  2
AcDbSun
  3
SCENEOE
 90
     1153
 91
        4
280
     0
281
     0
  0
CLASS
  1
DICTIONARYVAR
  2
AcDbDictionaryVar
  3
ObjectDBX Classes
 90
        0
 91
        4
280
     0
281
     0
  0
CLASS
  1
CELLSTYLEMAP
  2
AcDbCellStyleMap
  3
ObjectDBX Classes
 90
     1152
 91
        4
280
     0
281
     0
  0
ENDSEC
  0
SECTION
  2
TABLES
  0
TABLE
  2
VPORT
  5
8
330
0
100
AcDbSymbolTable
 70
     1
  0
VPORT
  5
29
330
8
100
AcDbSymbolTableRecord
100
AcDbViewportTableRecord
  2
*Active
 70
     0
 10
0.0
 20
0.0
 11
1.0
 21
1.0
 12
-0.0830000000000002
 22
0.0950000000000006
 13
0.0
 23
0.0
 14
0.5
 24
0.5
 15
0.5
 25
0.5
 16
0.0
 26
0.0
 36
1.0
 17
0.0
 27
0.0
 37
0.0
 40
7.843800000000002
 41
0.6806241872561765
 42
50.0
 43
0.0
 44
0.0
 50
0.0
 51
0.0
 71
     0
 72
   100
 73
     1
 74
     3
 75
     0
 76
     0
 77
     0
 78
     0
281
     0
 65
     1
110
0.0
120
0.0
130
0.0
111
1.0
121
0.0
131
0.0
112
0.0
122
1.0
132
0.0
 79
     0
146
0.0
348
2F
 60
     3
 61
     5
292
     1
282
     1
141
0.0
142
0.0
 63
   250
361
6D
  0
ENDTAB
  0
TABLE
  2
LTYPE
  5
5
330
0
100
AcDbSymbolTable
 70
     3
  0
LTYPE
  5
14
330
5
100
AcDbSymbolTableRecord
100
AcDbLinetypeTableRecord
  2
ByBlock
 70
     0
  3

 72
    65
 73
     0
 40
0.0
  0
LTYPE
  5
15
330
5
100
AcDbSymbolTableRecord
100
AcDbLinetypeTableRecord
  2
ByLayer
 70
     0
  3

 72
    65
 73
     0
 40
0.0
  0
LTYPE
  5
16
330
5
100
AcDbSymbolTableRecord
100
AcDbLinetypeTableRecord
  2
Continuous
 70
     0
  3
Solid line
 72
    65
 73
     0
 40
0.0
  0
LTYPE
  5
A8
330
5
100
AcDbSymbolTableRecord
100
AcDbLinetypeTableRecord
  2
Dashed
 70
     0
  3

 72
    65
 73
     2
 40
2.0
 49
1.0
 74
     0
 49
-1.0
 74
     0
  0
LTYPE
  5
13E
330
5
100
AcDbSymbolTableRecord
100
AcDbLinetypeTableRecord
  2
Center
 70
     0
  3

 72
    65
 73
     4
 40
1.5
 49
0.45
 74
     0
 49
-0.5
 74
     0
 49
0.05
 74
     0
 49
-0.5
 74
     0
  0
ENDTAB
  0
TABLE
  2
LAYER
  5
2
330
0
100
AcDbSymbolTable
 70
     7
  0
LAYER
  5
10
330
2
100
AcDbSymbolTableRecord
100
AcDbLayerTableRecord
  2
0
 70
     0
 62
     7
  6
Continuous
370
    -3
390
F
347
46
348
0
  0
LAYER
  5
72
330
2
100
AcDbSymbolTableRecord
100
AcDbLayerTableRecord
  2
AM_6
 70
     0
 62
    -2
  6
Continuous
370
    35
390
F
347
46
348
0
  0
LAYER
  5
A9
330
2
100
AcDbSymbolTableRecord
100
AcDbLayerTableRecord
  2
AM_9
 70
     0
 62
     6
  6
Dashed
370
    25
390
F
347
46
348
0
  0
LAYER
  5
C4
330
2
100
AcDbSymbolTableRecord
100
AcDbLayerTableRecord
  2
AM_5
 70
     0
 62
     3
  6
Continuous
370
    25
390
F
347
46
348
0
  0
LAYER
  5
C9
330
2
100
AcDbSymbolTableRecord
100
AcDbLayerTableRecord
  2
AM_4
 70
     0
 62
     7
  6
Continuous
370
    50
390
F
347
46
348
0
  0
LAYER
  5
13F
330
2
100
AcDbSymbolTableRecord
100
AcDbLayerTableRecord
  2
AM_7
 70
     0
 62
     7
  6
Center
370
    25
390
F
347
46
348
0
  0
LAYER
  5
20F
330
2
100
AcDbSymbolTableRecord
100
AcDbLayerTableRecord
  2
ConnectionPoints
 70
     0
 62
     7
  6
Continuous
370
    50
390
F
347
46
348
0
  0
ENDTAB
  0
TABLE
  2
STYLE
  5
3
330
0
100
AcDbSymbolTable
 70
     1
  0
STYLE
  5
11
330
3
100
AcDbSymbolTableRecord
100
AcDbTextStyleTableRecord
  2
Standard
 70
     0
 40
0.0
 41
1.0
 50
0.0
 71
     0
 42
0.2
  3
txt
  4

  0
ENDTAB
  0
TABLE
  2
VIEW
  5
6
330
0
100
AcDbSymbolTable
 70
     0
  0
ENDTAB
  0
TABLE
  2
UCS
  5
7
330
0
100
AcDbSymbolTable
 70
     0
  0
ENDTAB
  0
TABLE
  2
APPID
  5
9
330
0
100
AcDbSymbolTable
 70
     1
  0
APPID
  5
12
330
9
100
AcDbSymbolTableRecord
100
AcDbRegAppTableRecord
  2
ACAD
 70
     0
  0
ENDTAB
  0
TABLE
  2
DIMSTYLE
  5
A
330
0
100
AcDbSymbolTable
 70
     1
100
AcDbDimStyleTable
  0
DIMSTYLE
105
27
330
A
100
AcDbSymbolTableRecord
100
AcDbDimStyleTableRecord
  2
Standard
 70
     0
178
     0
340
11
  0
ENDTAB
  0
TABLE
  2
BLOCK_RECORD
  5
1
330
0
100
AcDbSymbolTable
 70
     6
  0
BLOCK_RECORD
  5
1F
330
1
100
AcDbSymbolTableRecord
100
AcDbBlockTableRecord
  2
*Model_Space
340
22
 70
     0
280
     1
281
     0
  0
BLOCK_RECORD
  5
1B
330
1
100
AcDbSymbolTableRecord
100
AcDbBlockTableRecord
  2
*Paper_Space
340
1E
 70
     0
280
     1
281
     0
  0
BLOCK_RECORD
  5
23
330
1
100
AcDbSymbolTableRecord
100
AcDbBlockTableRecord
  2
*Paper_Space0
340
26
 70
     0
280
     1
281
     0
  0
BLOCK_RECORD
  5
6E
330
1
100
AcDbSymbolTableRecord
100
AcDbBlockTableRecord
  2
1_071421_2
340
0
102
{BLKREFS
331
6F
102
}
 70
     0
280
     1
281
     0
  0
BLOCK_RECORD
  5
8F
330
1
100
AcDbSymbolTableRecord
100
AcDbBlockTableRecord
  2
2_3_7_16CS2i_0_in_071421_2
340
0
102
{BLKREFS
331
90
102
}
 70
     0
280
     1
281
     0
  0
BLOCK_RECORD
  5
E3
330
1
100
AcDbSymbolTableRecord
100
AcDbBlockTableRecord
  2
3_070012i_0_in_071421_2
340
0
102
{BLKREFS
331
E4
102
}
 70
     0
280
     1
281
     0
  0
BLOCK_RECORD
  5
145
330
1
100
AcDbSymbolTableRecord
100
AcDbBlockTableRecord
  2
4_405015E_Inch_0_in_071421_2
340
0
102
{BLKREFS
331
146
102
}
 70
     0
280
     1
281
     0
  0
BLOCK_RECORD
  5
1A8
330
1
100
AcDbSymbolTableRecord
100
AcDbBlockTableRecord
  2
5_B071432_0_in_071421_2
340
0
102
{BLKREFS
331
1A9
102
}
 70
     0
280
     1
281
     0
  0
ENDTAB
  0
ENDSEC
  0
SECTION
  2
BLOCKS
  0
BLOCK
  5
20
330
1F
100
AcDbEntity
  8
0
100
AcDbBlockBegin
  2
*Model_Space
 70
     0
 10
0.0
 20
0.0
 30
0.0
  3
*Model_Space
  1

  0
ENDBLK
  5
21
330
1F
100
AcDbEntity
  8
0
100
AcDbBlockEnd
  0
BLOCK
  5
1C
330
1B
100
AcDbEntity
 67
     1
  8
0
100
AcDbBlockBegin
  2
*Paper_Space
 70
     0
 10
0.0
 20
0.0
 30
0.0
  3
*Paper_Space
  1

  0
ENDBLK
  5
1D
330
1B
100
AcDbEntity
 67
     1
  8
0
100
AcDbBlockEnd
  0
BLOCK
  5
24
330
23
100
AcDbEntity
  8
0
100
AcDbBlockBegin
  2
*Paper_Space0
 70
     0
 10
0.0
 20
0.0
 30
0.0
  3
*Paper_Space0
  1

  0
ENDBLK
  5
25
330
23
100
AcDbEntity
  8
0
100
AcDbBlockEnd
  0
BLOCK
  5
70
330
6E
100
AcDbEntity
  8
0
100
AcDbBlockBegin
  2
1_071421_2
 70
     2
 10
0.0
 20
0.0
 30
0.0
  3
1_071421_2
  1

  0
ATTDEF
  5
73
330
6E
100
AcDbEntity
  8
AM_6
100
AcDbText
 10
6.968717948717948
 20
3.94
 30
0.0
 40
0.5
  1
S-2000 Pillow Block with Type E Dimensions 2-Bolt Labyrinth Seal Non-Expansion
100
AcDbAttributeDefinition
  3

  2
NN
 70
     8
280
     0
  0
ATTDEF
  5
74
330
6E
100
AcDbEntity
  8
AM_6
100
AcDbText
 10
6.968717948717948
 20
3.44
 30
0.0
 40
0.5
  1
S-2000 - E Type - Inch
100
AcDbAttributeDefinition
  3

  2
NT
 70
     8
280
     0
  0
ATTDEF
  5
75
330
6E
100
AcDbEntity
  8
AM_6
100
AcDbText
 10
6.968717948717948
 20
2.94
 30
0.0
 40
0.5
  1
071421
100
AcDbAttributeDefinition
  3

  2
NB
 70
     8
280
     0
  0
ATTDEF
  5
76
330
6E
100
AcDbEntity
  8
AM_6
100
AcDbText
 10
6.968717948717948
 20
2.44
 30
0.0
 40
0.5
  1
$PN.
100
AcDbAttributeDefinition
  3

  2
NBSYN
 70
     8
280
     0
  0
ATTDEF
  5
77
330
6E
100
AcDbEntity
  8
AM_6
100
AcDbText
 10
6.968717948717948
 20
1.94
 30
0.0
 40
0.5
  1
071421
100
AcDbAttributeDefinition
  3

  2
LINA
 70
     8
280
     0
  0
ATTDEF
  5
78
330
6E
100
AcDbEntity
  8
AM_6
100
AcDbText
 10
6.968717948717948
 20
1.44
 30
0.0
 40
0.5
  1
3-7/16
100
AcDbAttributeDefinition
  3

  2
SS
 70
     8
280
     0
  0
ATTDEF
  5
79
330
6E
100
AcDbEntity
  8
AM_6
100
AcDbText
 10
6.968717948717948
 20
0.9400000000000004
 30
0.0
 40
0.5
  1
Non-Expansion
100
AcDbAttributeDefinition
  3

  2
TYPE
 70
     8
280
     0
  0
ATTDEF
  5
7A
330
6E
100
AcDbEntity
  8
AM_6
100
AcDbText
 10
6.968717948717948
 20
0.4400000000000004
 30
0.0
 40
0.5
  1
071421
100
AcDbAttributeDefinition
  3

  2
PN
 70
     8
280
     0
  0
ATTDEF
  5
7B
330
6E
100
AcDbEntity
  8
AM_6
100
AcDbText
 10
6.968717948717948
 20
-0.0599999999999996
 30
0.0
 40
0.5
  1
EP2B-S2-307L
100
AcDbAttributeDefinition
  3

  2
DESCRIPTION
 70
     8
280
     0
  0
ATTDEF
  5
7C
330
6E
100
AcDbEntity
  8
AM_6
100
AcDbText
 10
6.968717948717948
 20
-0.5599999999999996
 30
0.0
 40
0.5
  1
4.01
100
AcDbAttributeDefinition
  3

  2
A
 70
     8
280
     0
  0
ATTDEF
  5
7D
330
6E
100
AcDbEntity
  8
AM_6
100
AcDbText
 10
6.968717948717948
 20
-1.06
 30
0.0
 40
0.5
  1
14
100
AcDbAttributeDefinition
  3

  2
B
 70
     8
280
     0
  0
ATTDEF
  5
7E
330
6E
100
AcDbEntity
  8
AM_6
100
AcDbText
 10
6.968717948717948
 20
-1.56
 30
0.0
 40
0.5
  1
3.49
100
AcDbAttributeDefinition
  3

  2
C
 70
     8
280
     0
  0
ATTDEF
  5
7F
330
6E
100
AcDbEntity
  8
AM_6
100
AcDbText
 10
6.968717948717948
 20
-2.06
 30
0.0
 40
0.5
  1
10.81
100
AcDbAttributeDefinition
  3

  2
DMIN
 70
     8
280
     0
  0
ATTDEF
  5
80
330
6E
100
AcDbEntity
  8
AM_6
100
AcDbText
 10
6.968717948717948
 20
-2.56
 30
0.0
 40
0.5
  1
11.19
100
AcDbAttributeDefinition
  3

  2
DMAX
 70
     8
280
     0
  0
ATTDEF
  5
81
330
6E
100
AcDbEntity
  8
AM_6
100
AcDbText
 10
6.968717948717948
 20
-3.06
 30
0.0
 40
0.5
  1
7/8
100
AcDbAttributeDefinition
  3

  2
F
 70
     8
280
     0
  0
ATTDEF
  5
82
330
6E
100
AcDbEntity
  8
AM_6
100
AcDbText
 10
6.968717948717948
 20
-3.56
 30
0.0
 40
0.5
  1
1.19
100
AcDbAttributeDefinition
  3

  2
G
 70
     8
280
     0
  0
ATTDEF
  5
83
330
6E
100
AcDbEntity
  8
AM_6
100
AcDbText
 10
6.968717948717948
 20
-4.06
 30
0.0
 40
0.5
  1
2.25
100
AcDbAttributeDefinition
  3

  2
H
 70
     8
280
     0
  0
ATTDEF
  5
84
330
6E
100
AcDbEntity
  8
AM_6
100
AcDbText
 10
6.968717948717948
 20
-4.56
 30
0.0
 40
0.5
  1
7.69
100
AcDbAttributeDefinition
  3

  2
J
 70
     8
280
     0
  0
ATTDEF
  5
85
330
6E
100
AcDbEntity
  8
AM_6
100
AcDbText
 10
6.968717948717948
 20
-5.06
 30
0.0
 40
0.5
  1
5.5
100
AcDbAttributeDefinition
  3

  2
L
 70
     8
280
     0
  0
ATTDEF
  5
86
330
6E
100
AcDbEntity
  8
AM_6
100
AcDbText
 10
6.968717948717948
 20
-5.56
 30
0.0
 40
0.5
  1
3.75
100
AcDbAttributeDefinition
  3

  2
M
 70
     8
280
     0
  0
ATTDEF
  5
87
330
6E
100
AcDbEntity
  8
AM_6
100
AcDbText
 10
6.968717948717948
 20
-6.06
 30
0.0
 40
0.5
  1
1.51
100
AcDbAttributeDefinition
  3

  2
R
 70
     8
280
     0
  0
ATTDEF
  5
88
330
6E
100
AcDbEntity
  8
AM_6
100
AcDbText
 10
6.968717948717948
 20
-6.56
 30
0.0
 40
0.5
  1
2.5
100
AcDbAttributeDefinition
  3

  2
S
 70
     8
280
     0
  0
ATTDEF
  5
89
330
6E
100
AcDbEntity
  8
AM_6
100
AcDbText
 10
6.968717948717948
 20
-7.06
 30
0.0
 40
0.5
  1
0.25
100
AcDbAttributeDefinition
  3

  2
X
 70
     8
280
     0
  0
ATTDEF
  5
8A
330
6E
100
AcDbEntity
  8
AM_6
100
AcDbText
 10
6.968717948717948
 20
-7.56
 30
0.0
 40
0.5
  1
0.025
100
AcDbAttributeDefinition
  3

  2
Y
 70
     8
280
     0
  0
ATTDEF
  5
8B
330
6E
100
AcDbEntity
  8
AM_6
100
AcDbText
 10
6.968717948717948
 20
-8.059999999999999
 30
0.0
 40
0.5
  1
4.05
100
AcDbAttributeDefinition
  3

  2
Z
 70
     8
280
     0
  0
ATTDEF
  5
8C
330
6E
100
AcDbEntity
  8
AM_6
100
AcDbText
 10
6.968717948717948
 20
-8.559999999999999
 30
0.0
 40
0.5
  1
1/2-13
100
AcDbAttributeDefinition
  3

  2
CS
 70
     8
280
     0
  0
ATTDEF
  5
8D
330
6E
100
AcDbEntity
  8
AM_6
100
AcDbText
 10
6.968717948717948
 20
-9.059999999999999
 30
0.0
 40
0.5
  1
620
100
AcDbAttributeDefinition
  3

  2
TORQUE
 70
     8
280
     0
  0
ATTDEF
  5
8E
330
6E
100
AcDbEntity
  8
AM_6
100
AcDbText
 10
6.968717948717948
 20
-9.559999999999999
 30
0.0
 40
0.5
  1
baldor
100
AcDbAttributeDefinition
  3

  2
COMPANY
 70
     8
280
     0
  0
INSERT
  5
90
330
6E
100
AcDbEntity
  8
0
100
AcDbBlockReference
  2
2_3_7_16CS2i_0_in_071421_2
 10
0.0
 20
0.0
 30
0.0
  0
INSERT
  5
E4
330
6E
100
AcDbEntity
  8
0
100
AcDbBlockReference
  2
3_070012i_0_in_071421_2
 10
0.0
 20
0.0
 30
0.0
  0
INSERT
  5
146
330
6E
100
AcDbEntity
  8
0
100
AcDbBlockReference
  2
4_405015E_Inch_0_in_071421_2
 10
0.0
 20
0.0
 30
0.0
  0
INSERT
  5
1A9
330
6E
100
AcDbEntity
  8
0
100
AcDbBlockReference
  2
5_B071432_0_in_071421_2
 10
0.0
 20
0.0
 30
0.0
  0
ENDBLK
  5
71
330
6E
100
AcDbEntity
  8
0
100
AcDbBlockEnd
  0
BLOCK
  5
91
330
8F
100
AcDbEntity
  8
0
100
AcDbBlockBegin
  2
2_3_7_16CS2i_0_in_071421_2
 70
     2
 10
0.0
 20
0.0
 30
0.0
  3
2_3_7_16CS2i_0_in_071421_2
  1

  0
ATTDEF
  5
93
330
8F
100
AcDbEntity
  8
AM_6
100
AcDbText
 10
3.384
 20
2.75
 30
0.0
 40
0.5
  1
S-2000 Collar -Inch
100
AcDbAttributeDefinition
  3

  2
NN
 70
     8
280
     0
  0
ATTDEF
  5
94
330
8F
100
AcDbEntity
  8
AM_6
100
AcDbText
 10
3.384
 20
2.25
 30
0.0
 40
0.5
  1
S-2000 Bearings
100
AcDbAttributeDefinition
  3

  2
NT
 70
     8
280
     0
  0
ATTDEF
  5
95
330
8F
100
AcDbEntity
  8
AM_6
100
AcDbText
 10
3.384
 20
1.75
 30
0.0
 40
0.5
  1
3-7/16CS2i
100
AcDbAttributeDefinition
  3

  2
NB
 70
     8
280
     0
  0
ATTDEF
  5
96
330
8F
100
AcDbEntity
  8
AM_6
100
AcDbText
 10
3.384
 20
1.25
 30
0.0
 40
0.5
  1
$BORE.CS2i
100
AcDbAttributeDefinition
  3

  2
NBSYN
 70
     8
280
     0
  0
ATTDEF
  5
97
330
8F
100
AcDbEntity
  8
AM_6
100
AcDbText
 10
3.384
 20
0.75
 30
0.0
 40
0.5
  1
3-7/16CS2i
100
AcDbAttributeDefinition
  3

  2
LINA
 70
     8
280
     0
  0
ATTDEF
  5
98
330
8F
100
AcDbEntity
  8
AM_6
100
AcDbText
 10
3.384
 20
0.25
 30
0.0
 40
0.5
  1
3-7/16
100
AcDbAttributeDefinition
  3

  2
BORE
 70
     8
280
     0
  0
ATTDEF
  5
99
330
8F
100
AcDbEntity
  8
AM_6
100
AcDbText
 10
3.384
 20
-0.25
 30
0.0
 40
0.5
  1
3.437500
100
AcDbAttributeDefinition
  3

  2
BORE1
 70
     8
280
     0
  0
ATTDEF
  5
9A
330
8F
100
AcDbEntity
  8
AM_6
100
AcDbText
 10
3.384
 20
-0.75
 30
0.0
 40
0.5
  1
5-1/2
100
AcDbAttributeDefinition
  3

  2
L1
 70
     8
280
     0
  0
ATTDEF
  5
9B
330
8F
100
AcDbEntity
  8
AM_6
100
AcDbText
 10
3.384
 20
-1.25
 30
0.0
 40
0.5
  1
5.50000
100
AcDbAttributeDefinition
  3

  2
L
 70
     8
280
     0
  0
ATTDEF
  5
9C
330
8F
100
AcDbEntity
  8
AM_6
100
AcDbText
 10
3.384
 20
-1.75
 30
0.0
 40
0.5
  1
5.50000
100
AcDbAttributeDefinition
  3

  2
L2
 70
     8
280
     0
  0
ATTDEF
  5
9D
330
8F
100
AcDbEntity
  8
AM_6
100
AcDbText
 10
3.384
 20
-2.25
 30
0.0
 40
0.5
  1
5.00
100
AcDbAttributeDefinition
  3

  2
A
 70
     8
280
     0
  0
ATTDEF
  5
9E
330
8F
100
AcDbEntity
  8
AM_6
100
AcDbText
 10
3.384
 20
-2.75
 30
0.0
 40
0.5
  1
2.25
100
AcDbAttributeDefinition
  3

  2
B
 70
     8
280
     0
  0
ATTDEF
  5
9F
330
8F
100
AcDbEntity
  8
AM_6
100
AcDbText
 10
3.384
 20
-3.25
 30
0.0
 40
0.5
  1
4.24
100
AcDbAttributeDefinition
  3

  2
C
 70
     8
280
     0
  0
ATTDEF
  5
A0
330
8F
100
AcDbEntity
  8
AM_6
100
AcDbText
 10
3.384
 20
-3.75
 30
0.0
 40
0.5
  1
5.84
100
AcDbAttributeDefinition
  3

  2
D
 70
     8
280
     0
  0
ATTDEF
  5
A1
330
8F
100
AcDbEntity
  8
AM_6
100
AcDbText
 10
3.384
 20
-4.25
 30
0.0
 40
0.5
  1
0.54
100
AcDbAttributeDefinition
  3

  2
E
 70
     8
280
     0
  0
ATTDEF
  5
A2
330
8F
100
AcDbEntity
  8
AM_6
100
AcDbText
 10
3.384
 20
-4.75
 30
0.0
 40
0.5
  1
0.442
100
AcDbAttributeDefinition
  3

  2
F
 70
     8
280
     0
  0
ATTDEF
  5
A3
330
8F
100
AcDbEntity
  8
AM_6
100
AcDbText
 10
3.384
 20
-5.25
 30
0.0
 40
0.5
  1
1/2-13
100
AcDbAttributeDefinition
  3

  2
CS
 70
     8
280
     0
  0
ATTDEF
  5
A4
330
8F
100
AcDbEntity
  8
AM_6
100
AcDbText
 10
3.384
 20
-5.75
 30
0.0
 40
0.5
  1
0.5000
100
AcDbAttributeDefinition
  3

  2
NDM
 70
     8
280
     0
  0
ATTDEF
  5
A5
330
8F
100
AcDbEntity
  8
AM_6
100
AcDbText
 10
3.384
 20
-6.25
 30
0.0
 40
0.5
  1
0.4170
100
AcDbAttributeDefinition
  3

  2
KDM
 70
     8
280
     0
  0
ATTDEF
  5
A6
330
8F
100
AcDbEntity
  8
AM_6
100
AcDbText
 10
3.384
 20
-6.75
 30
0.0
 40
0.5
  1
2
100
AcDbAttributeDefinition
  3

  2
DD
 70
     8
280
     0
  0
ATTDEF
  5
A7
330
8F
100
AcDbEntity
  8
AM_6
100
AcDbText
 10
3.384
 20
-7.25
 30
0.0
 40
0.5
  1
baldor
100
AcDbAttributeDefinition
  3

  2
COMPANY
 70
     8
280
     0
  0
LINE
  5
AA
330
8F
100
AcDbEntity
  8
AM_9
100
AcDbLine
 10
-1.84965
 20
2.128316666666673
 30
0.0
 11
-1.84965
 21
2.708349999999999
 31
0.0
  0
LINE
  5
AB
330
8F
100
AcDbEntity
  8
AM_9
100
AcDbLine
 10
-2.26635
 20
2.708349999999999
 30
0.0
 11
-2.26635
 21
2.128316666666673
 31
0.0
  0
LINE
  5
AC
330
8F
100
AcDbEntity
  8
AM_9
100
AcDbLine
 10
-2.26635
 20
2.128316666666673
 30
0.0
 11
-1.84965
 21
2.128316666666673
 31
0.0
  0
LINE
  5
AD
330
8F
100
AcDbEntity
  8
AM_9
100
AcDbLine
 10
-2.26635
 20
2.128316666666673
 30
0.0
 11
-2.274326655122925
 21
2.120340011543747
 31
0.0
  0
LINE
  5
AE
330
8F
100
AcDbEntity
  8
AM_9
100
AcDbLine
 10
-1.841622808238076
 20
2.120289474904748
 30
0.0
 11
-1.84965
 21
2.128316666666673
 31
0.0
  0
LINE
  5
AF
330
8F
100
AcDbEntity
  8
AM_9
100
AcDbLine
 10
-2.26635
 20
2.708349999999999
 30
0.0
 11
-1.84965
 21
2.708349999999999
 31
0.0
  0
LINE
  5
B0
330
8F
100
AcDbEntity
  8
AM_9
100
AcDbLine
 10
-1.84965
 20
2.708349999999999
 30
0.0
 11
-1.832550484400175
 21
2.725449515599824
 31
0.0
  0
LINE
  5
B1
330
8F
100
AcDbEntity
  8
AM_9
100
AcDbLine
 10
-2.307779740518853
 20
2.749779740518854
 30
0.0
 11
-2.26635
 21
2.708349999999999
 31
0.0
  0
LWPOLYLINE
  5
B2
330
8F
100
AcDbEntity
  8
AM_9
100
AcDbPolyline
 90
       33
 70
     0
 43
0.0
 10
-1.846088301032041
 20
0.9389070061457301
 10
-1.84837164379955
 20
0.9480167304883548
 10
-1.861364645034806
 20
0.9820358871958423
 10
-1.880630222958651
 20
1.013322024561619
 10
-1.905329963640259
 20
1.040470903864968
 10
-1.93505484563242
 20
1.063256112503843
 10
-1.967493259689727
 20
1.080173263803241
 10
-2.002880521281622
 20
1.091808745021458
 10
-2.037950344360223
 20
1.097450383710989
 10
-2.073628263858184
 20
1.097806206079553
 10
-2.107512587883565
 20
1.093065402581921
 10
-2.140022607819823
 20
1.083575345219367
 10
-2.17051705315346
 20
1.069446891839834
 10
-2.19802086955672
 20
1.051221507161747
 10
-2.22289864190572
 20
1.028260155683471
 10
-2.243319014011173
 20
1.001973630145816
 10
-2.259534341330018
 20
0.9713080817300318
 10
-2.270011660168024
 20
0.9384603132853377
 10
-2.274524871196483
 20
0.9028705789295699
 10
-2.272525336237969
 20
0.8667826360174665
 10
-2.263792464651593
 20
0.8306666761628037
 10
-2.248581458022961
 20
0.7961441815955898
 10
-2.22736109334951
 20
0.7646092471893633
 10
-2.200608322870072
 20
0.7368045473401823
 10
-2.170130238998792
 20
0.714583459955738
 10
-2.135961439144591
 20
0.6977227203400433
 10
-2.101226657961342
 20
0.6875147685228941
 10
-2.065142861238746
 20
0.6832069106349862
 10
-2.030581780542765
 20
0.6848709731065843
 10
-1.996801935484982
 20
0.6919918567810888
 10
-1.964994881265919
 20
0.7042439095664885
 10
-1.935677427931414
 20
0.7211192011086255
 10
-1.896527269720321
 20
0.7553325821002977
  0
LWPOLYLINE
  5
B3
330
8F
100
AcDbEntity
  8
AM_9
100
AcDbPolyline
 90
        5
 70
     0
 43
0.0
 10
-1.896527269720321
 20
0.7553325821002977
 10
-1.877156530532239
 20
0.7801819617212913
 10
-1.861735721553152
 20
0.807191989725588
 10
-1.848981308949325
 20
0.8410753231475865
 10
-1.846018623843986
 20
0.8528592057308233
  0
LINE
  5
B4
330
8F
100
AcDbEntity
  8
AM_9
100
AcDbLine
 10
-2.5
 20
-2.12
 30
0.0
 11
-1.616
 21
-2.12
 31
0.0
  0
LINE
  5
B5
330
8F
100
AcDbEntity
  8
AM_9
100
AcDbLine
 10
-1.616
 20
2.12
 30
0.0
 11
-1.841987010698908
 21
2.12
 31
0.0
  0
LINE
  5
B6
330
8F
100
AcDbEntity
  8
AM_9
100
AcDbLine
 10
-2.273899334973036
 20
2.12
 30
0.0
 11
-2.5
 21
2.12
 31
0.0
  0
LWPOLYLINE
  5
B7
330
8F
100
AcDbEntity
  8
AM_9
100
AcDbPolyline
 90
       21
 70
     0
 43
0.0
 10
-2.274666666666601
 20
2.119999999999992
 10
-2.274182956173149
 20
2.119944996509076
 10
-2.268206316388953
 20
2.119275271596194
 10
-2.255861595767474
 20
2.117950007450867
 10
-2.236710338956812
 20
2.116049490654317
 10
-2.212763064002314
 20
2.113940558988845
 10
-2.182851475392249
 20
2.111726765405039
 10
-2.151136256702722
 20
2.109892892457725
 10
-2.115273549354083
 20
2.108459575893357
 10
-2.080772149730405
 20
2.107724895794852
 10
-2.04448409531838
 20
2.10763550093538
 10
-2.010993293924177
 20
2.108174829241165
 10
-1.977890231451793
 20
2.10929348643794
 10
-1.947636014858388
 20
2.110823294463101
 10
-1.919581632183131
 20
2.112672808573442
 10
-1.894772845840059
 20
2.114651870692609
 10
-1.873816305205835
 20
2.11657330240036
 10
-1.857453515472044
 20
2.118231574436285
 10
-1.846466031346456
 20
2.119422462789338
 10
-1.841566681920972
 20
2.119973450609591
 10
-1.841333333333559
 20
2.119999999999973
  0
ELLIPSE
  5
B8
330
8F
100
AcDbEntity
  8
AM_9
100
AcDbEllipse
 10
-2.057999999999996
 20
0.8994654901004263
 30
0.0
 11
0.2083500000000038
 21
0.0
 31
0.0
210
0.0
220
0.0
230
1.0
 40
0.9063077870366526
 41
2.435210810815691
 42
3.141592653589793
  0
LINE
  5
B9
330
8F
100
AcDbEntity
  8
AM_9
100
AcDbLine
 10
-1.84965
 20
0.8994654901004289
 30
0.0
 11
-1.84965
 21
1.144598169185423
 31
0.0
  0
LINE
  5
BA
330
8F
100
AcDbEntity
  8
AM_9
100
AcDbLine
 10
-2.26635
 20
1.144598169185423
 30
0.0
 11
-2.26635
 21
0.8994654901004289
 31
0.0
  0
ELLIPSE
  5
BB
330
8F
100
AcDbEntity
  8
AM_9
100
AcDbEllipse
 10
-2.057999999999999
 20
0.8994654901004289
 30
0.0
 11
0.2083499999999998
 21
0.0
 31
0.0
210
0.0
220
0.0
230
1.0
 40
0.9063077870366505
 41
3.141592653589793
 42
6.283185307179586
  0
ELLIPSE
  5
BC
330
8F
100
AcDbEntity
  8
AM_9
100
AcDbEllipse
 10
-2.057999999999998
 20
0.8994654901004283
 30
0.0
 11
0.2083499999999983
 21
0.0
 31
0.0
210
0.0
220
0.0
230
1.0
 40
0.9063077870366512
 41
0.0
 42
0.7063818427741079
  0
LINE
  5
BD
330
8F
100
AcDbEntity
  8
AM_9
100
AcDbLine
 10
-1.660787456445993
 20
-2.619047619047619
 30
0.0
 11
-1.616
 21
-2.619047619047619
 31
0.0
  0
LINE
  5
BE
330
8F
100
AcDbEntity
  8
AM_9
100
AcDbLine
 10
-1.615999999999999
 20
-0.5437772432673403
 30
0.0
 11
-1.616
 21
-2.619047619047619
 31
0.0
  0
LINE
  5
BF
330
8F
100
AcDbEntity
  8
AM_9
100
AcDbLine
 10
-1.745
 20
-2.682926829268293
 30
0.0
 11
-1.724666666666667
 21
-2.682926829268293
 31
0.0
  0
LINE
  5
C0
330
8F
100
AcDbEntity
  8
AM_9
100
AcDbLine
 10
-1.724666666666667
 20
-2.682926829268293
 30
0.0
 11
-1.660787456445993
 21
-2.619047619047619
 31
0.0
  0
LINE
  5
C1
330
8F
100
AcDbEntity
  8
AM_9
100
AcDbLine
 10
-1.724666666666666
 20
-0.9003077142751684
 30
0.0
 11
-1.724666666666667
 21
-2.682926829268293
 31
0.0
  0
LINE
  5
C2
330
8F
100
AcDbEntity
  8
AM_9
100
AcDbLine
 10
-1.660787456445993
 20
-0.619185520719647
 30
0.0
 11
-1.660787456445993
 21
-2.619047619047619
 31
0.0
  0
LINE
  5
C3
330
8F
100
AcDbEntity
  8
AM_9
100
AcDbLine
 10
-1.846724713177353
 20
1.044941912550958
 30
0.0
 11
-1.846724713177353
 21
1.276939649633282
 31
0.0
  0
LINE
  5
C5
330
8F
100
AcDbEntity
  8
AM_5
100
AcDbLine
 10
-2.308
 20
2.75
 30
0.0
 11
-2.308
 21
2.12
 31
0.0
  0
LINE
  5
C6
330
8F
100
AcDbEntity
  8
AM_5
100
AcDbLine
 10
-2.183
 20
2.086666666666667
 30
0.0
 11
-2.308
 21
2.086666666666667
 31
0.0
  0
LINE
  5
C7
330
8F
100
AcDbEntity
  8
AM_5
100
AcDbLine
 10
-1.808
 20
2.682926829268293
 30
0.0
 11
-1.808
 21
2.12
 31
0.0
  0
LINE
  5
C8
330
8F
100
AcDbEntity
  8
AM_5
100
AcDbLine
 10
-1.933
 20
2.086666666666667
 30
0.0
 11
-1.808
 21
2.086666666666667
 31
0.0
  0
ELLIPSE
  5
CA
330
8F
100
AcDbEntity
  8
AM_4
100
AcDbEllipse
 10
-2.058
 20
0.8994654901004296
 30
0.0
 11
0.2083499999999991
 21
0.0
 31
0.0
210
0.0
220
0.0
230
1.0
 40
0.9063077870366484
 41
0.7063818427740989
 42
2.435210810815688
  0
ELLIPSE
  5
CB
330
8F
100
AcDbEntity
  8
AM_4
100
AcDbEllipse
 10
-2.058
 20
1.144598169185423
 30
0.0
 11
0.20835
 21
0.0
 31
0.0
210
0.0
220
0.0
230
1.0
 40
0.9063077870366492
 41
1.570796326794897
 42
6.283185307179586
  0
ELLIPSE
  5
CC
330
8F
100
AcDbEntity
  8
AM_4
100
AcDbEllipse
 10
-2.057999999999998
 20
1.144598169185424
 30
0.0
 11
0.2083499999999987
 21
0.0
 31
0.0
210
0.0
220
0.0
230
1.0
 40
0.9063077870366508
 41
0.0
 42
1.570796326794897
  0
LINE
  5
CD
330
8F
100
AcDbEntity
  8
AM_4
100
AcDbLine
 10
-1.616
 20
2.619047619047619
 30
0.0
 11
-1.660787456445993
 21
2.619047619047619
 31
0.0
  0
LINE
  5
CE
330
8F
100
AcDbEntity
  8
AM_4
100
AcDbLine
 10
-1.616
 20
2.619047619047619
 30
0.0
 11
-1.615999999999999
 21
-0.5437772432673403
 31
0.0
  0
LINE
  5
CF
330
8F
100
AcDbEntity
  8
AM_4
100
AcDbLine
 10
-1.808
 20
-2.682926829268293
 30
0.0
 11
-1.745
 21
-2.682926829268293
 31
0.0
  0
LINE
  5
D0
330
8F
100
AcDbEntity
  8
AM_4
100
AcDbLine
 10
-1.724666666666667
 20
2.682926829268293
 30
0.0
 11
-1.808
 21
2.682926829268293
 31
0.0
  0
LINE
  5
D1
330
8F
100
AcDbEntity
  8
AM_4
100
AcDbLine
 10
-1.660787456445993
 20
2.619047619047619
 30
0.0
 11
-1.724666666666667
 21
2.682926829268293
 31
0.0
  0
LINE
  5
D2
330
8F
100
AcDbEntity
  8
AM_4
100
AcDbLine
 10
-1.724666666666667
 20
2.682926829268293
 30
0.0
 11
-1.724666666666666
 21
-0.9003077142751684
 31
0.0
  0
LINE
  5
D3
330
8F
100
AcDbEntity
  8
AM_4
100
AcDbLine
 10
-1.660787456445993
 20
2.619047619047619
 30
0.0
 11
-1.660787456445993
 21
-0.619185520719647
 31
0.0
  0
LWPOLYLINE
  5
D4
330
8F
100
AcDbEntity
  8
AM_4
100
AcDbPolyline
 90
        6
 70
     0
 43
0.0
 10
-1.846724713177352
 20
1.276939649633282
 10
-1.836673660914218
 20
1.21669624427342
 10
-1.832572560223108
 20
1.156381140400866
 10
-1.835009433751826
 20
1.10540408740976
 10
-1.843273649081679
 20
1.058019559575621
 10
-1.846724713177352
 20
1.044941912550958
  0
LINE
  5
D5
330
8F
100
AcDbEntity
  8
AM_4
100
AcDbLine
 10
-1.808
 20
2.682926829268293
 30
0.0
 11
-1.832550484400175
 21
2.725449515599824
 31
0.0
  0
LINE
  5
D6
330
8F
100
AcDbEntity
  8
AM_4
100
AcDbLine
 10
-1.846724713177353
 20
-2.75
 30
0.0
 11
-1.808
 21
-2.682926829268293
 31
0.0
  0
LINE
  5
D7
330
8F
100
AcDbEntity
  8
AM_4
100
AcDbLine
 10
-1.832550484400185
 20
2.72544951559984
 30
0.0
 11
-1.846724713177353
 21
2.747019914166474
 31
0.0
  0
LINE
  5
D8
330
8F
100
AcDbEntity
  8
AM_4
100
AcDbLine
 10
-1.808
 20
2.682926829268293
 30
0.0
 11
-1.808
 21
-2.682926829268293
 31
0.0
  0
LINE
  5
D9
330
8F
100
AcDbEntity
  8
AM_4
100
AcDbLine
 10
-2.5
 20
2.602666666666666
 30
0.0
 11
-2.5
 21
-2.602666666666666
 31
0.0
  0
ARC
  5
DA
330
8F
100
AcDbEntity
  8
AM_4
100
AcDbCircle
 10
-2.352666666666666
 20
-2.602666666666666
 30
0.0
 40
0.1473333333333335
100
AcDbArc
 50
180.0
 51
270.0
  0
ARC
  5
DB
330
8F
100
AcDbEntity
  8
AM_4
100
AcDbCircle
 10
-2.352666666666666
 20
2.602666666666667
 30
0.0
 40
0.1473333333333331
100
AcDbArc
 50
90.0
 51
180.0
  0
LWPOLYLINE
  5
DC
330
8F
100
AcDbEntity
  8
AM_4
100
AcDbPolyline
 90
       33
 70
     0
 43
0.0
 10
-1.846724713177352
 20
1.044941912550958
 10
-1.860411962661572
 20
1.027602907798391
 10
-1.885450114642783
 20
1.002868510794355
 10
-1.914130835287552
 20
0.981744895143946
 10
-1.950286086837825
 20
0.962737575028906
 10
-1.989249007059648
 20
0.9493979373121324
 10
-2.03139653093247
 20
0.9419864504039788
 10
-2.074269122406342
 20
0.9411590280280068
 10
-2.117435470264919
 20
0.9471886324942883
 10
-2.158915159390213
 20
0.9599006656108766
 10
-2.197339231748956
 20
0.9789778095160157
 10
-2.231702435605901
 20
1.003839867048518
 10
-2.260152489959865
 20
1.033052977212303
 10
-2.282698409992957
 20
1.066242797302369
 10
-2.297895173868934
 20
1.100886140421256
 10
-2.306341657773876
 20
1.137196827187692
 10
-2.307684794299849
 20
1.172610722742452
 10
-2.302442123040672
 20
1.207495869573692
 10
-2.290907338701842
 20
1.240406484271447
 10
-2.273536707642081
 20
1.271001328437533
 10
-2.250321797502619
 20
1.29901505700733
 10
-2.222331146375685
 20
1.323249432380169
 10
-2.188964721624977
 20
1.34386659659699
 10
-2.152245543701406
 20
1.35947491530948
 10
-2.111550508483123
 20
1.370023650098408
 10
-2.069417706938266
 20
1.374668131757098
 10
-2.025961115066253
 20
1.37314563612111
 10
-1.983403232035851
 20
1.365375485807047
 10
-1.942841599987947
 20
1.35136379081831
 10
-1.905613926317128
 20
1.331485579040766
 10
-1.873495961986845
 20
1.306589872688161
 10
-1.846783425195949
 20
1.277018449182871
 10
-1.846724713177352
 20
1.276939649633282
  0
LINE
  5
DD
330
8F
100
AcDbEntity
  8
AM_4
100
AcDbLine
 10
-1.846724713177353
 20
2.747019914166474
 30
0.0
 11
-1.846724713177352
 21
1.276939649633282
 31
0.0
  0
LWPOLYLINE
  5
DE
330
8F
100
AcDbEntity
  8
AM_4
100
AcDbPolyline
 90
       18
 70
     0
 43
0.0
 10
-1.846724713177353
 20
2.747019914166474
 10
-1.847146436767926
 20
2.746990184524879
 10
-1.871222364772762
 20
2.745390565207143
 10
-1.90067328947817
 20
2.743695366171365
 10
-1.934546539952653
 20
2.742102670193587
 10
-1.972559799806417
 20
2.740771616950282
 10
-2.013241278780395
 20
2.739883106677369
 10
-2.056275474108165
 20
2.739547410119858
 10
-2.099085975827345
 20
2.739830201299746
 10
-2.141945890889933
 20
2.740729169332462
 10
-2.181261135590433
 20
2.742094720107782
 10
-2.218104348550008
 20
2.743842930569446
 10
-2.248560782021025
 20
2.745629200645077
 10
-2.274264044386284
 20
2.747376061130656
 10
-2.292139304565435
 20
2.748719655896724
 10
-2.303758643827456
 20
2.749649510888446
 10
-2.307936325303501
 20
2.749994694441653
 10
-2.30799999999993
 20
2.749999999999994
  0
LINE
  5
DF
330
8F
100
AcDbEntity
  8
AM_4
100
AcDbLine
 10
-1.846724713177352
 20
1.044941912550958
 30
0.0
 11
-1.846724713177353
 21
-2.75
 31
0.0
  0
LINE
  5
E0
330
8F
100
AcDbEntity
  8
AM_4
100
AcDbLine
 10
-2.352666666666666
 20
-2.75
 30
0.0
 11
-1.846724713177353
 21
-2.75
 31
0.0
  0
LINE
  5
E1
330
8F
100
AcDbEntity
  8
AM_4
100
AcDbLine
 10
-2.307592546471252
 20
2.75
 30
0.0
 11
-2.352666666666666
 21
2.75
 31
0.0
  0
LINE
  5
E2
330
8F
100
AcDbEntity
  8
AM_4
100
AcDbLine
 10
-2.352666666666666
 20
2.75
 30
0.0
 11
-2.352666666666666
 21
-2.75
 31
0.0
  0
ENDBLK
  5
92
330
8F
100
AcDbEntity
  8
0
100
AcDbBlockEnd
  0
BLOCK
  5
E5
330
E3
100
AcDbEntity
  8
0
100
AcDbBlockBegin
  2
3_070012i_0_in_071421_2
 70
     2
 10
0.0
 20
0.0
 30
0.0
  3
3_070012i_0_in_071421_2
  1

  0
ATTDEF
  5
E7
330
E3
100
AcDbEntity
  8
AM_6
100
AcDbText
 10
6.5
 20
3.1496
 30
0.0
 40
0.5
  1
S-2000 Insert -Inch
100
AcDbAttributeDefinition
  3

  2
NN
 70
     8
280
     0
  0
ATTDEF
  5
E8
330
E3
100
AcDbEntity
  8
AM_6
100
AcDbText
 10
6.5
 20
2.6496
 30
0.0
 40
0.5
  1
S-2000 Bearings
100
AcDbAttributeDefinition
  3

  2
NT
 70
     8
280
     0
  0
ATTDEF
  5
E9
330
E3
100
AcDbEntity
  8
AM_6
100
AcDbText
 10
6.5
 20
2.1496
 30
0.0
 40
0.5
  1
070012i
100
AcDbAttributeDefinition
  3

  2
NB
 70
     8
280
     0
  0
ATTDEF
  5
EA
330
E3
100
AcDbEntity
  8
AM_6
100
AcDbText
 10
6.5
 20
1.6496
 30
0.0
 40
0.5
  1
$PN.i
100
AcDbAttributeDefinition
  3

  2
NBSYN
 70
     8
280
     0
  0
ATTDEF
  5
EB
330
E3
100
AcDbEntity
  8
AM_6
100
AcDbText
 10
6.5
 20
1.1496
 30
0.0
 40
0.5
  1
070012i
100
AcDbAttributeDefinition
  3

  2
LINA
 70
     8
280
     0
  0
ATTDEF
  5
EC
330
E3
100
AcDbEntity
  8
AM_6
100
AcDbText
 10
6.5
 20
0.6495999999999995
 30
0.0
 40
0.5
  1
3-7/16
100
AcDbAttributeDefinition
  3

  2
SS
 70
     8
280
     0
  0
ATTDEF
  5
ED
330
E3
100
AcDbEntity
  8
AM_6
100
AcDbText
 10
6.5
 20
0.1495999999999995
 30
0.0
 40
0.5
  1
4.24
100
AcDbAttributeDefinition
  3

  2
CC
 70
     8
280
     0
  0
ATTDEF
  5
EE
330
E3
100
AcDbEntity
  8
AM_6
100
AcDbText
 10
6.5
 20
-0.3504000000000005
 30
0.0
 40
0.5
  1
3.437500
100
AcDbAttributeDefinition
  3

  2
SS1
 70
     8
280
     0
  0
ATTDEF
  5
EF
330
E3
100
AcDbEntity
  8
AM_6
100
AcDbText
 10
6.5
 20
-0.8504000000000005
 30
0.0
 40
0.5
  1
070012
100
AcDbAttributeDefinition
  3

  2
PN
 70
     8
280
     0
  0
ATTDEF
  5
F0
330
E3
100
AcDbEntity
  8
AM_6
100
AcDbText
 10
6.5
 20
-1.3504
 30
0.0
 40
0.5
  1
INS-S2-307R
100
AcDbAttributeDefinition
  3

  2
DESCRIPTION
 70
     8
280
     0
  0
ATTDEF
  5
F1
330
E3
100
AcDbEntity
  8
AM_6
100
AcDbText
 10
6.5
 20
-1.8504
 30
0.0
 40
0.5
  1
Contact Seal
100
AcDbAttributeDefinition
  3

  2
ST
 70
     8
280
     0
  0
ATTDEF
  5
F2
330
E3
100
AcDbEntity
  8
AM_6
100
AcDbText
 10
6.5
 20
-2.3504
 30
0.0
 40
0.5
  1
1
100
AcDbAttributeDefinition
  3

  2
ST1
 70
     8
280
     0
  0
ATTDEF
  5
F3
330
E3
100
AcDbEntity
  8
AM_6
100
AcDbText
 10
6.5
 20
-2.8504
 30
0.0
 40
0.5
  1
6.2992
100
AcDbAttributeDefinition
  3

  2
A
 70
     8
280
     0
  0
ATTDEF
  5
F4
330
E3
100
AcDbEntity
  8
AM_6
100
AcDbText
 10
6.5
 20
-3.3504
 30
0.0
 40
0.5
  1
1-5/8
100
AcDbAttributeDefinition
  3

  2
B
 70
     8
280
     0
  0
ATTDEF
  5
F5
330
E3
100
AcDbEntity
  8
AM_6
100
AcDbText
 10
6.5
 20
-3.8504
 30
0.0
 40
0.5
  1
4
100
AcDbAttributeDefinition
  3

  2
C
 70
     8
280
     0
  0
ATTDEF
  5
F6
330
E3
100
AcDbEntity
  8
AM_6
100
AcDbText
 10
6.5
 20
-4.3504
 30
0.0
 40
0.5
  1
1.483
100
AcDbAttributeDefinition
  3

  2
D
 70
     8
280
     0
  0
ATTDEF
  5
F7
330
E3
100
AcDbEntity
  8
AM_6
100
AcDbText
 10
6.5
 20
-4.8504
 30
0.0
 40
0.5
  1
5-1/2
100
AcDbAttributeDefinition
  3

  2
E
 70
     8
280
     0
  0
ATTDEF
  5
F8
330
E3
100
AcDbEntity
  8
AM_6
100
AcDbText
 10
6.5
 20
-5.3504
 30
0.0
 40
0.5
  1
0.34375
100
AcDbAttributeDefinition
  3

  2
F
 70
     8
280
     0
  0
ATTDEF
  5
F9
330
E3
100
AcDbEntity
  8
AM_6
100
AcDbText
 10
6.5
 20
-5.8504
 30
0.0
 40
0.5
  1
2
100
AcDbAttributeDefinition
  3

  2
DD
 70
     8
280
     0
  0
ATTDEF
  5
FA
330
E3
100
AcDbEntity
  8
AM_6
100
AcDbText
 10
6.5
 20
-6.3504
 30
0.0
 40
0.5
  1
baldor
100
AcDbAttributeDefinition
  3

  2
COMPANY
 70
     8
280
     0
  0
LINE
  5
FB
330
E3
100
AcDbEntity
  8
AM_9
100
AcDbLine
 10
-2.328
 20
2.119887205068237
 30
0.0
 11
-2.328
 21
1.71875
 31
0.0
  0
LINE
  5
FC
330
E3
100
AcDbEntity
  8
AM_9
100
AcDbLine
 10
-1.788
 20
1.71875
 30
0.0
 11
-1.788
 21
2.119994481033454
 31
0.0
  0
LINE
  5
FD
330
E3
100
AcDbEntity
  8
AM_9
100
AcDbLine
 10
-2.328
 20
0.8959507148902829
 30
0.0
 11
-2.328
 21
0.7263628634379331
 31
0.0
  0
LINE
  5
FE
330
E3
100
AcDbEntity
  8
AM_9
100
AcDbLine
 10
-1.788
 20
0.7263156090741771
 30
0.0
 11
-1.788
 21
0.8959507148902829
 31
0.0
  0
LWPOLYLINE
  5
FF
330
E3
100
AcDbEntity
  8
AM_9
100
AcDbPolyline
 90
        5
 70
     0
 43
0.0
 10
-2.31093479030518
 20
0.8108932318376569
 10
-2.311969299786925
 20
0.8084042038318122
 10
-2.323729167803696
 20
0.7692985897530739
 10
-2.32799000591361
 20
0.7284799005569292
 10
-2.327999999637359
 20
0.7263878200106415
  0
LWPOLYLINE
  5
100
330
E3
100
AcDbEntity
  8
AM_9
100
AcDbPolyline
 90
        8
 70
     0
 43
0.0
 10
-2.09119971332629
 20
0.9603399180005672
 10
-2.116385712335089
 20
0.9566941169705465
 10
-2.159260800169434
 20
0.9454511188436127
 10
-2.199317665753095
 20
0.9283469548437282
 10
-2.235698055755114
 20
0.9054828135743924
 10
-2.267125260238623
 20
0.8775618075952639
 10
-2.292870321104039
 20
0.8448395911931642
 10
-2.31093479030518
 20
0.8108932318376569
  0
LWPOLYLINE
  5
101
330
E3
100
AcDbEntity
  8
AM_9
100
AcDbPolyline
 90
        8
 70
     0
 43
0.0
 10
-1.804643034951716
 20
0.809888015833677
 10
-1.814103624181008
 20
0.8296937129765707
 10
-1.836781046500949
 20
0.8636767111771961
 10
-1.865558322826185
 20
0.89359211336246
 10
-1.90011937022787
 20
0.9189326588461402
 10
-1.939159349383278
 20
0.9388373786676762
 10
-1.981688120505064
 20
0.9527836230215389
 10
-2.019104277900231
 20
0.9596955385212781
  0
LWPOLYLINE
  5
102
330
E3
100
AcDbEntity
  8
AM_9
100
AcDbPolyline
 90
        4
 70
     0
 43
0.0
 10
-1.788000000932964
 20
0.7263547947639083
 10
-1.78963504481094
 20
0.7531561732517942
 10
-1.798302998529208
 20
0.7925678397556787
 10
-1.804643034951716
 20
0.809888015833677
  0
LWPOLYLINE
  5
103
330
E3
100
AcDbEntity
  8
AM_9
100
AcDbPolyline
 90
       11
 70
     0
 43
0.0
 10
-2.327999999637359
 20
0.7263878200106415
 10
-2.324589314616156
 20
0.6875324203435885
 10
-2.313823895034544
 20
0.647209925725698
 10
-2.295931332668399
 20
0.6087489250081003
 10
-2.271512139798466
 20
0.5732283550908106
 10
-2.240818810320536
 20
0.5414650004320332
 10
-2.204995831584019
 20
0.5147828216631569
 10
-2.164718791316354
 20
0.4940258325750631
 10
-2.121368542386313
 20
0.4799881715661061
 10
-2.08991221461102
 20
0.4745026755434244
 10
-2.058
 20
0.4726534675249085
  0
LWPOLYLINE
  5
104
330
E3
100
AcDbEntity
  8
AM_9
100
AcDbPolyline
 90
        7
 70
     0
 43
0.0
 10
-1.869071929563816
 20
1.067051359044133
 10
-1.847660164087472
 20
1.046513394252286
 10
-1.822205749338025
 20
1.01338337986988
 10
-1.803415506013688
 20
0.9766451995084803
 10
-1.791956312213228
 20
0.9373262719416712
 10
-1.788000533557966
 20
0.8964371641452153
 10
-1.788000000025108
 20
0.8959540521073357
  0
LWPOLYLINE
  5
105
330
E3
100
AcDbEntity
  8
AM_9
100
AcDbPolyline
 90
       11
 70
     0
 43
0.0
 10
-2.246952854649187
 20
1.067030292734373
 10
-2.214881860238628
 20
1.090253266955972
 10
-2.175747335731764
 20
1.110254682574585
 10
-2.133192600984267
 20
1.124221452913873
 10
-2.088484654766668
 20
1.13188653693128
 10
-2.043208129285627
 20
1.132990279782632
 10
-1.99835100277207
 20
1.127669084950707
 10
-1.955354077188939
 20
1.116019269941661
 10
-1.915226163107391
 20
1.098392999280692
 10
-1.878937595018887
 20
1.0749877530829
 10
-1.869071929563816
 20
1.067051359044133
  0
LWPOLYLINE
  5
106
330
E3
100
AcDbEntity
  8
AM_9
100
AcDbPolyline
 90
        7
 70
     0
 43
0.0
 10
-2.327999998947693
 20
0.8959291103520814
 10
-2.326304267439844
 20
0.9232419234793589
 10
-2.317496683309979
 20
0.9628954837163608
 10
-2.301498960689548
 20
1.000318114378463
 10
-2.278601450434246
 20
1.034581188340918
 10
-2.249574295305774
 20
1.064770412110507
 10
-2.246952854649187
 20
1.067030292734373
  0
LWPOLYLINE
  5
107
330
E3
100
AcDbEntity
  8
AM_9
100
AcDbPolyline
 90
       11
 70
     0
 43
0.0
 10
-1.788000000025108
 20
0.8959540521073357
 10
-1.791721604390507
 20
0.8554106603145312
 10
-1.802847562523247
 20
0.815144453949638
 10
-1.821146476811262
 20
0.7768511634655715
 10
-1.846004024015004
 20
0.7416199883106783
 10
-1.877041916526437
 20
0.7103619953335842
 10
-1.913168206321805
 20
0.6842418298831974
 10
-1.953593915196048
 20
0.6641112482016288
 10
-1.997004913387995
 20
0.6506513485957608
 10
-2.027301068865182
 20
0.6456391696406742
 10
-2.058
 20
0.6439516627973393
  0
LWPOLYLINE
  5
108
330
E3
100
AcDbEntity
  8
AM_9
100
AcDbPolyline
 90
       11
 70
     0
 43
0.0
 10
-2.058
 20
0.4726534675249085
 10
-2.012989471823675
 20
0.4763585318873768
 10
-1.969255307521107
 20
0.4872289469943502
 10
-1.92807616799332
 20
0.504974377998617
 10
-1.890524914870444
 20
0.5288990692266473
 10
-1.857444296272952
 20
0.558549934533149
 10
-1.829984575255688
 20
0.5927484528817236
 10
-1.808904312243977
 20
0.6306943251777638
 10
-1.794887921678716
 20
0.6710037283790492
 10
-1.788484402172486
 20
0.7121223402383732
 10
-1.788000000932964
 20
0.7263547947639083
  0
LWPOLYLINE
  5
109
330
E3
100
AcDbEntity
  8
AM_9
100
AcDbPolyline
 90
       11
 70
     0
 43
0.0
 10
-2.058
 20
1.697410251677538
 10
-2.013627653760553
 20
1.697990125887307
 10
-1.969255307521107
 20
1.699728561548336
 10
-1.928621247818061
 20
1.702333816857362
 10
-1.890524914870443
 20
1.705652211512989
 10
-1.857856741346013
 20
1.709169063166262
 10
-1.829984575255688
 20
1.712656590335998
 10
-1.809136627625451
 20
1.715556627048386
 10
-1.794887921678715
 20
1.717681439690883
 10
-1.788495622643141
 20
1.718672211887569
 10
-1.788000000000557
 20
1.718749999999912
  0
LINE
  5
10A
330
E3
100
AcDbEntity
  8
AM_9
100
AcDbLine
 10
1.5
 20
1.71875
 30
0.0
 11
-1.788
 21
1.71875
 31
0.0
  0
LINE
  5
10B
330
E3
100
AcDbEntity
  8
AM_9
100
AcDbLine
 10
-2.328
 20
1.71875
 30
0.0
 11
-2.5
 21
1.71875
 31
0.0
  0
LINE
  5
10C
330
E3
100
AcDbEntity
  8
AM_9
100
AcDbLine
 10
-2.5
 20
-1.71875
 30
0.0
 11
1.5
 21
-1.71875
 31
0.0
  0
LINE
  5
10D
330
E3
100
AcDbEntity
  8
AM_9
100
AcDbLine
 10
-2.313422982627193
 20
1.716520452122308
 30
0.0
 11
-2.327999999999801
 21
1.718749999999969
 31
0.0
  0
LINE
  5
10E
330
E3
100
AcDbEntity
  8
AM_9
100
AcDbLine
 10
-2.042064615507041
 20
1.697485051179809
 30
0.0
 11
-2.066060744315632
 21
1.697429391196854
 31
0.0
  0
LWPOLYLINE
  5
10F
330
E3
100
AcDbEntity
  8
AM_9
100
AcDbPolyline
 90
       11
 70
     0
 43
0.0
 10
-2.327999999999801
 20
1.718749999999969
 10
-2.32471749098961
 20
1.718237405744559
 10
-2.313823895034543
 20
1.716580154775956
 10
-2.296251227543537
 20
1.714049360411188
 10
-2.271512139798466
 20
1.710786075563312
 10
-2.241309054547871
 20
1.707279640826082
 10
-2.204995831584019
 20
1.703763286669565
 10
-2.165341771338167
 20
1.700800934375924
 10
-2.121368542386313
 20
1.698592692396905
 10
-2.090141840214174
 20
1.69771454031364
 10
-2.058
 20
1.697410251677538
  0
LWPOLYLINE
  5
110
330
E3
100
AcDbEntity
  8
AM_9
100
AcDbPolyline
 90
       11
 70
     0
 43
0.0
 10
-2.058
 20
0.6439516627973393
 10
-2.103118390831229
 20
0.6476249139438293
 10
-2.146960019928625
 20
0.6584103219105827
 10
-2.188246770506824
 20
0.6760384091664733
 10
-2.225884865365252
 20
0.6998362474154121
 10
-2.258932264453069
 20
0.7292862314649692
 10
-2.286336942289505
 20
0.7632879888944594
 10
-2.30730443801334
 20
0.8009870482314683
 10
-2.321216715408073
 20
0.841083711243266
 10
-2.327545046610922
 20
0.8821667555722522
 10
-2.327999998947693
 20
0.8959291103520814
  0
LWPOLYLINE
  5
111
330
E3
100
AcDbEntity
  8
AM_9
100
AcDbPolyline
 90
       11
 70
     0
 43
0.0
 10
-2.058
 20
2.102736312522329
 10
-2.102480009964312
 20
2.103206711497095
 10
-2.146960019928625
 20
2.104617277593649
 10
-2.187697313257162
 20
2.106732397117898
 10
-2.225884865365252
 20
2.109427725241779
 10
-2.258519208734502
 20
2.112275539097944
 10
-2.286336942289505
 20
2.11509757675955
 10
-2.307075117753342
 20
2.117436755675088
 10
-2.321216715408073
 20
2.119146771526271
 10
-2.327534958110078
 20
2.119940823146581
 10
-2.327999999999727
 20
2.119999999999965
  0
LINE
  5
112
330
E3
100
AcDbEntity
  8
AM_9
100
AcDbLine
 10
-1.616
 20
2.12
 30
0.0
 11
-1.788043895991558
 21
2.12
 31
0.0
  0
LINE
  5
113
330
E3
100
AcDbEntity
  8
AM_9
100
AcDbLine
 10
-1.27225
 20
2.12
 30
0.0
 11
-1.396
 21
2.12
 31
0.0
  0
LINE
  5
114
330
E3
100
AcDbEntity
  8
AM_9
100
AcDbLine
 10
-2.327111669167516
 20
2.12
 30
0.0
 11
-2.5
 21
2.12
 31
0.0
  0
LINE
  5
115
330
E3
100
AcDbEntity
  8
AM_9
100
AcDbLine
 10
-2.5
 20
-2.12
 30
0.0
 11
-1.27225
 21
-2.12
 31
0.0
  0
LINE
  5
116
330
E3
100
AcDbEntity
  8
AM_9
100
AcDbLine
 10
-1.791400642638429
 20
2.11956958303935
 30
0.0
 11
-1.788000000000006
 21
2.119999999999999
 31
0.0
  0
LINE
  5
117
330
E3
100
AcDbEntity
  8
AM_9
100
AcDbLine
 10
-2.073370258871108
 20
2.102792487350512
 30
0.0
 11
-2.048863552345543
 21
2.102756161487999
 31
0.0
  0
LWPOLYLINE
  5
118
330
E3
100
AcDbEntity
  8
AM_9
100
AcDbPolyline
 90
       11
 70
     0
 43
0.0
 10
-1.788000000000006
 20
2.119999999999999
 10
-1.791588667800408
 20
2.119545941451697
 10
-1.802847562523247
 20
2.11816023150996
 10
-1.820818089184131
 20
2.116070712149825
 10
-1.846004024015004
 20
2.113395915069827
 10
-1.876544781667061
 20
2.110551111975319
 10
-1.913168206321805
 20
2.107718256423293
 10
-1.95297306724373
 20
2.105357607772179
 10
-1.997004913387995
 20
2.103620783456658
 10
-2.027098333021195
 20
2.10296336464097
 10
-2.058
 20
2.102736312522329
  0
LINE
  5
119
330
E3
100
AcDbEntity
  8
AM_9
100
AcDbLine
 10
1.5
 20
-2.120000000000001
 30
0.0
 11
1.5
 21
-0.473226849214921
 31
0.0
  0
LINE
  5
11A
330
E3
100
AcDbEntity
  8
AM_9
100
AcDbLine
 10
1.396
 20
2.120000000000001
 30
0.0
 11
1.30625
 21
2.120000000000001
 31
0.0
  0
LINE
  5
11B
330
E3
100
AcDbEntity
  8
AM_9
100
AcDbLine
 10
1.30625
 20
-2.120000000000001
 30
0.0
 11
1.5
 21
-2.120000000000001
 31
0.0
  0
LINE
  5
11C
330
E3
100
AcDbEntity
  8
AM_9
100
AcDbLine
 10
-0.7955000000000003
 20
2.51968
 30
0.0
 11
-1.10975
 21
2.51968
 31
0.0
  0
LINE
  5
11D
330
E3
100
AcDbEntity
  8
AM_9
100
AcDbLine
 10
-1.10975
 20
-2.51968
 30
0.0
 11
-0.7955000000000003
 21
-2.51968
 31
0.0
  0
LINE
  5
11E
330
E3
100
AcDbEntity
  8
AM_9
100
AcDbLine
 10
-1.10975
 20
-2.51968
 30
0.0
 11
-1.10975
 21
2.51968
 31
0.0
  0
LINE
  5
11F
330
E3
100
AcDbEntity
  8
AM_9
100
AcDbLine
 10
-1.27225
 20
-2.35718
 30
0.0
 11
-1.27225
 21
2.35718
 31
0.0
  0
ARC
  5
120
330
E3
100
AcDbEntity
  8
AM_9
100
AcDbCircle
 10
-1.109750000000001
 20
2.35718
 30
0.0
 40
0.1624999999999992
100
AcDbArc
 50
90.0
 51
180.0
  0
ARC
  5
121
330
E3
100
AcDbEntity
  8
AM_9
100
AcDbCircle
 10
-1.109750000000001
 20
-2.357180000000001
 30
0.0
 40
0.1624999999999988
100
AcDbArc
 50
180.0
 51
270.0
  0
LINE
  5
122
330
E3
100
AcDbEntity
  8
AM_9
100
AcDbLine
 10
1.14375
 20
2.51968
 30
0.0
 11
0.8295
 21
2.51968
 31
0.0
  0
LINE
  5
123
330
E3
100
AcDbEntity
  8
AM_9
100
AcDbLine
 10
0.8295
 20
-2.51968
 30
0.0
 11
1.14375
 21
-2.51968
 31
0.0
  0
LINE
  5
124
330
E3
100
AcDbEntity
  8
AM_9
100
AcDbLine
 10
1.30625
 20
-2.357180000000001
 30
0.0
 11
1.30625
 21
2.357180000000001
 31
0.0
  0
LINE
  5
125
330
E3
100
AcDbEntity
  8
AM_9
100
AcDbLine
 10
1.14375
 20
-2.51968
 30
0.0
 11
1.14375
 21
2.51968
 31
0.0
  0
ARC
  5
126
330
E3
100
AcDbEntity
  8
AM_9
100
AcDbCircle
 10
1.143750000000001
 20
2.35718
 30
0.0
 40
0.1624999999999996
100
AcDbArc
 50
0.0
 51
90.0
  0
ARC
  5
127
330
E3
100
AcDbEntity
  8
AM_9
100
AcDbCircle
 10
1.143750000000001
 20
-2.35718
 30
0.0
 40
0.1624999999999996
100
AcDbArc
 50
270.0
 51
0.0
  0
LINE
  5
128
330
E3
100
AcDbEntity
  8
AM_9
100
AcDbLine
 10
0.0982500000000099
 20
3.023616
 30
0.0
 11
-0.06425000000001
 21
3.023616
 31
0.0
  0
LINE
  5
129
330
E3
100
AcDbEntity
  8
AM_9
100
AcDbLine
 10
-0.06425000000001
 20
-3.023616
 30
0.0
 11
0.0982500000000099
 21
-3.023616
 31
0.0
  0
LINE
  5
12A
330
E3
100
AcDbEntity
  8
AM_9
100
AcDbLine
 10
-0.7955000000000003
 20
-2.9871
 30
0.0
 11
-0.7955000000000003
 21
2.9871
 31
0.0
  0
ARC
  5
12B
330
E3
100
AcDbEntity
  8
AM_9
100
AcDbCircle
 10
-0.632999999999999
 20
2.987099999999998
 30
0.0
 40
0.1625000000000014
100
AcDbArc
 50
90.0
 51
180.0
  0
ARC
  5
12C
330
E3
100
AcDbEntity
  8
AM_9
100
AcDbCircle
 10
-0.632999999999999
 20
-2.987099999999998
 30
0.0
 40
0.1625000000000013
100
AcDbArc
 50
180.0
 51
270.0
  0
LINE
  5
12D
330
E3
100
AcDbEntity
  8
AM_9
100
AcDbLine
 10
-0.06425000000001
 20
3.023616
 30
0.0
 11
-0.136986896313596
 21
3.1496
 31
0.0
  0
LINE
  5
12E
330
E3
100
AcDbEntity
  8
AM_9
100
AcDbLine
 10
-0.136986896313596
 20
-3.1496
 30
0.0
 11
-0.06425000000001
 21
-3.023616
 31
0.0
  0
LINE
  5
12F
330
E3
100
AcDbEntity
  8
AM_9
100
AcDbLine
 10
-0.06425000000001
 20
-3.023616
 30
0.0
 11
-0.06425000000001
 21
3.023616
 31
0.0
  0
LINE
  5
130
330
E3
100
AcDbEntity
  8
AM_9
100
AcDbLine
 10
0.6669999999999997
 20
3.1496
 30
0.0
 11
0.1709868963135958
 21
3.1496
 31
0.0
  0
LINE
  5
131
330
E3
100
AcDbEntity
  8
AM_9
100
AcDbLine
 10
0.1709868963135958
 20
-3.1496
 30
0.0
 11
0.6669999999999997
 21
-3.1496
 31
0.0
  0
LINE
  5
132
330
E3
100
AcDbEntity
  8
AM_9
100
AcDbLine
 10
0.0982500000000099
 20
-3.023616
 30
0.0
 11
0.1709868963135958
 21
-3.1496
 31
0.0
  0
LINE
  5
133
330
E3
100
AcDbEntity
  8
AM_9
100
AcDbLine
 10
0.1709868963135958
 20
3.1496
 30
0.0
 11
0.0982500000000099
 21
3.023616
 31
0.0
  0
LINE
  5
134
330
E3
100
AcDbEntity
  8
AM_9
100
AcDbLine
 10
0.1709868963135958
 20
-3.1496
 30
0.0
 11
0.1709868963135958
 21
3.1496
 31
0.0
  0
LINE
  5
135
330
E3
100
AcDbEntity
  8
AM_9
100
AcDbLine
 10
0.0982500000000099
 20
-3.023616
 30
0.0
 11
0.0982500000000099
 21
3.023616
 31
0.0
  0
LINE
  5
136
330
E3
100
AcDbEntity
  8
AM_9
100
AcDbLine
 10
0.8295
 20
-2.9871
 30
0.0
 11
0.8295
 21
2.9871
 31
0.0
  0
ARC
  5
137
330
E3
100
AcDbEntity
  8
AM_9
100
AcDbCircle
 10
0.6670000000000011
 20
2.987100000000001
 30
0.0
 40
0.1624999999999989
100
AcDbArc
 50
0.0
 51
90.0
  0
ARC
  5
138
330
E3
100
AcDbEntity
  8
AM_9
100
AcDbCircle
 10
0.66699999999999
 20
-2.987099999999989
 30
0.0
 40
0.1625000000000103
100
AcDbArc
 50
270.0
 51
0.0
  0
LINE
  5
139
330
E3
100
AcDbEntity
  8
AM_9
100
AcDbLine
 10
0.6669999999999997
 20
-3.1496
 30
0.0
 11
0.6669999999999997
 21
3.1496
 31
0.0
  0
LINE
  5
13A
330
E3
100
AcDbEntity
  8
AM_9
100
AcDbLine
 10
-0.136986896313596
 20
3.1496
 30
0.0
 11
-0.633
 21
3.1496
 31
0.0
  0
LINE
  5
13B
330
E3
100
AcDbEntity
  8
AM_9
100
AcDbLine
 10
-0.633
 20
-3.1496
 30
0.0
 11
-0.136986896313596
 21
-3.1496
 31
0.0
  0
LINE
  5
13C
330
E3
100
AcDbEntity
  8
AM_9
100
AcDbLine
 10
-0.136986896313596
 20
-3.1496
 30
0.0
 11
-0.136986896313596
 21
3.1496
 31
0.0
  0
LINE
  5
13D
330
E3
100
AcDbEntity
  8
AM_9
100
AcDbLine
 10
-0.633
 20
-3.1496
 30
0.0
 11
-0.633
 21
3.1496
 31
0.0
  0
LINE
  5
140
330
E3
100
AcDbEntity
  8
AM_7
100
AcDbLine
 10
-2.058
 20
-0.1087179487179487
 30
0.0
 11
-2.058
 21
2.783166666666667
 31
0.0
  0
LWPOLYLINE
  5
141
330
E3
100
AcDbEntity
  8
AM_4
100
AcDbPolyline
 90
        4
 70
     0
 43
0.0
 10
-2.019104277900231
 20
0.9596955385212781
 10
-2.026420405253785
 20
0.960504280178186
 10
-2.07159647677939
 20
0.9617506767297002
 10
-2.09119971332629
 20
0.9603399180005672
  0
LINE
  5
142
330
E3
100
AcDbEntity
  8
AM_4
100
AcDbLine
 10
-1.396
 20
2.12
 30
0.0
 11
-1.616
 21
2.12
 31
0.0
  0
LINE
  5
143
330
E3
100
AcDbEntity
  8
AM_4
100
AcDbLine
 10
1.5
 20
-0.473226849214921
 30
0.0
 11
1.5
 21
2.120000000000001
 31
0.0
  0
LINE
  5
144
330
E3
100
AcDbEntity
  8
AM_4
100
AcDbLine
 10
1.5
 20
2.120000000000001
 30
0.0
 11
1.396
 21
2.120000000000001
 31
0.0
  0
ENDBLK
  5
E6
330
E3
100
AcDbEntity
  8
0
100
AcDbBlockEnd
  0
BLOCK
  5
147
330
145
100
AcDbEntity
  8
0
100
AcDbBlockBegin
  2
4_405015E_Inch_0_in_071421_2
 70
     2
 10
0.0
 20
0.0
 30
0.0
  3
4_405015E_Inch_0_in_071421_2
  1

  0
ATTDEF
  5
149
330
145
100
AcDbEntity
  8
AM_6
100
AcDbText
 10
5.21875
 20
3.874823265456494
 30
0.0
 40
0.5
  1
405015E -Inch
100
AcDbAttributeDefinition
  3

  2
NN
 70
     8
280
     0
  0
ATTDEF
  5
14A
330
145
100
AcDbEntity
  8
AM_6
100
AcDbText
 10
5.21875
 20
3.374823265456494
 30
0.0
 40
0.5
  1
Grease Fitting
100
AcDbAttributeDefinition
  3

  2
NT
 70
     8
280
     0
  0
ATTDEF
  5
14B
330
145
100
AcDbEntity
  8
AM_6
100
AcDbText
 10
5.21875
 20
2.874823265456494
 30
0.0
 40
0.5
  1
405015E-Inch
100
AcDbAttributeDefinition
  3

  2
NB
 70
     8
280
     0
  0
ATTDEF
  5
14C
330
145
100
AcDbEntity
  8
AM_6
100
AcDbText
 10
5.21875
 20
2.374823265456494
 30
0.0
 40
0.5
  1
$MN.-Inch
100
AcDbAttributeDefinition
  3

  2
NBSYN
 70
     8
280
     0
  0
ATTDEF
  5
14D
330
145
100
AcDbEntity
  8
AM_6
100
AcDbText
 10
5.21875
 20
1.874823265456494
 30
0.0
 40
0.5
  1
405015E
100
AcDbAttributeDefinition
  3

  2
LINA
 70
     8
280
     0
  0
ATTDEF
  5
14E
330
145
100
AcDbEntity
  8
AM_6
100
AcDbText
 10
5.21875
 20
1.374823265456494
 30
0.0
 40
0.5
  1
405015E
100
AcDbAttributeDefinition
  3

  2
MN
 70
     8
280
     0
  0
ATTDEF
  5
14F
330
145
100
AcDbEntity
  8
AM_6
100
AcDbText
 10
5.21875
 20
0.8748232654564938
 30
0.0
 40
0.5
  1
1/8 x 27PTF
100
AcDbAttributeDefinition
  3

  2
T
 70
     8
280
     0
  0
ATTDEF
  5
150
330
145
100
AcDbEntity
  8
AM_6
100
AcDbText
 10
5.21875
 20
0.3748232654564938
 30
0.0
 40
0.5
  1
baldor
100
AcDbAttributeDefinition
  3

  2
COMPANY
 70
     8
280
     0
  0
ELLIPSE
  5
151
330
145
100
AcDbEntity
  8
AM_9
100
AcDbEllipse
 10
0.0000000000000001
 20
3.498742631289131
 30
0.0
 11
0.2187499999999998
 21
0.0
 31
0.0
210
0.0
220
0.0
230
1.0
 40
0.5000000000000107
 41
1.047197551196597
 42
2.094395102393197
  0
LWPOLYLINE
  5
152
330
145
100
AcDbEntity
  8
AM_9
100
AcDbPolyline
 90
        4
 70
     0
 43
0.0
 10
-0.1093749999999999
 20
3.593464159828055
 10
-0.0820312499999999
 20
3.60188365649771
 10
-0.0546545855167827
 20
3.611335758148303
 10
0.0000000000000001
 20
3.632890774362979
  0
LWPOLYLINE
  5
153
330
145
100
AcDbEntity
  8
AM_9
100
AcDbPolyline
 90
        4
 70
     0
 43
0.0
 10
0.0000000000000001
 20
3.632890774362979
 10
0.0408050906197752
 20
3.616481425677963
 10
0.0818700010907652
 20
3.601936395233526
 10
0.1093750000000001
 20
3.593464159828055
  0
LINE
  5
154
330
145
100
AcDbEntity
  8
AM_9
100
AcDbLine
 10
-0.0982277255201945
 20
3.683196838903669
 30
0.0
 11
-0.1059654017505044
 21
3.68104274562241
 31
0.0
  0
LWPOLYLINE
  5
155
330
145
100
AcDbEntity
  8
AM_9
100
AcDbPolyline
 90
        4
 70
     0
 43
0.0
 10
0.0000000000000001
 20
3.70378777136419
 10
-0.0544692324180688
 20
3.693827650906022
 10
-0.081870001090765
 20
3.687474483325336
 10
-0.0982277255201945
 20
3.683196838903669
  0
LWPOLYLINE
  5
156
330
145
100
AcDbEntity
  8
AM_9
100
AcDbPolyline
 90
        4
 70
     0
 43
0.0
 10
0.0982268983306041
 20
3.683197064672675
 10
0.08203125
 20
3.687434124959998
 10
0.0546545855167829
 20
3.693787947918304
 10
0.0000000000000001
 20
3.70378777136419
  0
LINE
  5
157
330
145
100
AcDbEntity
  8
AM_9
100
AcDbLine
 10
0.1059651768586835
 20
3.681042809458674
 30
0.0
 11
0.0982268983306041
 21
3.683197064672675
 31
0.0
  0
LWPOLYLINE
  5
158
330
145
100
AcDbEntity
  8
AM_9
100
AcDbPolyline
 90
        4
 70
     0
 43
0.0
 10
0.1093750000000001
 20
3.593464159828055
 10
0.1367187500000001
 20
3.586096735074556
 10
0.1640625000000001
 20
3.579749966965671
 10
0.2187500000000001
 20
3.569743088670363
  0
LINE
  5
159
330
145
100
AcDbEntity
  8
AM_9
100
AcDbLine
 10
0.0000000000000001
 20
3.70378777136419
 30
0.0
 11
0.0000000000000001
 21
3.632890774362979
 31
0.0
  0
LWPOLYLINE
  5
15A
330
145
100
AcDbEntity
  8
AM_9
100
AcDbPolyline
 90
        4
 70
     0
 43
0.0
 10
-0.2187499999999999
 20
3.569743088670363
 10
-0.1642807675819309
 20
3.579703209128532
 10
-0.1368799989092348
 20
3.586056376709219
 10
-0.1093749999999999
 20
3.593464159828055
  0
ELLIPSE
  5
15B
330
145
100
AcDbEntity
  8
AM_9
100
AcDbEllipse
 10
0.0000000000000008
 20
3.498742631289133
 30
0.0
 11
0.2187500000000007
 21
0.0
 31
0.0
210
0.0
220
0.0
230
1.0
 40
0.4999999999999984
 41
2.094395102393198
 42
3.141592653589793
  0
ELLIPSE
  5
15C
330
145
100
AcDbEntity
  8
AM_9
100
AcDbEllipse
 10
-0.0000000000000004
 20
3.498742631289132
 30
0.0
 11
0.2187500000000005
 21
0.0
 31
0.0
210
0.0
220
0.0
230
1.0
 40
0.4999999999999988
 41
0.0
 42
1.047197551196597
  0
LINE
  5
15D
330
145
100
AcDbEntity
  8
AM_9
100
AcDbLine
 10
0.1321931418159854
 20
3.222508565784036
 30
0.0
 11
0.1621706131788417
 21
3.243705839067538
 31
0.0
  0
LINE
  5
15E
330
145
100
AcDbEntity
  8
AM_9
100
AcDbLine
 10
-0.1621706131788414
 20
3.243705839067538
 30
0.0
 11
-0.1321931418159852
 21
3.222508565784036
 31
0.0
  0
ELLIPSE
  5
15F
330
145
100
AcDbEntity
  8
AM_9
100
AcDbEllipse
 10
0.0000000000000019
 20
3.301041809211513
 30
0.0
 11
0.1986176267812136
 21
2.959633272606338E-9
 31
0.0
210
0.0
220
0.0
230
1.0
 40
0.5000000000000101
 41
4.71238898038469
 42
9.44282200767884
  0
ELLIPSE
  5
160
330
145
100
AcDbEntity
  8
AM_9
100
AcDbEllipse
 10
-0.0000000000000002
 20
3.301041809211504
 30
0.0
 11
0.1986176267812147
 21
0.0
 31
0.0
210
0.0
220
0.0
230
1.0
 40
0.4999999999999851
 41
3.757072362260168
 42
4.71238898038469
  0
ELLIPSE
  5
161
330
145
100
AcDbEntity
  8
AM_9
100
AcDbEllipse
 10
0.0
 20
3.498742631289131
 30
0.0
 11
0.2187499999999999
 21
0.0
 31
0.0
210
0.0
220
0.0
230
1.0
 40
0.4999999999999983
 41
3.141592653589793
 42
4.188790204786391
  0
ELLIPSE
  5
162
330
145
100
AcDbEntity
  8
AM_9
100
AcDbEllipse
 10
0.0000000000000003
 20
3.498742631289131
 30
0.0
 11
0.2187499999999998
 21
0.0
 31
0.0
210
0.0
220
0.0
230
1.0
 40
0.4999999999999983
 41
4.188790204786388
 42
6.283185307179586
  0
ELLIPSE
  5
163
330
145
100
AcDbEntity
  8
AM_9
100
AcDbEllipse
 10
-0.0000000000000002
 20
3.498742631289132
 30
0.0
 11
0.20575189722307
 21
3.065942186460943E-9
 31
0.0
210
0.0
220
0.0
230
1.0
 40
0.4999999999999963
 41
4.71238898038469
 42
6.265141200680096
  0
LINE
  5
164
330
145
100
AcDbEntity
  8
AM_9
100
AcDbLine
 10
0.1985852938306409
 20
3.299249970602688
 30
0.0
 11
0.2057184028850729
 21
3.496886430511502
 31
0.0
  0
LINE
  5
165
330
145
100
AcDbEntity
  8
AM_9
100
AcDbLine
 10
-0.2057184028850726
 20
3.496886430511502
 30
0.0
 11
-0.1985852938306407
 21
3.299249970602688
 31
0.0
  0
ELLIPSE
  5
166
330
145
100
AcDbEntity
  8
AM_9
100
AcDbEllipse
 10
0.0000000000000001
 20
3.498742631289132
 30
0.0
 11
0.2057518972230699
 21
0.0
 31
0.0
210
0.0
220
0.0
230
1.0
 40
0.5000000000000248
 41
6.265141230475144
 42
10.99557428756428
  0
ELLIPSE
  5
167
330
145
100
AcDbEntity
  8
AM_9
100
AcDbEllipse
 10
-0.0000000000000025
 20
3.301041809211513
 30
0.0
 11
0.1986176267812128
 21
0.0
 31
0.0
210
0.0
220
0.0
230
1.0
 40
0.50000000000001
 41
3.159636730294309
 42
3.757072362260227
  0
LINE
  5
168
330
145
100
AcDbEntity
  8
AM_9
100
AcDbLine
 10
-0.1017810272422098
 20
3.689178005453419
 30
0.0
 11
-0.1049999999999999
 21
3.682875610813892
 31
0.0
  0
LINE
  5
169
330
145
100
AcDbEntity
  8
AM_9
100
AcDbLine
 10
0.1050000000000001
 20
3.682875610813892
 30
0.0
 11
0.1017810272422101
 21
3.689178005453419
 31
0.0
  0
ELLIPSE
  5
16A
330
145
100
AcDbEntity
  8
AM_9
100
AcDbEllipse
 10
0.0000000000000001
 20
3.676277839064941
 30
0.0
 11
0.1050000000000001
 21
0.0
 31
0.0
210
0.0
220
0.0
230
1.0
 40
0.4999999999999933
 41
0.2500328930988118
 42
2.89155976049098
  0
ELLIPSE
  5
16B
330
145
100
AcDbEntity
  8
AM_9
100
AcDbEllipse
 10
0.0000000000000034
 20
3.676277839064944
 30
0.0
 11
0.1050000000000033
 21
1.564621925354053E-9
 31
0.0
210
0.0
220
0.0
230
1.0
 40
0.4999999999999737
 41
2.891559732057172
 42
3.141592627780224
  0
ELLIPSE
  5
16C
330
145
100
AcDbEntity
  8
AM_9
100
AcDbEllipse
 10
-0.0000000000000035
 20
3.648351223193883
 30
0.0
 11
0.1188200907349018
 21
0.0
 31
0.0
210
0.0
220
0.0
230
1.0
 40
0.4999999999999775
 41
0.2500328930987354
 42
2.535447513394733
  0
LINE
  5
16D
330
145
100
AcDbEntity
  8
AM_9
100
AcDbLine
 10
0.1050000000000001
 20
3.694516067877401
 30
0.0
 11
0.1050000000000001
 21
3.702258601178475
 31
0.0
  0
LINE
  5
16E
330
145
100
AcDbEntity
  8
AM_9
100
AcDbLine
 10
-0.1049999999999999
 20
3.702258601178475
 30
0.0
 11
-0.1049999999999999
 21
3.694516067877402
 31
0.0
  0
ELLIPSE
  5
16F
330
145
100
AcDbEntity
  8
AM_9
100
AcDbEllipse
 10
0.0000000000000001
 20
3.702258601178475
 30
0.0
 11
0.1049999999999999
 21
0.0
 31
0.0
210
0.0
220
0.0
230
1.0
 40
0.5000000000000024
 41
0.0
 42
3.434435425318362
  0
ELLIPSE
  5
170
330
145
100
AcDbEntity
  8
AM_9
100
AcDbEllipse
 10
0.0000000000000018
 20
3.676277839064944
 30
0.0
 11
0.1049999999999983
 21
0.0
 31
0.0
210
0.0
220
0.0
230
1.0
 40
0.4999999999999722
 41
0.0
 42
0.2500328930987853
  0
LINE
  5
171
330
145
100
AcDbEntity
  8
AM_9
100
AcDbLine
 10
-0.0976523208201057
 20
3.682197338926324
 30
0.0
 11
-0.1098343496897824
 21
3.673410485799474
 31
0.0
  0
LINE
  5
172
330
145
100
AcDbEntity
  8
AM_9
100
AcDbLine
 10
0.1098343496897826
 20
3.673410485799474
 30
0.0
 11
0.0976523208201059
 21
3.682197338926324
 31
0.0
  0
ELLIPSE
  5
173
330
145
100
AcDbEntity
  8
AM_9
100
AcDbEllipse
 10
0.0000000000000049
 20
3.648351223193883
 30
0.0
 11
0.1188200907349029
 21
0.0
 31
0.0
210
0.0
220
0.0
230
1.0
 40
0.4999999999999762
 41
2.535447513394773
 42
2.89155976049106
  0
ELLIPSE
  5
174
330
145
100
AcDbEntity
  8
AM_9
100
AcDbEllipse
 10
0.0000000000000001
 20
3.601209196955546
 30
0.0
 11
0.1725340532830155
 21
0.0
 31
0.0
210
0.0
220
0.0
230
1.0
 40
0.5000000000000067
 41
0.6061451401950873
 42
2.535447513394707
  0
ELLIPSE
  5
175
330
145
100
AcDbEntity
  8
AM_9
100
AcDbEllipse
 10
0.0000000000000001
 20
3.585345171667573
 30
0.0
 11
0.2187500000000004
 21
0.0
 31
0.0
210
0.0
220
0.0
230
1.0
 40
0.5000000000000112
 41
1.065244638251233
 42
2.07634801533856
  0
ELLIPSE
  5
176
330
145
100
AcDbEntity
  8
AM_9
100
AcDbEllipse
 10
0.0000000000007956
 20
3.585345171673046
 30
0.0
 11
0.2137500000016289
 21
0.0
 31
0.0
210
0.0
220
0.0
230
1.0
 40
0.4999999999748697
 41
-4.198889882946571
 42
-4.184564777750134
  0
ELLIPSE
  5
177
330
145
100
AcDbEntity
  8
AM_9
100
AcDbEllipse
 10
0.000000000000694
 20
3.585345171668896
 30
0.0
 11
0.2137500000014191
 21
3.185123205206083E-9
 31
0.0
210
0.0
220
0.0
230
1.0
 40
0.4999999999920622
 41
-4.217356319088666
 42
-4.198889895795515
  0
ELLIPSE
  5
178
330
145
100
AcDbEntity
  8
AM_9
100
AcDbEllipse
 10
0.0000000000000002
 20
3.585345171667575
 30
0.0
 11
0.2137500000000003
 21
0.0
 31
0.0
210
0.0
220
0.0
230
1.0
 40
0.5000000000000017
 41
1.075763653005988
 42
2.065829000583805
  0
ELLIPSE
  5
179
330
145
100
AcDbEntity
  8
AM_9
100
AcDbEllipse
 10
-0.0000000000006908
 20
3.5853451716689
 30
0.0
 11
0.2137500000014105
 21
3.185123205205956E-9
 31
0.0
210
0.0
220
0.0
230
1.0
 40
0.4999999999920613
 41
1.042972111044832
 42
1.075763640508916
  0
ELLIPSE
  5
17A
330
145
100
AcDbEntity
  8
AM_9
100
AcDbEllipse
 10
-0.000000000000002
 20
3.70225860117844
 30
0.0
 11
0.1050000000000021
 21
0.0
 31
0.0
210
0.0
220
0.0
230
1.0
 40
0.4999999999999413
 41
5.99034253545163
 42
6.283185307179586
  0
ELLIPSE
  5
17B
330
145
100
AcDbEntity
  8
AM_9
100
AcDbEllipse
 10
0.0000000000000001
 20
3.754220125405542
 30
0.0
 11
0.1349999999999996
 21
0.0
 31
0.0
210
0.0
220
0.0
230
1.0
 40
0.4999999999999908
 41
0.2354336045415577
 42
2.906159049048235
  0
ELLIPSE
  5
17C
330
145
100
AcDbEntity
  8
AM_9
100
AcDbEllipse
 10
0.000000000000001
 20
3.269245899286254
 30
0.0
 11
0.1619028724722675
 21
0.0
 31
0.0
210
0.0
220
0.0
230
1.0
 40
0.499999999999994
 41
0.0
 42
6.283185307179586
  0
LINE
  5
17D
330
145
100
AcDbEntity
  8
AM_4
100
AcDbLine
 10
-0.1059654017505044
 20
3.68104274562241
 30
0.0
 11
-0.1093749999999999
 21
3.680066700206499
 31
0.0
  0
LINE
  5
17E
330
145
100
AcDbEntity
  8
AM_4
100
AcDbLine
 10
0.109375
 20
3.680066700206499
 30
0.0
 11
0.1059651768586835
 21
3.681042809458674
 31
0.0
  0
LWPOLYLINE
  5
17F
330
145
100
AcDbEntity
  8
AM_4
100
AcDbPolyline
 90
        4
 70
     0
 43
0.0
 10
-0.1093749999999999
 20
3.680066700206499
 10
-0.1367187499999999
 20
3.671647203536844
 10
-0.164095414483217
 20
3.662195101886251
 10
-0.2187499999999999
 20
3.640640085671575
  0
LWPOLYLINE
  5
180
330
145
100
AcDbEntity
  8
AM_4
100
AcDbPolyline
 90
        4
 70
     0
 43
0.0
 10
0.2187500000000001
 20
3.640640085671575
 10
0.1642807675819311
 20
3.662127791212531
 10
0.1368799989092349
 20
3.671594464801029
 10
0.109375
 20
3.680066700206499
  0
LINE
  5
181
330
145
100
AcDbEntity
  8
AM_4
100
AcDbLine
 10
-0.1049999999999999
 20
3.682875610813892
 30
0.0
 11
-0.1151252948555656
 21
3.663051397059078
 31
0.0
  0
LINE
  5
182
330
145
100
AcDbEntity
  8
AM_4
100
AcDbLine
 10
0.1151252948555659
 20
3.663051397059078
 30
0.0
 11
0.1050000000000001
 21
3.682875610813892
 31
0.0
  0
ELLIPSE
  5
183
330
145
100
AcDbEntity
  8
AM_4
100
AcDbEllipse
 10
0.0000000000000006
 20
3.648351223193879
 30
0.0
 11
0.118820090734898
 21
0.0
 31
0.0
210
0.0
220
0.0
230
1.0
 40
0.5000000000000009
 41
2.891559760490998
 42
6.533218200278381
  0
ELLIPSE
  5
184
330
145
100
AcDbEntity
  8
AM_4
100
AcDbEllipse
 10
0.0000000000000005
 20
3.676277839064942
 30
0.0
 11
0.1049999999999996
 21
0.0
 31
0.0
210
0.0
220
0.0
230
1.0
 40
0.4999999999999996
 41
4.71238898038469
 42
6.283185307179586
  0
LINE
  5
185
330
145
100
AcDbEntity
  8
AM_4
100
AcDbLine
 10
0.1050000000000001
 20
3.676277839064942
 30
0.0
 11
0.1050000000000001
 21
3.694516067877401
 31
0.0
  0
LINE
  5
186
330
145
100
AcDbEntity
  8
AM_4
100
AcDbLine
 10
-0.1049999999999999
 20
3.694516067877402
 30
0.0
 11
-0.1049999999999999
 21
3.676277839064942
 31
0.0
  0
ELLIPSE
  5
187
330
145
100
AcDbEntity
  8
AM_4
100
AcDbEllipse
 10
-0.0000000000000002
 20
3.676277839064942
 30
0.0
 11
0.1049999999999996
 21
0.0
 31
0.0
210
0.0
220
0.0
230
1.0
 40
0.4999999999999996
 41
3.141592653589793
 42
4.71238898038469
  0
LINE
  5
188
330
145
100
AcDbEntity
  8
AM_4
100
AcDbLine
 10
-0.1098343496897824
 20
3.673410485799474
 30
0.0
 11
-0.1417971541629017
 21
3.650355831157618
 31
0.0
  0
LINE
  5
189
330
145
100
AcDbEntity
  8
AM_4
100
AcDbLine
 10
0.1417971541629019
 20
3.650355831157618
 30
0.0
 11
0.1098343496897826
 21
3.673410485799474
 31
0.0
  0
ELLIPSE
  5
18A
330
145
100
AcDbEntity
  8
AM_4
100
AcDbEllipse
 10
-0.0000000000000003
 20
3.601209196955546
 30
0.0
 11
0.1725340532830152
 21
2.570957739398110E-9
 31
0.0
210
0.0
220
0.0
230
1.0
 40
0.4999999999999997
 41
2.53544749084691
 42
4.71238898038469
  0
ELLIPSE
  5
18B
330
145
100
AcDbEntity
  8
AM_4
100
AcDbEllipse
 10
0.0000000000000004
 20
3.585345171667576
 30
0.0
 11
0.2187500000000004
 21
3.259629011154181E-9
 31
0.0
210
0.0
220
0.0
230
1.0
 40
0.499999999999999
 41
2.094395089354685
 42
3.141592627780224
  0
ELLIPSE
  5
18C
330
145
100
AcDbEntity
  8
AM_4
100
AcDbEllipse
 10
-0.0000000000000008
 20
3.585345171667575
 30
0.0
 11
0.2187499999999993
 21
0.0
 31
0.0
210
0.0
220
0.0
230
1.0
 40
0.4999999999999957
 41
3.141592653589793
 42
5.235987755982993
  0
ELLIPSE
  5
18D
330
145
100
AcDbEntity
  8
AM_4
100
AcDbEllipse
 10
0.0000000000000013
 20
3.585345171667575
 30
0.0
 11
0.2187499999999989
 21
0.0
 31
0.0
210
0.0
220
0.0
230
1.0
 40
0.4999999999999963
 41
5.235987755982985
 42
6.283185307179586
  0
ELLIPSE
  5
18E
330
145
100
AcDbEntity
  8
AM_4
100
AcDbEllipse
 10
0.0000000000000001
 20
3.585345171667576
 30
0.0
 11
0.2187500000000001
 21
0.0
 31
0.0
210
0.0
220
0.0
230
1.0
 40
0.4999999999999977
 41
0.0
 42
1.065244638251232
  0
ELLIPSE
  5
18F
330
145
100
AcDbEntity
  8
AM_4
100
AcDbEllipse
 10
0.0000000000014469
 20
3.585345171662258
 30
0.0
 11
0.2187500000029325
 21
3.259629011197874E-9
 31
0.0
210
0.0
220
0.0
230
1.0
 40
0.5000000000160811
 41
-4.206837304538046
 42
-4.18879021782956
  0
ELLIPSE
  5
190
330
145
100
AcDbEntity
  8
AM_4
100
AcDbEllipse
 10
0.0000000000000005
 20
3.601209196955547
 30
0.0
 11
0.1725340532830152
 21
0.0
 31
0.0
210
0.0
220
0.0
230
1.0
 40
0.4999999999999995
 41
4.71238898038469
 42
6.889330447374671
  0
ELLIPSE
  5
191
330
145
100
AcDbEntity
  8
AM_4
100
AcDbEllipse
 10
0.0000000000000002
 20
3.585345171667576
 30
0.0
 11
0.2137499999999999
 21
0.0
 31
0.0
210
0.0
220
0.0
230
1.0
 40
0.5000000000000004
 41
2.098620529422329
 42
4.71238898038469
  0
ELLIPSE
  5
192
330
145
100
AcDbEntity
  8
AM_4
100
AcDbEllipse
 10
0.0
 20
3.585345171667576
 30
0.0
 11
0.2137500000000001
 21
3.185123205184939E-9
 31
0.0
210
0.0
220
0.0
230
1.0
 40
0.4999999999999999
 41
4.71238898038469
 42
7.326157418226543
  0
ELLIPSE
  5
193
330
145
100
AcDbEntity
  8
AM_4
100
AcDbEllipse
 10
0.0000000000000003
 20
3.702258601178475
 30
0.0
 11
0.1049999999999994
 21
0.0
 31
0.0
210
0.0
220
0.0
230
1.0
 40
0.4999999999999962
 41
4.71238898038469
 42
5.99034253545102
  0
LINE
  5
194
330
145
100
AcDbEntity
  8
AM_4
100
AcDbLine
 10
0.1005298463144156
 20
3.687103156612248
 30
0.0
 11
0.1292526595471058
 21
3.734734553820392
 31
0.0
  0
LINE
  5
195
330
145
100
AcDbEntity
  8
AM_4
100
AcDbLine
 10
-0.1292526595471055
 20
3.734734553820392
 30
0.0
 11
-0.1005298463144154
 21
3.687103156612248
 31
0.0
  0
ELLIPSE
  5
196
330
145
100
AcDbEntity
  8
AM_4
100
AcDbEllipse
 10
0.0000000000000007
 20
3.754220125405538
 30
0.0
 11
0.1349999999999995
 21
0.0
 31
0.0
210
0.0
220
0.0
230
1.0
 40
0.4999999999999978
 41
4.71238898038469
 42
6.518618911721204
  0
ELLIPSE
  5
197
330
145
100
AcDbEntity
  8
AM_4
100
AcDbEllipse
 10
0.0000000000000005
 20
3.754220125405542
 30
0.0
 11
0.1350000000000004
 21
0.0
 31
0.0
210
0.0
220
0.0
230
1.0
 40
0.4999999999999976
 41
2.906159049048234
 42
4.71238898038469
  0
ELLIPSE
  5
198
330
145
100
AcDbEntity
  8
AM_4
100
AcDbEllipse
 10
0.0
 20
3.702258601178475
 30
0.0
 11
0.1049999999999998
 21
0.0
 31
0.0
210
0.0
220
0.0
230
1.0
 40
0.4999999999999946
 41
3.434435425318359
 42
4.71238898038469
  0
LWPOLYLINE
  5
199
330
145
100
AcDbEntity
  8
AM_4
100
AcDbPolyline
 90
        4
 70
     0
 43
0.0
 10
-0.2187499999999999
 20
3.514344714286344
 10
-0.1642807675819309
 20
3.504384593828176
 10
-0.1368799989092347
 20
3.49803142624749
 10
-0.1093749999999998
 20
3.490623643128653
  0
LINE
  5
19A
330
145
100
AcDbEntity
  8
AM_4
100
AcDbLine
 10
-0.2187499999999999
 20
3.640640085671575
 30
0.0
 11
-0.2187499999999999
 21
3.443447717285133
 31
0.0
  0
LWPOLYLINE
  5
19B
330
145
100
AcDbEntity
  8
AM_4
100
AcDbPolyline
 90
        4
 70
     0
 43
0.0
 10
-0.1093749999999998
 20
3.404021102750209
 10
-0.1367187499999998
 20
3.412440599419864
 10
-0.1640624999999998
 20
3.421880752734132
 10
-0.2187499999999999
 20
3.443447717285133
  0
LWPOLYLINE
  5
19C
330
145
100
AcDbEntity
  8
AM_4
100
AcDbPolyline
 90
        4
 70
     0
 43
0.0
 10
0.0000000000000001
 20
3.380300031592518
 10
-0.0408050906197749
 20
3.387449512961136
 10
-0.0818700010907649
 20
3.396613319631372
 10
-0.1093749999999998
 20
3.404021102750209
  0
LINE
  5
19D
330
145
100
AcDbEntity
  8
AM_4
100
AcDbLine
 10
0.2187500000000001
 20
3.640640085671575
 30
0.0
 11
0.2187500000000001
 21
3.443447717285133
 31
0.0
  0
LWPOLYLINE
  5
19E
330
145
100
AcDbEntity
  8
AM_4
100
AcDbPolyline
 90
        4
 70
     0
 43
0.0
 10
0.109375
 20
3.490623643128653
 10
0.1367187500000001
 20
3.497991067882152
 10
0.1640954144832172
 20
3.504344890840458
 10
0.2187500000000001
 20
3.514344714286344
  0
LINE
  5
19F
330
145
100
AcDbEntity
  8
AM_4
100
AcDbLine
 10
0.0000000000000001
 20
3.451197028593729
 30
0.0
 11
0.0000000000000001
 21
3.380300031592518
 31
0.0
  0
LWPOLYLINE
  5
1A0
330
145
100
AcDbEntity
  8
AM_4
100
AcDbPolyline
 90
        4
 70
     0
 43
0.0
 10
0.1093750000000001
 20
3.404021102750209
 10
0.0820312500000001
 20
3.39665367799671
 10
0.054654585516783
 20
3.390299855038403
 10
0.0000000000000001
 20
3.380300031592518
  0
LWPOLYLINE
  5
1A1
330
145
100
AcDbEntity
  8
AM_4
100
AcDbPolyline
 90
        4
 70
     0
 43
0.0
 10
0.2187500000000001
 20
3.443447717285133
 10
0.1642807675819312
 20
3.421960011744177
 10
0.136879998909235
 20
3.412493338155679
 10
0.1093750000000001
 20
3.404021102750209
  0
LWPOLYLINE
  5
1A2
330
145
100
AcDbEntity
  8
AM_4
100
AcDbPolyline
 90
        4
 70
     0
 43
0.0
 10
-0.1093749999999998
 20
3.490623643128653
 10
-0.0820312499999998
 20
3.482204146458999
 10
-0.0546545855167827
 20
3.472752044808405
 10
0.0000000000000001
 20
3.451197028593729
  0
LWPOLYLINE
  5
1A3
330
145
100
AcDbEntity
  8
AM_4
100
AcDbPolyline
 90
        4
 70
     0
 43
0.0
 10
0.0000000000000001
 20
3.451197028593729
 10
0.0544692324180691
 20
3.472684734134685
 10
0.0818700010907652
 20
3.482151407723183
 10
0.109375
 20
3.490623643128653
  0
ELLIPSE
  5
1A4
330
145
100
AcDbEntity
  8
AM_4
100
AcDbEllipse
 10
0.0000000000000008
 20
3.823502157708296
 30
0.0
 11
0.1026779019331867
 21
0.0
 31
0.0
210
0.0
220
0.0
230
1.0
 40
0.4999999999999999
 41
4.71238898038469
 42
6.518618911721163
  0
LINE
  5
1A5
330
145
100
AcDbEntity
  8
AM_4
100
AcDbLine
 10
-0.0998453562378796
 20
3.835477720149495
 30
0.0
 11
-0.1312757938985218
 21
3.769965489297119
 31
0.0
  0
LINE
  5
1A6
330
145
100
AcDbEntity
  8
AM_4
100
AcDbLine
 10
0.131275793898522
 20
3.769965489297119
 30
0.0
 11
0.0998453562378799
 21
3.835477720149495
 31
0.0
  0
ELLIPSE
  5
1A7
330
145
100
AcDbEntity
  8
AM_4
100
AcDbEllipse
 10
0.0000000000000001
 20
3.823502157708297
 30
0.0
 11
0.1026779019331875
 21
0.0
 31
0.0
210
0.0
220
0.0
230
1.0
 40
0.500000000000005
 41
0.2354336045415639
 42
4.71238898038469
  0
ENDBLK
  5
148
330
145
100
AcDbEntity
  8
0
100
AcDbBlockEnd
  0
BLOCK
  5
1AA
330
1A8
100
AcDbEntity
  8
0
100
AcDbBlockBegin
  2
5_B071432_0_in_071421_2
 70
     2
 10
0.0
 20
0.0
 30
0.0
  3
5_B071432_0_in_071421_2
  1

  0
ATTDEF
  5
1AC
330
1A8
100
AcDbEntity
  8
AM_6
100
AcDbText
 10
6.968717948717948
 20
3.94
 30
0.0
 40
0.5
  1
EP2B-S2-(Labyrinth Seal)-Housing
100
AcDbAttributeDefinition
  3

  2
NN
 70
     8
280
     0
  0
ATTDEF
  5
1AD
330
1A8
100
AcDbEntity
  8
AM_6
100
AcDbText
 10
6.968717948717948
 20
3.44
 30
0.0
 40
0.5
  1
S-2000/E Type Pillow Block Bearing -Inch (2-Bolt Base)
100
AcDbAttributeDefinition
  3

  2
NT
 70
     8
280
     0
  0
ATTDEF
  5
1AE
330
1A8
100
AcDbEntity
  8
AM_6
100
AcDbText
 10
6.968717948717948
 20
2.94
 30
0.0
 40
0.5
  1
B071432
100
AcDbAttributeDefinition
  3

  2
NB
 70
     8
280
     0
  0
ATTDEF
  5
1AF
330
1A8
100
AcDbEntity
  8
AM_6
100
AcDbText
 10
6.968717948717948
 20
2.44
 30
0.0
 40
0.5
  1
$PN.
100
AcDbAttributeDefinition
  3

  2
NBSYN
 70
     8
280
     0
  0
ATTDEF
  5
1B0
330
1A8
100
AcDbEntity
  8
AM_6
100
AcDbText
 10
6.968717948717948
 20
1.94
 30
0.0
 40
0.5
  1
B071432
100
AcDbAttributeDefinition
  3

  2
LINA
 70
     8
280
     0
  0
ATTDEF
  5
1B1
330
1A8
100
AcDbEntity
  8
AM_6
100
AcDbText
 10
6.968717948717948
 20
1.44
 30
0.0
 40
0.5
  1
3-7/16
100
AcDbAttributeDefinition
  3

  2
SS
 70
     8
280
     0
  0
ATTDEF
  5
1B2
330
1A8
100
AcDbEntity
  8
AM_6
100
AcDbText
 10
6.968717948717948
 20
0.9400000000000004
 30
0.0
 40
0.5
  1
3.437500
100
AcDbAttributeDefinition
  3

  2
SS1
 70
     8
280
     0
  0
ATTDEF
  5
1B3
330
1A8
100
AcDbEntity
  8
AM_6
100
AcDbText
 10
6.968717948717948
 20
0.4400000000000004
 30
0.0
 40
0.5
  1
Non-Expansion
100
AcDbAttributeDefinition
  3

  2
TYPE
 70
     8
280
     0
  0
ATTDEF
  5
1B4
330
1A8
100
AcDbEntity
  8
AM_6
100
AcDbText
 10
6.968717948717948
 20
-0.0599999999999996
 30
0.0
 40
0.5
  1
071421
100
AcDbAttributeDefinition
  3

  2
PN1
 70
     8
280
     0
  0
ATTDEF
  5
1B5
330
1A8
100
AcDbEntity
  8
AM_6
100
AcDbText
 10
6.968717948717948
 20
-0.5599999999999996
 30
0.0
 40
0.5
  1
071432
100
AcDbAttributeDefinition
  3

  2
PN2
 70
     8
280
     0
  0
ATTDEF
  5
1B6
330
1A8
100
AcDbEntity
  8
AM_6
100
AcDbText
 10
6.968717948717948
 20
-1.06
 30
0.0
 40
0.5
  1
EP2B-S2-307L
100
AcDbAttributeDefinition
  3

  2
DECS1
 70
     8
280
     0
  0
ATTDEF
  5
1B7
330
1A8
100
AcDbEntity
  8
AM_6
100
AcDbText
 10
6.968717948717948
 20
-1.56
 30
0.0
 40
0.5
  1
Non-Expansion Type
100
AcDbAttributeDefinition
  3

  2
EF
 70
     8
280
     0
  0
ATTDEF
  5
1B8
330
1A8
100
AcDbEntity
  8
AM_6
100
AcDbText
 10
6.968717948717948
 20
-2.06
 30
0.0
 40
0.5
  1
1
100
AcDbAttributeDefinition
  3

  2
EF1
 70
     8
280
     0
  0
ATTDEF
  5
1B9
330
1A8
100
AcDbEntity
  8
AM_6
100
AcDbText
 10
6.968717948717948
 20
-2.56
 30
0.0
 40
0.5
  1
4.01
100
AcDbAttributeDefinition
  3

  2
A
 70
     8
280
     0
  0
ATTDEF
  5
1BA
330
1A8
100
AcDbEntity
  8
AM_6
100
AcDbText
 10
6.968717948717948
 20
-3.06
 30
0.0
 40
0.5
  1
4.0100000
100
AcDbAttributeDefinition
  3

  2
A1
 70
     8
280
     0
  0
ATTDEF
  5
1BB
330
1A8
100
AcDbEntity
  8
AM_6
100
AcDbText
 10
6.968717948717948
 20
-3.56
 30
0.0
 40
0.5
  1
14
100
AcDbAttributeDefinition
  3

  2
B
 70
     8
280
     0
  0
ATTDEF
  5
1BC
330
1A8
100
AcDbEntity
  8
AM_6
100
AcDbText
 10
6.968717948717948
 20
-4.06
 30
0.0
 40
0.5
  1
14.0000000
100
AcDbAttributeDefinition
  3

  2
B1
 70
     8
280
     0
  0
ATTDEF
  5
1BD
330
1A8
100
AcDbEntity
  8
AM_6
100
AcDbText
 10
6.968717948717948
 20
-4.56
 30
0.0
 40
0.5
  1
3.49
100
AcDbAttributeDefinition
  3

  2
C
 70
     8
280
     0
  0
ATTDEF
  5
1BE
330
1A8
100
AcDbEntity
  8
AM_6
100
AcDbText
 10
6.968717948717948
 20
-5.06
 30
0.0
 40
0.5
  1
3.4900000
100
AcDbAttributeDefinition
  3

  2
C1
 70
     8
280
     0
  0
ATTDEF
  5
1BF
330
1A8
100
AcDbEntity
  8
AM_6
100
AcDbText
 10
6.968717948717948
 20
-5.56
 30
0.0
 40
0.5
  1
10.81
100
AcDbAttributeDefinition
  3

  2
DMIN
 70
     8
280
     0
  0
ATTDEF
  5
1C0
330
1A8
100
AcDbEntity
  8
AM_6
100
AcDbText
 10
6.968717948717948
 20
-6.06
 30
0.0
 40
0.5
  1
10.8100000
100
AcDbAttributeDefinition
  3

  2
DMIN1
 70
     8
280
     0
  0
ATTDEF
  5
1C1
330
1A8
100
AcDbEntity
  8
AM_6
100
AcDbText
 10
6.968717948717948
 20
-6.56
 30
0.0
 40
0.5
  1
11.19
100
AcDbAttributeDefinition
  3

  2
DMAX
 70
     8
280
     0
  0
ATTDEF
  5
1C2
330
1A8
100
AcDbEntity
  8
AM_6
100
AcDbText
 10
6.968717948717948
 20
-7.06
 30
0.0
 40
0.5
  1
11.1900000
100
AcDbAttributeDefinition
  3

  2
DMAX1
 70
     8
280
     0
  0
ATTDEF
  5
1C3
330
1A8
100
AcDbEntity
  8
AM_6
100
AcDbText
 10
6.968717948717948
 20
-7.56
 30
0.0
 40
0.5
  1
7/8
100
AcDbAttributeDefinition
  3

  2
F
 70
     8
280
     0
  0
ATTDEF
  5
1C4
330
1A8
100
AcDbEntity
  8
AM_6
100
AcDbText
 10
6.968717948717948
 20
-8.059999999999999
 30
0.0
 40
0.5
  1
0.8750000
100
AcDbAttributeDefinition
  3

  2
F1
 70
     8
280
     0
  0
ATTDEF
  5
1C5
330
1A8
100
AcDbEntity
  8
AM_6
100
AcDbText
 10
6.968717948717948
 20
-8.559999999999999
 30
0.0
 40
0.5
  1
1.19
100
AcDbAttributeDefinition
  3

  2
G
 70
     8
280
     0
  0
ATTDEF
  5
1C6
330
1A8
100
AcDbEntity
  8
AM_6
100
AcDbText
 10
6.968717948717948
 20
-9.059999999999999
 30
0.0
 40
0.5
  1
1.1900000
100
AcDbAttributeDefinition
  3

  2
G1
 70
     8
280
     0
  0
ATTDEF
  5
1C7
330
1A8
100
AcDbEntity
  8
AM_6
100
AcDbText
 10
6.968717948717948
 20
-9.559999999999999
 30
0.0
 40
0.5
  1
2.25
100
AcDbAttributeDefinition
  3

  2
H
 70
     8
280
     0
  0
ATTDEF
  5
1C8
330
1A8
100
AcDbEntity
  8
AM_6
100
AcDbText
 10
6.968717948717948
 20
-10.06
 30
0.0
 40
0.5
  1
2.2500000
100
AcDbAttributeDefinition
  3

  2
H1
 70
     8
280
     0
  0
ATTDEF
  5
1C9
330
1A8
100
AcDbEntity
  8
AM_6
100
AcDbText
 10
6.968717948717948
 20
-10.56
 30
0.0
 40
0.5
  1
7.69
100
AcDbAttributeDefinition
  3

  2
J
 70
     8
280
     0
  0
ATTDEF
  5
1CA
330
1A8
100
AcDbEntity
  8
AM_6
100
AcDbText
 10
6.968717948717948
 20
-11.06
 30
0.0
 40
0.5
  1
7.6900000
100
AcDbAttributeDefinition
  3

  2
JJ
 70
     8
280
     0
  0
ATTDEF
  5
1CB
330
1A8
100
AcDbEntity
  8
AM_6
100
AcDbText
 10
6.968717948717948
 20
-11.56
 30
0.0
 40
0.5
  1
5.5
100
AcDbAttributeDefinition
  3

  2
L
 70
     8
280
     0
  0
ATTDEF
  5
1CC
330
1A8
100
AcDbEntity
  8
AM_6
100
AcDbText
 10
6.968717948717948
 20
-12.06
 30
0.0
 40
0.5
  1
5.5000000
100
AcDbAttributeDefinition
  3

  2
L1
 70
     8
280
     0
  0
ATTDEF
  5
1CD
330
1A8
100
AcDbEntity
  8
AM_6
100
AcDbText
 10
6.968717948717948
 20
-12.56
 30
0.0
 40
0.5
  1
3.75
100
AcDbAttributeDefinition
  3

  2
M
 70
     8
280
     0
  0
ATTDEF
  5
1CE
330
1A8
100
AcDbEntity
  8
AM_6
100
AcDbText
 10
6.968717948717948
 20
-13.06
 30
0.0
 40
0.5
  1
3.750000
100
AcDbAttributeDefinition
  3

  2
M1
 70
     8
280
     0
  0
ATTDEF
  5
1CF
330
1A8
100
AcDbEntity
  8
AM_6
100
AcDbText
 10
6.968717948717948
 20
-13.56
 30
0.0
 40
0.5
  1
1.51
100
AcDbAttributeDefinition
  3

  2
R
 70
     8
280
     0
  0
ATTDEF
  5
1D0
330
1A8
100
AcDbEntity
  8
AM_6
100
AcDbText
 10
6.968717948717948
 20
-14.06
 30
0.0
 40
0.5
  1
1.510000
100
AcDbAttributeDefinition
  3

  2
R1
 70
     8
280
     0
  0
ATTDEF
  5
1D1
330
1A8
100
AcDbEntity
  8
AM_6
100
AcDbText
 10
6.968717948717948
 20
-14.56
 30
0.0
 40
0.5
  1
2.5
100
AcDbAttributeDefinition
  3

  2
S
 70
     8
280
     0
  0
ATTDEF
  5
1D2
330
1A8
100
AcDbEntity
  8
AM_6
100
AcDbText
 10
6.968717948717948
 20
-15.06
 30
0.0
 40
0.5
  1
2.500000
100
AcDbAttributeDefinition
  3

  2
S1
 70
     8
280
     0
  0
ATTDEF
  5
1D3
330
1A8
100
AcDbEntity
  8
AM_6
100
AcDbText
 10
6.968717948717948
 20
-15.56
 30
0.0
 40
0.5
  1
0.25
100
AcDbAttributeDefinition
  3

  2
X
 70
     8
280
     0
  0
ATTDEF
  5
1D4
330
1A8
100
AcDbEntity
  8
AM_6
100
AcDbText
 10
6.968717948717948
 20
-16.06
 30
0.0
 40
0.5
  1
0.250000
100
AcDbAttributeDefinition
  3

  2
X1
 70
     8
280
     0
  0
ATTDEF
  5
1D5
330
1A8
100
AcDbEntity
  8
AM_6
100
AcDbText
 10
6.968717948717948
 20
-16.56
 30
0.0
 40
0.5
  1
0.025
100
AcDbAttributeDefinition
  3

  2
Y
 70
     8
280
     0
  0
ATTDEF
  5
1D6
330
1A8
100
AcDbEntity
  8
AM_6
100
AcDbText
 10
6.968717948717948
 20
-17.06
 30
0.0
 40
0.5
  1
4.05
100
AcDbAttributeDefinition
  3

  2
Z
 70
     8
280
     0
  0
ATTDEF
  5
1D7
330
1A8
100
AcDbEntity
  8
AM_6
100
AcDbText
 10
6.968717948717948
 20
-17.56
 30
0.0
 40
0.5
  1
4.050000
100
AcDbAttributeDefinition
  3

  2
Z1
 70
     8
280
     0
  0
ATTDEF
  5
1D8
330
1A8
100
AcDbEntity
  8
AM_6
100
AcDbText
 10
6.968717948717948
 20
-18.06
 30
0.0
 40
0.5
  1
1/2-13
100
AcDbAttributeDefinition
  3

  2
CS
 70
     8
280
     0
  0
ATTDEF
  5
1D9
330
1A8
100
AcDbEntity
  8
AM_6
100
AcDbText
 10
6.968717948717948
 20
-18.56
 30
0.0
 40
0.5
  1
0.5000
100
AcDbAttributeDefinition
  3

  2
NDM
 70
     8
280
     0
  0
ATTDEF
  5
1DA
330
1A8
100
AcDbEntity
  8
AM_6
100
AcDbText
 10
6.968717948717948
 20
-19.06
 30
0.0
 40
0.5
  1
0.4170
100
AcDbAttributeDefinition
  3

  2
KDM
 70
     8
280
     0
  0
ATTDEF
  5
1DB
330
1A8
100
AcDbEntity
  8
AM_6
100
AcDbText
 10
6.968717948717948
 20
-19.56
 30
0.0
 40
0.5
  1
6.2992
100
AcDbAttributeDefinition
  3

  2
BORE
 70
     8
280
     0
  0
ATTDEF
  5
1DC
330
1A8
100
AcDbEntity
  8
AM_6
100
AcDbText
 10
6.968717948717948
 20
-20.06
 30
0.0
 40
0.5
  1
1
100
AcDbAttributeDefinition
  3

  2
ST1
 70
     8
280
     0
  0
ATTDEF
  5
1DD
330
1A8
100
AcDbEntity
  8
AM_6
100
AcDbText
 10
6.968717948717948
 20
-20.56
 30
0.0
 40
0.5
  1
baldor
100
AcDbAttributeDefinition
  3

  2
COMPANY
 70
     8
280
     0
  0
LWPOLYLINE
  5
1DE
330
1A8
100
AcDbEntity
  8
AM_9
100
AcDbPolyline
 90
       31
 70
     0
 43
0.0
 10
0.4999999999946326
 20
3.412141249302937
 10
0.4999593292865392
 20
3.412136882300222
 10
0.4968581995648905
 20
3.439777691502425
 10
0.487510895108789
 20
3.466220374375259
 10
0.4720980807393449
 20
3.491441291613829
 10
0.4509138500774271
 20
3.515030335716413
 10
0.4240025786970956
 20
3.536874714464425
 10
0.3917470193827104
 20
3.5568334630646
 10
0.3547451361800849
 20
3.57464656243903
 10
0.3129688823606155
 20
3.590335551345748
 10
0.2671104106464127
 20
3.603766476602904
 10
0.2180229198754229
 20
3.614796816124988
 10
0.1661002848739286
 20
3.623396973236733
 10
0.1118911623425662
 20
3.62958682973851
 10
0.056425270176975
 20
3.633308879769635
 10
0.0006168346335288
 20
3.634541631444481
 10
-0.0553759232512182
 20
3.633343389362298
 10
-0.1104932555595936
 20
3.629724792065793
 10
-0.1640095029756477
 20
3.623686235759946
 10
-0.2156404964874621
 20
3.615240940206904
 10
-0.2644329372793622
 20
3.604468143825204
 10
-0.3101344789395046
 20
3.591269115150173
 10
-0.3520973916189827
 20
3.575738665197997
 10
-0.3895488479113657
 20
3.558050554688269
 10
-0.4222531970163048
 20
3.538098805307784
 10
-0.4497340557695185
 20
3.516089116434107
 10
-0.4714681814252332
 20
3.492335750446425
 10
-0.4871229757392971
 20
3.467020329714067
 10
-0.4966957192571603
 20
3.440289673313675
 10
-0.4999991000028066
 20
3.412614332695469
 10
-0.4999999999917185
 20
3.412141529769808
  0
ELLIPSE
  5
1DF
330
1A8
100
AcDbEntity
  8
AM_9
100
AcDbEllipse
 10
0.0000000000000001
 20
3.498742631289124
 30
0.0
 11
-0.4499999999999953
 21
5.510910596163032E-17
 31
0.0
210
0.0
220
0.0
230
1.0
 40
0.5000000000000242
 41
4.447327559919906
 42
4.977450400849473
  0
LWPOLYLINE
  5
1E0
330
1A8
100
AcDbEntity
  8
AM_9
100
AcDbPolyline
 90
        9
 70
     0
 43
0.0
 10
0.1218725692672251
 20
3.722496520569136
 10
0.1217289088287388
 20
3.722515549230338
 10
0.0835687856461389
 20
3.72673798629354
 10
0.0449368979712765
 20
3.729376264875523
 10
0.0060536394040816
 20
3.73042207268967
 10
-0.032859061768154
 20
3.729872434016638
 10
-0.0715770321982568
 20
3.72773004197348
 10
-0.1098757420983381
 20
3.72400357856451
 10
-0.1218532659032167
 20
3.722499078805057
  0
ELLIPSE
  5
1E1
330
1A8
100
AcDbEntity
  8
AM_9
100
AcDbEllipse
 10
0.0000000000000003
 20
3.45544136109991
 30
0.0
 11
-0.4999999999999997
 21
6.123233995736762E-17
 31
0.0
210
0.0
220
0.0
230
1.0
 40
0.500000000000162
 41
3.143457089289795
 42
6.279945998502138
  0
LINE
  5
1E2
330
1A8
100
AcDbEntity
  8
AM_9
100
AcDbLine
 10
-1.396
 20
-3.1496
 30
0.0
 11
1.396
 21
-3.1496
 31
0.0
  0
LINE
  5
1E3
330
1A8
100
AcDbEntity
  8
AM_9
100
AcDbLine
 10
1.396
 20
3.1496
 30
0.0
 11
-1.396
 21
3.1496
 31
0.0
  0
LINE
  5
1E4
330
1A8
100
AcDbEntity
  8
AM_9
100
AcDbLine
 10
-1.396
 20
0.1942490453226847
 30
0.0
 11
-1.396
 21
-2.999999999999995
 31
0.0
  0
LINE
  5
1E5
330
1A8
100
AcDbEntity
  8
AM_9
100
AcDbLine
 10
-1.562190476190475
 20
-0.5255232210408296
 30
0.0
 11
-1.562190476190475
 21
-3.75
 31
0.0
  0
LINE
  5
1E6
330
1A8
100
AcDbEntity
  8
AM_9
100
AcDbLine
 10
1.562190476190477
 20
-0.525523221040834
 30
0.0
 11
1.562190476190477
 21
-3.75
 31
0.0
  0
LINE
  5
1E7
330
1A8
100
AcDbEntity
  8
AM_9
100
AcDbLine
 10
1.396
 20
0.1942490453226531
 30
0.0
 11
1.396
 21
-2.999999999999997
 31
0.0
  0
LINE
  5
1E8
330
1A8
100
AcDbEntity
  8
AM_9
100
AcDbLine
 10
-1.578809523809525
 20
-0.525523221040829
 30
0.0
 11
-1.578809523809525
 21
-3.75
 31
0.0
  0
LINE
  5
1E9
330
1A8
100
AcDbEntity
  8
AM_9
100
AcDbLine
 10
1.578809523809526
 20
-0.5255232210408346
 30
0.0
 11
1.578809523809526
 21
-3.75
 31
0.0
  0
LINE
  5
1EA
330
1A8
100
AcDbEntity
  8
AM_9
100
AcDbLine
 10
0.5000000000000009
 20
-1.5
 30
0.0
 11
0.5000000000000009
 21
-3.75
 31
0.0
  0
LINE
  5
1EB
330
1A8
100
AcDbEntity
  8
AM_9
100
AcDbLine
 10
-0.4999999999999999
 20
-1.5
 30
0.0
 11
-0.4999999999999998
 21
-3.75
 31
0.0
  0
LINE
  5
1EC
330
1A8
100
AcDbEntity
  8
AM_9
100
AcDbLine
 10
-0.1603331708465807
 20
-3.000034915457112
 30
0.0
 11
-0.2271431995737127
 21
-3.000001625419399
 31
0.0
  0
LINE
  5
1ED
330
1A8
100
AcDbEntity
  8
AM_9
100
AcDbLine
 10
0.2270076766622547
 20
-3.000001788661321
 30
0.0
 11
-1.410466959612729
 21
-3.000034934030938
 31
0.0
  0
LINE
  5
1EE
330
1A8
100
AcDbEntity
  8
AM_9
100
AcDbLine
 10
0.1603239331454814
 20
-3.000034934030938
 30
0.0
 11
1.41046695961273
 21
-3.000034934030938
 31
0.0
  0
LINE
  5
1EF
330
1A8
100
AcDbEntity
  8
AM_7
100
AcDbLine
 10
1.968717948717949
 20
0.0
 30
0.0
 11
-2.7
 21
0.0
 31
0.0
  0
LINE
  5
1F0
330
1A8
100
AcDbEntity
  8
AM_4
100
AcDbLine
 10
-0.4999999999999998
 20
3.455441361099911
 30
0.0
 11
-0.4999999999999998
 21
3.412134259874567
 31
0.0
  0
LINE
  5
1F1
330
1A8
100
AcDbEntity
  8
AM_4
100
AcDbLine
 10
0.5000000000000001
 20
3.412131382798657
 30
0.0
 11
0.5000000000000001
 21
3.455441361099911
 31
0.0
  0
LWPOLYLINE
  5
1F2
330
1A8
100
AcDbEntity
  8
AM_4
100
AcDbPolyline
 90
       15
 70
     0
 43
0.0
 10
-0.4999999999917185
 20
3.412141529769808
 10
-0.4969531876627518
 20
3.384426245058858
 10
-0.4877231793273539
 20
3.355834357902803
 10
-0.4724872236504634
 20
3.327412275125709
 10
-0.4513221193254499
 20
3.299493071149553
 10
-0.424508272373853
 20
3.272404528932271
 10
-0.3925463582334488
 20
3.2467388142266
 10
-0.355397790755526
 20
3.222699234023305
 10
-0.313675596817832
 20
3.200780739008766
 10
-0.2681520397533499
 20
3.181504531844771
 10
-0.2190191818872044
 20
3.16515396175146
 10
-0.1669386188752156
 20
3.15201366040371
 10
-0.1128936826106213
 20
3.142420811762536
 10
-0.0568191383963509
 20
3.136538031388597
 10
0.0000000000000001
 20
3.13455314628091
  0
ELLIPSE
  5
1F3
330
1A8
100
AcDbEntity
  8
AM_4
100
AcDbEllipse
 10
-0.0000000000000001
 20
3.498742631289132
 30
0.0
 11
-0.4500000000000003
 21
5.510910596163093E-17
 31
0.0
210
0.0
220
0.0
230
1.0
 40
0.4999999999999999
 41
4.977450400849469
 42
10.7305128670995
  0
ELLIPSE
  5
1F4
330
1A8
100
AcDbEntity
  8
AM_4
100
AcDbEllipse
 10
0.0000000000000002
 20
3.45544136109991
 30
0.0
 11
-0.4999999999999994
 21
6.123233995736759E-17
 31
0.0
210
0.0
220
0.0
230
1.0
 40
0.4999999999999997
 41
6.279945998502138
 42
9.426642396469381
  0
LWPOLYLINE
  5
1F5
330
1A8
100
AcDbEntity
  8
AM_4
100
AcDbPolyline
 90
       18
 70
     0
 43
0.0
 10
-0.1218532659032167
 20
3.722499078805057
 10
-0.147538049798124
 20
3.718706755091505
 10
-0.1843514601423915
 20
3.711857582494638
 10
-0.2201093545418477
 20
3.703477339920198
 10
-0.2546118090176927
 20
3.693589221041555
 10
-0.2876657216196097
 20
3.682216726941429
 10
-0.3190838351041878
 20
3.669382022282101
 10
-0.348682070601274
 20
3.655104789848922
 10
-0.3762744777262255
 20
3.639402735609532
 10
-0.4016653669054383
 20
3.622295918828692
 10
-0.42463025070417
 20
3.60382650141536
 10
-0.4449072231345906
 20
3.584091637447242
 10
-0.4622399529419878
 20
3.563246956329648
 10
-0.476401776130364
 20
3.541526961843057
 10
-0.4872474294001417
 20
3.5192212282383
 10
-0.4947414731990959
 20
3.496621847903155
 10
-0.4989412280719153
 20
3.473976808429694
 10
-0.4999965762353881
 20
3.456496215527314
  0
LWPOLYLINE
  5
1F6
330
1A8
100
AcDbEntity
  8
AM_4
100
AcDbPolyline
 90
       18
 70
     0
 43
0.0
 10
0.4999988485544404
 20
3.456053095657849
 10
0.4988602895125511
 20
3.474671090842573
 10
0.4947365599353882
 20
3.496640933236881
 10
0.4876816309354691
 20
3.518145793840112
 10
0.4777258011261033
 20
3.539156443268999
 10
0.4648562792531191
 20
3.559637218970933
 10
0.44904857650688
 20
3.579518494375007
 10
0.4303124450079135
 20
3.598681138461531
 10
0.4087313009392192
 20
3.616964506477957
 10
0.3844709119448633
 20
3.634196381109249
 10
0.3577542523549556
 20
3.650225865171519
 10
0.3288344510667509
 20
3.664935497329008
 10
0.2979623219663317
 20
3.678245524753959
 10
0.2653549135954473
 20
3.690110692001131
 10
0.2312211743150204
 20
3.700496802674044
 10
0.1957671087247385
 20
3.709375512747428
 10
0.1591996651709429
 20
3.716722195777499
 10
0.1218725692672251
 20
3.722496520569136
  0
LINE
  5
1F7
330
1A8
100
AcDbEntity
  8
AM_4
100
AcDbLine
 10
1.396
 20
0.1942490453226531
 30
0.0
 11
1.396
 21
3.94
 31
0.0
  0
LWPOLYLINE
  5
1F8
330
1A8
100
AcDbEntity
  8
AM_4
100
AcDbPolyline
 90
       15
 70
     0
 43
0.0
 10
0.0000000000000001
 20
3.13455314628091
 10
0.0557926543266126
 20
3.136487844930848
 10
0.1110552451343547
 20
3.14219283307308
 10
0.1647462246669791
 20
3.151519448996231
 10
0.2163195146072996
 20
3.164368931335746
 10
0.2653414574309206
 20
3.180480430387705
 10
0.3109082606822846
 20
3.199455638212058
 10
0.3527518278191416
 20
3.221164288392566
 10
0.3902996536593799
 20
3.245163659989351
 10
0.4228543010646048
 20
3.270895487207779
 10
0.4501202281596077
 20
3.298123448393251
 10
0.4717884040946772
 20
3.326395739778444
 10
0.4874409978143707
 20
3.355096394552684
 10
0.4967996528320747
 20
3.383725413852942
 10
0.4999999999946326
 20
3.412141249302937
  0
LINE
  5
1F9
330
1A8
100
AcDbEntity
  8
AM_4
100
AcDbLine
 10
1.396
 20
3.94
 30
0.0
 11
-1.396
 21
3.94
 31
0.0
  0
LINE
  5
1FA
330
1A8
100
AcDbEntity
  8
AM_4
100
AcDbLine
 10
-1.396
 20
3.94
 30
0.0
 11
-1.396
 21
0.1942490453226847
 31
0.0
  0
LWPOLYLINE
  5
1FB
330
1A8
100
AcDbEntity
  8
AM_4
100
AcDbPolyline
 90
       19
 70
     0
 43
0.0
 10
1.396
 20
0.1942490453226533
 10
1.396632404936181
 20
0.1315167588385783
 10
1.398524806761305
 20
0.0692619029334374
 10
1.401662803154817
 20
0.0079582746511783
 10
1.406022512069389
 20
-0.051927568380828
 10
1.411570753487719
 20
-0.1099398587370474
 10
1.418265301942491
 20
-0.1656370878590902
 10
1.426055207877686
 20
-0.2185953662024316
 10
1.434881185405465
 20
-0.2684116492917957
 10
1.444676063507569
 20
-0.3147068051329786
 10
1.455365297247332
 20
-0.357128499636249
 10
1.46686753510166
 20
-0.3953538780915181
 10
1.479095238095238
 20
-0.4290920222876265
 10
1.491955346024998
 20
-0.4580861645755932
 10
1.505349985704449
 20
-0.4821156420254654
 10
1.519177215837724
 20
-0.5009975758044539
 10
1.533331802854401
 20
-0.5145882629952776
 10
1.547706021800509
 20
-0.5227842702621328
 10
1.562190470653009
 20
-0.5255232210408343
  0
LINE
  5
1FC
330
1A8
100
AcDbEntity
  8
AM_4
100
AcDbLine
 10
-1.396
 20
0.886398073303616
 30
0.0
 11
1.396
 21
0.886398073303616
 31
0.0
  0
LWPOLYLINE
  5
1FD
330
1A8
100
AcDbEntity
  8
AM_4
100
AcDbPolyline
 90
       19
 70
     0
 43
0.0
 10
-1.562190476190475
 20
-0.52552322104083
 10
-1.547706021800508
 20
-0.5227842702621284
 10
-1.5333318028544
 20
-0.5145882629952733
 10
-1.519177215837723
 20
-0.5009975758044498
 10
-1.505349985704448
 20
-0.4821156420254614
 10
-1.491955346024998
 20
-0.4580861645755898
 10
-1.479095238095238
 20
-0.4290920222876231
 10
-1.466867535101659
 20
-0.3953538780915152
 10
-1.455365297247332
 20
-0.3571284996362465
 10
-1.444676063507569
 20
-0.3147068051329763
 10
-1.434881185405465
 20
-0.2684116492917941
 10
-1.426055207877686
 20
-0.2185953662024304
 10
-1.418265301942491
 20
-0.1656370878590893
 10
-1.411570753487718
 20
-0.1099398587370469
 10
-1.406022512069389
 20
-0.0519275683808279
 10
-1.401662803154816
 20
0.007958274651178
 10
-1.398524806761304
 20
0.0692619029334366
 10
-1.396632404936181
 20
0.1315167588385771
 10
-1.396
 20
0.1942490453226516
  0
LINE
  5
1FE
330
1A8
100
AcDbEntity
  8
AM_4
100
AcDbLine
 10
-1.562190476190475
 20
-0.5255232210408296
 30
0.0
 11
-1.578809523809525
 21
-0.525523221040829
 31
0.0
  0
LWPOLYLINE
  5
1FF
330
1A8
100
AcDbEntity
  8
AM_4
100
AcDbPolyline
 90
       19
 70
     0
 43
0.0
 10
-1.578809520307322
 20
-0.5255232210408287
 10
-1.593293974710617
 20
-0.5282621704975463
 10
-1.607668193696604
 20
-0.5364581764524783
 10
-1.621822780779409
 20
-0.5500488623514244
 10
-1.635650011004558
 20
-0.5689307948684128
 10
-1.649044650800929
 20
-0.5929602710957668
 10
-1.661904758871766
 20
-0.6219544122100018
 10
-1.674132462029504
 20
-0.6556925552900973
 10
-1.685634700069825
 20
-0.693917932695566
 10
-1.696323934016
 20
-0.7363396262232385
 10
-1.706118812343362
 20
-0.7826347811704503
 10
-1.714944790113532
 20
-0.8324510634542741
 10
-1.722734696306407
 20
-0.8854093410866365
 10
-1.729429245032186
 20
-0.9411065695976727
 10
-1.734977486732786
 20
-0.9991188594475079
 10
-1.739337195938746
 20
-1.059004702081606
 10
-1.742475192630544
 20
-1.120308330077462
 10
-1.744367594758581
 20
-1.182563185809884
 10
-1.745
 20
-1.245295472236239
  0
LWPOLYLINE
  5
200
330
1A8
100
AcDbEntity
  8
AM_4
100
AcDbPolyline
 90
       19
 70
     0
 43
0.0
 10
1.745
 20
-1.245295487404271
 10
1.744367595063818
 20
-1.182563200920197
 10
1.742475193238694
 20
-1.120308345015057
 10
1.739337196845181
 20
-1.0590047167328
 10
1.734977487930608
 20
-0.9991188737007953
 10
1.729429246512278
 20
-0.9411065833445781
 10
1.722734698057505
 20
-0.8854093542225377
 10
1.714944792122309
 20
-0.832451075879199
 10
1.70611881459453
 20
-0.7826347927898377
 10
1.696323936492425
 20
-0.7363396369486581
 10
1.685634702752661
 20
-0.6939179424453907
 10
1.674132464898334
 20
-0.655692563990125
 10
1.661904761904755
 20
-0.6219544197940202
 10
1.649044653974995
 20
-0.5929602775060571
 10
1.635650014295544
 20
-0.5689308000561886
 10
1.621822784162269
 20
-0.5500488662772037
 10
1.607668197145592
 20
-0.5364581790863838
 10
1.593293978199484
 20
-0.5282621718195322
 10
1.578809527311728
 20
-0.5255232210408342
  0
LINE
  5
201
330
1A8
100
AcDbEntity
  8
AM_4
100
AcDbLine
 10
1.578809523809526
 20
-0.5255232210408346
 30
0.0
 11
1.562190476190477
 21
-0.525523221040834
 31
0.0
  0
LINE
  5
202
330
1A8
100
AcDbEntity
  8
AM_4
100
AcDbLine
 10
0.9165000000000002
 20
-1.5
 30
0.0
 11
0.9165000000000002
 21
-2.860996731915849
 31
0.0
  0
LINE
  5
203
330
1A8
100
AcDbEntity
  8
AM_4
100
AcDbLine
 10
-0.9164999999999996
 20
-1.5
 30
0.0
 11
-0.9164999999999996
 21
-2.860996731915849
 31
0.0
  0
LWPOLYLINE
  5
204
330
1A8
100
AcDbEntity
  8
AM_4
100
AcDbPolyline
 90
        3
 70
     0
 43
0.0
 10
-1.410466959612729
 20
-3.000034934030938
 10
-1.671547427649988
 20
-2.988635914621435
 10
-1.745
 20
-2.981296636676888
  0
LWPOLYLINE
  5
205
330
1A8
100
AcDbEntity
  8
AM_4
100
AcDbPolyline
 90
       17
 70
     0
 43
0.0
 10
-0.2271431995737127
 20
-3.000001625419399
 10
-0.3009437095891492
 20
-2.999815554254495
 10
-0.3738127551074829
 20
-2.99932460071787
 10
-0.4419747990364231
 20
-2.998394097680857
 10
-0.5070830848715413
 20
-2.996827085908745
 10
-0.5704270953048776
 20
-2.994335377599917
 10
-0.629578657308681
 20
-2.990724221218183
 10
-0.6822001378045208
 20
-2.985961718287117
 10
-0.7301469462571437
 20
-2.979742346700597
 10
-0.7742806178759644
 20
-2.971609647544621
 10
-0.8127986903095196
 20
-2.961561590815168
 10
-0.844087926639951
 20
-2.950038898030792
 10
-0.8698638034917805
 20
-2.936559661117726
 10
-0.8904947941730337
 20
-2.920593484830436
 10
-0.9051325623225215
 20
-2.902511325341927
 10
-0.9136569749975412
 20
-2.882781093417752
 10
-0.9164999999999996
 20
-2.860996731915849
  0
LINE
  5
206
330
1A8
100
AcDbEntity
  8
AM_4
100
AcDbLine
 10
-1.745
 20
-1.5
 30
0.0
 11
1.745
 21
-1.5
 31
0.0
  0
LWPOLYLINE
  5
207
330
1A8
100
AcDbEntity
  8
AM_4
100
AcDbPolyline
 90
       18
 70
     0
 43
0.0
 10
0.9165000000000002
 20
-2.860996731915849
 10
0.9136460747988382
 20
-2.882820859678488
 10
0.9049385288355416
 20
-2.90282895408443
 10
0.8899345066025683
 20
-2.921139591585574
 10
0.8685602731263334
 20
-2.93737268006303
 10
0.8419997610420766
 20
-2.950945963802009
 10
0.8094876823057852
 20
-2.962573508198866
 10
0.770442557387623
 20
-2.972441130387147
 10
0.7254287683704947
 20
-2.980457082717505
 10
0.6780908278111283
 20
-2.986402774920791
 10
0.6259269839381746
 20
-2.99099353416864
 10
0.5683548371520447
 20
-2.994437238318274
 10
0.506394081601971
 20
-2.996848226358083
 10
0.4425346125115417
 20
-2.998383566969822
 10
0.3752661804422877
 20
-2.99931035504112
 10
0.3039684417344358
 20
-2.999801345620055
 10
0.2300067221701677
 20
-2.999998056875611
 10
0.2270076766622547
 20
-3.000001788661321
  0
LINE
  5
208
330
1A8
100
AcDbEntity
  8
AM_4
100
AcDbLine
 10
-1.410466959612729
 20
-3.000034934030938
 30
0.0
 11
1.41046695961273
 21
-3.000034934030938
 31
0.0
  0
LWPOLYLINE
  5
209
330
1A8
100
AcDbEntity
  8
AM_4
100
AcDbPolyline
 90
        3
 70
     0
 43
0.0
 10
1.745000000000001
 20
-2.981296636676888
 10
1.484279682969501
 20
-2.99912539775465
 10
1.41046695961273
 20
-3.000034934030938
  0
LINE
  5
20A
330
1A8
100
AcDbEntity
  8
AM_4
100
AcDbLine
 10
1.396000000000001
 20
-2.999999999999996
 30
0.0
 11
1.396000000000001
 21
-3.75
 31
0.0
  0
LINE
  5
20B
330
1A8
100
AcDbEntity
  8
AM_4
100
AcDbLine
 10
-1.745
 20
-3.75
 30
0.0
 11
1.745
 21
-3.75
 31
0.0
  0
LINE
  5
20C
330
1A8
100
AcDbEntity
  8
AM_4
100
AcDbLine
 10
1.745
 20
-1.24529548740427
 30
0.0
 11
1.745
 21
-3.75
 31
0.0
  0
LINE
  5
20D
330
1A8
100
AcDbEntity
  8
AM_4
100
AcDbLine
 10
-1.745
 20
-1.245295487404268
 30
0.0
 11
-1.745
 21
-3.75
 31
0.0
  0
LINE
  5
20E
330
1A8
100
AcDbEntity
  8
AM_4
100
AcDbLine
 10
-1.395999999999999
 20
-2.999999999999996
 30
0.0
 11
-1.395999999999999
 21
-3.75
 31
0.0
  0
ENDBLK
  5
1AB
330
1A8
100
AcDbEntity
  8
0
100
AcDbBlockEnd
  0
ENDSEC
  0
SECTION
  2
ENTITIES
  0
INSERT
  5
6F
330
1F
100
AcDbEntity
  8
0
100
AcDbBlockReference
  2
1_071421_2
 10
0.0
 20
0.0
 30
0.0
  0
POINT
  5
210
330
1F
100
AcDbEntity
  8
ConnectionPoints
100
AcDbPoint
 10
-2.5
 20
0.0
 30
0.0000000000000002
  0
POINT
  5
211
330
1F
100
AcDbEntity
  8
ConnectionPoints
100
AcDbPoint
 10
2.534
 20
0.0
 30
-0.0000000000000002
  0
POINT
  5
212
330
1F
100
AcDbEntity
  8
ConnectionPoints
100
AcDbPoint
 10
-2.5
 20
0.0
 30
0.0000000000000002
  0
POINT
  5
213
330
1F
100
AcDbEntity
  8
ConnectionPoints
100
AcDbPoint
 10
0.0000000000000001
 20
3.498742631289132
 30
2.02
  0
POINT
  5
214
330
1F
100
AcDbEntity
  8
ConnectionPoints
100
AcDbPoint
 10
-2.25
 20
0.0
 30
0.0000000000000001
  0
POINT
  5
215
330
1F
100
AcDbEntity
  8
ConnectionPoints
100
AcDbPoint
 10
-2.5
 20
0.0
 30
0.0000000000000002
  0
POINT
  5
216
330
1F
100
AcDbEntity
  8
ConnectionPoints
100
AcDbPoint
 10
0.0000000000000001
 20
3.498742631289132
 30
2.02
  0
ENDSEC
  0
SECTION
  2
OBJECTS
  0
DICTIONARY
  5
C
330
0
100
AcDbDictionary
281
     1
  3
ACAD_DETAILVIEWSTYLE
350
21E
  3
ACAD_GROUP
350
D
  3
ACAD_LAYOUT
350
1A
  3
ACAD_MATERIAL
350
43
  3
ACAD_MLEADERSTYLE
350
6B
  3
ACAD_MLINESTYLE
350
17
  3
ACAD_PLOTSETTINGS
350
19
  3
ACAD_PLOTSTYLENAME
350
E
  3
ACAD_SCALELIST
350
47
  3
ACAD_SECTIONVIEWSTYLE
350
21F
  3
ACAD_TABLESTYLE
350
69
  3
ACAD_VISUALSTYLE
350
2A
  3
ACDB_RECOMPOSE_DATA
350
21B
  3
AcDbVariableDictionary
350
217
  0
SUN
  5
6D
330
29
100
AcDbSun
 90
        1
290
     0
 63
     7
421
 16777215
 40
1.0
291
     1
 91
  2455826
 92
 54000000
292
     0
 70
     2
 71
   256
280
     1
  0
DICTIONARY
  5
21E
102
{ACAD_REACTORS
330
C
102
}
330
C
100
AcDbDictionary
281
     1
  0
DICTIONARY
  5
D
102
{ACAD_REACTORS
330
C
102
}
330
C
100
AcDbDictionary
281
     1
  0
DICTIONARY
  5
1A
102
{ACAD_REACTORS
330
C
102
}
330
C
100
AcDbDictionary
281
     1
  3
Layout1
350
1E
  3
Layout2
350
26
  3
Model
350
22
  0
DICTIONARY
  5
43
102
{ACAD_REACTORS
330
C
102
}
330
C
100
AcDbDictionary
281
     1
  3
ByBlock
350
45
  3
ByLayer
350
44
  3
Global
350
46
  0
DICTIONARY
  5
6B
102
{ACAD_REACTORS
330
C
102
}
330
C
100
AcDbDictionary
281
     1
  3
Standard
350
6C
  0
DICTIONARY
  5
17
102
{ACAD_REACTORS
330
C
102
}
330
C
100
AcDbDictionary
281
     1
  3
Standard
350
18
  0
DICTIONARY
  5
19
102
{ACAD_REACTORS
330
C
102
}
330
C
100
AcDbDictionary
281
     1
  0
ACDBDICTIONARYWDFLT
  5
E
102
{ACAD_REACTORS
330
C
102
}
330
C
100
AcDbDictionary
281
     1
  3
Normal
350
F
100
AcDbDictionaryWithDefault
340
F
  0
DICTIONARY
  5
47
102
{ACAD_REACTORS
330
C
102
}
330
C
100
AcDbDictionary
281
     1
  3
A0
350
48
  3
A1
350
49
  3
A2
350
4A
  3
A3
350
4B
  3
A4
350
4C
  3
A5
350
4D
  3
A6
350
4E
  3
A7
350
4F
  3
A8
350
50
  3
A9
350
51
  3
B0
350
52
  3
B1
350
53
  3
B2
350
54
  3
B3
350
55
  3
B4
350
56
  3
B5
350
57
  3
B6
350
58
  3
B7
350
59
  3
B8
350
5A
  3
B9
350
5B
  3
C0
350
5C
  3
C1
350
5D
  3
C2
350
5E
  3
C3
350
5F
  3
C4
350
60
  3
C5
350
61
  3
C6
350
62
  3
C7
350
63
  3
C8
350
64
  3
C9
350
65
  3
D0
350
66
  3
D1
350
67
  3
D2
350
68
  0
DICTIONARY
  5
21F
102
{ACAD_REACTORS
330
C
102
}
330
C
100
AcDbDictionary
281
     1
  0
DICTIONARY
  5
69
102
{ACAD_REACTORS
330
C
102
}
330
C
100
AcDbDictionary
281
     1
  3
Standard
350
6A
  0
DICTIONARY
  5
2A
102
{ACAD_REACTORS
330
C
102
}
330
C
100
AcDbDictionary
281
     1
  3
2dWireframe
350
2F
  3
Basic
350
32
  3
Brighten
350
36
  3
ColorChange
350
3A
  3
Conceptual
350
34
  3
Dim
350
35
  3
EdgeColorOff
350
3D
  3
Facepattern
350
39
  3
Flat
350
2B
  3
FlatWithEdges
350
2C
  3
Gouraud
350
2D
  3
GouraudWithEdges
350
2E
  3
Hidden
350
31
  3
JitterOff
350
3B
  3
Linepattern
350
38
  3
OverhangOff
350
3C
  3
Realistic
350
33
  3
Shaded
350
42
  3
Shaded with edges
350
41
  3
Shades of Gray
350
3E
  3
Sketchy
350
3F
  3
Thicken
350
37
  3
Wireframe
350
30
  3
X-Ray
350
40
  0
XRECORD
  5
21B
102
{ACAD_REACTORS
330
C
102
}
330
C
100
AcDbXrecord
280
     1
 90
        1
330
6A
  0
DICTIONARY
  5
217
102
{ACAD_REACTORS
330
C
102
}
330
C
100
AcDbDictionary
281
     1
  3
CANNOSCALE
350
218
  3
CMLEADERSTYLE
350
21D
  3
CTABLESTYLE
350
21C
  0
LAYOUT
  5
1E
102
{ACAD_REACTORS
330
1A
102
}
330
1A
100
AcDbPlotSettings
  1

  2
none_device
  4

  6

 40
0.0
 41
0.0
 42
0.0
 43
0.0
 44
0.0
 45
0.0
 46
0.0
 47
0.0
 48
0.0
 49
0.0
140
0.0
141
0.0
142
1.0
143
1.0
 70
   688
 72
     0
 73
     0
 74
     5
  7

 75
    16
 76
     0
 77
     2
 78
   300
147
1.0
148
0.0
149
0.0
100
AcDbLayout
  1
Layout1
 70
     1
 71
     1
 10
0.0
 20
0.0
 11
12.0
 21
9.0
 12
0.0
 22
0.0
 32
0.0
 14
1.000000000000000E+20
 24
1.000000000000000E+20
 34
1.000000000000000E+20
 15
-1.000000000000000E+20
 25
-1.000000000000000E+20
 35
-1.000000000000000E+20
146
0.0
 13
0.0
 23
0.0
 33
0.0
 16
1.0
 26
0.0
 36
0.0
 17
0.0
 27
1.0
 37
0.0
 76
     0
330
1B
  0
LAYOUT
  5
26
102
{ACAD_REACTORS
330
1A
102
}
330
1A
100
AcDbPlotSettings
  1

  2
none_device
  4

  6

 40
0.0
 41
0.0
 42
0.0
 43
0.0
 44
0.0
 45
0.0
 46
0.0
 47
0.0
 48
0.0
 49
0.0
140
0.0
141
0.0
142
1.0
143
1.0
 70
   688
 72
     0
 73
     0
 74
     5
  7

 75
    16
 76
     0
 77
     2
 78
   300
147
1.0
148
0.0
149
0.0
100
AcDbLayout
  1
Layout2
 70
     1
 71
     2
 10
0.0
 20
0.0
 11
0.0
 21
0.0
 12
0.0
 22
0.0
 32
0.0
 14
0.0
 24
0.0
 34
0.0
 15
0.0
 25
0.0
 35
0.0
146
0.0
 13
0.0
 23
0.0
 33
0.0
 16
1.0
 26
0.0
 36
0.0
 17
0.0
 27
1.0
 37
0.0
 76
     0
330
23
  0
LAYOUT
  5
22
102
{ACAD_REACTORS
330
1A
102
}
330
1A
100
AcDbPlotSettings
  1

  2
none_device
  4
Letter_(8.50_x_11.00_Inches)
  6

 40
6.35
 41
6.35
 42
6.35000508
 43
6.35000508
 44
215.9
 45
279.4
 46
0.0
 47
0.0
 48
0.0
 49
0.0
140
0.0
141
0.0
142
1.0
143
1.0
 70
  1712
 72
     0
 73
     0
 74
     0
  7

 75
     0
 76
     0
 77
     2
 78
   300
147
1.0
148
0.0
149
0.0
100
AcDbLayout
  1
Model
 70
     1
 71
     0
 10
0.0
 20
0.0
 11
12.0
 21
9.0
 12
0.0
 22
0.0
 32
0.0
 14
1.000000000000000E+20
 24
1.000000000000000E+20
 34
1.000000000000000E+20
 15
-1.000000000000000E+20
 25
-1.000000000000000E+20
 35
-1.000000000000000E+20
146
0.0
 13
0.0
 23
0.0
 33
0.0
 16
1.0
 26
0.0
 36
0.0
 17
0.0
 27
1.0
 37
0.0
 76
     0
330
1F
331
29
  0
MATERIAL
  5
45
102
{ACAD_REACTORS
330
43
102
}
330
43
100
AcDbMaterial
  1
ByBlock
 72
     1
 94
      127
  0
MATERIAL
  5
44
102
{ACAD_REACTORS
330
43
102
}
330
43
100
AcDbMaterial
  1
ByLayer
 72
     1
 94
      127
  0
MATERIAL
  5
46
102
{ACAD_REACTORS
330
43
102
}
330
43
100
AcDbMaterial
  1
Global
 72
     1
 94
      127
  0
MLEADERSTYLE
  5
6C
102
{ACAD_REACTORS
330
6B
102
}
330
6B
100
AcDbMLeaderStyle
179
     2
170
     2
171
     1
172
     0
 90
        2
 40
0.0
 41
0.0
173
     1
 91
-1056964608
340
14
 92
       -2
290
     1
 42
0.09
291
     1
 43
0.36
  3
Standard
341
0
 44
0.18
300

342
11
174
     1
178
     6
175
     1
176
     0
 93
-1056964608
 45
0.18
292
     0
297
     0
 46
0.18
343
0
 94
-1056964608
 47
1.0
 49
1.0
140
1.0
293
     1
141
0.0
294
     1
177
     0
142
1.0
295
     0
296
     0
143
0.125
271
     0
272
     9
273
     9
298
     0
  0
MLINESTYLE
  5
18
102
{ACAD_REACTORS
330
17
102
}
330
17
100
AcDbMlineStyle
  2
Standard
 70
     0
  3

 62
   256
 51
90.0
 52
90.0
 71
     2
 49
0.5
 62
   256
  6
BYLAYER
 49
-0.5
 62
   256
  6
BYLAYER
  0
ACDBPLACEHOLDER
  5
F
102
{ACAD_REACTORS
330
E
102
}
330
E
  0
SCALE
  5
48
102
{ACAD_REACTORS
330
47
102
}
330
47
100
AcDbScale
 70
     0
300
1:1
140
1.0
141
1.0
290
     1
  0
SCALE
  5
49
102
{ACAD_REACTORS
330
47
102
}
330
47
100
AcDbScale
 70
     0
300
1:2
140
1.0
141
2.0
290
     0
  0
SCALE
  5
4A
102
{ACAD_REACTORS
330
47
102
}
330
47
100
AcDbScale
 70
     0
300
1:4
140
1.0
141
4.0
290
     0
  0
SCALE
  5
4B
102
{ACAD_REACTORS
330
47
102
}
330
47
100
AcDbScale
 70
     0
300
1:5
140
1.0
141
5.0
290
     0
  0
SCALE
  5
4C
102
{ACAD_REACTORS
330
47
102
}
330
47
100
AcDbScale
 70
     0
300
1:8
140
1.0
141
8.0
290
     0
  0
SCALE
  5
4D
102
{ACAD_REACTORS
330
47
102
}
330
47
100
AcDbScale
 70
     0
300
1:10
140
1.0
141
10.0
290
     0
  0
SCALE
  5
4E
102
{ACAD_REACTORS
330
47
102
}
330
47
100
AcDbScale
 70
     0
300
1:16
140
1.0
141
16.0
290
     0
  0
SCALE
  5
4F
102
{ACAD_REACTORS
330
47
102
}
330
47
100
AcDbScale
 70
     0
300
1:20
140
1.0
141
20.0
290
     0
  0
SCALE
  5
50
102
{ACAD_REACTORS
330
47
102
}
330
47
100
AcDbScale
 70
     0
300
1:30
140
1.0
141
30.0
290
     0
  0
SCALE
  5
51
102
{ACAD_REACTORS
330
47
102
}
330
47
100
AcDbScale
 70
     0
300
1:40
140
1.0
141
40.0
290
     0
  0
SCALE
  5
52
102
{ACAD_REACTORS
330
47
102
}
330
47
100
AcDbScale
 70
     0
300
1:50
140
1.0
141
50.0
290
     0
  0
SCALE
  5
53
102
{ACAD_REACTORS
330
47
102
}
330
47
100
AcDbScale
 70
     0
300
1:100
140
1.0
141
100.0
290
     0
  0
SCALE
  5
54
102
{ACAD_REACTORS
330
47
102
}
330
47
100
AcDbScale
 70
     0
300
2:1
140
2.0
141
1.0
290
     0
  0
SCALE
  5
55
102
{ACAD_REACTORS
330
47
102
}
330
47
100
AcDbScale
 70
     0
300
4:1
140
4.0
141
1.0
290
     0
  0
SCALE
  5
56
102
{ACAD_REACTORS
330
47
102
}
330
47
100
AcDbScale
 70
     0
300
8:1
140
8.0
141
1.0
290
     0
  0
SCALE
  5
57
102
{ACAD_REACTORS
330
47
102
}
330
47
100
AcDbScale
 70
     0
300
10:1
140
10.0
141
1.0
290
     0
  0
SCALE
  5
58
102
{ACAD_REACTORS
330
47
102
}
330
47
100
AcDbScale
 70
     0
300
100:1
140
100.0
141
1.0
290
     0
  0
SCALE
  5
59
102
{ACAD_REACTORS
330
47
102
}
330
47
100
AcDbScale
 70
     0
300
1/128" = 1'-0"
140
0.0078125
141
12.0
290
     0
  0
SCALE
  5
5A
102
{ACAD_REACTORS
330
47
102
}
330
47
100
AcDbScale
 70
     0
300
1/64" = 1'-0"
140
0.015625
141
12.0
290
     0
  0
SCALE
  5
5B
102
{ACAD_REACTORS
330
47
102
}
330
47
100
AcDbScale
 70
     0
300
1/32" = 1'-0"
140
0.03125
141
12.0
290
     0
  0
SCALE
  5
5C
102
{ACAD_REACTORS
330
47
102
}
330
47
100
AcDbScale
 70
     0
300
1/16" = 1'-0"
140
0.0625
141
12.0
290
     0
  0
SCALE
  5
5D
102
{ACAD_REACTORS
330
47
102
}
330
47
100
AcDbScale
 70
     0
300
3/32" = 1'-0"
140
0.09375
141
12.0
290
     0
  0
SCALE
  5
5E
102
{ACAD_REACTORS
330
47
102
}
330
47
100
AcDbScale
 70
     0
300
1/8" = 1'-0"
140
0.125
141
12.0
290
     0
  0
SCALE
  5
5F
102
{ACAD_REACTORS
330
47
102
}
330
47
100
AcDbScale
 70
     0
300
3/16" = 1'-0"
140
0.1875
141
12.0
290
     0
  0
SCALE
  5
60
102
{ACAD_REACTORS
330
47
102
}
330
47
100
AcDbScale
 70
     0
300
1/4" = 1'-0"
140
0.25
141
12.0
290
     0
  0
SCALE
  5
61
102
{ACAD_REACTORS
330
47
102
}
330
47
100
AcDbScale
 70
     0
300
3/8" = 1'-0"
140
0.375
141
12.0
290
     0
  0
SCALE
  5
62
102
{ACAD_REACTORS
330
47
102
}
330
47
100
AcDbScale
 70
     0
300
1/2" = 1'-0"
140
0.5
141
12.0
290
     0
  0
SCALE
  5
63
102
{ACAD_REACTORS
330
47
102
}
330
47
100
AcDbScale
 70
     0
300
3/4" = 1'-0"
140
0.75
141
12.0
290
     0
  0
SCALE
  5
64
102
{ACAD_REACTORS
330
47
102
}
330
47
100
AcDbScale
 70
     0
300
1" = 1'-0"
140
1.0
141
12.0
290
     0
  0
SCALE
  5
65
102
{ACAD_REACTORS
330
47
102
}
330
47
100
AcDbScale
 70
     0
300
1-1/2" = 1'-0"
140
1.5
141
12.0
290
     0
  0
SCALE
  5
66
102
{ACAD_REACTORS
330
47
102
}
330
47
100
AcDbScale
 70
     0
300
3" = 1'-0"
140
3.0
141
12.0
290
     0
  0
SCALE
  5
67
102
{ACAD_REACTORS
330
47
102
}
330
47
100
AcDbScale
 70
     0
300
6" = 1'-0"
140
6.0
141
12.0
290
     0
  0
SCALE
  5
68
102
{ACAD_REACTORS
330
47
102
}
330
47
100
AcDbScale
 70
     0
300
1'-0" = 1'-0"
140
12.0
141
12.0
290
     0
  0
TABLESTYLE
  5
6A
102
{ACAD_REACTORS
330
69
102
}
102
{ACAD_XDICTIONARY
360
219
102
}
330
69
100
AcDbTableStyle
  3
Standard
 70
     0
 71
     0
 40
0.06
 41
0.06
280
     0
281
     0
  7
Standard
140
0.18
170
     2
 62
     0
 63
   257
283
     0
 90
        4
 91
        0
  1

274
    -2
284
     1
 64
     0
275
    -2
285
     1
 65
     0
276
    -2
286
     1
 66
     0
277
    -2
287
     1
 67
     0
278
    -2
288
     1
 68
     0
279
    -2
289
     1
 69
     0
  7
Standard
140
0.25
170
     5
 62
     0
 63
   257
283
     0
 90
        4
 91
        0
  1

274
    -2
284
     1
 64
     0
275
    -2
285
     1
 65
     0
276
    -2
286
     1
 66
     0
277
    -2
287
     1
 67
     0
278
    -2
288
     1
 68
     0
279
    -2
289
     1
 69
     0
  7
Standard
140
0.18
170
     5
 62
     0
 63
   257
283
     0
 90
        4
 91
        0
  1

274
    -2
284
     1
 64
     0
275
    -2
285
     1
 65
     0
276
    -2
286
     1
 66
     0
277
    -2
287
     1
 67
     0
278
    -2
288
     1
 68
     0
279
    -2
289
     1
 69
     0
  0
VISUALSTYLE
  5
2F
102
{ACAD_REACTORS
330
2A
102
}
330
2A
100
AcDbVisualStyle
  2
2dWireframe
 70
     4
177
     3
291
     0
 70
    58
 90
        0
176
     1
 90
        2
176
     1
 90
        0
176
     1
 90
        0
176
     1
 40
0.6
176
     1
 40
30.0
176
     1
 62
     7
420
 16777215
176
     1
 90
        1
176
     1
 90
        4
176
     1
 62
     7
176
     1
 62
   257
176
     1
 90
        1
176
     1
 90
        1
176
     1
 40
1.0
176
     1
 90
        0
176
     1
 62
   257
176
     1
 40
1.0
176
     1
 90
        1
176
     1
 90
        6
176
     1
 90
        2
176
     1
 62
     7
176
     1
 90
        5
176
     1
 90
        0
176
     1
 90
        0
176
     1
290
     0
176
     1
 90
        1
176
     1
 40
0.0
176
     1
 90
        0
176
     1
290
     1
176
     1
290
     1
176
     1
290
     0
176
     1
290
     0
176
     1
290
     0
176
     1
290
     0
176
     1
290
     0
176
     1
290
     0
176
     1
290
     0
176
     1
 90
       50
176
     1
 40
0.0
176
     1
 40
1.0
176
     1
 90
        0
176
     1
 62
    18
420
        0
176
     1
 90
       50
176
     1
 90
        3
176
     1
 62
     5
420
      255
176
     1
290
     0
176
     1
 90
       50
176
     1
 90
       50
176
     1
 90
       50
176
     1
290
     0
176
     1
 90
       50
176
     1
 62
   256
176
     0
 40
1.0
176
     0
 90
        2
176
     1
  1
strokes_ogs.tif
176
     1
290
     0
176
     1
 40
1.0
176
     1
 40
1.0
176
     1
  0
VISUALSTYLE
  5
32
102
{ACAD_REACTORS
330
2A
102
}
330
2A
100
AcDbVisualStyle
  2
Basic
 70
     7
177
     3
291
     1
 70
    58
 90
        1
176
     1
 90
        0
176
     1
 90
        1
176
     1
 90
        0
176
     1
 40
0.6
176
     1
 40
30.0
176
     1
 62
     7
420
 16777215
176
     1
 90
        0
176
     1
 90
        4
176
     1
 62
     7
176
     1
 62
   257
176
     1
 90
        1
176
     1
 90
        1
176
     1
 40
1.0
176
     1
 90
        8
176
     1
 62
     7
176
     1
 40
1.0
176
     1
 90
        1
176
     1
 90
        6
176
     1
 90
        2
176
     1
 62
     7
176
     1
 90
        5
176
     1
 90
        0
176
     1
 90
        0
176
     1
290
     0
176
     1
 90
        1
176
     1
 40
0.0
176
     1
 90
        0
176
     1
290
     0
176
     1
290
     1
176
     1
290
     1
176
     1
290
     0
176
     1
290
     0
176
     1
290
     0
176
     1
290
     0
176
     1
290
     0
176
     1
290
     0
176
     1
 90
       50
176
     1
 40
0.0
176
     1
 40
1.0
176
     1
 90
        0
176
     1
 62
    18
420
        0
176
     1
 90
       50
176
     1
 90
        3
176
     1
 62
     5
420
      255
176
     1
290
     0
176
     1
 90
       50
176
     1
 90
       50
176
     1
 90
       50
176
     1
290
     0
176
     1
 90
       50
176
     1
 62
   256
176
     0
 40
1.0
176
     0
 90
        2
176
     1
  1
strokes_ogs.tif
176
     1
290
     0
176
     1
 40
1.0
176
     1
 40
1.0
176
     1
  0
VISUALSTYLE
  5
36
102
{ACAD_REACTORS
330
2A
102
}
330
2A
100
AcDbVisualStyle
  2
Brighten
 70
    12
177
     3
291
     1
 70
    58
 90
        2
176
     1
 90
        2
176
     1
 90
        0
176
     1
 90
        0
176
     1
 40
0.6
176
     1
 40
30.0
176
     1
 62
     7
420
 16777215
176
     1
 90
        1
176
     1
 90
        4
176
     1
 62
     7
176
     1
 62
   257
176
     1
 90
        1
176
     1
 90
        1
176
     1
 40
1.0
176
     1
 90
        8
176
     1
 62
     7
176
     1
 40
1.0
176
     1
 90
        1
176
     1
 90
        6
176
     1
 90
        2
176
     1
 62
     7
176
     1
 90
        5
176
     1
 90
        0
176
     1
 90
        0
176
     1
290
     0
176
     1
 90
        1
176
     1
 40
50.0
176
     1
 90
        0
176
     1
290
     0
176
     1
290
     1
176
     1
290
     1
176
     1
290
     0
176
     1
290
     0
176
     1
290
     0
176
     1
290
     0
176
     1
290
     0
176
     1
290
     0
176
     1
 90
       50
176
     1
 40
0.0
176
     1
 40
1.0
176
     1
 90
        0
176
     1
 62
    18
420
        0
176
     1
 90
       50
176
     1
 90
        3
176
     1
 62
     5
420
      255
176
     1
290
     0
176
     1
 90
       50
176
     1
 90
       50
176
     1
 90
       50
176
     1
290
     0
176
     1
 90
       50
176
     1
 62
   256
176
     0
 40
1.0
176
     0
 90
        2
176
     1
  1
strokes_ogs.tif
176
     1
290
     0
176
     1
 40
1.0
176
     1
 40
1.0
176
     1
  0
VISUALSTYLE
  5
3A
102
{ACAD_REACTORS
330
2A
102
}
330
2A
100
AcDbVisualStyle
  2
ColorChange
 70
    16
177
     3
291
     1
 70
    58
 90
        2
176
     1
 90
        2
176
     1
 90
        3
176
     1
 90
        0
176
     1
 40
0.6
176
     1
 40
30.0
176
     1
 62
     8
420
  8421504
176
     1
 90
        1
176
     1
 90
        4
176
     1
 62
     7
176
     1
 62
   257
176
     1
 90
        1
176
     1
 90
        1
176
     1
 40
1.0
176
     1
 90
        8
176
     1
 62
     8
420
  8421504
176
     1
 40
1.0
176
     1
 90
        1
176
     1
 90
        6
176
     1
 90
        2
176
     1
 62
     7
176
     1
 90
        5
176
     1
 90
        0
176
     1
 90
        0
176
     1
290
     0
176
     1
 90
        1
176
     1
 40
0.0
176
     1
 90
        0
176
     1
290
     0
176
     1
290
     1
176
     1
290
     1
176
     1
290
     0
176
     1
290
     0
176
     1
290
     0
176
     1
290
     0
176
     1
290
     0
176
     1
290
     0
176
     1
 90
       50
176
     1
 40
0.0
176
     1
 40
1.0
176
     1
 90
        0
176
     1
 62
    18
420
        0
176
     1
 90
       50
176
     1
 90
        3
176
     1
 62
     5
420
      255
176
     1
290
     0
176
     1
 90
       50
176
     1
 90
       50
176
     1
 90
       50
176
     1
290
     0
176
     1
 90
       50
176
     1
 62
   256
176
     0
 40
1.0
176
     0
 90
        2
176
     1
  1
strokes_ogs.tif
176
     1
290
     0
176
     1
 40
1.0
176
     1
 40
1.0
176
     1
  0
VISUALSTYLE
  5
34
102
{ACAD_REACTORS
330
2A
102
}
330
2A
100
AcDbVisualStyle
  2
Conceptual
 70
     9
177
     3
291
     0
 70
    58
 90
        3
176
     1
 90
        2
176
     1
 90
        0
176
     1
 90
        0
176
     1
 40
0.6
176
     1
 40
30.0
176
     1
 62
     7
420
 16777215
176
     1
 90
        2
176
     1
 90
        2
176
     1
 62
     7
176
     1
 62
   257
176
     1
 90
        1
176
     1
 90
        1
176
     1
 40
179.0
176
     1
 90
        8
176
     1
 62
     7
176
     1
 40
1.0
176
     1
 90
        1
176
     1
 90
        6
176
     1
 90
        2
176
     1
 62
     7
176
     1
 90
        3
176
     1
 90
        0
176
     1
 90
        0
176
     1
290
     0
176
     1
 90
        1
176
     1
 40
0.0
176
     1
 90
        0
176
     1
290
     0
176
     1
290
     1
176
     1
290
     1
176
     1
290
     0
176
     1
290
     0
176
     1
290
     0
176
     1
290
     0
176
     1
290
     0
176
     1
290
     0
176
     1
 90
       50
176
     1
 40
0.0
176
     1
 40
1.0
176
     1
 90
        0
176
     1
 62
    18
420
        0
176
     1
 90
       50
176
     1
 90
        3
176
     1
 62
     5
420
      255
176
     1
290
     0
176
     1
 90
       50
176
     1
 90
       50
176
     1
 90
       50
176
     1
290
     0
176
     1
 90
       50
176
     1
 62
   256
176
     0
 40
1.0
176
     0
 90
        2
176
     1
  1
strokes_ogs.tif
176
     1
290
     0
176
     1
 40
1.0
176
     1
 40
1.0
176
     1
  0
VISUALSTYLE
  5
35
102
{ACAD_REACTORS
330
2A
102
}
330
2A
100
AcDbVisualStyle
  2
Dim
 70
    11
177
     3
291
     1
 70
    58
 90
        2
176
     1
 90
        2
176
     1
 90
        0
176
     1
 90
        0
176
     1
 40
0.6
176
     1
 40
30.0
176
     1
 62
     7
420
 16777215
176
     1
 90
        1
176
     1
 90
        4
176
     1
 62
     7
176
     1
 62
   257
176
     1
 90
        1
176
     1
 90
        1
176
     1
 40
1.0
176
     1
 90
        8
176
     1
 62
     7
176
     1
 40
1.0
176
     1
 90
        1
176
     1
 90
        6
176
     1
 90
        2
176
     1
 62
     7
176
     1
 90
        5
176
     1
 90
        0
176
     1
 90
        0
176
     1
290
     0
176
     1
 90
        1
176
     1
 40
-50.0
176
     1
 90
        0
176
     1
290
     0
176
     1
290
     1
176
     1
290
     1
176
     1
290
     0
176
     1
290
     0
176
     1
290
     0
176
     1
290
     0
176
     1
290
     0
176
     1
290
     0
176
     1
 90
       50
176
     1
 40
0.0
176
     1
 40
1.0
176
     1
 90
        0
176
     1
 62
    18
420
        0
176
     1
 90
       50
176
     1
 90
        3
176
     1
 62
     5
420
      255
176
     1
290
     0
176
     1
 90
       50
176
     1
 90
       50
176
     1
 90
       50
176
     1
290
     0
176
     1
 90
       50
176
     1
 62
   256
176
     0
 40
1.0
176
     0
 90
        2
176
     1
  1
strokes_ogs.tif
176
     1
290
     0
176
     1
 40
1.0
176
     1
 40
1.0
176
     1
  0
VISUALSTYLE
  5
3D
102
{ACAD_REACTORS
330
2A
102
}
330
2A
100
AcDbVisualStyle
  2
EdgeColorOff
 70
    22
177
     3
291
     1
 70
    58
 90
        2
176
     0
 90
        2
176
     0
 90
        0
176
     0
 90
        0
176
     0
 40
0.6
176
     0
 40
30.0
176
     0
 62
     7
420
 16777215
176
     0
 90
        1
176
     0
 90
        4
176
     0
 62
     7
176
     0
 62
   257
176
     0
 90
        1
176
     0
 90
        1
176
     0
 40
1.0
176
     0
 90
        8
176
     2
 62
     7
176
     0
 40
1.0
176
     0
 90
        1
176
     0
 90
        6
176
     0
 90
        2
176
     0
 62
     7
176
     0
 90
        5
176
     0
 90
        0
176
     0
 90
        0
176
     0
290
     0
176
     0
 90
        1
176
     0
 40
0.0
176
     0
 90
        0
176
     0
290
     0
176
     0
290
     1
176
     0
290
     1
176
     0
290
     0
176
     0
290
     0
176
     0
290
     0
176
     0
290
     0
176
     0
290
     0
176
     0
290
     0
176
     0
 90
       50
176
     0
 40
0.0
176
     0
 40
1.0
176
     0
 90
        0
176
     0
 62
    18
420
        0
176
     0
 90
       50
176
     0
 90
        3
176
     0
 62
     5
420
      255
176
     0
290
     0
176
     0
 90
       50
176
     0
 90
       50
176
     0
 90
       50
176
     0
290
     0
176
     0
 90
       50
176
     0
 62
   256
176
     0
 40
1.0
176
     0
 90
        2
176
     0
  1
strokes_ogs.tif
176
     0
290
     0
176
     0
 40
1.0
176
     0
 40
1.0
176
     0
  0
VISUALSTYLE
  5
39
102
{ACAD_REACTORS
330
2A
102
}
330
2A
100
AcDbVisualStyle
  2
Facepattern
 70
    15
177
     3
291
     1
 70
    58
 90
        2
176
     1
 90
        2
176
     1
 90
        0
176
     1
 90
        0
176
     1
 40
0.6
176
     1
 40
30.0
176
     1
 62
     7
420
 16777215
176
     1
 90
        1
176
     1
 90
        4
176
     1
 62
     7
176
     1
 62
   257
176
     1
 90
        1
176
     1
 90
        1
176
     1
 40
1.0
176
     1
 90
        8
176
     1
 62
     7
176
     1
 40
1.0
176
     1
 90
        1
176
     1
 90
        6
176
     1
 90
        2
176
     1
 62
     7
176
     1
 90
        5
176
     1
 90
        0
176
     1
 90
        0
176
     1
290
     0
176
     1
 90
        1
176
     1
 40
0.0
176
     1
 90
        0
176
     1
290
     0
176
     1
290
     1
176
     1
290
     1
176
     1
290
     0
176
     1
290
     0
176
     1
290
     0
176
     1
290
     0
176
     1
290
     0
176
     1
290
     0
176
     1
 90
       50
176
     1
 40
0.0
176
     1
 40
1.0
176
     1
 90
        0
176
     1
 62
    18
420
        0
176
     1
 90
       50
176
     1
 90
        3
176
     1
 62
     5
420
      255
176
     1
290
     0
176
     1
 90
       50
176
     1
 90
       50
176
     1
 90
       50
176
     1
290
     0
176
     1
 90
       50
176
     1
 62
   256
176
     0
 40
1.0
176
     0
 90
        2
176
     1
  1
strokes_ogs.tif
176
     1
290
     0
176
     1
 40
1.0
176
     1
 40
1.0
176
     1
  0
VISUALSTYLE
  5
2B
102
{ACAD_REACTORS
330
2A
102
}
330
2A
100
AcDbVisualStyle
  2
Flat
 70
     0
177
     3
291
     1
 70
    58
 90
        2
176
     1
 90
        1
176
     1
 90
        1
176
     1
 90
        2
176
     1
 40
0.6
176
     1
 40
30.0
176
     1
 62
     7
420
 16777215
176
     1
 90
        0
176
     1
 90
        0
176
     1
 62
     7
176
     1
 62
   257
176
     1
 90
        1
176
     1
 90
        1
176
     1
 40
1.0
176
     1
 90
        8
176
     1
 62
     7
176
     1
 40
1.0
176
     1
 90
        1
176
     1
 90
        6
176
     1
 90
        2
176
     1
 62
     7
176
     1
 90
        5
176
     1
 90
        0
176
     1
 90
        0
176
     1
290
     0
176
     1
 90
       13
176
     1
 40
0.0
176
     1
 90
        0
176
     1
290
     0
176
     1
290
     1
176
     1
290
     1
176
     1
290
     0
176
     1
290
     0
176
     1
290
     0
176
     1
290
     0
176
     1
290
     0
176
     1
290
     0
176
     1
 90
       50
176
     1
 40
0.0
176
     1
 40
1.0
176
     1
 90
        0
176
     1
 62
    18
420
        0
176
     1
 90
       50
176
     1
 90
        3
176
     1
 62
     5
420
      255
176
     1
290
     0
176
     1
 90
       50
176
     1
 90
       50
176
     1
 90
       50
176
     1
290
     0
176
     1
 90
       50
176
     1
 62
   256
176
     0
 40
1.0
176
     0
 90
        2
176
     1
  1
strokes_ogs.tif
176
     1
290
     0
176
     1
 40
1.0
176
     1
 40
1.0
176
     1
  0
VISUALSTYLE
  5
2C
102
{ACAD_REACTORS
330
2A
102
}
330
2A
100
AcDbVisualStyle
  2
FlatWithEdges
 70
     1
177
     3
291
     1
 70
    58
 90
        2
176
     1
 90
        1
176
     1
 90
        1
176
     1
 90
        2
176
     1
 40
0.6
176
     1
 40
30.0
176
     1
 62
     7
420
 16777215
176
     1
 90
        1
176
     1
 90
        0
176
     1
 62
     7
176
     1
 62
   257
176
     1
 90
        1
176
     1
 90
        1
176
     1
 40
1.0
176
     1
 90
        0
176
     1
 62
   257
176
     1
 40
1.0
176
     1
 90
        1
176
     1
 90
        6
176
     1
 90
        2
176
     1
 62
     7
176
     1
 90
        5
176
     1
 90
        0
176
     1
 90
        0
176
     1
290
     0
176
     1
 90
       13
176
     1
 40
0.0
176
     1
 90
        0
176
     1
290
     0
176
     1
290
     1
176
     1
290
     1
176
     1
290
     0
176
     1
290
     0
176
     1
290
     0
176
     1
290
     0
176
     1
290
     0
176
     1
290
     0
176
     1
 90
       50
176
     1
 40
0.0
176
     1
 40
1.0
176
     1
 90
        0
176
     1
 62
    18
420
        0
176
     1
 90
       50
176
     1
 90
        3
176
     1
 62
     5
420
      255
176
     1
290
     0
176
     1
 90
       50
176
     1
 90
       50
176
     1
 90
       50
176
     1
290
     0
176
     1
 90
       50
176
     1
 62
   256
176
     0
 40
1.0
176
     0
 90
        2
176
     1
  1
strokes_ogs.tif
176
     1
290
     0
176
     1
 40
1.0
176
     1
 40
1.0
176
     1
  0
VISUALSTYLE
  5
2D
102
{ACAD_REACTORS
330
2A
102
}
330
2A
100
AcDbVisualStyle
  2
Gouraud
 70
     2
177
     3
291
     1
 70
    58
 90
        2
176
     1
 90
        2
176
     1
 90
        1
176
     1
 90
        2
176
     1
 40
0.6
176
     1
 40
30.0
176
     1
 62
     7
420
 16777215
176
     1
 90
        0
176
     1
 90
        0
176
     1
 62
     7
176
     1
 62
   257
176
     1
 90
        1
176
     1
 90
        1
176
     1
 40
1.0
176
     1
 90
        0
176
     1
 62
     7
176
     1
 40
1.0
176
     1
 90
        1
176
     1
 90
        6
176
     1
 90
        2
176
     1
 62
     7
176
     1
 90
        5
176
     1
 90
        0
176
     1
 90
        0
176
     1
290
     0
176
     1
 90
       13
176
     1
 40
0.0
176
     1
 90
        0
176
     1
290
     0
176
     1
290
     1
176
     1
290
     1
176
     1
290
     0
176
     1
290
     0
176
     1
290
     0
176
     1
290
     0
176
     1
290
     0
176
     1
290
     0
176
     1
 90
       50
176
     1
 40
0.0
176
     1
 40
1.0
176
     1
 90
        0
176
     1
 62
    18
420
        0
176
     1
 90
       50
176
     1
 90
        3
176
     1
 62
     5
420
      255
176
     1
290
     0
176
     1
 90
       50
176
     1
 90
       50
176
     1
 90
       50
176
     1
290
     0
176
     1
 90
       50
176
     1
 62
   256
176
     0
 40
1.0
176
     0
 90
        2
176
     1
  1
strokes_ogs.tif
176
     1
290
     0
176
     1
 40
1.0
176
     1
 40
1.0
176
     1
  0
VISUALSTYLE
  5
2E
102
{ACAD_REACTORS
330
2A
102
}
330
2A
100
AcDbVisualStyle
  2
GouraudWithEdges
 70
     3
177
     3
291
     1
 70
    58
 90
        2
176
     1
 90
        2
176
     1
 90
        1
176
     1
 90
        2
176
     1
 40
0.6
176
     1
 40
30.0
176
     1
 62
     7
420
 16777215
176
     1
 90
        1
176
     1
 90
        0
176
     1
 62
     7
176
     1
 62
   257
176
     1
 90
        1
176
     1
 90
        1
176
     1
 40
1.0
176
     1
 90
        0
176
     1
 62
   257
176
     1
 40
1.0
176
     1
 90
        1
176
     1
 90
        6
176
     1
 90
        2
176
     1
 62
     7
176
     1
 90
        5
176
     1
 90
        0
176
     1
 90
        0
176
     1
290
     0
176
     1
 90
       13
176
     1
 40
0.0
176
     1
 90
        0
176
     1
290
     0
176
     1
290
     1
176
     1
290
     1
176
     1
290
     0
176
     1
290
     0
176
     1
290
     0
176
     1
290
     0
176
     1
290
     0
176
     1
290
     0
176
     1
 90
       50
176
     1
 40
0.0
176
     1
 40
1.0
176
     1
 90
        0
176
     1
 62
    18
420
        0
176
     1
 90
       50
176
     1
 90
        3
176
     1
 62
     5
420
      255
176
     1
290
     0
176
     1
 90
       50
176
     1
 90
       50
176
     1
 90
       50
176
     1
290
     0
176
     1
 90
       50
176
     1
 62
   256
176
     0
 40
1.0
176
     0
 90
        2
176
     1
  1
strokes_ogs.tif
176
     1
290
     0
176
     1
 40
1.0
176
     1
 40
1.0
176
     1
  0
VISUALSTYLE
  5
31
102
{ACAD_REACTORS
330
2A
102
}
330
2A
100
AcDbVisualStyle
  2
Hidden
 70
     6
177
     3
291
     0
 70
    58
 90
        1
176
     1
 90
        2
176
     1
 90
        2
176
     1
 90
        0
176
     1
 40
0.6
176
     1
 40
30.0
176
     1
 62
     7
420
 16777215
176
     1
 90
        2
176
     1
 90
        2
176
     1
 62
     7
176
     1
 62
   257
176
     1
 90
        2
176
     1
 90
        1
176
     1
 40
40.0
176
     1
 90
        0
176
     1
 62
   257
176
     1
 40
1.0
176
     1
 90
        1
176
     1
 90
        6
176
     1
 90
        2
176
     1
 62
     7
176
     1
 90
        3
176
     1
 90
        0
176
     1
 90
        0
176
     1
290
     0
176
     1
 90
        1
176
     1
 40
0.0
176
     1
 90
        0
176
     1
290
     0
176
     1
290
     1
176
     1
290
     1
176
     1
290
     0
176
     1
290
     0
176
     1
290
     0
176
     1
290
     0
176
     1
290
     0
176
     1
290
     0
176
     1
 90
       50
176
     1
 40
0.0
176
     1
 40
1.0
176
     1
 90
        0
176
     1
 62
    18
420
        0
176
     1
 90
       50
176
     1
 90
        3
176
     1
 62
     5
420
      255
176
     1
290
     0
176
     1
 90
       50
176
     1
 90
       50
176
     1
 90
       50
176
     1
290
     0
176
     1
 90
       50
176
     1
 62
   256
176
     0
 40
1.0
176
     0
 90
        2
176
     1
  1
strokes_ogs.tif
176
     1
290
     0
176
     1
 40
1.0
176
     1
 40
1.0
176
     1
  0
VISUALSTYLE
  5
3B
102
{ACAD_REACTORS
330
2A
102
}
330
2A
100
AcDbVisualStyle
  2
JitterOff
 70
    20
177
     3
291
     1
 70
    58
 90
        2
176
     0
 90
        2
176
     0
 90
        0
176
     0
 90
        0
176
     0
 40
0.6
176
     0
 40
30.0
176
     0
 62
     7
420
 16777215
176
     0
 90
        1
176
     0
 90
        4
176
     0
 62
     7
176
     0
 62
   257
176
     0
 90
        1
176
     0
 90
        1
176
     0
 40
1.0
176
     0
 90
       10
176
     2
 62
     7
176
     0
 40
1.0
176
     0
 90
        1
176
     0
 90
        6
176
     0
 90
        2
176
     0
 62
     7
176
     0
 90
        5
176
     0
 90
        0
176
     0
 90
        0
176
     0
290
     0
176
     0
 90
        1
176
     0
 40
0.0
176
     0
 90
        0
176
     0
290
     0
176
     0
290
     1
176
     0
290
     1
176
     0
290
     0
176
     0
290
     0
176
     0
290
     0
176
     0
290
     0
176
     0
290
     0
176
     0
290
     0
176
     0
 90
       50
176
     0
 40
0.0
176
     0
 40
1.0
176
     0
 90
        0
176
     0
 62
    18
420
        0
176
     0
 90
       50
176
     0
 90
        3
176
     0
 62
     5
420
      255
176
     0
290
     0
176
     0
 90
       50
176
     0
 90
       50
176
     0
 90
       50
176
     0
290
     0
176
     0
 90
       50
176
     0
 62
   256
176
     0
 40
1.0
176
     0
 90
        2
176
     0
  1
strokes_ogs.tif
176
     0
290
     0
176
     0
 40
1.0
176
     0
 40
1.0
176
     0
  0
VISUALSTYLE
  5
38
102
{ACAD_REACTORS
330
2A
102
}
330
2A
100
AcDbVisualStyle
  2
Linepattern
 70
    14
177
     3
291
     1
 70
    58
 90
        2
176
     1
 90
        2
176
     1
 90
        0
176
     1
 90
        0
176
     1
 40
0.6
176
     1
 40
30.0
176
     1
 62
     7
420
 16777215
176
     1
 90
        1
176
     1
 90
        4
176
     1
 62
     7
176
     1
 62
   257
176
     1
 90
        7
176
     1
 90
        7
176
     1
 40
1.0
176
     1
 90
        8
176
     1
 62
     7
176
     1
 40
1.0
176
     1
 90
        1
176
     1
 90
        6
176
     1
 90
        2
176
     1
 62
     7
176
     1
 90
        5
176
     1
 90
        0
176
     1
 90
        0
176
     1
290
     0
176
     1
 90
        1
176
     1
 40
0.0
176
     1
 90
        0
176
     1
290
     0
176
     1
290
     1
176
     1
290
     1
176
     1
290
     0
176
     1
290
     0
176
     1
290
     0
176
     1
290
     0
176
     1
290
     0
176
     1
290
     0
176
     1
 90
       50
176
     1
 40
0.0
176
     1
 40
1.0
176
     1
 90
        0
176
     1
 62
    18
420
        0
176
     1
 90
       50
176
     1
 90
        3
176
     1
 62
     5
420
      255
176
     1
290
     0
176
     1
 90
       50
176
     1
 90
       50
176
     1
 90
       50
176
     1
290
     0
176
     1
 90
       50
176
     1
 62
   256
176
     0
 40
1.0
176
     0
 90
        2
176
     1
  1
strokes_ogs.tif
176
     1
290
     0
176
     1
 40
1.0
176
     1
 40
1.0
176
     1
  0
VISUALSTYLE
  5
3C
102
{ACAD_REACTORS
330
2A
102
}
330
2A
100
AcDbVisualStyle
  2
OverhangOff
 70
    21
177
     3
291
     1
 70
    58
 90
        2
176
     0
 90
        2
176
     0
 90
        0
176
     0
 90
        0
176
     0
 40
0.6
176
     0
 40
30.0
176
     0
 62
     7
420
 16777215
176
     0
 90
        1
176
     0
 90
        4
176
     0
 62
     7
176
     0
 62
   257
176
     0
 90
        1
176
     0
 90
        1
176
     0
 40
1.0
176
     0
 90
        9
176
     2
 62
     7
176
     0
 40
1.0
176
     0
 90
        1
176
     0
 90
        6
176
     0
 90
        2
176
     0
 62
     7
176
     0
 90
        5
176
     0
 90
        0
176
     0
 90
        0
176
     0
290
     0
176
     0
 90
        1
176
     0
 40
0.0
176
     0
 90
        0
176
     0
290
     0
176
     0
290
     1
176
     0
290
     1
176
     0
290
     0
176
     0
290
     0
176
     0
290
     0
176
     0
290
     0
176
     0
290
     0
176
     0
290
     0
176
     0
 90
       50
176
     0
 40
0.0
176
     0
 40
1.0
176
     0
 90
        0
176
     0
 62
    18
420
        0
176
     0
 90
       50
176
     0
 90
        3
176
     0
 62
     5
420
      255
176
     0
290
     0
176
     0
 90
       50
176
     0
 90
       50
176
     0
 90
       50
176
     0
290
     0
176
     0
 90
       50
176
     0
 62
   256
176
     0
 40
1.0
176
     0
 90
        2
176
     0
  1
strokes_ogs.tif
176
     0
290
     0
176
     0
 40
1.0
176
     0
 40
1.0
176
     0
  0
VISUALSTYLE
  5
33
102
{ACAD_REACTORS
330
2A
102
}
330
2A
100
AcDbVisualStyle
  2
Realistic
 70
     8
177
     3
291
     0
 70
    58
 90
        2
176
     1
 90
        3
176
     1
 90
        0
176
     1
 90
        2
176
     1
 40
0.6
176
     1
 40
30.0
176
     1
 62
     7
420
 16777215
176
     1
 90
        0
176
     1
 90
        0
176
     1
 62
     7
176
     1
 62
   257
176
     1
 90
        1
176
     1
 90
        1
176
     1
 40
1.0
176
     1
 90
        8
176
     1
 62
   257
176
     1
 40
1.0
176
     1
 90
        1
176
     1
 90
        6
176
     1
 90
        2
176
     1
 62
     7
176
     1
 90
        3
176
     1
 90
        0
176
     1
 90
        0
176
     1
290
     0
176
     1
 90
       13
176
     1
 40
0.0
176
     1
 90
        0
176
     1
290
     0
176
     1
290
     1
176
     1
290
     1
176
     1
290
     0
176
     1
290
     0
176
     1
290
     0
176
     1
290
     0
176
     1
290
     0
176
     1
290
     0
176
     1
 90
       50
176
     1
 40
0.0
176
     1
 40
1.0
176
     1
 90
        0
176
     1
 62
    18
420
        0
176
     1
 90
       50
176
     1
 90
        3
176
     1
 62
     5
420
      255
176
     1
290
     0
176
     1
 90
       50
176
     1
 90
       50
176
     1
 90
       50
176
     1
290
     0
176
     1
 90
       50
176
     1
 62
   256
176
     0
 40
1.0
176
     0
 90
        2
176
     1
  1
strokes_ogs.tif
176
     1
290
     0
176
     1
 40
1.0
176
     1
 40
1.0
176
     1
  0
VISUALSTYLE
  5
42
102
{ACAD_REACTORS
330
2A
102
}
330
2A
100
AcDbVisualStyle
  2
Shaded
 70
    27
177
     3
291
     0
 70
    58
 90
        2
176
     1
 90
        2
176
     1
 90
        1
176
     1
 90
        2
176
     1
 40
0.6
176
     1
 40
30.0
176
     1
 62
     7
420
 16777215
176
     1
 90
        0
176
     1
 90
        4
176
     1
 62
     7
176
     1
 62
   257
176
     1
 90
        1
176
     1
 90
        1
176
     1
 40
1.0
176
     1
 90
        8
176
     1
 62
   257
176
     1
 40
1.0
176
     1
 90
        1
176
     1
 90
        6
176
     1
 90
        2
176
     1
 62
     8
420
  7895160
176
     1
 90
        3
176
     1
 90
        0
176
     1
 90
        0
176
     1
290
     0
176
     1
 90
        5
176
     1
 40
0.0
176
     1
 90
        0
176
     1
290
     0
176
     1
290
     1
176
     1
290
     1
176
     1
290
     0
176
     1
290
     0
176
     1
290
     0
176
     1
290
     0
176
     1
290
     0
176
     1
290
     0
176
     1
 90
       50
176
     1
 40
0.0
176
     1
 40
1.0
176
     1
 90
        0
176
     1
 62
    18
420
        0
176
     1
 90
       50
176
     1
 90
        3
176
     1
 62
     5
420
      255
176
     1
290
     0
176
     1
 90
       50
176
     1
 90
       50
176
     1
 90
       50
176
     1
290
     0
176
     1
 90
       50
176
     1
 62
   256
176
     0
 40
1.0
176
     0
 90
        2
176
     1
  1
strokes_ogs.tif
176
     1
290
     0
176
     1
 40
1.0
176
     1
 40
1.0
176
     1
  0
VISUALSTYLE
  5
41
102
{ACAD_REACTORS
330
2A
102
}
330
2A
100
AcDbVisualStyle
  2
Shaded with edges
 70
    26
177
     3
291
     0
 70
    58
 90
        2
176
     1
 90
        2
176
     1
 90
        1
176
     1
 90
        2
176
     1
 40
0.6
176
     1
 40
30.0
176
     1
 62
     7
420
 16777215
176
     1
 90
        1
176
     1
 90
       10
176
     1
 62
     7
176
     1
 62
   257
176
     1
 90
        2
176
     1
 90
        1
176
     1
 40
1.0
176
     1
 90
        8
176
     1
 62
   257
176
     1
 40
1.0
176
     1
 90
        1
176
     1
 90
        6
176
     1
 90
        2
176
     1
 62
     7
176
     1
 90
        3
176
     1
 90
        0
176
     1
 90
        0
176
     1
290
     0
176
     1
 90
        5
176
     1
 40
0.0
176
     1
 90
        0
176
     1
290
     0
176
     1
290
     1
176
     1
290
     1
176
     1
290
     0
176
     1
290
     0
176
     1
290
     0
176
     1
290
     0
176
     1
290
     0
176
     1
290
     0
176
     1
 90
       50
176
     1
 40
0.0
176
     1
 40
1.0
176
     1
 90
        0
176
     1
 62
    18
420
        0
176
     1
 90
       50
176
     1
 90
        3
176
     1
 62
     5
420
      255
176
     1
290
     0
176
     1
 90
       50
176
     1
 90
       50
176
     1
 90
       50
176
     1
290
     0
176
     1
 90
       50
176
     1
 62
   256
176
     0
 40
1.0
176
     0
 90
        2
176
     1
  1
strokes_ogs.tif
176
     1
290
     0
176
     1
 40
1.0
176
     1
 40
1.0
176
     1
  0
VISUALSTYLE
  5
3E
102
{ACAD_REACTORS
330
2A
102
}
330
2A
100
AcDbVisualStyle
  2
Shades of Gray
 70
    23
177
     3
291
     0
 70
    58
 90
        2
176
     1
 90
        2
176
     1
 90
        3
176
     1
 90
        0
176
     1
 40
0.6
176
     1
 40
30.0
176
     1
 62
     7
420
 16777215
176
     1
 90
        2
176
     1
 90
        2
176
     1
 62
     7
176
     1
 62
     7
176
     1
 90
        1
176
     1
 90
        1
176
     1
 40
40.0
176
     1
 90
        8
176
     1
 62
     7
176
     1
 40
1.0
176
     1
 90
        1
176
     1
 90
        6
176
     1
 90
        2
176
     1
 62
     7
176
     1
 90
        3
176
     1
 90
        0
176
     1
 90
        0
176
     1
290
     0
176
     1
 90
        1
176
     1
 40
0.0
176
     1
 90
        0
176
     1
290
     0
176
     1
290
     1
176
     1
290
     1
176
     1
290
     0
176
     1
290
     0
176
     1
290
     0
176
     1
290
     0
176
     1
290
     0
176
     1
290
     0
176
     1
 90
       50
176
     1
 40
0.0
176
     1
 40
1.0
176
     1
 90
        0
176
     1
 62
    18
420
        0
176
     1
 90
       50
176
     1
 90
        3
176
     1
 62
     5
420
      255
176
     1
290
     0
176
     1
 90
       50
176
     1
 90
       50
176
     1
 90
       50
176
     1
290
     0
176
     1
 90
       50
176
     1
 62
   256
176
     0
 40
1.0
176
     0
 90
        2
176
     1
  1
strokes_ogs.tif
176
     1
290
     0
176
     1
 40
1.0
176
     1
 40
1.0
176
     1
  0
VISUALSTYLE
  5
3F
102
{ACAD_REACTORS
330
2A
102
}
330
2A
100
AcDbVisualStyle
  2
Sketchy
 70
    24
177
     3
291
     0
 70
    58
 90
        1
176
     1
 90
        2
176
     1
 90
        2
176
     1
 90
        0
176
     1
 40
0.6
176
     1
 40
30.0
176
     1
 62
     7
420
 16777215
176
     1
 90
        2
176
     1
 90
        2
176
     1
 62
     7
176
     1
 62
     7
176
     1
 90
        1
176
     1
 90
        1
176
     1
 40
40.0
176
     1
 90
       11
176
     1
 62
     7
176
     1
 40
1.0
176
     1
 90
        1
176
     1
 90
        6
176
     1
 90
        2
176
     1
 62
     7
176
     1
 90
        6
176
     1
 90
        0
176
     1
 90
        0
176
     1
290
     0
176
     1
 90
        1
176
     1
 40
0.0
176
     1
 90
        0
176
     1
290
     0
176
     1
290
     1
176
     1
290
     1
176
     1
290
     0
176
     1
290
     0
176
     1
290
     0
176
     1
290
     0
176
     1
290
     0
176
     1
290
     0
176
     1
 90
       50
176
     1
 40
0.0
176
     1
 40
1.0
176
     1
 90
        0
176
     1
 62
    18
420
        0
176
     1
 90
       50
176
     1
 90
        3
176
     1
 62
     5
420
      255
176
     1
290
     0
176
     1
 90
       50
176
     1
 90
       50
176
     1
 90
       50
176
     1
290
     0
176
     1
 90
       50
176
     1
 62
   256
176
     0
 40
1.0
176
     0
 90
        2
176
     1
  1
strokes_ogs.tif
176
     1
290
     0
176
     1
 40
1.0
176
     1
 40
1.0
176
     1
  0
VISUALSTYLE
  5
37
102
{ACAD_REACTORS
330
2A
102
}
330
2A
100
AcDbVisualStyle
  2
Thicken
 70
    13
177
     3
291
     1
 70
    58
 90
        2
176
     1
 90
        2
176
     1
 90
        0
176
     1
 90
        0
176
     1
 40
0.6
176
     1
 40
30.0
176
     1
 62
     7
420
 16777215
176
     1
 90
        1
176
     1
 90
        4
176
     1
 62
     7
176
     1
 62
   257
176
     1
 90
        1
176
     1
 90
        1
176
     1
 40
1.0
176
     1
 90
       12
176
     1
 62
     7
176
     1
 40
1.0
176
     1
 90
        1
176
     1
 90
        6
176
     1
 90
        2
176
     1
 62
     7
176
     1
 90
        5
176
     1
 90
        0
176
     1
 90
        0
176
     1
290
     0
176
     1
 90
        1
176
     1
 40
0.0
176
     1
 90
        0
176
     1
290
     0
176
     1
290
     1
176
     1
290
     1
176
     1
290
     0
176
     1
290
     0
176
     1
290
     0
176
     1
290
     0
176
     1
290
     0
176
     1
290
     0
176
     1
 90
       50
176
     1
 40
0.0
176
     1
 40
1.0
176
     1
 90
        0
176
     1
 62
    18
420
        0
176
     1
 90
       50
176
     1
 90
        3
176
     1
 62
     5
420
      255
176
     1
290
     0
176
     1
 90
       50
176
     1
 90
       50
176
     1
 90
       50
176
     1
290
     0
176
     1
 90
       50
176
     1
 62
   256
176
     0
 40
1.0
176
     0
 90
        2
176
     1
  1
strokes_ogs.tif
176
     1
290
     0
176
     1
 40
1.0
176
     1
 40
1.0
176
     1
  0
VISUALSTYLE
  5
30
102
{ACAD_REACTORS
330
2A
102
}
330
2A
100
AcDbVisualStyle
  2
Wireframe
 70
     5
177
     3
291
     0
 70
    58
 90
        0
176
     1
 90
        2
176
     1
 90
        0
176
     1
 90
        0
176
     1
 40
0.6
176
     1
 40
30.0
176
     1
 62
     7
420
 16777215
176
     1
 90
        1
176
     1
 90
        4
176
     1
 62
     7
176
     1
 62
   257
176
     1
 90
        1
176
     1
 90
        1
176
     1
 40
1.0
176
     1
 90
        0
176
     1
 62
   257
176
     1
 40
1.0
176
     1
 90
        1
176
     1
 90
        6
176
     1
 90
        2
176
     1
 62
     7
176
     1
 90
        3
176
     1
 90
        0
176
     1
 90
        0
176
     1
290
     0
176
     1
 90
        1
176
     1
 40
0.0
176
     1
 90
        0
176
     1
290
     0
176
     1
290
     1
176
     1
290
     1
176
     1
290
     0
176
     1
290
     0
176
     1
290
     0
176
     1
290
     0
176
     1
290
     0
176
     1
290
     0
176
     1
 90
       50
176
     1
 40
0.0
176
     1
 40
1.0
176
     1
 90
        0
176
     1
 62
    18
420
        0
176
     1
 90
       50
176
     1
 90
        3
176
     1
 62
     5
420
      255
176
     1
290
     0
176
     1
 90
       50
176
     1
 90
       50
176
     1
 90
       50
176
     1
290
     0
176
     1
 90
       50
176
     1
 62
   256
176
     0
 40
1.0
176
     0
 90
        2
176
     1
  1
strokes_ogs.tif
176
     1
290
     0
176
     1
 40
1.0
176
     1
 40
1.0
176
     1
  0
VISUALSTYLE
  5
40
102
{ACAD_REACTORS
330
2A
102
}
330
2A
100
AcDbVisualStyle
  2
X-Ray
 70
    25
177
     3
291
     0
 70
    58
 90
        2
176
     1
 90
        2
176
     1
 90
        1
176
     1
 90
        1
176
     1
 40
0.5
176
     1
 40
30.0
176
     1
 62
     7
420
 16777215
176
     1
 90
        1
176
     1
 90
        0
176
     1
 62
     7
176
     1
 62
   257
176
     1
 90
        1
176
     1
 90
        1
176
     1
 40
1.0
176
     1
 90
        8
176
     1
 62
     7
176
     1
 40
1.0
176
     1
 90
        1
176
     1
 90
        6
176
     1
 90
        2
176
     1
 62
     7
176
     1
 90
        3
176
     1
 90
        0
176
     1
 90
        0
176
     1
290
     0
176
     1
 90
       13
176
     1
 40
0.0
176
     1
 90
        0
176
     1
290
     0
176
     1
290
     1
176
     1
290
     1
176
     1
290
     0
176
     1
290
     0
176
     1
290
     0
176
     1
290
     0
176
     1
290
     0
176
     1
290
     0
176
     1
 90
       50
176
     1
 40
0.0
176
     1
 40
1.0
176
     1
 90
        0
176
     1
 62
    18
420
        0
176
     1
 90
       50
176
     1
 90
        3
176
     1
 62
     5
420
      255
176
     1
290
     0
176
     1
 90
       50
176
     1
 90
       50
176
     1
 90
       50
176
     1
290
     0
176
     1
 90
       50
176
     1
 62
   256
176
     0
 40
1.0
176
     0
 90
        2
176
     1
  1
strokes_ogs.tif
176
     1
290
     0
176
     1
 40
1.0
176
     1
 40
1.0
176
     1
  0
DICTIONARYVAR
  5
218
102
{ACAD_REACTORS
330
217
102
}
330
217
100
DictionaryVariables
280
     0
  1
1:1
  0
DICTIONARYVAR
  5
21D
102
{ACAD_REACTORS
330
217
102
}
330
217
100
DictionaryVariables
280
     0
  1
Standard
  0
DICTIONARYVAR
  5
21C
102
{ACAD_REACTORS
330
217
102
}
330
217
100
DictionaryVariables
280
     0
  1
Standard
  0
DICTIONARY
  5
219
330
6A
100
AcDbDictionary
280
     1
281
     1
  3
ACAD_ROUNDTRIP_2008_TABLESTYLE_CELLSTYLEMAP
360
21A
  0
CELLSTYLEMAP
  5
21A
102
{ACAD_REACTORS
330
219
102
}
330
219
100
AcDbCellStyleMap
 90
        3
300
CELLSTYLE
  1
TABLEFORMAT_BEGIN
 90
        5
170
     1
 91
        0
 92
    32768
 62
   257
 93
        1
300
CONTENTFORMAT
  1
CONTENTFORMAT_BEGIN
 90
        0
 91
        0
 92
        4
 93
        0
300

 40
0.0
140
1.0
 94
        5
 62
     0
340
11
144
0.25
309
CONTENTFORMAT_END
171
     1
301
MARGIN
  1
CELLMARGIN_BEGIN
 40
0.06
 40
0.06
 40
0.06
 40
0.06
 40
0.06
 40
0.06
309
CELLMARGIN_END
 94
        6
 95
        1
302
GRIDFORMAT
  1
GRIDFORMAT_BEGIN
 90
        0
 91
        1
 62
     0
 92
       -2
340
14
 93
        0
 40
0.045
309
GRIDFORMAT_END
 95
        2
302
GRIDFORMAT
  1
GRIDFORMAT_BEGIN
 90
        0
 91
        1
 62
     0
 92
       -2
340
14
 93
        0
 40
0.045
309
GRIDFORMAT_END
 95
        4
302
GRIDFORMAT
  1
GRIDFORMAT_BEGIN
 90
        0
 91
        1
 62
     0
 92
       -2
340
14
 93
        0
 40
0.045
309
GRIDFORMAT_END
 95
        8
302
GRIDFORMAT
  1
GRIDFORMAT_BEGIN
 90
        0
 91
        1
 62
     0
 92
       -2
340
14
 93
        0
 40
0.045
309
GRIDFORMAT_END
 95
       16
302
GRIDFORMAT
  1
GRIDFORMAT_BEGIN
 90
        0
 91
        1
 62
     0
 92
       -2
340
14
 93
        0
 40
0.045
309
GRIDFORMAT_END
 95
       32
302
GRIDFORMAT
  1
GRIDFORMAT_BEGIN
 90
        0
 91
        1
 62
     0
 92
       -2
340
14
 93
        0
 40
0.045
309
GRIDFORMAT_END
309
TABLEFORMAT_END
  1
CELLSTYLE_BEGIN
 90
        1
 91
        1
300
_TITLE
309
CELLSTYLE_END
300
CELLSTYLE
  1
TABLEFORMAT_BEGIN
 90
        5
170
     1
 91
        0
 92
        0
 62
   257
 93
        1
300
CONTENTFORMAT
  1
CONTENTFORMAT_BEGIN
 90
        0
 91
        0
 92
        4
 93
        0
300

 40
0.0
140
1.0
 94
        5
 62
     0
340
11
144
0.18
309
CONTENTFORMAT_END
171
     1
301
MARGIN
  1
CELLMARGIN_BEGIN
 40
0.06
 40
0.06
 40
0.06
 40
0.06
 40
0.06
 40
0.06
309
CELLMARGIN_END
 94
        6
 95
        1
302
GRIDFORMAT
  1
GRIDFORMAT_BEGIN
 90
        0
 91
        1
 62
     0
 92
       -2
340
14
 93
        0
 40
0.045
309
GRIDFORMAT_END
 95
        2
302
GRIDFORMAT
  1
GRIDFORMAT_BEGIN
 90
        0
 91
        1
 62
     0
 92
       -2
340
14
 93
        0
 40
0.045
309
GRIDFORMAT_END
 95
        4
302
GRIDFORMAT
  1
GRIDFORMAT_BEGIN
 90
        0
 91
        1
 62
     0
 92
       -2
340
14
 93
        0
 40
0.045
309
GRIDFORMAT_END
 95
        8
302
GRIDFORMAT
  1
GRIDFORMAT_BEGIN
 90
        0
 91
        1
 62
     0
 92
       -2
340
14
 93
        0
 40
0.045
309
GRIDFORMAT_END
 95
       16
302
GRIDFORMAT
  1
GRIDFORMAT_BEGIN
 90
        0
 91
        1
 62
     0
 92
       -2
340
14
 93
        0
 40
0.045
309
GRIDFORMAT_END
 95
       32
302
GRIDFORMAT
  1
GRIDFORMAT_BEGIN
 90
        0
 91
        1
 62
     0
 92
       -2
340
14
 93
        0
 40
0.045
309
GRIDFORMAT_END
309
TABLEFORMAT_END
  1
CELLSTYLE_BEGIN
 90
        2
 91
        1
300
_HEADER
309
CELLSTYLE_END
300
CELLSTYLE
  1
TABLEFORMAT_BEGIN
 90
        5
170
     1
 91
        0
 92
        0
 62
   257
 93
        1
300
CONTENTFORMAT
  1
CONTENTFORMAT_BEGIN
 90
        0
 91
        0
 92
        4
 93
        0
300

 40
0.0
140
1.0
 94
        2
 62
     0
340
11
144
0.18
309
CONTENTFORMAT_END
171
     1
301
MARGIN
  1
CELLMARGIN_BEGIN
 40
0.06
 40
0.06
 40
0.06
 40
0.06
 40
0.06
 40
0.06
309
CELLMARGIN_END
 94
        6
 95
        1
302
GRIDFORMAT
  1
GRIDFORMAT_BEGIN
 90
        0
 91
        1
 62
     0
 92
       -2
340
14
 93
        0
 40
0.045
309
GRIDFORMAT_END
 95
        2
302
GRIDFORMAT
  1
GRIDFORMAT_BEGIN
 90
        0
 91
        1
 62
     0
 92
       -2
340
14
 93
        0
 40
0.045
309
GRIDFORMAT_END
 95
        4
302
GRIDFORMAT
  1
GRIDFORMAT_BEGIN
 90
        0
 91
        1
 62
     0
 92
       -2
340
14
 93
        0
 40
0.045
309
GRIDFORMAT_END
 95
        8
302
GRIDFORMAT
  1
GRIDFORMAT_BEGIN
 90
        0
 91
        1
 62
     0
 92
       -2
340
14
 93
        0
 40
0.045
309
GRIDFORMAT_END
 95
       16
302
GRIDFORMAT
  1
GRIDFORMAT_BEGIN
 90
        0
 91
        1
 62
     0
 92
       -2
340
14
 93
        0
 40
0.045
309
GRIDFORMAT_END
 95
       32
302
GRIDFORMAT
  1
GRIDFORMAT_BEGIN
 90
        0
 91
        1
 62
     0
 92
       -2
340
14
 93
        0
 40
0.045
309
GRIDFORMAT_END
309
TABLEFORMAT_END
  1
CELLSTYLE_BEGIN
 90
        3
 91
        2
300
_DATA
309
CELLSTYLE_END
  0
ENDSEC
  0
EOF