0
SECTION
  2
HEADER
  9
$ACADVER
  1
AC1027
  9
$ACADMAINTVER
 70
     8
  9
$DWGCODEPAGE
  3
ANSI_1252
  9
$REQUIREDVERSIONS
160
                 0
  9
$COMMENTS
  1
File was created by Cadenas
  9
$CUSTOMPROPERTYTAG
  1
NN
  9
$CUSTOMPROPERTY
  1
S-2000 Pillow Block with Type E Dimensions 2-Bolt Trident Seal Non-Expansion
  9
$CUSTOMPROPERTYTAG
  1
NT
  9
$CUSTOMPROPERTY
  1
S-2000 - E Type - Inch
  9
$CUSTOMPROPERTYTAG
  1
NB
  9
$CUSTOMPROPERTY
  1
071406
  9
$CUSTOMPROPERTYTAG
  1
NBSYN
  9
$CUSTOMPROPERTY
  1
$PN.
  9
$CUSTOMPROPERTYTAG
  1
LINA
  9
$CUSTOMPROPERTY
  1
071406
  9
$CUSTOMPROPERTYTAG
  1
SS
  9
$CUSTOMPROPERTY
  1
2-7/16
  9
$CUSTOMPROPERTYTAG
  1
TYPE
  9
$CUSTOMPROPERTY
  1
Expansion
  9
$CUSTOMPROPERTYTAG
  1
PN
  9
$CUSTOMPROPERTY
  1
071406
  9
$CUSTOMPROPERTYTAG
  1
DESCRIPTION
  9
$CUSTOMPROPERTY
  1
EP2B-S2-207RE
  9
$CUSTOMPROPERTYTAG
  1
A
  9
$CUSTOMPROPERTY
  1
3.2
  9
$CUSTOMPROPERTYTAG
  1
B
  9
$CUSTOMPROPERTY
  1
10.5
  9
$CUSTOMPROPERTYTAG
  1
C
  9
$CUSTOMPROPERTY
  1
2.87
  9
$CUSTOMPROPERTYTAG
  1
DMIN
  9
$CUSTOMPROPERTY
  1
8.38
  9
$CUSTOMPROPERTYTAG
  1
DMAX
  9
$CUSTOMPROPERTY
  1
8.62
  9
$CUSTOMPROPERTYTAG
  1
F
  9
$CUSTOMPROPERTY
  1
5/8
  9
$CUSTOMPROPERTYTAG
  1
G
  9
$CUSTOMPROPERTY
  1
0.88
  9
$CUSTOMPROPERTYTAG
  1
H
  9
$CUSTOMPROPERTY
  1
1.63
  9
$CUSTOMPROPERTYTAG
  1
J
  9
$CUSTOMPROPERTY
  1
5.71
  9
$CUSTOMPROPERTYTAG
  1
L
  9
$CUSTOMPROPERTY
  1
3.86
  9
$CUSTOMPROPERTYTAG
  1
M
  9
$CUSTOMPROPERTY
  1
2.75
  9
$CUSTOMPROPERTYTAG
  1
R
  9
$CUSTOMPROPERTY
  1
1.2
  9
$CUSTOMPROPERTYTAG
  1
S
  9
$CUSTOMPROPERTY
  1
2
  9
$CUSTOMPROPERTYTAG
  1
X
  9
$CUSTOMPROPERTY
  1
0.25
  9
$CUSTOMPROPERTYTAG
  1
Y
  9
$CUSTOMPROPERTY
  1
0.025
  9
$CUSTOMPROPERTYTAG
  1
Z
  9
$CUSTOMPROPERTY
  1
2.95
  9
$CUSTOMPROPERTYTAG
  1
CS
  9
$CUSTOMPROPERTY
  1
3/8-16
  9
$CUSTOMPROPERTYTAG
  1
TORQUE
  9
$CUSTOMPROPERTY
  1
290
  9
$CUSTOMPROPERTYTAG
  1
COMPANY
  9
$CUSTOMPROPERTY
  1
baldor
  9
$INSBASE
 10
0.0
 20
0.0
 30
0.0
  9
$EXTMIN
 10
1.000000000000000E+20
 20
1.000000000000000E+20
 30
1.000000000000000E+20
  9
$EXTMAX
 10
-1.000000000000000E+20
 20
-1.000000000000000E+20
 30
-1.000000000000000E+20
  9
$LIMMIN
 10
0.0
 20
0.0
  9
$LIMMAX
 10
12.0
 20
9.0
  9
$ORTHOMODE
 70
     0
  9
$REGENMODE
 70
     1
  9
$FILLMODE
 70
     1
  9
$QTEXTMODE
 70
     0
  9
$MIRRTEXT
 70
     1
  9
$LTSCALE
 40
1.0
  9
$ATTMODE
 70
     1
  9
$TEXTSIZE
 40
0.2
  9
$TRACEWID
 40
0.05
  9
$TEXTSTYLE
  7
Standard
  9
$CLAYER
  8
0
  9
$CELTYPE
  6
ByLayer
  9
$CECOLOR
 62
   256
  9
$CELTSCALE
 40
1.0
  9
$DISPSILH
 70
     0
  9
$DIMSCALE
 40
1.0
  9
$DIMASZ
 40
0.18
  9
$DIMEXO
 40
0.0625
  9
$DIMDLI
 40
0.38
  9
$DIMRND
 40
0.0
  9
$DIMDLE
 40
0.0
  9
$DIMEXE
 40
0.18
  9
$DIMTP
 40
0.0
  9
$DIMTM
 40
0.0
  9
$DIMTXT
 40
0.18
  9
$DIMCEN
 40
0.09
  9
$DIMTSZ
 40
0.0
  9
$DIMTOL
 70
     0
  9
$DIMLIM
 70
     0
  9
$DIMTIH
 70
     1
  9
$DIMTOH
 70
     1
  9
$DIMSE1
 70
     0
  9
$DIMSE2
 70
     0
  9
$DIMTAD
 70
     0
  9
$DIMZIN
 70
     0
  9
$DIMBLK
  1

  9
$DIMASO
 70
     1
  9
$DIMSHO
 70
     1
  9
$DIMPOST
  1

  9
$DIMAPOST
  1

  9
$DIMALT
 70
     0
  9
$DIMALTD
 70
     2
  9
$DIMALTF
 40
25.4
  9
$DIMLFAC
 40
1.0
  9
$DIMTOFL
 70
     0
  9
$DIMTVP
 40
0.0
  9
$DIMTIX
 70
     0
  9
$DIMSOXD
 70
     0
  9
$DIMSAH
 70
     0
  9
$DIMBLK1
  1

  9
$DIMBLK2
  1

  9
$DIMSTYLE
  2
Standard
  9
$DIMCLRD
 70
     0
  9
$DIMCLRE
 70
     0
  9
$DIMCLRT
 70
     0
  9
$DIMTFAC
 40
1.0
  9
$DIMGAP
 40
0.09
  9
$DIMJUST
 70
     0
  9
$DIMSD1
 70
     0
  9
$DIMSD2
 70
     0
  9
$DIMTOLJ
 70
     1
  9
$DIMTZIN
 70
     0
  9
$DIMALTZ
 70
     0
  9
$DIMALTTZ
 70
     0
  9
$DIMUPT
 70
     0
  9
$DIMDEC
 70
     4
  9
$DIMTDEC
 70
     4
  9
$DIMALTU
 70
     2
  9
$DIMALTTD
 70
     2
  9
$DIMTXSTY
  7
Standard
  9
$DIMAUNIT
 70
     0
  9
$DIMADEC
 70
     0
  9
$DIMALTRND
 40
0.0
  9
$DIMAZIN
 70
     0
  9
$DIMDSEP
 70
    46
  9
$DIMATFIT
 70
     3
  9
$DIMFRAC
 70
     0
  9
$DIMLDRBLK
  1

  9
$DIMLUNIT
 70
     2
  9
$DIMLWD
 70
    -2
  9
$DIMLWE
 70
    -2
  9
$DIMTMOVE
 70
     0
  9
$DIMFXL
 40
1.0
  9
$DIMFXLON
 70
     0
  9
$DIMJOGANG
 40
0.7853981633974483
  9
$DIMTFILL
 70
     0
  9
$DIMTFILLCLR
 70
     0
  9
$DIMARCSYM
 70
     0
  9
$DIMLTYPE
  6

  9
$DIMLTEX1
  6

  9
$DIMLTEX2
  6

  9
$DIMTXTDIRECTION
 70
     0
  9
$LUNITS
 70
     2
  9
$LUPREC
 70
     4
  9
$SKETCHINC
 40
0.1
  9
$FILLETRAD
 40
0.5
  9
$AUNITS
 70
     0
  9
$AUPREC
 70
     0
  9
$MENU
  1
.
  9
$ELEVATION
 40
0.0
  9
$PELEVATION
 40
0.0
  9
$THICKNESS
 40
0.0
  9
$LIMCHECK
 70
     0
  9
$CHAMFERA
 40
0.0
  9
$CHAMFERB
 40
0.0
  9
$CHAMFERC
 40
0.0
  9
$CHAMFERD
 40
0.0
  9
$SKPOLY
 70
     0
  9
$TDCREATE
 40
2458168.981204387
  9
$TDUCREATE
 40
2458168.93953772
  9
$TDUPDATE
 40
2458168.98120456
  9
$TDUUPDATE
 40
2458168.939537894
  9
$TDINDWG
 40
0.0000000116
  9
$TDUSRTIMER
 40
0.0000000116
  9
$USRTIMER
 70
     1
  9
$ANGBASE
 50
0.0
  9
$ANGDIR
 70
     0
  9
$PDMODE
 70
     0
  9
$PDSIZE
 40
0.0
  9
$PLINEWID
 40
0.0
  9
$SPLFRAME
 70
     0
  9
$SPLINETYPE
 70
     6
  9
$SPLINESEGS
 70
     8
  9
$HANDSEED
  5
1EC
  9
$SURFTAB1
 70
     6
  9
$SURFTAB2
 70
     6
  9
$SURFTYPE
 70
     6
  9
$SURFU
 70
     6
  9
$SURFV
 70
     6
  9
$UCSBASE
  2

  9
$UCSNAME
  2

  9
$UCSORG
 10
0.0
 20
0.0
 30
0.0
  9
$UCSXDIR
 10
1.0
 20
0.0
 30
0.0
  9
$UCSYDIR
 10
0.0
 20
1.0
 30
0.0
  9
$UCSORTHOREF
  2

  9
$UCSORTHOVIEW
 70
     0
  9
$UCSORGTOP
 10
0.0
 20
0.0
 30
0.0
  9
$UCSORGBOTTOM
 10
0.0
 20
0.0
 30
0.0
  9
$UCSORGLEFT
 10
0.0
 20
0.0
 30
0.0
  9
$UCSORGRIGHT
 10
0.0
 20
0.0
 30
0.0
  9
$UCSORGFRONT
 10
0.0
 20
0.0
 30
0.0
  9
$UCSORGBACK
 10
0.0
 20
0.0
 30
0.0
  9
$PUCSBASE
  2

  9
$PUCSNAME
  2

  9
$PUCSORG
 10
0.0
 20
0.0
 30
0.0
  9
$PUCSXDIR
 10
1.0
 20
0.0
 30
0.0
  9
$PUCSYDIR
 10
0.0
 20
1.0
 30
0.0
  9
$PUCSORTHOREF
  2

  9
$PUCSORTHOVIEW
 70
     0
  9
$PUCSORGTOP
 10
0.0
 20
0.0
 30
0.0
  9
$PUCSORGBOTTOM
 10
0.0
 20
0.0
 30
0.0
  9
$PUCSORGLEFT
 10
0.0
 20
0.0
 30
0.0
  9
$PUCSORGRIGHT
 10
0.0
 20
0.0
 30
0.0
  9
$PUCSORGFRONT
 10
0.0
 20
0.0
 30
0.0
  9
$PUCSORGBACK
 10
0.0
 20
0.0
 30
0.0
  9
$USERI1
 70
     0
  9
$USERI2
 70
     0
  9
$USERI3
 70
     0
  9
$USERI4
 70
     0
  9
$USERI5
 70
     0
  9
$USERR1
 40
0.0
  9
$USERR2
 40
0.0
  9
$USERR3
 40
0.0
  9
$USERR4
 40
0.0
  9
$USERR5
 40
0.0
  9
$WORLDVIEW
 70
     1
  9
$SHADEDGE
 70
     3
  9
$SHADEDIF
 70
    70
  9
$TILEMODE
 70
     1
  9
$MAXACTVP
 70
    64
  9
$PINSBASE
 10
0.0
 20
0.0
 30
0.0
  9
$PLIMCHECK
 70
     0
  9
$PEXTMIN
 10
1.000000000000000E+20
 20
1.000000000000000E+20
 30
1.000000000000000E+20
  9
$PEXTMAX
 10
-1.000000000000000E+20
 20
-1.000000000000000E+20
 30
-1.000000000000000E+20
  9
$PLIMMIN
 10
0.0
 20
0.0
  9
$PLIMMAX
 10
12.0
 20
9.0
  9
$UNITMODE
 70
     0
  9
$VISRETAIN
 70
     1
  9
$PLINEGEN
 70
     0
  9
$PSLTSCALE
 70
     1
  9
$TREEDEPTH
 70
  3020
  9
$CMLSTYLE
  2
Standard
  9
$CMLJUST
 70
     0
  9
$CMLSCALE
 40
1.0
  9
$PROXYGRAPHICS
 70
     1
  9
$MEASUREMENT
 70
     0
  9
$CELWEIGHT
370
    -1
  9
$ENDCAPS
280
     0
  9
$JOINSTYLE
280
     0
  9
$LWDISPLAY
290
     0
  9
$INSUNITS
 70
     1
  9
$HYPERLINKBASE
  1

  9
$STYLESHEET
  1

  9
$XEDIT
290
     1
  9
$CEPSNTYPE
380
     0
  9
$PSTYLEMODE
290
     1
  9
$FINGERPRINTGUID
  2
{DC408F23-177F-42E8-8350-917621073602}
  9
$VERSIONGUID
  2
{FAEB1C32-E019-11D5-929B-00C0DF256EC4}
  9
$EXTNAMES
290
     1
  9
$PSVPSCALE
 40
0.0
  9
$OLESTARTUP
290
     0
  9
$SORTENTS
280
   127
  9
$INDEXCTL
280
     0
  9
$HIDETEXT
280
     1
  9
$XCLIPFRAME
280
     2
  9
$HALOGAP
280
     0
  9
$OBSCOLOR
 70
   257
  9
$OBSLTYPE
280
     0
  9
$INTERSECTIONDISPLAY
280
     0
  9
$INTERSECTIONCOLOR
 70
   257
  9
$DIMASSOC
280
     2
  9
$PROJECTNAME
  1

  9
$CAMERADISPLAY
290
     0
  9
$LENSLENGTH
 40
50.0
  9
$CAMERAHEIGHT
 40
0.0
  9
$STEPSPERSEC
 40
2.0
  9
$STEPSIZE
 40
6.0
  9
$3DDWFPREC
 40
2.0
  9
$PSOLWIDTH
 40
0.25
  9
$PSOLHEIGHT
 40
4.0
  9
$LOFTANG1
 40
1.570796326794897
  9
$LOFTANG2
 40
1.570796326794897
  9
$LOFTMAG1
 40
0.0
  9
$LOFTMAG2
 40
0.0
  9
$LOFTPARAM
 70
     7
  9
$LOFTNORMALS
280
     1
  9
$LATITUDE
 40
37.795
  9
$LONGITUDE
 40
-122.394
  9
$NORTHDIRECTION
 40
0.0
  9
$TIMEZONE
 70
 -8000
  9
$LIGHTGLYPHDISPLAY
280
     1
  9
$TILEMODELIGHTSYNCH
280
     1
  9
$CMATERIAL
347
44
  9
$SOLIDHIST
280
     0
  9
$SHOWHIST
280
     1
  9
$DWFFRAME
280
     2
  9
$DGNFRAME
280
     2
  9
$REALWORLDSCALE
290
     1
  9
$INTERFERECOLOR
 62
   256
  9
$CSHADOW
280
     0
  9
$SHADOWPLANELOCATION
 40
0.0
  0
ENDSEC
  0
SECTION
  2
CLASSES
  0
CLASS
  1
ACDBDICTIONARYWDFLT
  2
AcDbDictionaryWithDefault
  3
ObjectDBX Classes
 90
        0
 91
        4
280
     0
281
     0
  0
CLASS
  1
VISUALSTYLE
  2
AcDbVisualStyle
  3
ObjectDBX Classes
 90
     4095
 91
        4
280
     0
281
     0
  0
CLASS
  1
MATERIAL
  2
AcDbMaterial
  3
ObjectDBX Classes
 90
     1153
 91
        4
280
     0
281
     0
  0
CLASS
  1
SCALE
  2
AcDbScale
  3
ObjectDBX Classes
 90
     1153
 91
        4
280
     0
281
     0
  0
CLASS
  1
TABLESTYLE
  2
AcDbTableStyle
  3
ObjectDBX Classes
 90
     4095
 91
        4
280
     0
281
     0
  0
CLASS
  1
MLEADERSTYLE
  2
AcDbMLeaderStyle
  3
ACDB_MLEADERSTYLE_CLASS
 90
     4095
 91
        4
280
     0
281
     0
  0
CLASS
  1
SUN
  2
AcDbSun
  3
SCENEOE
 90
     1153
 91
        4
280
     0
281
     0
  0
CLASS
  1
DICTIONARYVAR
  2
AcDbDictionaryVar
  3
ObjectDBX Classes
 90
        0
 91
        4
280
     0
281
     0
  0
CLASS
  1
CELLSTYLEMAP
  2
AcDbCellStyleMap
  3
ObjectDBX Classes
 90
     1152
 91
        4
280
     0
281
     0
  0
ENDSEC
  0
SECTION
  2
TABLES
  0
TABLE
  2
VPORT
  5
8
330
0
100
AcDbSymbolTable
 70
     1
  0
VPORT
  5
29
330
8
100
AcDbSymbolTableRecord
100
AcDbViewportTableRecord
  2
*Active
 70
     0
 10
0.0
 20
0.0
 11
1.0
 21
1.0
 12
0.0000000000000036
 22
0.1201249999999998
 13
0.0
 23
0.0
 14
0.5
 24
0.5
 15
0.5
 25
0.5
 16
0.0
 26
0.0
 36
1.0
 17
0.0
 27
0.0
 37
0.0
 40
4.325055
 41
2.492494546312129
 42
50.0
 43
0.0
 44
0.0
 50
0.0
 51
0.0
 71
     0
 72
   100
 73
     1
 74
     3
 75
     0
 76
     0
 77
     0
 78
     0
281
     0
 65
     1
110
0.0
120
0.0
130
0.0
111
1.0
121
0.0
131
0.0
112
0.0
122
1.0
132
0.0
 79
     0
146
0.0
348
2F
 60
     3
 61
     5
292
     1
282
     1
141
0.0
142
0.0
 63
   250
361
6D
  0
ENDTAB
  0
TABLE
  2
LTYPE
  5
5
330
0
100
AcDbSymbolTable
 70
     3
  0
LTYPE
  5
14
330
5
100
AcDbSymbolTableRecord
100
AcDbLinetypeTableRecord
  2
ByBlock
 70
     0
  3

 72
    65
 73
     0
 40
0.0
  0
LTYPE
  5
15
330
5
100
AcDbSymbolTableRecord
100
AcDbLinetypeTableRecord
  2
ByLayer
 70
     0
  3

 72
    65
 73
     0
 40
0.0
  0
LTYPE
  5
16
330
5
100
AcDbSymbolTableRecord
100
AcDbLinetypeTableRecord
  2
Continuous
 70
     0
  3
Solid line
 72
    65
 73
     0
 40
0.0
  0
LTYPE
  5
A8
330
5
100
AcDbSymbolTableRecord
100
AcDbLinetypeTableRecord
  2
Dashed
 70
     0
  3

 72
    65
 73
     2
 40
2.0
 49
1.0
 74
     0
 49
-1.0
 74
     0
  0
LTYPE
  5
19F
330
5
100
AcDbSymbolTableRecord
100
AcDbLinetypeTableRecord
  2
Center
 70
     0
  3

 72
    65
 73
     4
 40
1.5
 49
0.45
 74
     0
 49
-0.5
 74
     0
 49
0.05
 74
     0
 49
-0.5
 74
     0
  0
ENDTAB
  0
TABLE
  2
LAYER
  5
2
330
0
100
AcDbSymbolTable
 70
     7
  0
LAYER
  5
10
330
2
100
AcDbSymbolTableRecord
100
AcDbLayerTableRecord
  2
0
 70
     0
 62
     7
  6
Continuous
370
    -3
390
F
347
46
348
0
  0
LAYER
  5
72
330
2
100
AcDbSymbolTableRecord
100
AcDbLayerTableRecord
  2
AM_6
 70
     0
 62
    -2
  6
Continuous
370
    35
390
F
347
46
348
0
  0
LAYER
  5
A9
330
2
100
AcDbSymbolTableRecord
100
AcDbLayerTableRecord
  2
AM_9
 70
     0
 62
     6
  6
Dashed
370
    25
390
F
347
46
348
0
  0
LAYER
  5
BF
330
2
100
AcDbSymbolTableRecord
100
AcDbLayerTableRecord
  2
AM_4
 70
     0
 62
     7
  6
Continuous
370
    50
390
F
347
46
348
0
  0
LAYER
  5
D3
330
2
100
AcDbSymbolTableRecord
100
AcDbLayerTableRecord
  2
AM_5
 70
     0
 62
     3
  6
Continuous
370
    25
390
F
347
46
348
0
  0
LAYER
  5
1A0
330
2
100
AcDbSymbolTableRecord
100
AcDbLayerTableRecord
  2
AM_7
 70
     0
 62
     7
  6
Center
370
    25
390
F
347
46
348
0
  0
LAYER
  5
1DB
330
2
100
AcDbSymbolTableRecord
100
AcDbLayerTableRecord
  2
ConnectionPoints
 70
     0
 62
     7
  6
Continuous
370
    50
390
F
347
46
348
0
  0
ENDTAB
  0
TABLE
  2
STYLE
  5
3
330
0
100
AcDbSymbolTable
 70
     1
  0
STYLE
  5
11
330
3
100
AcDbSymbolTableRecord
100
AcDbTextStyleTableRecord
  2
Standard
 70
     0
 40
0.0
 41
1.0
 50
0.0
 71
     0
 42
0.2
  3
txt
  4

  0
ENDTAB
  0
TABLE
  2
VIEW
  5
6
330
0
100
AcDbSymbolTable
 70
     0
  0
ENDTAB
  0
TABLE
  2
UCS
  5
7
330
0
100
AcDbSymbolTable
 70
     0
  0
ENDTAB
  0
TABLE
  2
APPID
  5
9
330
0
100
AcDbSymbolTable
 70
     1
  0
APPID
  5
12
330
9
100
AcDbSymbolTableRecord
100
AcDbRegAppTableRecord
  2
ACAD
 70
     0
  0
ENDTAB
  0
TABLE
  2
DIMSTYLE
  5
A
330
0
100
AcDbSymbolTable
 70
     1
100
AcDbDimStyleTable
  0
DIMSTYLE
105
27
330
A
100
AcDbSymbolTableRecord
100
AcDbDimStyleTableRecord
  2
Standard
 70
     0
178
     0
340
11
  0
ENDTAB
  0
TABLE
  2
BLOCK_RECORD
  5
1
330
0
100
AcDbSymbolTable
 70
     6
  0
BLOCK_RECORD
  5
1F
330
1
100
AcDbSymbolTableRecord
100
AcDbBlockTableRecord
  2
*Model_Space
340
22
 70
     0
280
     1
281
     0
  0
BLOCK_RECORD
  5
1B
330
1
100
AcDbSymbolTableRecord
100
AcDbBlockTableRecord
  2
*Paper_Space
340
1E
 70
     0
280
     1
281
     0
  0
BLOCK_RECORD
  5
23
330
1
100
AcDbSymbolTableRecord
100
AcDbBlockTableRecord
  2
*Paper_Space0
340
26
 70
     0
280
     1
281
     0
  0
BLOCK_RECORD
  5
6E
330
1
100
AcDbSymbolTableRecord
100
AcDbBlockTableRecord
  2
1_071406_4
340
0
102
{BLKREFS
331
6F
102
}
 70
     0
280
     1
281
     0
  0
BLOCK_RECORD
  5
8F
330
1
100
AcDbSymbolTableRecord
100
AcDbBlockTableRecord
  2
2_2_7_16CS2i_0_in_071406_4
340
0
102
{BLKREFS
331
90
102
}
 70
     0
280
     1
281
     0
  0
BLOCK_RECORD
  5
D5
330
1
100
AcDbSymbolTableRecord
100
AcDbBlockTableRecord
  2
3_070008i_0_in_071406_4
340
0
102
{BLKREFS
331
D6
102
}
 70
     0
280
     1
281
     0
  0
BLOCK_RECORD
  5
121
330
1
100
AcDbSymbolTableRecord
100
AcDbBlockTableRecord
  2
4_405015E_Inch_0_in_071406_4
340
0
102
{BLKREFS
331
122
102
}
 70
     0
280
     1
281
     0
  0
BLOCK_RECORD
  5
160
330
1
100
AcDbSymbolTableRecord
100
AcDbBlockTableRecord
  2
5_B071395_0_in_071406_4
340
0
102
{BLKREFS
331
161
102
}
 70
     0
280
     1
281
     0
  0
ENDTAB
  0
ENDSEC
  0
SECTION
  2
BLOCKS
  0
BLOCK
  5
20
330
1F
100
AcDbEntity
  8
0
100
AcDbBlockBegin
  2
*Model_Space
 70
     0
 10
0.0
 20
0.0
 30
0.0
  3
*Model_Space
  1

  0
ENDBLK
  5
21
330
1F
100
AcDbEntity
  8
0
100
AcDbBlockEnd
  0
BLOCK
  5
1C
330
1B
100
AcDbEntity
 67
     1
  8
0
100
AcDbBlockBegin
  2
*Paper_Space
 70
     0
 10
0.0
 20
0.0
 30
0.0
  3
*Paper_Space
  1

  0
ENDBLK
  5
1D
330
1B
100
AcDbEntity
 67
     1
  8
0
100
AcDbBlockEnd
  0
BLOCK
  5
24
330
23
100
AcDbEntity
  8
0
100
AcDbBlockBegin
  2
*Paper_Space0
 70
     0
 10
0.0
 20
0.0
 30
0.0
  3
*Paper_Space0
  1

  0
ENDBLK
  5
25
330
23
100
AcDbEntity
  8
0
100
AcDbBlockEnd
  0
BLOCK
  5
70
330
6E
100
AcDbEntity
  8
0
100
AcDbBlockBegin
  2
1_071406_4
 70
     2
 10
0.0
 20
0.0
 30
0.0
  3
1_071406_4
  1

  0
ATTDEF
  5
73
330
6E
100
AcDbEntity
  8
AM_6
100
AcDbText
 10
10.28440000000001
 20
1.618974358974359
 30
0.0
 40
0.5
  1
S-2000 Pillow Block with Type E Dimensions 2-Bolt Trident Seal Non-Expansion
100
AcDbAttributeDefinition
  3

  2
NN
 70
     8
280
     0
  0
ATTDEF
  5
74
330
6E
100
AcDbEntity
  8
AM_6
100
AcDbText
 10
10.28440000000001
 20
1.118974358974359
 30
0.0
 40
0.5
  1
S-2000 - E Type - Inch
100
AcDbAttributeDefinition
  3

  2
NT
 70
     8
280
     0
  0
ATTDEF
  5
75
330
6E
100
AcDbEntity
  8
AM_6
100
AcDbText
 10
10.28440000000001
 20
0.618974358974359
 30
0.0
 40
0.5
  1
071406
100
AcDbAttributeDefinition
  3

  2
NB
 70
     8
280
     0
  0
ATTDEF
  5
76
330
6E
100
AcDbEntity
  8
AM_6
100
AcDbText
 10
10.28440000000001
 20
0.118974358974359
 30
0.0
 40
0.5
  1
$PN.
100
AcDbAttributeDefinition
  3

  2
NBSYN
 70
     8
280
     0
  0
ATTDEF
  5
77
330
6E
100
AcDbEntity
  8
AM_6
100
AcDbText
 10
10.28440000000001
 20
-0.381025641025641
 30
0.0
 40
0.5
  1
071406
100
AcDbAttributeDefinition
  3

  2
LINA
 70
     8
280
     0
  0
ATTDEF
  5
78
330
6E
100
AcDbEntity
  8
AM_6
100
AcDbText
 10
10.28440000000001
 20
-0.881025641025641
 30
0.0
 40
0.5
  1
2-7/16
100
AcDbAttributeDefinition
  3

  2
SS
 70
     8
280
     0
  0
ATTDEF
  5
79
330
6E
100
AcDbEntity
  8
AM_6
100
AcDbText
 10
10.28440000000001
 20
-1.381025641025641
 30
0.0
 40
0.5
  1
Expansion
100
AcDbAttributeDefinition
  3

  2
TYPE
 70
     8
280
     0
  0
ATTDEF
  5
7A
330
6E
100
AcDbEntity
  8
AM_6
100
AcDbText
 10
10.28440000000001
 20
-1.881025641025641
 30
0.0
 40
0.5
  1
071406
100
AcDbAttributeDefinition
  3

  2
PN
 70
     8
280
     0
  0
ATTDEF
  5
7B
330
6E
100
AcDbEntity
  8
AM_6
100
AcDbText
 10
10.28440000000001
 20
-2.381025641025641
 30
0.0
 40
0.5
  1
EP2B-S2-207RE
100
AcDbAttributeDefinition
  3

  2
DESCRIPTION
 70
     8
280
     0
  0
ATTDEF
  5
7C
330
6E
100
AcDbEntity
  8
AM_6
100
AcDbText
 10
10.28440000000001
 20
-2.881025641025641
 30
0.0
 40
0.5
  1
3.2
100
AcDbAttributeDefinition
  3

  2
A
 70
     8
280
     0
  0
ATTDEF
  5
7D
330
6E
100
AcDbEntity
  8
AM_6
100
AcDbText
 10
10.28440000000001
 20
-3.381025641025641
 30
0.0
 40
0.5
  1
10.5
100
AcDbAttributeDefinition
  3

  2
B
 70
     8
280
     0
  0
ATTDEF
  5
7E
330
6E
100
AcDbEntity
  8
AM_6
100
AcDbText
 10
10.28440000000001
 20
-3.881025641025641
 30
0.0
 40
0.5
  1
2.87
100
AcDbAttributeDefinition
  3

  2
C
 70
     8
280
     0
  0
ATTDEF
  5
7F
330
6E
100
AcDbEntity
  8
AM_6
100
AcDbText
 10
10.28440000000001
 20
-4.381025641025641
 30
0.0
 40
0.5
  1
8.38
100
AcDbAttributeDefinition
  3

  2
DMIN
 70
     8
280
     0
  0
ATTDEF
  5
80
330
6E
100
AcDbEntity
  8
AM_6
100
AcDbText
 10
10.28440000000001
 20
-4.881025641025641
 30
0.0
 40
0.5
  1
8.62
100
AcDbAttributeDefinition
  3

  2
DMAX
 70
     8
280
     0
  0
ATTDEF
  5
81
330
6E
100
AcDbEntity
  8
AM_6
100
AcDbText
 10
10.28440000000001
 20
-5.381025641025641
 30
0.0
 40
0.5
  1
5/8
100
AcDbAttributeDefinition
  3

  2
F
 70
     8
280
     0
  0
ATTDEF
  5
82
330
6E
100
AcDbEntity
  8
AM_6
100
AcDbText
 10
10.28440000000001
 20
-5.881025641025641
 30
0.0
 40
0.5
  1
0.88
100
AcDbAttributeDefinition
  3

  2
G
 70
     8
280
     0
  0
ATTDEF
  5
83
330
6E
100
AcDbEntity
  8
AM_6
100
AcDbText
 10
10.28440000000001
 20
-6.381025641025641
 30
0.0
 40
0.5
  1
1.63
100
AcDbAttributeDefinition
  3

  2
H
 70
     8
280
     0
  0
ATTDEF
  5
84
330
6E
100
AcDbEntity
  8
AM_6
100
AcDbText
 10
10.28440000000001
 20
-6.881025641025641
 30
0.0
 40
0.5
  1
5.71
100
AcDbAttributeDefinition
  3

  2
J
 70
     8
280
     0
  0
ATTDEF
  5
85
330
6E
100
AcDbEntity
  8
AM_6
100
AcDbText
 10
10.28440000000001
 20
-7.381025641025641
 30
0.0
 40
0.5
  1
3.86
100
AcDbAttributeDefinition
  3

  2
L
 70
     8
280
     0
  0
ATTDEF
  5
86
330
6E
100
AcDbEntity
  8
AM_6
100
AcDbText
 10
10.28440000000001
 20
-7.881025641025641
 30
0.0
 40
0.5
  1
2.75
100
AcDbAttributeDefinition
  3

  2
M
 70
     8
280
     0
  0
ATTDEF
  5
87
330
6E
100
AcDbEntity
  8
AM_6
100
AcDbText
 10
10.28440000000001
 20
-8.38102564102564
 30
0.0
 40
0.5
  1
1.2
100
AcDbAttributeDefinition
  3

  2
R
 70
     8
280
     0
  0
ATTDEF
  5
88
330
6E
100
AcDbEntity
  8
AM_6
100
AcDbText
 10
10.28440000000001
 20
-8.88102564102564
 30
0.0
 40
0.5
  1
2
100
AcDbAttributeDefinition
  3

  2
S
 70
     8
280
     0
  0
ATTDEF
  5
89
330
6E
100
AcDbEntity
  8
AM_6
100
AcDbText
 10
10.28440000000001
 20
-9.38102564102564
 30
0.0
 40
0.5
  1
0.25
100
AcDbAttributeDefinition
  3

  2
X
 70
     8
280
     0
  0
ATTDEF
  5
8A
330
6E
100
AcDbEntity
  8
AM_6
100
AcDbText
 10
10.28440000000001
 20
-9.88102564102564
 30
0.0
 40
0.5
  1
0.025
100
AcDbAttributeDefinition
  3

  2
Y
 70
     8
280
     0
  0
ATTDEF
  5
8B
330
6E
100
AcDbEntity
  8
AM_6
100
AcDbText
 10
10.28440000000001
 20
-10.38102564102564
 30
0.0
 40
0.5
  1
2.95
100
AcDbAttributeDefinition
  3

  2
Z
 70
     8
280
     0
  0
ATTDEF
  5
8C
330
6E
100
AcDbEntity
  8
AM_6
100
AcDbText
 10
10.28440000000001
 20
-10.88102564102564
 30
0.0
 40
0.5
  1
3/8-16
100
AcDbAttributeDefinition
  3

  2
CS
 70
     8
280
     0
  0
ATTDEF
  5
8D
330
6E
100
AcDbEntity
  8
AM_6
100
AcDbText
 10
10.28440000000001
 20
-11.38102564102564
 30
0.0
 40
0.5
  1
290
100
AcDbAttributeDefinition
  3

  2
TORQUE
 70
     8
280
     0
  0
ATTDEF
  5
8E
330
6E
100
AcDbEntity
  8
AM_6
100
AcDbText
 10
10.28440000000001
 20
-11.88102564102564
 30
0.0
 40
0.5
  1
baldor
100
AcDbAttributeDefinition
  3

  2
COMPANY
 70
     8
280
     0
  0
INSERT
  5
90
330
6E
100
AcDbEntity
  8
0
100
AcDbBlockReference
  2
2_2_7_16CS2i_0_in_071406_4
 10
0.0
 20
0.0
 30
0.0
  0
INSERT
  5
D6
330
6E
100
AcDbEntity
  8
0
100
AcDbBlockReference
  2
3_070008i_0_in_071406_4
 10
0.0
 20
0.0
 30
0.0
  0
INSERT
  5
122
330
6E
100
AcDbEntity
  8
0
100
AcDbBlockReference
  2
4_405015E_Inch_0_in_071406_4
 10
0.0
 20
0.0
 30
0.0
  0
INSERT
  5
161
330
6E
100
AcDbEntity
  8
0
100
AcDbBlockReference
  2
5_B071395_0_in_071406_4
 10
0.0
 20
0.0
 30
0.0
  0
ENDBLK
  5
71
330
6E
100
AcDbEntity
  8
0
100
AcDbBlockEnd
  0
BLOCK
  5
91
330
8F
100
AcDbEntity
  8
0
100
AcDbBlockBegin
  2
2_2_7_16CS2i_0_in_071406_4
 70
     2
 10
0.0
 20
0.0
 30
0.0
  3
2_2_7_16CS2i_0_in_071406_4
  1

  0
ATTDEF
  5
93
330
8F
100
AcDbEntity
  8
AM_6
100
AcDbText
 10
6.984375
 20
-1.116
 30
0.0
 40
0.5
  1
S-2000 Collar -Inch
100
AcDbAttributeDefinition
  3

  2
NN
 70
     8
280
     0
  0
ATTDEF
  5
94
330
8F
100
AcDbEntity
  8
AM_6
100
AcDbText
 10
6.984375
 20
-1.616
 30
0.0
 40
0.5
  1
S-2000 Bearings
100
AcDbAttributeDefinition
  3

  2
NT
 70
     8
280
     0
  0
ATTDEF
  5
95
330
8F
100
AcDbEntity
  8
AM_6
100
AcDbText
 10
6.984375
 20
-2.116
 30
0.0
 40
0.5
  1
2-7/16CS2i
100
AcDbAttributeDefinition
  3

  2
NB
 70
     8
280
     0
  0
ATTDEF
  5
96
330
8F
100
AcDbEntity
  8
AM_6
100
AcDbText
 10
6.984375
 20
-2.616
 30
0.0
 40
0.5
  1
$BORE.CS2i
100
AcDbAttributeDefinition
  3

  2
NBSYN
 70
     8
280
     0
  0
ATTDEF
  5
97
330
8F
100
AcDbEntity
  8
AM_6
100
AcDbText
 10
6.984375
 20
-3.116
 30
0.0
 40
0.5
  1
2-7/16CS2i
100
AcDbAttributeDefinition
  3

  2
LINA
 70
     8
280
     0
  0
ATTDEF
  5
98
330
8F
100
AcDbEntity
  8
AM_6
100
AcDbText
 10
6.984375
 20
-3.616
 30
0.0
 40
0.5
  1
2-7/16
100
AcDbAttributeDefinition
  3

  2
BORE
 70
     8
280
     0
  0
ATTDEF
  5
99
330
8F
100
AcDbEntity
  8
AM_6
100
AcDbText
 10
6.984375
 20
-4.116
 30
0.0
 40
0.5
  1
2.437500
100
AcDbAttributeDefinition
  3

  2
BORE1
 70
     8
280
     0
  0
ATTDEF
  5
9A
330
8F
100
AcDbEntity
  8
AM_6
100
AcDbText
 10
6.984375
 20
-4.616
 30
0.0
 40
0.5
  1
4-1/16
100
AcDbAttributeDefinition
  3

  2
L1
 70
     8
280
     0
  0
ATTDEF
  5
9B
330
8F
100
AcDbEntity
  8
AM_6
100
AcDbText
 10
6.984375
 20
-5.116
 30
0.0
 40
0.5
  1
4.06250
100
AcDbAttributeDefinition
  3

  2
L
 70
     8
280
     0
  0
ATTDEF
  5
9C
330
8F
100
AcDbEntity
  8
AM_6
100
AcDbText
 10
6.984375
 20
-5.616
 30
0.0
 40
0.5
  1
3.96875
100
AcDbAttributeDefinition
  3

  2
L2
 70
     8
280
     0
  0
ATTDEF
  5
9D
330
8F
100
AcDbEntity
  8
AM_6
100
AcDbText
 10
6.984375
 20
-6.116
 30
0.0
 40
0.5
  1
4.00
100
AcDbAttributeDefinition
  3

  2
A
 70
     8
280
     0
  0
ATTDEF
  5
9E
330
8F
100
AcDbEntity
  8
AM_6
100
AcDbText
 10
6.984375
 20
-6.616
 30
0.0
 40
0.5
  1
1.70
100
AcDbAttributeDefinition
  3

  2
B
 70
     8
280
     0
  0
ATTDEF
  5
9F
330
8F
100
AcDbEntity
  8
AM_6
100
AcDbText
 10
6.984375
 20
-7.116
 30
0.0
 40
0.5
  1
2.94
100
AcDbAttributeDefinition
  3

  2
C
 70
     8
280
     0
  0
ATTDEF
  5
A0
330
8F
100
AcDbEntity
  8
AM_6
100
AcDbText
 10
6.984375
 20
-7.616
 30
0.0
 40
0.5
  1
4.12
100
AcDbAttributeDefinition
  3

  2
D
 70
     8
280
     0
  0
ATTDEF
  5
A1
330
8F
100
AcDbEntity
  8
AM_6
100
AcDbText
 10
6.984375
 20
-8.116
 30
0.0
 40
0.5
  1
0.41
100
AcDbAttributeDefinition
  3

  2
E
 70
     8
280
     0
  0
ATTDEF
  5
A2
330
8F
100
AcDbEntity
  8
AM_6
100
AcDbText
 10
6.984375
 20
-8.616
 30
0.0
 40
0.5
  1
0.317
100
AcDbAttributeDefinition
  3

  2
F
 70
     8
280
     0
  0
ATTDEF
  5
A3
330
8F
100
AcDbEntity
  8
AM_6
100
AcDbText
 10
6.984375
 20
-9.116
 30
0.0
 40
0.5
  1
3/8-16
100
AcDbAttributeDefinition
  3

  2
CS
 70
     8
280
     0
  0
ATTDEF
  5
A4
330
8F
100
AcDbEntity
  8
AM_6
100
AcDbText
 10
6.984375
 20
-9.616
 30
0.0
 40
0.5
  1
0.3750
100
AcDbAttributeDefinition
  3

  2
NDM
 70
     8
280
     0
  0
ATTDEF
  5
A5
330
8F
100
AcDbEntity
  8
AM_6
100
AcDbText
 10
6.984375
 20
-10.116
 30
0.0
 40
0.5
  1
0.3070
100
AcDbAttributeDefinition
  3

  2
KDM
 70
     8
280
     0
  0
ATTDEF
  5
A6
330
8F
100
AcDbEntity
  8
AM_6
100
AcDbText
 10
6.984375
 20
-10.616
 30
0.0
 40
0.5
  1
2
100
AcDbAttributeDefinition
  3

  2
DD
 70
     8
280
     0
  0
ATTDEF
  5
A7
330
8F
100
AcDbEntity
  8
AM_6
100
AcDbText
 10
6.984375
 20
-11.116
 30
0.0
 40
0.5
  1
baldor
100
AcDbAttributeDefinition
  3

  2
COMPANY
 70
     8
280
     0
  0
LINE
  5
AA
330
8F
100
AcDbEntity
  8
AM_9
100
AcDbLine
 10
1.370573096629555
 20
-1.297077735467822
 30
0.0
 11
1.362943640073037
 21
-1.287561616648717
 31
0.0
  0
LINE
  5
AB
330
8F
100
AcDbEntity
  8
AM_9
100
AcDbLine
 10
1.363002366930395
 20
-1.578365134129881
 30
0.0
 11
1.370573096629555
 21
-1.568922264532178
 31
0.0
  0
LWPOLYLINE
  5
AC
330
8F
100
AcDbEntity
  8
AM_9
100
AcDbPolyline
 90
       22
 70
     0
 43
0.0
 10
1.319766005028324
 20
-1.272814686588544
 10
1.313458235211242
 20
-1.275679019343004
 10
1.300212399266799
 20
-1.285402011676166
 10
1.287467625967343
 20
-1.299874026234258
 10
1.275952008629166
 20
-1.318461621957356
 10
1.265957458711347
 20
-1.340869816854495
 10
1.258363344261786
 20
-1.365275405848488
 10
1.253046103606413
 20
-1.391921743985311
 10
1.250467930555333
 20
-1.418172826139211
 10
1.250317936966781
 20
-1.444877379624312
 10
1.252504891835034
 20
-1.47012089620609
 10
1.256814525415928
 20
-1.494336015025138
 10
1.263126712121887
 20
-1.517074159602231
 10
1.271086964458086
 20
-1.537591196266354
 10
1.28088369137668
 20
-1.556255087034341
 10
1.291736354734563
 20
-1.571599152053086
 10
1.30397260176277
 20
-1.583878021810583
 10
1.316527776949461
 20
-1.59185474044103
 10
1.329523629178863
 20
-1.595370073700269
 10
1.342050610996702
 20
-1.593976259825301
 10
1.353939848551234
 20
-1.587498321371626
 10
1.362874446005802
 20
-1.578524688122723
  0
LWPOLYLINE
  5
AD
330
8F
100
AcDbEntity
  8
AM_9
100
AcDbPolyline
 90
        4
 70
     0
 43
0.0
 10
1.362870758955028
 20
-1.287470713784022
 10
1.361722345582697
 20
-1.286077262917383
 10
1.35103406399326
 20
-1.276395802571751
 10
1.34439012691687
 20
-1.272866297483092
  0
LWPOLYLINE
  5
AE
330
8F
100
AcDbEntity
  8
AM_9
100
AcDbPolyline
 90
       12
 70
     0
 43
0.0
 10
1.367507470424592
 20
-1.572070283893907
 10
1.374063062848139
 20
-1.560188425922101
 10
1.381919814639623
 20
-1.540053118707598
 10
1.38792744612551
 20
-1.517118876585748
 10
1.392333523157499
 20
-1.491372362384886
 10
1.394923028277636
 20
-1.465323361674165
 10
1.395996704930882
 20
-1.438253692110982
 10
1.395582298384875
 20
-1.412475178627994
 10
1.393800834805257
 20
-1.387282242319745
 10
1.390694314034126
 20
-1.363582022152446
 10
1.38631075514024
 20
-1.341729825610209
 10
1.376953389882087
 20
-1.312289438370364
  0
LWPOLYLINE
  5
AF
330
8F
100
AcDbEntity
  8
AM_9
100
AcDbPolyline
 90
        3
 70
     0
 43
0.0
 10
1.362874446005802
 20
-1.578524688122723
 10
1.364719250926726
 20
-1.576120512588064
 10
1.367507470424592
 20
-1.572070283893907
  0
LINE
  5
B0
330
8F
100
AcDbEntity
  8
AM_9
100
AcDbLine
 10
1.340293270859148
 20
-1.58665
 30
0.0
 11
1.798449194050572
 21
-1.58665
 31
0.0
  0
LINE
  5
B1
330
8F
100
AcDbEntity
  8
AM_9
100
AcDbLine
 10
1.798419829738785
 20
-1.27935
 30
0.0
 11
1.340293270859148
 21
-1.27935
 31
0.0
  0
LWPOLYLINE
  5
B2
330
8F
100
AcDbEntity
  8
AM_9
100
AcDbPolyline
 90
        5
 70
     0
 43
0.0
 10
-0.0297327284186663
 20
-1.272937386423438
 10
-0.0505692376377667
 20
-1.277653510283509
 10
-0.0794294786535825
 20
-1.288778789329427
 10
-0.1007080854076395
 20
-1.301096508212433
 10
-0.1203997891174551
 20
-1.316639819734367
  0
LWPOLYLINE
  5
B3
330
8F
100
AcDbEntity
  8
AM_9
100
AcDbPolyline
 90
       34
 70
     0
 43
0.0
 10
-0.1203997891174551
 20
-1.316639819734367
 10
-0.1372296735781088
 20
-1.33450229245536
 10
-0.1515019595327708
 20
-1.355161958540254
 10
-0.1631682951265867
 20
-1.379923525823133
 10
-0.1704843477765803
 20
-1.407240172729329
 10
-0.1726772085485024
 20
-1.433009687192519
 10
-0.1703441373534041
 20
-1.459565268728921
 10
-0.1639532413147657
 20
-1.483897011353679
 10
-0.1533986900799313
 20
-1.507483942158415
 10
-0.13922265208257
 20
-1.528991999372007
 10
-0.1213664561682597
 20
-1.548467316343776
 10
-0.100006665742607
 20
-1.565375933542746
 10
-0.0756079461070765
 20
-1.579033645202893
 10
-0.0485346204402695
 20
-1.588922265681338
 10
-0.0194379493571095
 20
-1.594462694819539
 10
0.0103829531401279
 20
-1.595204694987159
 10
0.0407534256545685
 20
-1.590890339424633
 10
0.0693814756037794
 20
-1.581753413306857
 10
0.0968140168912324
 20
-1.56746461965297
 10
0.1202208485808588
 20
-1.549523936179176
 10
0.1407203522010067
 20
-1.527040770599331
 10
0.1556576988351674
 20
-1.503222462372668
 10
0.1664282947795937
 20
-1.476231656816433
 10
0.1716792036591155
 20
-1.450407858850861
 10
0.1723629232003215
 20
-1.423221677539698
 10
0.1686660074888883
 20
-1.398251116569449
 10
0.1606637967266597
 20
-1.373561129721633
 10
0.1489786988876092
 20
-1.350971313926028
 10
0.1334463894552746
 20
-1.330005878699985
 10
0.114341111997039
 20
-1.311346267382887
 10
0.0919564811328841
 20
-1.295543745800936
 10
0.0664994555385478
 20
-1.283081910056275
 10
0.0386345759420251
 20
-1.274636785972306
 10
0.0297438856852202
 20
-1.272939229740329
  0
LINE
  5
B4
330
8F
100
AcDbEntity
  8
AM_9
100
AcDbLine
 10
1.369216751953874
 20
-1.296683137962612
 30
0.0
 11
1.362870758955028
 21
-1.287470713784022
 31
0.0
  0
LWPOLYLINE
  5
B5
330
8F
100
AcDbEntity
  8
AM_9
100
AcDbPolyline
 90
        3
 70
     0
 43
0.0
 10
1.376953389882087
 20
-1.312289438370364
 10
1.369812117787199
 20
-1.297705728926734
 10
1.369216751953874
 20
-1.296683137962612
  0
LINE
  5
B6
330
8F
100
AcDbEntity
  8
AM_9
100
AcDbLine
 10
1.47
 20
-1.75
 30
0.0
 11
1.47
 21
-1.116
 31
0.0
  0
LINE
  5
B7
330
8F
100
AcDbEntity
  8
AM_9
100
AcDbLine
 10
-1.47
 20
-1.116
 30
0.0
 11
-1.47
 21
-1.75
 31
0.0
  0
LINE
  5
B8
330
8F
100
AcDbEntity
  8
AM_9
100
AcDbLine
 10
-1.889880952380952
 20
-1.116
 30
0.0
 11
1.889880952380952
 21
-1.116
 31
0.0
  0
LINE
  5
B9
330
8F
100
AcDbEntity
  8
AM_9
100
AcDbLine
 10
1.889880952380952
 20
-1.136905342624855
 30
0.0
 11
1.889880952380952
 21
-1.116
 31
0.0
  0
LINE
  5
BA
330
8F
100
AcDbEntity
  8
AM_9
100
AcDbLine
 10
-1.889880952380952
 20
-1.116
 30
0.0
 11
-1.889880952380952
 21
-1.136905342624855
 31
0.0
  0
LINE
  5
BB
330
8F
100
AcDbEntity
  8
AM_9
100
AcDbLine
 10
-1.889880952380952
 20
-1.136905342624855
 30
0.0
 11
1.889880952380952
 21
-1.136905342624855
 31
0.0
  0
LINE
  5
BC
330
8F
100
AcDbEntity
  8
AM_9
100
AcDbLine
 10
-1.889880952380952
 20
-1.136905342624855
 30
0.0
 11
-1.900975609756098
 21
-1.148
 31
0.0
  0
LINE
  5
BD
330
8F
100
AcDbEntity
  8
AM_9
100
AcDbLine
 10
1.900975609756098
 20
-1.148
 30
0.0
 11
1.889880952380952
 21
-1.136905342624855
 31
0.0
  0
ELLIPSE
  5
BE
330
8F
100
AcDbEntity
  8
AM_9
100
AcDbEllipse
 10
1.340293270859148
 20
-1.433
 30
0.0
 11
-2.822504710334864E-17
 21
-0.1536500000000001
 31
0.0
210
0.0
220
0.0
230
1.0
 40
0.4226182617407018
 41
0.0
 42
6.283185307179586
  0
LWPOLYLINE
  5
C0
330
8F
100
AcDbEntity
  8
AM_4
100
AcDbPolyline
 90
       20
 70
     0
 43
0.0
 10
1.798448400926248
 20
-1.279350000681054
 10
1.805809189250787
 20
-1.280357813250999
 10
1.816150321275724
 20
-1.285467611782737
 10
1.825730138495744
 20
-1.294709574499235
 10
1.834322554701013
 20
-1.307892339881111
 10
1.841758701682838
 20
-1.324583186685994
 10
1.847901212093323
 20
-1.344413744745505
 10
1.852648572696537
 20
-1.366745851109963
 10
1.855914657455737
 20
-1.390981781430096
 10
1.85767386653891
 20
-1.416409015791484
 10
1.857887950996726
 20
-1.442246550930557
 10
1.856578541065335
 20
-1.467822908379543
 10
1.853748510216699
 20
-1.492372747165491
 10
1.849451135831668
 20
-1.515254263081642
 10
1.843714921903975
 20
-1.535836169796078
 10
1.836653878060594
 20
-1.553526833304738
 10
1.828353745136256
 20
-1.567810824437439
 10
1.819010015188052
 20
-1.578290838997033
 10
1.808826833608244
 20
-1.58460600638957
 10
1.798451980148296
 20
-1.586649999882941
  0
LWPOLYLINE
  5
C1
330
8F
100
AcDbEntity
  8
AM_4
100
AcDbPolyline
 90
       11
 70
     0
 43
0.0
 10
1.798451980148296
 20
-1.586649999882941
 10
1.798061677162696
 20
-1.58664719110597
 10
1.787028889913483
 20
-1.584306042296196
 10
1.776033281578342
 20
-1.577721711665555
 10
1.765423599735523
 20
-1.567025397453846
 10
1.755549558640244
 20
-1.552575728112164
 10
1.746748516963849
 20
-1.534680556472105
 10
1.739354410963826
 20
-1.513921029897144
 10
1.733666749864641
 20
-1.490816596584467
 10
1.729892621157302
 20
-1.466073663061274
 10
1.728119893508289
 20
-1.433
  0
LINE
  5
C2
330
8F
100
AcDbEntity
  8
AM_4
100
AcDbLine
 10
-1.900975609756098
 20
-1.148
 30
0.0
 11
-1.935975609756098
 21
-1.183
 31
0.0
  0
LINE
  5
C3
330
8F
100
AcDbEntity
  8
AM_4
100
AcDbLine
 10
1.935975609756098
 20
-1.183
 30
0.0
 11
1.900975609756098
 21
-1.148
 31
0.0
  0
LINE
  5
C4
330
8F
100
AcDbEntity
  8
AM_4
100
AcDbLine
 10
-1.935975609756098
 20
-1.183
 30
0.0
 11
1.935975609756098
 21
-1.183
 31
0.0
  0
LINE
  5
C5
330
8F
100
AcDbEntity
  8
AM_4
100
AcDbLine
 10
1.935975609756098
 20
-1.2455
 30
0.0
 11
1.935975609756098
 21
-1.183
 31
0.0
  0
LINE
  5
C6
330
8F
100
AcDbEntity
  8
AM_4
100
AcDbLine
 10
-1.935975609756098
 20
-1.183
 30
0.0
 11
-1.935975609756098
 21
-1.2455
 31
0.0
  0
LINE
  5
C7
330
8F
100
AcDbEntity
  8
AM_4
100
AcDbLine
 10
-1.878708333333333
 20
-1.75
 30
0.0
 11
1.8787083333331
 21
-1.75
 31
0.0
  0
ARC
  5
C8
330
8F
100
AcDbEntity
  8
AM_4
100
AcDbCircle
 10
1.878708333333333
 20
-1.644333333333333
 30
0.0
 40
0.105666666666667
100
AcDbArc
 50
270.0
 51
0.0000008537736463
  0
ARC
  5
C9
330
8F
100
AcDbEntity
  8
AM_4
100
AcDbCircle
 10
-1.878708333333333
 20
-1.644333333333333
 30
0.0
 40
0.105666666666667
100
AcDbArc
 50
179.9999991462263
 51
270.0
  0
LINE
  5
CA
330
8F
100
AcDbEntity
  8
AM_4
100
AcDbLine
 10
-1.935975609756098
 20
-1.2455
 30
0.0
 11
1.935975609756098
 21
-1.2455
 31
0.0
  0
LINE
  5
CB
330
8F
100
AcDbEntity
  8
AM_4
100
AcDbLine
 10
-1.935975609756098
 20
-1.2455
 30
0.0
 11
-1.984375
 21
-1.273443400985931
 31
0.0
  0
LINE
  5
CC
330
8F
100
AcDbEntity
  8
AM_4
100
AcDbLine
 10
1.984375
 20
-1.273443400985931
 30
0.0
 11
1.935975609756098
 21
-1.2455
 31
0.0
  0
LINE
  5
CD
330
8F
100
AcDbEntity
  8
AM_4
100
AcDbLine
 10
-1.984375
 20
-1.644333333333333
 30
0.0
 11
1.984375
 21
-1.644333333333333
 31
0.0
  0
LWPOLYLINE
  5
CE
330
8F
100
AcDbEntity
  8
AM_4
100
AcDbPolyline
 90
       38
 70
     0
 43
0.0
 10
0.0
 20
-1.58665
 10
-0.0253864268906885
 20
-1.584538285029638
 10
-0.0507728537813769
 20
-1.578018756783027
 10
-0.0740262784538164
 20
-1.567641867924795
 10
-0.0958203615198608
 20
-1.55311153490903
 10
-0.1143678027603874
 20
-1.535607641975445
 10
-0.1301601216302282
 20
-1.514649649339138
 10
-0.1418866174830835
 20
-1.49196193924227
 10
-0.1498610317182339
 20
-1.466911556619337
 10
-0.1534056974734496
 20
-1.44166109015566
 10
-0.1526421295231124
 20
-1.415430059913324
 10
-0.1476497545558803
 20
-1.390480916289408
 10
-0.1382905866346437
 20
-1.366037053916019
 10
-0.1253338405664514
 20
-1.34411945708501
 10
-0.1084172881712892
 20
-1.324123858786309
 10
-0.0888987268616731
 20
-1.307679056569248
 10
-0.0662543890832565
 20
-1.294368551810188
 10
-0.0423821659204989
 20
-1.285310885601249
 10
-0.0165915302232083
 20
-1.280248425131351
 10
0.00887607280925
 20
-1.279606591303652
 10
0.0348225805430855
 20
-1.283348035815361
 10
0.0590387133527745
 20
-1.291145310878882
 10
0.082254741447417
 20
-1.303221419296485
 10
0.1025722287748135
 20
-1.318600435384712
 10
0.1205271181000702
 20
-1.337702905067931
 10
0.1346455019439965
 20
-1.358980331625647
 10
0.1452909154254987
 20
-1.383011277323574
 10
0.1515605672598288
 20
-1.40774694173216
 10
0.1536471876925706
 20
-1.433929631197834
 10
0.1513850255008234
 20
-1.45928491114908
 10
0.1447217274806528
 20
-1.484613410030879
 10
0.1342184896985184
 20
-1.507791172761554
 10
0.1195761817666805
 20
-1.5294876119204
 10
0.1019683641109169
 20
-1.547938136493261
 10
0.0809213287987628
 20
-1.563614168624397
 10
0.0581685532523521
 20
-1.575213719143155
 10
0.0330740667994354
 20
-1.583048087643083
 10
0.0
 20
-1.58665
  0
LINE
  5
CF
330
8F
100
AcDbEntity
  8
AM_4
100
AcDbLine
 10
-1.984375
 20
-1.273443400985931
 30
0.0
 11
1.984375
 21
-1.273443400985931
 31
0.0
  0
LWPOLYLINE
  5
D0
330
8F
100
AcDbEntity
  8
AM_4
100
AcDbPolyline
 90
       11
 70
     0
 43
0.0
 10
1.728119893508289
 20
-1.433
 10
1.72919883795411
 20
-1.407250271415994
 10
1.732357931553432
 20
-1.382227417019945
 10
1.737500738903282
 20
-1.358658416855346
 10
1.744395451546023
 20
-1.337180157735215
 10
1.752818165168681
 20
-1.318397082769836
 10
1.762424713099947
 20
-1.302840038706733
 10
1.772897928253394
 20
-1.290985044534593
 10
1.783860089522099
 20
-1.28313904543096
 10
1.794933804621747
 20
-1.279589352109346
 10
1.798448400926248
 20
-1.279350000681054
  0
LINE
  5
D1
330
8F
100
AcDbEntity
  8
AM_4
100
AcDbLine
 10
1.984375
 20
-1.644333333333333
 30
0.0
 11
1.984375
 21
-1.273443400985931
 31
0.0
  0
LINE
  5
D2
330
8F
100
AcDbEntity
  8
AM_4
100
AcDbLine
 10
-1.984375
 20
-1.273443400985931
 30
0.0
 11
-1.984375
 21
-1.644333333333333
 31
0.0
  0
CIRCLE
  5
D4
330
8F
100
AcDbEntity
  8
AM_5
100
AcDbCircle
 10
0.0000000000000001
 20
-1.433
 30
0.0
 40
0.1875
  0
ENDBLK
  5
92
330
8F
100
AcDbEntity
  8
0
100
AcDbBlockEnd
  0
BLOCK
  5
D7
330
D5
100
AcDbEntity
  8
0
100
AcDbBlockBegin
  2
3_070008i_0_in_071406_4
 70
     2
 10
0.0
 20
0.0
 30
0.0
  3
3_070008i_0_in_071406_4
  1

  0
ATTDEF
  5
D9
330
D5
100
AcDbEntity
  8
AM_6
100
AcDbText
 10
7.36205
 20
1.453125
 30
0.0
 40
0.5
  1
S-2000 Insert -Inch
100
AcDbAttributeDefinition
  3

  2
NN
 70
     8
280
     0
  0
ATTDEF
  5
DA
330
D5
100
AcDbEntity
  8
AM_6
100
AcDbText
 10
7.36205
 20
0.953125
 30
0.0
 40
0.5
  1
S-2000 Bearings
100
AcDbAttributeDefinition
  3

  2
NT
 70
     8
280
     0
  0
ATTDEF
  5
DB
330
D5
100
AcDbEntity
  8
AM_6
100
AcDbText
 10
7.36205
 20
0.453125
 30
0.0
 40
0.5
  1
070008i
100
AcDbAttributeDefinition
  3

  2
NB
 70
     8
280
     0
  0
ATTDEF
  5
DC
330
D5
100
AcDbEntity
  8
AM_6
100
AcDbText
 10
7.36205
 20
-0.046875
 30
0.0
 40
0.5
  1
$PN.i
100
AcDbAttributeDefinition
  3

  2
NBSYN
 70
     8
280
     0
  0
ATTDEF
  5
DD
330
D5
100
AcDbEntity
  8
AM_6
100
AcDbText
 10
7.36205
 20
-0.546875
 30
0.0
 40
0.5
  1
070008i
100
AcDbAttributeDefinition
  3

  2
LINA
 70
     8
280
     0
  0
ATTDEF
  5
DE
330
D5
100
AcDbEntity
  8
AM_6
100
AcDbText
 10
7.36205
 20
-1.046875
 30
0.0
 40
0.5
  1
2-7/16
100
AcDbAttributeDefinition
  3

  2
SS
 70
     8
280
     0
  0
ATTDEF
  5
DF
330
D5
100
AcDbEntity
  8
AM_6
100
AcDbText
 10
7.36205
 20
-1.546875
 30
0.0
 40
0.5
  1
2.94
100
AcDbAttributeDefinition
  3

  2
CC
 70
     8
280
     0
  0
ATTDEF
  5
E0
330
D5
100
AcDbEntity
  8
AM_6
100
AcDbText
 10
7.36205
 20
-2.046875
 30
0.0
 40
0.5
  1
2.437500
100
AcDbAttributeDefinition
  3

  2
SS1
 70
     8
280
     0
  0
ATTDEF
  5
E1
330
D5
100
AcDbEntity
  8
AM_6
100
AcDbText
 10
7.36205
 20
-2.546875
 30
0.0
 40
0.5
  1
070008
100
AcDbAttributeDefinition
  3

  2
PN
 70
     8
280
     0
  0
ATTDEF
  5
E2
330
D5
100
AcDbEntity
  8
AM_6
100
AcDbText
 10
7.36205
 20
-3.046875
 30
0.0
 40
0.5
  1
INS-S2-207R
100
AcDbAttributeDefinition
  3

  2
DESCRIPTION
 70
     8
280
     0
  0
ATTDEF
  5
E3
330
D5
100
AcDbEntity
  8
AM_6
100
AcDbText
 10
7.36205
 20
-3.546875
 30
0.0
 40
0.5
  1
Contact Seal
100
AcDbAttributeDefinition
  3

  2
ST
 70
     8
280
     0
  0
ATTDEF
  5
E4
330
D5
100
AcDbEntity
  8
AM_6
100
AcDbText
 10
7.36205
 20
-4.046875
 30
0.0
 40
0.5
  1
1
100
AcDbAttributeDefinition
  3

  2
ST1
 70
     8
280
     0
  0
ATTDEF
  5
E5
330
D5
100
AcDbEntity
  8
AM_6
100
AcDbText
 10
7.36205
 20
-4.546875
 30
0.0
 40
0.5
  1
4.7241
100
AcDbAttributeDefinition
  3

  2
A
 70
     8
280
     0
  0
ATTDEF
  5
E6
330
D5
100
AcDbEntity
  8
AM_6
100
AcDbText
 10
7.36205
 20
-5.046875
 30
0.0
 40
0.5
  1
1-9/32
100
AcDbAttributeDefinition
  3

  2
B
 70
     8
280
     0
  0
ATTDEF
  5
E7
330
D5
100
AcDbEntity
  8
AM_6
100
AcDbText
 10
7.36205
 20
-5.546875
 30
0.0
 40
0.5
  1
3-13/64
100
AcDbAttributeDefinition
  3

  2
C
 70
     8
280
     0
  0
ATTDEF
  5
E8
330
D5
100
AcDbEntity
  8
AM_6
100
AcDbText
 10
7.36205
 20
-6.046875
 30
0.0
 40
0.5
  1
1.208
100
AcDbAttributeDefinition
  3

  2
D
 70
     8
280
     0
  0
ATTDEF
  5
E9
330
D5
100
AcDbEntity
  8
AM_6
100
AcDbText
 10
7.36205
 20
-6.546875
 30
0.0
 40
0.5
  1
3-31/32
100
AcDbAttributeDefinition
  3

  2
E
 70
     8
280
     0
  0
ATTDEF
  5
EA
330
D5
100
AcDbEntity
  8
AM_6
100
AcDbText
 10
7.36205
 20
-7.046875
 30
0.0
 40
0.5
  1
0.34375
100
AcDbAttributeDefinition
  3

  2
F
 70
     8
280
     0
  0
ATTDEF
  5
EB
330
D5
100
AcDbEntity
  8
AM_6
100
AcDbText
 10
7.36205
 20
-7.546875
 30
0.0
 40
0.5
  1
2
100
AcDbAttributeDefinition
  3

  2
DD
 70
     8
280
     0
  0
ATTDEF
  5
EC
330
D5
100
AcDbEntity
  8
AM_6
100
AcDbText
 10
7.36205
 20
-8.046875
 30
0.0
 40
0.5
  1
baldor
100
AcDbAttributeDefinition
  3

  2
COMPANY
 70
     8
280
     0
  0
LINE
  5
ED
330
D5
100
AcDbEntity
  8
AM_9
100
AcDbLine
 10
1.332272446943875
 20
-1.228
 30
0.0
 11
1.104458266192005
 21
-1.228
 31
0.0
  0
LINE
  5
EE
330
D5
100
AcDbEntity
  8
AM_9
100
AcDbLine
 10
1.104534722396004
 20
-1.638
 30
0.0
 11
1.332272446943875
 21
-1.638
 31
0.0
  0
LWPOLYLINE
  5
EF
330
D5
100
AcDbEntity
  8
AM_9
100
AcDbPolyline
 90
       21
 70
     0
 43
0.0
 10
1.104569619821105
 20
-1.228000000669993
 10
1.094931128467441
 20
-1.229222044956707
 10
1.079821545021566
 20
-1.235758415961445
 10
1.064650438772503
 20
-1.247691953348352
 10
1.049902755151483
 20
-1.264838867244258
 10
1.036230031545063
 20
-1.286607300099845
 10
1.024091098813451
 20
-1.312804719063554
 10
1.014196028176797
 20
-1.342414457501145
 10
1.00706247855446
 20
-1.374696751471267
 10
1.003023764245674
 20
-1.40866858579052
 10
1.002342510102828
 20
-1.442937183116765
 10
1.004927446644613
 20
-1.476922614838396
 10
1.010650638802965
 20
-1.509435670341081
 10
1.019176584577286
 20
-1.539825237305716
 10
1.030245646176242
 20
-1.567475420978763
 10
1.043241419139136
 20
-1.591383753634779
 10
1.057772927911255
 20
-1.61102477450744
 10
1.073087194259603
 20
-1.625625841356008
 10
1.088511874315733
 20
-1.634652513744123
 10
1.103570798769614
 20
-1.63798662145982
 10
1.104556991204386
 20
-1.637999999568045
  0
LWPOLYLINE
  5
F0
330
D5
100
AcDbEntity
  8
AM_9
100
AcDbPolyline
 90
       11
 70
     0
 43
0.0
 10
1.104556991204386
 20
-1.637999999568045
 10
1.117594432479565
 20
-1.635507684036891
 10
1.130430134903845
 20
-1.627449551522779
 10
1.141774276191843
 20
-1.613995308349226
 10
1.151515378289319
 20
-1.595596315116115
 10
1.159642084529728
 20
-1.572405325639816
 10
1.166050827977468
 20
-1.545307114121199
 10
1.170784598892302
 20
-1.514775705588854
 10
1.173863421450654
 20
-1.48188239127923
 10
1.175062272492738
 20
-1.45762342504986
 10
1.175461567401798
 20
-1.433
  0
LWPOLYLINE
  5
F1
330
D5
100
AcDbEntity
  8
AM_9
100
AcDbPolyline
 90
       21
 70
     0
 43
0.0
 10
1.33227992806566
 20
-1.637999999235699
 10
1.322484519753496
 20
-1.636730209059696
 10
1.307476580024336
 20
-1.630083612012715
 10
1.292535745256103
 20
-1.617994593424448
 10
1.278146616819186
 20
-1.600673337945753
 10
1.264903732586876
 20
-1.578706653008368
 10
1.253274252271301
 20
-1.552403889476539
 10
1.243858159770482
 20
-1.522717634597043
 10
1.237124383126524
 20
-1.490415224658343
 10
1.233357859461284
 20
-1.45646346083227
 10
1.232790325309992
 20
-1.422116274228122
 10
1.235350877507819
 20
-1.388078073454837
 10
1.240935527503694
 20
-1.355467286314386
 10
1.249234697637844
 20
-1.325020023359241
 10
1.259984413163226
 20
-1.29744030108056
 10
1.272632178715926
 20
-1.273648575512461
 10
1.28677451853363
 20
-1.254237670881196
 10
1.301747191318942
 20
-1.239881463371869
 10
1.316938967536532
 20
-1.231093948853534
 10
1.33188092404375
 20
-1.228002090498295
 10
1.332269890195177
 20
-1.228000000089267
  0
LWPOLYLINE
  5
F2
330
D5
100
AcDbEntity
  8
AM_9
100
AcDbPolyline
 90
       11
 70
     0
 43
0.0
 10
1.332269890195177
 20
-1.228000000089267
 10
1.345975800620106
 20
-1.230734149912956
 10
1.359002493254403
 20
-1.239076611128521
 10
1.370647220752903
 20
-1.252852085301832
 10
1.380753620768268
 20
-1.271598098465075
 10
1.389245449046793
 20
-1.295064603808705
 10
1.396004047691731
 20
-1.322406823356912
 10
1.40101409445907
 20
-1.353057727275543
 10
1.404270457600154
 20
-1.386000707716885
 10
1.405485076174092
 20
-1.409339959032957
 10
1.405890623028544
 20
-1.433
  0
LWPOLYLINE
  5
F3
330
D5
100
AcDbEntity
  8
AM_9
100
AcDbPolyline
 90
       11
 70
     0
 43
0.0
 10
1.175461567401798
 20
-1.433
 10
1.174688387641965
 20
-1.39886040648739
 10
1.172365911505428
 20
-1.365689783775384
 10
1.168446841157104
 20
-1.334459147180743
 10
1.162894738545294
 20
-1.30597630500495
 10
1.155572673945597
 20
-1.280848906634479
 10
1.146526644412504
 20
-1.259982110081896
 10
1.135694217158819
 20
-1.243939964585988
 10
1.12327713357505
 20
-1.233263940349555
 10
1.109606067799191
 20
-1.228377561660186
 10
1.104569619821105
 20
-1.228000000669993
  0
LINE
  5
F4
330
D5
100
AcDbEntity
  8
AM_9
100
AcDbLine
 10
-1.21875
 20
1.453125
 30
0.0
 11
-1.21875
 21
-1.75
 31
0.0
  0
LINE
  5
F5
330
D5
100
AcDbEntity
  8
AM_9
100
AcDbLine
 10
1.21875
 20
-1.75
 30
0.0
 11
1.21875
 21
1.453125
 31
0.0
  0
LWPOLYLINE
  5
F6
330
D5
100
AcDbEntity
  8
AM_9
100
AcDbPolyline
 90
       11
 70
     0
 43
0.0
 10
1.405890623028544
 20
-1.433
 10
1.405035365780322
 20
-1.467225322904128
 10
1.402479054278472
 20
-1.500481371322097
 10
1.398194231252277
 20
-1.531797566945057
 10
1.392184934276705
 20
-1.560349516563767
 10
1.384379043130069
 20
-1.585450744071456
 10
1.374865411534359
 20
-1.606273994117106
 10
1.363655882634405
 20
-1.622226374366815
 10
1.350979522916503
 20
-1.632819507838594
 10
1.337158605461955
 20
-1.637646122837449
 10
1.33227992806566
 20
-1.637999999235699
  0
LWPOLYLINE
  5
F7
330
D5
100
AcDbEntity
  8
AM_9
100
AcDbPolyline
 90
       39
 70
     0
 43
0.0
 10
0.2050000000000001
 20
-1.433
 10
0.2022042683306224
 20
-1.466740685661049
 10
0.1935749584127278
 20
-1.500481371322097
 10
0.1798500751283857
 20
-1.531381657214717
 10
0.1606458858202564
 20
-1.560349516563767
 10
0.1374017519036985
 20
-1.585137301717213
 10
0.1095496369811647
 20
-1.606273994117106
 10
0.0792752790872424
 20
-1.622051395460705
 10
0.0457948063337105
 20
-1.632819507838594
 10
0.0121751037202358
 20
-1.637638136351467
 10
-0.0227816135620965
 20
-1.636730209059696
 10
-0.0558821314104723
 20
-1.630236374406504
 10
-0.0883289329932342
 20
-1.617994593424448
 10
-0.1175252605760592
 20
-1.600966702433933
 10
-0.1442032290522611
 20
-1.578706653008368
 10
-0.1663389312221284
 20
-1.552818028526095
 10
-0.1843251096359675
 20
-1.522717634597043
 10
-0.1966515669066932
 20
-1.490906486969444
 10
-0.2036528075077104
 20
-1.45646346083227
 10
-0.2047366120992951
 20
-1.422611560940028
 10
-0.2000175505186256
 20
-1.388078073454837
 10
-0.1899519196475668
 20
-1.355907404880855
 10
-0.1742564909685179
 20
-1.325020023359241
 10
-0.1540902145684011
 20
-1.297791990717029
 10
-0.1289655904254784
 20
-1.273648575512461
 10
-0.1007485855957664
 20
-1.2544650664423
 10
-0.0687766734482645
 20
-1.239881463371869
 10
-0.0358589283899704
 20
-1.23116061520426
 10
-0.0009257969166899
 20
-1.228002090498295
 10
0.0327604635176695
 20
-1.230634607627422
 10
0.0664734476960605
 20
-1.23907661112852
 10
0.0973793085471208
 20
-1.252605237695534
 10
0.1263899765840246
 20
-1.271598098465075
 10
0.1513112674025117
 20
-1.294689116997087
 10
0.1726098180289598
 20
-1.322406823356912
 10
0.1885697209198567
 20
-1.352585695599555
 10
0.1995396364757796
 20
-1.386000707716885
 10
0.2036112318224778
 20
-1.409178449342388
 10
0.2050000000000001
 20
-1.433
  0
LINE
  5
F8
330
D5
100
AcDbEntity
  8
AM_9
100
AcDbLine
 10
-1.47
 20
-0.7722500000000001
 30
0.0
 11
-1.47
 21
-1.75
 31
0.0
  0
LINE
  5
F9
330
D5
100
AcDbEntity
  8
AM_9
100
AcDbLine
 10
1.47
 20
-1.75
 30
0.0
 11
1.47
 21
-0.7722500000000001
 31
0.0
  0
LINE
  5
FA
330
D5
100
AcDbEntity
  8
AM_9
100
AcDbLine
 10
-1.88964
 20
1.134374999999999
 30
0.0
 11
-1.88964
 21
0.8857499999999999
 31
0.0
  0
LINE
  5
FB
330
D5
100
AcDbEntity
  8
AM_9
100
AcDbLine
 10
1.88964
 20
0.8857499999999999
 30
0.0
 11
1.88964
 21
1.134374999999999
 31
0.0
  0
ARC
  5
FC
330
D5
100
AcDbEntity
  8
AM_9
100
AcDbCircle
 10
-1.761515000000046
 20
1.134375000000004
 30
0.0
 40
0.1281249999999539
100
AcDbArc
 50
173.8955404921101
 51
180.0
  0
ARC
  5
FD
330
D5
100
AcDbEntity
  8
AM_9
100
AcDbCircle
 10
1.761515000000042
 20
1.134375000000004
 30
0.0
 40
0.1281249999999579
100
AcDbArc
 50
0.0
 51
6.104459507889842
  0
LINE
  5
FE
330
D5
100
AcDbEntity
  8
AM_9
100
AcDbLine
 10
1.88964
 20
1.134374999999999
 30
0.0
 11
-1.88964
 21
1.134374999999999
 31
0.0
  0
LINE
  5
FF
330
D5
100
AcDbEntity
  8
AM_9
100
AcDbLine
 10
1.761515
 20
-0.77225
 30
0.0
 11
-1.761515
 21
-0.77225
 31
0.0
  0
ARC
  5
100
330
D5
100
AcDbEntity
  8
AM_9
100
AcDbCircle
 10
-1.761515
 20
-0.6441250000000001
 30
0.0
 40
0.1281249999999998
100
AcDbArc
 50
180.0
 51
270.0
  0
ARC
  5
101
330
D5
100
AcDbEntity
  8
AM_9
100
AcDbCircle
 10
1.761515
 20
-0.6441250000000001
 30
0.0
 40
0.1281249999999999
100
AcDbArc
 50
270.0
 51
0.0
  0
LINE
  5
102
330
D5
100
AcDbEntity
  8
AM_9
100
AcDbLine
 10
-1.88964
 20
-0.3954999999999999
 30
0.0
 11
-1.88964
 21
-0.6441249999999998
 31
0.0
  0
LINE
  5
103
330
D5
100
AcDbEntity
  8
AM_9
100
AcDbLine
 10
1.88964
 20
-0.6441249999999998
 30
0.0
 11
1.88964
 21
-0.3954999999999999
 31
0.0
  0
LINE
  5
104
330
D5
100
AcDbEntity
  8
AM_9
100
AcDbLine
 10
1.88964
 20
-0.6441249999999998
 30
0.0
 11
-1.88964
 21
-0.6441249999999998
 31
0.0
  0
LINE
  5
105
330
D5
100
AcDbEntity
  8
AM_9
100
AcDbLine
 10
-2.267568
 20
0.3091875000000014
 30
0.0
 11
-2.267568
 21
0.1810624999999986
 31
0.0
  0
LINE
  5
106
330
D5
100
AcDbEntity
  8
AM_9
100
AcDbLine
 10
2.267568
 20
0.1810624999999986
 30
0.0
 11
2.267568
 21
0.3091875000000014
 31
0.0
  0
LINE
  5
107
330
D5
100
AcDbEntity
  8
AM_9
100
AcDbLine
 10
-2.36205
 20
0.1265132918664241
 30
0.0
 11
-2.36205
 21
-0.2673750000000006
 31
0.0
  0
LINE
  5
108
330
D5
100
AcDbEntity
  8
AM_9
100
AcDbLine
 10
2.36205
 20
-0.2673750000000006
 30
0.0
 11
2.36205
 21
0.1265132918664241
 31
0.0
  0
LINE
  5
109
330
D5
100
AcDbEntity
  8
AM_9
100
AcDbLine
 10
2.233925
 20
-0.3955000000000002
 30
0.0
 11
-2.233925
 21
-0.3955000000000002
 31
0.0
  0
ARC
  5
10A
330
D5
100
AcDbEntity
  8
AM_9
100
AcDbCircle
 10
-2.233925000000001
 20
-0.2673750000000014
 30
0.0
 40
0.1281249999999989
100
AcDbArc
 50
180.0
 51
270.0
  0
ARC
  5
10B
330
D5
100
AcDbEntity
  8
AM_9
100
AcDbCircle
 10
2.233925000000001
 20
-0.2673750000000017
 30
0.0
 40
0.1281249999999985
100
AcDbArc
 50
270.0
 51
0.0
  0
LINE
  5
10C
330
D5
100
AcDbEntity
  8
AM_9
100
AcDbLine
 10
2.36205
 20
-0.2673750000000006
 30
0.0
 11
-2.36205
 21
-0.2673750000000006
 31
0.0
  0
LINE
  5
10D
330
D5
100
AcDbEntity
  8
AM_9
100
AcDbLine
 10
-2.267568
 20
0.1810624999999986
 30
0.0
 11
-2.36205
 21
0.1265132918664241
 31
0.0
  0
LINE
  5
10E
330
D5
100
AcDbEntity
  8
AM_9
100
AcDbLine
 10
2.36205
 20
0.1265132918664241
 30
0.0
 11
2.267568
 21
0.1810624999999986
 31
0.0
  0
LINE
  5
10F
330
D5
100
AcDbEntity
  8
AM_9
100
AcDbLine
 10
2.267568
 20
0.1810624999999986
 30
0.0
 11
-2.267568
 21
0.1810624999999986
 31
0.0
  0
LINE
  5
110
330
D5
100
AcDbEntity
  8
AM_9
100
AcDbLine
 10
2.36205
 20
0.1265132918664241
 30
0.0
 11
-2.36205
 21
0.1265132918664241
 31
0.0
  0
LINE
  5
111
330
D5
100
AcDbEntity
  8
AM_9
100
AcDbLine
 10
-2.36205
 20
0.7576249999999998
 30
0.0
 11
-2.36205
 21
0.3637367081335759
 31
0.0
  0
LINE
  5
112
330
D5
100
AcDbEntity
  8
AM_9
100
AcDbLine
 10
2.36205
 20
0.3637367081335759
 30
0.0
 11
2.36205
 21
0.7576249999999998
 31
0.0
  0
LINE
  5
113
330
D5
100
AcDbEntity
  8
AM_9
100
AcDbLine
 10
2.267568
 20
0.3091875000000014
 30
0.0
 11
2.36205
 21
0.3637367081335759
 31
0.0
  0
LINE
  5
114
330
D5
100
AcDbEntity
  8
AM_9
100
AcDbLine
 10
-2.36205
 20
0.3637367081335759
 30
0.0
 11
-2.267568
 21
0.3091875000000014
 31
0.0
  0
LINE
  5
115
330
D5
100
AcDbEntity
  8
AM_9
100
AcDbLine
 10
2.36205
 20
0.3637367081335759
 30
0.0
 11
-2.36205
 21
0.3637367081335759
 31
0.0
  0
LINE
  5
116
330
D5
100
AcDbEntity
  8
AM_9
100
AcDbLine
 10
2.267568
 20
0.3091875000000014
 30
0.0
 11
-2.267568
 21
0.3091875000000014
 31
0.0
  0
LINE
  5
117
330
D5
100
AcDbEntity
  8
AM_9
100
AcDbLine
 10
2.233925001909211
 20
0.8857499999999999
 30
0.0
 11
-2.233925001909211
 21
0.8857499999999999
 31
0.0
  0
ARC
  5
118
330
D5
100
AcDbEntity
  8
AM_9
100
AcDbCircle
 10
-2.233925
 20
0.7576250000000003
 30
0.0
 40
0.1281249999999996
100
AcDbArc
 50
90.0
 51
180.0
  0
ARC
  5
119
330
D5
100
AcDbEntity
  8
AM_9
100
AcDbCircle
 10
2.233925
 20
0.7576250000000003
 30
0.0
 40
0.1281249999999998
100
AcDbArc
 50
0.0
 51
90.0
  0
LINE
  5
11A
330
D5
100
AcDbEntity
  8
AM_9
100
AcDbLine
 10
2.36205
 20
0.7576249999999998
 30
0.0
 11
-2.36205
 21
0.7576249999999998
 31
0.0
  0
LINE
  5
11B
330
D5
100
AcDbEntity
  8
AM_4
100
AcDbLine
 10
-1.47
 20
1.453125
 30
0.0
 11
-1.47
 21
1.2625
 31
0.0
  0
LINE
  5
11C
330
D5
100
AcDbEntity
  8
AM_4
100
AcDbLine
 10
1.47
 20
1.2625
 30
0.0
 11
1.47
 21
1.453125
 31
0.0
  0
LINE
  5
11D
330
D5
100
AcDbEntity
  8
AM_4
100
AcDbLine
 10
1.47
 20
1.453125
 30
0.0
 11
-1.47
 21
1.453125
 31
0.0
  0
LINE
  5
11E
330
D5
100
AcDbEntity
  8
AM_4
100
AcDbLine
 10
1.761515
 20
1.2625
 30
0.0
 11
-1.761515
 21
1.2625
 31
0.0
  0
ARC
  5
11F
330
D5
100
AcDbEntity
  8
AM_4
100
AcDbCircle
 10
-1.761515000000001
 20
1.134375000000001
 30
0.0
 40
0.1281249999999992
100
AcDbArc
 50
90.0
 51
173.8955404921107
  0
ARC
  5
120
330
D5
100
AcDbEntity
  8
AM_4
100
AcDbCircle
 10
1.761515000000001
 20
1.134375000000001
 30
0.0
 40
0.1281249999999992
100
AcDbArc
 50
6.104459507889245
 51
90.0
  0
ENDBLK
  5
D8
330
D5
100
AcDbEntity
  8
0
100
AcDbBlockEnd
  0
BLOCK
  5
123
330
121
100
AcDbEntity
  8
0
100
AcDbBlockBegin
  2
4_405015E_Inch_0_in_071406_4
 70
     2
 10
0.0
 20
0.0
 30
0.0
  3
4_405015E_Inch_0_in_071406_4
  1

  0
ATTDEF
  5
125
330
121
100
AcDbEntity
  8
AM_6
100
AcDbText
 10
6.806421671481428
 20
0.2187500000000012
 30
0.0
 40
0.5
  1
405015E -Inch
100
AcDbAttributeDefinition
  3

  2
NN
 70
     8
280
     0
  0
ATTDEF
  5
126
330
121
100
AcDbEntity
  8
AM_6
100
AcDbText
 10
6.806421671481428
 20
-0.2812499999999988
 30
0.0
 40
0.5
  1
Grease Fitting
100
AcDbAttributeDefinition
  3

  2
NT
 70
     8
280
     0
  0
ATTDEF
  5
127
330
121
100
AcDbEntity
  8
AM_6
100
AcDbText
 10
6.806421671481428
 20
-0.7812499999999988
 30
0.0
 40
0.5
  1
405015E-Inch
100
AcDbAttributeDefinition
  3

  2
NB
 70
     8
280
     0
  0
ATTDEF
  5
128
330
121
100
AcDbEntity
  8
AM_6
100
AcDbText
 10
6.806421671481428
 20
-1.281249999999999
 30
0.0
 40
0.5
  1
$MN.-Inch
100
AcDbAttributeDefinition
  3

  2
NBSYN
 70
     8
280
     0
  0
ATTDEF
  5
129
330
121
100
AcDbEntity
  8
AM_6
100
AcDbText
 10
6.806421671481428
 20
-1.781249999999999
 30
0.0
 40
0.5
  1
405015E
100
AcDbAttributeDefinition
  3

  2
LINA
 70
     8
280
     0
  0
ATTDEF
  5
12A
330
121
100
AcDbEntity
  8
AM_6
100
AcDbText
 10
6.806421671481428
 20
-2.281249999999999
 30
0.0
 40
0.5
  1
405015E
100
AcDbAttributeDefinition
  3

  2
MN
 70
     8
280
     0
  0
ATTDEF
  5
12B
330
121
100
AcDbEntity
  8
AM_6
100
AcDbText
 10
6.806421671481428
 20
-2.781249999999999
 30
0.0
 40
0.5
  1
1/8 x 27PTF
100
AcDbAttributeDefinition
  3

  2
T
 70
     8
280
     0
  0
ATTDEF
  5
12C
330
121
100
AcDbEntity
  8
AM_6
100
AcDbText
 10
6.806421671481428
 20
-3.281249999999999
 30
0.0
 40
0.5
  1
baldor
100
AcDbAttributeDefinition
  3

  2
COMPANY
 70
     8
280
     0
  0
ELLIPSE
  5
12D
330
121
100
AcDbEntity
  8
AM_9
100
AcDbEllipse
 10
1.3975
 20
0.0000000000000001
 30
0.0
 11
9.913691727296317E-18
 21
0.161902872472269
 31
0.0
210
0.0
220
0.0
230
1.0
 40
0.8660254037844383
 41
0.0
 42
6.283185307179586
  0
LINE
  5
12E
330
121
100
AcDbEntity
  8
AM_9
100
AcDbLine
 10
1.715106825845114
 20
-0.0686269175524189
 30
0.0
 11
1.6940625
 21
-0.1093749999999998
 31
0.0
  0
LINE
  5
12F
330
121
100
AcDbEntity
  8
AM_9
100
AcDbLine
 10
1.753283799848308
 20
0.0000000000000002
 30
0.0
 11
1.731021537626642
 21
-0.0393346450444818
 31
0.0
  0
LINE
  5
130
330
121
100
AcDbEntity
  8
AM_9
100
AcDbLine
 10
1.729768968965166
 20
0.0416001789802713
 30
0.0
 11
1.753283799848308
 21
0.0000000000000002
 31
0.0
  0
LINE
  5
131
330
121
100
AcDbEntity
  8
AM_9
100
AcDbLine
 10
1.6940625
 20
0.1093750000000002
 30
0.0
 11
1.715527112215651
 21
0.0678381388958407
 31
0.0
  0
LWPOLYLINE
  5
132
330
121
100
AcDbEntity
  8
AM_9
100
AcDbPolyline
 90
        3
 70
     0
 43
0.0
 10
1.7440625
 20
-0.1093749999999998
 10
1.770209559607483
 20
-0.0546874999999998
 10
1.794216200151693
 20
0.0000000000000002
  0
LWPOLYLINE
  5
133
330
121
100
AcDbEntity
  8
AM_9
100
AcDbPolyline
 90
        3
 70
     0
 43
0.0
 10
1.794216200151693
 20
0.0000000000000002
 10
1.770321932388116
 20
0.0544416102741497
 10
1.7440625
 20
0.1093750000000001
  0
LWPOLYLINE
  5
134
330
121
100
AcDbEntity
  8
AM_9
100
AcDbPolyline
 90
        3
 70
     0
 43
0.0
 10
1.6940625
 20
-0.1093749999999998
 10
1.667915440392518
 20
-0.1640624999999998
 10
1.643908799848308
 20
-0.2187499999999998
  0
LWPOLYLINE
  5
135
330
121
100
AcDbEntity
  8
AM_9
100
AcDbPolyline
 90
        3
 70
     0
 43
0.0
 10
1.643908799848308
 20
0.2187500000000002
 10
1.667803067611885
 20
0.1643083897258506
 10
1.6940625
 20
0.1093750000000002
  0
LINE
  5
136
330
121
100
AcDbEntity
  8
AM_9
100
AcDbLine
 10
1.794216200151693
 20
0.0000000000000002
 30
0.0
 11
1.753283799848308
 21
0.0000000000000002
 31
0.0
  0
LINE
  5
137
330
121
100
AcDbEntity
  8
AM_9
100
AcDbLine
 10
1.406546710626155
 20
-0.1983264404626878
 30
0.0
 11
1.52035489783229
 21
-0.2054502516015133
 31
0.0
  0
LINE
  5
138
330
121
100
AcDbEntity
  8
AM_9
100
AcDbLine
 10
1.52035489783229
 20
0.2054502516015136
 30
0.0
 11
1.406546710626155
 21
0.1983264404626881
 31
0.0
  0
ELLIPSE
  5
139
330
121
100
AcDbEntity
  8
AM_9
100
AcDbEllipse
 10
1.57999999999901
 20
0.0000000000005173
 30
0.0
 11
-4.018372309684047E-17
 21
-0.218749999999009
 31
0.0
210
0.0
220
0.0
230
1.0
 40
0.8660254037912626
 41
1.032970329612199
 42
2.108622323973534
  0
ELLIPSE
  5
13A
330
121
100
AcDbEntity
  8
AM_9
100
AcDbEllipse
 10
1.580000000000008
 20
-0.0000000000000023
 30
0.0
 11
-3.926523799766071E-17
 21
-0.2137499999999929
 31
0.0
210
0.0
220
0.0
230
1.0
 40
0.8660254037844312
 41
0.9862868522353834
 42
2.155305801354429
  0
ELLIPSE
  5
13B
330
121
100
AcDbEntity
  8
AM_9
100
AcDbEllipse
 10
1.589159099270439
 20
0.0000000000000017
 30
0.0
 11
-3.169399141454517E-17
 21
-0.1725340532830187
 31
0.0
210
0.0
220
0.0
230
1.0
 40
0.8660254037844404
 41
0.6732704101475537
 42
2.468322243442229
  0
LINE
  5
13C
330
121
100
AcDbEntity
  8
AM_9
100
AcDbLine
 10
1.7
 20
0.0703562363973517
 30
0.0
 11
1.692760904853149
 21
0.0796165180238022
 31
0.0
  0
LINE
  5
13D
330
121
100
AcDbEntity
  8
AM_9
100
AcDbLine
 10
1.692760904853149
 20
-0.0796165180238018
 30
0.0
 11
1.7
 21
-0.0703562363973514
 31
0.0
  0
ELLIPSE
  5
13E
330
121
100
AcDbEntity
  8
AM_9
100
AcDbEllipse
 10
1.616376560809287
 20
-0.0000000000000006
 30
0.0
 11
-2.182689656893339E-17
 21
-0.1188200907348967
 31
0.0
210
0.0
220
0.0
230
1.0
 40
0.8660254037844388
 41
0.0521714424107262
 42
3.089421211179066
  0
LINE
  5
13F
330
121
100
AcDbEntity
  8
AM_9
100
AcDbLine
 10
1.632500000000001
 20
-0.1049999999999998
 30
0.0
 11
1.6475
 21
-0.1049999999999998
 31
0.0
  0
LINE
  5
140
330
121
100
AcDbEntity
  8
AM_9
100
AcDbLine
 10
1.6475
 20
0.1050000000000002
 30
0.0
 11
1.632500000000001
 21
0.1050000000000002
 31
0.0
  0
ELLIPSE
  5
141
330
121
100
AcDbEntity
  8
AM_9
100
AcDbEllipse
 10
1.6475
 20
0.0000000000000006
 30
0.0
 11
-1.928818708657073E-17
 21
-0.1049999999999996
 31
0.0
210
0.0
220
0.0
230
1.0
 40
0.8660254037844358
 41
5.235987755982995
 42
10.47197551196598
  0
ELLIPSE
  5
142
330
121
100
AcDbEntity
  8
AM_9
100
AcDbEllipse
 10
1.632500000000005
 20
0.0000000000000016
 30
0.0
 11
-1.928818708657108E-17
 21
-0.1050000000000015
 31
0.0
210
0.0
220
0.0
230
1.0
 40
0.8660254037844478
 41
5.858105981271045
 42
9.849857286677933
  0
ELLIPSE
  5
143
330
121
100
AcDbEntity
  8
AM_9
100
AcDbEllipse
 10
1.6775
 20
-0.0000000000000015
 30
0.0
 11
-2.479909768273450E-17
 21
-0.1350000000000033
 31
0.0
210
0.0
220
0.0
230
1.0
 40
0.8660254037844268
 41
0.7751090107151413
 42
2.366483642874668
  0
ELLIPSE
  5
144
330
121
100
AcDbEntity
  8
AM_9
100
AcDbEllipse
 10
1.53
 20
-0.0000000000000001
 30
0.0
 11
-3.779601035290916E-17
 21
-0.2057518972230699
 31
0.0
210
0.0
220
0.0
230
1.0
 40
0.8660254037844408
 41
0.0
 42
6.283185307179586
  0
ELLIPSE
  5
145
330
121
100
AcDbEntity
  8
AM_9
100
AcDbEllipse
 10
1.415857377154473
 20
0.0
 30
0.0
 11
-3.648546613377890E-17
 21
-0.1986176267812156
 31
0.0
210
0.0
220
0.0
230
1.0
 40
0.8660254037844388
 41
0.0
 42
6.283185307179586
  0
ELLIPSE
  5
146
330
121
100
AcDbEntity
  8
AM_9
100
AcDbEllipse
 10
1.530000000000002
 20
0.0000000000000002
 30
0.0
 11
-4.018372309702271E-17
 21
-0.218750000000001
 31
0.0
210
0.0
220
0.0
230
1.0
 40
0.86602540378444
 41
0.0
 42
6.283185307179586
  0
LWPOLYLINE
  5
147
330
121
100
AcDbEntity
  8
AM_4
100
AcDbPolyline
 90
        3
 70
     0
 43
0.0
 10
1.7440625
 20
0.1093750000000001
 10
1.715522059607483
 20
0.1640625000000001
 10
1.684841200151693
 20
0.2187500000000002
  0
LWPOLYLINE
  5
148
330
121
100
AcDbEntity
  8
AM_4
100
AcDbPolyline
 90
        3
 70
     0
 43
0.0
 10
1.684841200151693
 20
-0.2187499999999998
 10
1.715388542662265
 20
-0.1643083897258502
 10
1.7440625
 20
-0.1093749999999998
  0
ELLIPSE
  5
149
330
121
100
AcDbEntity
  8
AM_4
100
AcDbEllipse
 10
1.580000000000002
 20
0.0000000000000014
 30
0.0
 11
-4.018372309702230E-17
 21
-0.2187499999999988
 31
0.0
210
0.0
220
0.0
230
1.0
 40
0.8660254037844378
 41
2.108622323974772
 42
7.316155636794598
  0
ELLIPSE
  5
14A
330
121
100
AcDbEntity
  8
AM_4
100
AcDbEllipse
 10
1.580000000000001
 20
0.0000000000000002
 30
0.0
 11
-3.926523799766206E-17
 21
-0.2137500000000003
 31
0.0
210
0.0
220
0.0
230
1.0
 40
0.8660254037844388
 41
2.155305801354401
 42
7.269472159414978
  0
LWPOLYLINE
  5
14B
330
121
100
AcDbEntity
  8
AM_4
100
AcDbPolyline
 90
        3
 70
     0
 43
0.0
 10
1.466091200151693
 20
0.2187500000000002
 10
1.442196932388116
 20
0.1643083897258505
 10
1.4159375
 20
0.1093750000000001
  0
LINE
  5
14C
330
121
100
AcDbEntity
  8
AM_4
100
AcDbLine
 10
1.684841200151693
 20
0.2187500000000002
 30
0.0
 11
1.425158799848308
 21
0.2187500000000002
 31
0.0
  0
LWPOLYLINE
  5
14D
330
121
100
AcDbEntity
  8
AM_4
100
AcDbPolyline
 90
        3
 70
     0
 43
0.0
 10
1.3659375
 20
0.1093750000000002
 10
1.394477940392518
 20
0.1640625000000001
 10
1.425158799848308
 20
0.2187500000000002
  0
LWPOLYLINE
  5
14E
330
121
100
AcDbEntity
  8
AM_4
100
AcDbPolyline
 90
        3
 70
     0
 43
0.0
 10
1.315783799848308
 20
0.0000000000000002
 10
1.339678067611885
 20
0.0544416102741497
 10
1.3659375
 20
0.1093750000000002
  0
LINE
  5
14F
330
121
100
AcDbEntity
  8
AM_4
100
AcDbLine
 10
1.684841200151693
 20
-0.2187499999999998
 30
0.0
 11
1.425158799848308
 21
-0.2187499999999998
 31
0.0
  0
LWPOLYLINE
  5
150
330
121
100
AcDbEntity
  8
AM_4
100
AcDbPolyline
 90
        3
 70
     0
 43
0.0
 10
1.4159375
 20
-0.1093749999999998
 10
1.442084559607483
 20
-0.1640624999999998
 10
1.466091200151693
 20
-0.2187499999999998
  0
LINE
  5
151
330
121
100
AcDbEntity
  8
AM_4
100
AcDbLine
 10
1.356716200151693
 20
0.0000000000000002
 30
0.0
 11
1.315783799848308
 21
0.0000000000000002
 31
0.0
  0
LWPOLYLINE
  5
152
330
121
100
AcDbEntity
  8
AM_4
100
AcDbPolyline
 90
        3
 70
     0
 43
0.0
 10
1.3659375
 20
-0.1093749999999998
 10
1.339790440392518
 20
-0.0546874999999998
 10
1.315783799848308
 20
0.0000000000000002
  0
LWPOLYLINE
  5
153
330
121
100
AcDbEntity
  8
AM_4
100
AcDbPolyline
 90
        3
 70
     0
 43
0.0
 10
1.425158799848308
 20
-0.2187499999999998
 10
1.394611457337736
 20
-0.1643083897258502
 10
1.3659375
 20
-0.1093749999999998
  0
LWPOLYLINE
  5
154
330
121
100
AcDbEntity
  8
AM_4
100
AcDbPolyline
 90
        3
 70
     0
 43
0.0
 10
1.4159375
 20
0.1093750000000001
 10
1.387397059607483
 20
0.0546875000000001
 10
1.356716200151693
 20
0.0000000000000002
  0
LWPOLYLINE
  5
155
330
121
100
AcDbEntity
  8
AM_4
100
AcDbPolyline
 90
        3
 70
     0
 43
0.0
 10
1.356716200151693
 20
0.0000000000000002
 10
1.387263542662265
 20
-0.0544416102741494
 10
1.4159375
 20
-0.1093749999999998
  0
ELLIPSE
  5
156
330
121
100
AcDbEntity
  8
AM_4
100
AcDbEllipse
 10
1.589159099270441
 20
0.0000000000000002
 30
0.0
 11
-3.169399141454459E-17
 21
-0.1725340532830156
 31
0.0
210
0.0
220
0.0
230
1.0
 40
0.866025403784438
 41
2.468322243442248
 42
6.956455717327131
  0
ELLIPSE
  5
157
330
121
100
AcDbEntity
  8
AM_4
100
AcDbEllipse
 10
1.616376560809287
 20
0.0000000000000002
 30
0.0
 11
-2.182689656893358E-17
 21
-0.1188200907348977
 31
0.0
210
0.0
220
0.0
230
1.0
 40
0.866025403784422
 41
3.089421211179062
 42
6.335356749590318
  0
ELLIPSE
  5
158
330
121
100
AcDbEntity
  8
AM_4
100
AcDbEllipse
 10
1.632500000000001
 20
0.0000000000000002
 30
0.0
 11
-1.928818708657083E-17
 21
-0.1050000000000001
 31
0.0
210
0.0
220
0.0
230
1.0
 40
0.86602540378444
 41
3.566671979498302
 42
5.858105981271075
  0
LINE
  5
159
330
121
100
AcDbEntity
  8
AM_4
100
AcDbLine
 10
1.56875
 20
-0.0524999999999999
 30
0.0
 11
1.57625
 21
-0.0674999999999999
 31
0.0
  0
LINE
  5
15A
330
121
100
AcDbEntity
  8
AM_4
100
AcDbLine
 10
1.57625
 20
0.0675000000000002
 30
0.0
 11
1.56875
 21
0.0525000000000002
 31
0.0
  0
ELLIPSE
  5
15B
330
121
100
AcDbEntity
  8
AM_4
100
AcDbEllipse
 10
1.677500000000001
 20
0.0000000000000002
 30
0.0
 11
-2.479909768273390E-17
 21
-0.135
 31
0.0
210
0.0
220
0.0
230
1.0
 40
0.8660254037844412
 41
2.366483642874677
 42
7.058294317894704
  0
ELLIPSE
  5
15C
330
121
100
AcDbEntity
  8
AM_4
100
AcDbEllipse
 10
1.647499999999999
 20
0.0000000000000002
 30
0.0
 11
-1.928818708657065E-17
 21
-0.1049999999999991
 31
0.0
210
0.0
220
0.0
230
1.0
 40
0.8660254037844375
 41
4.188790204786386
 42
5.235987755982995
  0
LINE
  5
15D
330
121
100
AcDbEntity
  8
AM_4
100
AcDbLine
 10
1.779726847792108
 20
0.0733474205218689
 30
0.0
 11
1.75931531073162
 21
0.0964365416902993
 31
0.0
  0
LINE
  5
15E
330
121
100
AcDbEntity
  8
AM_4
100
AcDbLine
 10
1.75931531073162
 20
-0.0964365416902989
 30
0.0
 11
1.779726847792108
 21
-0.0733474205218685
 31
0.0
  0
ELLIPSE
  5
15F
330
121
100
AcDbEntity
  8
AM_4
100
AcDbEllipse
 10
1.717500000000005
 20
0.0000000000000016
 30
0.0
 11
-1.886162459184596E-17
 21
-0.1026779019331841
 31
0.0
210
0.0
220
0.0
230
1.0
 40
0.8660254037844186
 41
0.0
 42
6.283185307179586
  0
ENDBLK
  5
124
330
121
100
AcDbEntity
  8
0
100
AcDbBlockEnd
  0
BLOCK
  5
162
330
160
100
AcDbEntity
  8
0
100
AcDbBlockBegin
  2
5_B071395_0_in_071406_4
 70
     2
 10
0.0
 20
0.0
 30
0.0
  3
5_B071395_0_in_071406_4
  1

  0
ATTDEF
  5
164
330
160
100
AcDbEntity
  8
AM_6
100
AcDbText
 10
10.28440000000001
 20
1.618974358974359
 30
0.0
 40
0.5
  1
EP2B-S2-(Contact Seal)-Housing
100
AcDbAttributeDefinition
  3

  2
NN
 70
     8
280
     0
  0
ATTDEF
  5
165
330
160
100
AcDbEntity
  8
AM_6
100
AcDbText
 10
10.28440000000001
 20
1.118974358974359
 30
0.0
 40
0.5
  1
S-2000/E Type Pillow Block Bearing -Inch (2-Bolt Base)
100
AcDbAttributeDefinition
  3

  2
NT
 70
     8
280
     0
  0
ATTDEF
  5
166
330
160
100
AcDbEntity
  8
AM_6
100
AcDbText
 10
10.28440000000001
 20
0.618974358974359
 30
0.0
 40
0.5
  1
B071395
100
AcDbAttributeDefinition
  3

  2
NB
 70
     8
280
     0
  0
ATTDEF
  5
167
330
160
100
AcDbEntity
  8
AM_6
100
AcDbText
 10
10.28440000000001
 20
0.118974358974359
 30
0.0
 40
0.5
  1
$PN.
100
AcDbAttributeDefinition
  3

  2
NBSYN
 70
     8
280
     0
  0
ATTDEF
  5
168
330
160
100
AcDbEntity
  8
AM_6
100
AcDbText
 10
10.28440000000001
 20
-0.381025641025641
 30
0.0
 40
0.5
  1
B071395
100
AcDbAttributeDefinition
  3

  2
LINA
 70
     8
280
     0
  0
ATTDEF
  5
169
330
160
100
AcDbEntity
  8
AM_6
100
AcDbText
 10
10.28440000000001
 20
-0.881025641025641
 30
0.0
 40
0.5
  1
2-7/16
100
AcDbAttributeDefinition
  3

  2
SS
 70
     8
280
     0
  0
ATTDEF
  5
16A
330
160
100
AcDbEntity
  8
AM_6
100
AcDbText
 10
10.28440000000001
 20
-1.381025641025641
 30
0.0
 40
0.5
  1
2.437500
100
AcDbAttributeDefinition
  3

  2
SS1
 70
     8
280
     0
  0
ATTDEF
  5
16B
330
160
100
AcDbEntity
  8
AM_6
100
AcDbText
 10
10.28440000000001
 20
-1.881025641025641
 30
0.0
 40
0.5
  1
Expansion
100
AcDbAttributeDefinition
  3

  2
TYPE
 70
     8
280
     0
  0
ATTDEF
  5
16C
330
160
100
AcDbEntity
  8
AM_6
100
AcDbText
 10
10.28440000000001
 20
-2.381025641025641
 30
0.0
 40
0.5
  1
071395
100
AcDbAttributeDefinition
  3

  2
PN1
 70
     8
280
     0
  0
ATTDEF
  5
16D
330
160
100
AcDbEntity
  8
AM_6
100
AcDbText
 10
10.28440000000001
 20
-2.881025641025641
 30
0.0
 40
0.5
  1
071406
100
AcDbAttributeDefinition
  3

  2
PN2
 70
     8
280
     0
  0
ATTDEF
  5
16E
330
160
100
AcDbEntity
  8
AM_6
100
AcDbText
 10
10.28440000000001
 20
-3.381025641025641
 30
0.0
 40
0.5
  1
EP2B-S2-207R
100
AcDbAttributeDefinition
  3

  2
DECS1
 70
     8
280
     0
  0
ATTDEF
  5
16F
330
160
100
AcDbEntity
  8
AM_6
100
AcDbText
 10
10.28440000000001
 20
-3.881025641025641
 30
0.0
 40
0.5
  1
Non-Expansion Type
100
AcDbAttributeDefinition
  3

  2
EF
 70
     8
280
     0
  0
ATTDEF
  5
170
330
160
100
AcDbEntity
  8
AM_6
100
AcDbText
 10
10.28440000000001
 20
-4.381025641025641
 30
0.0
 40
0.5
  1
1
100
AcDbAttributeDefinition
  3

  2
EF1
 70
     8
280
     0
  0
ATTDEF
  5
171
330
160
100
AcDbEntity
  8
AM_6
100
AcDbText
 10
10.28440000000001
 20
-4.881025641025641
 30
0.0
 40
0.5
  1
3.2
100
AcDbAttributeDefinition
  3

  2
A
 70
     8
280
     0
  0
ATTDEF
  5
172
330
160
100
AcDbEntity
  8
AM_6
100
AcDbText
 10
10.28440000000001
 20
-5.381025641025641
 30
0.0
 40
0.5
  1
3.2000000
100
AcDbAttributeDefinition
  3

  2
A1
 70
     8
280
     0
  0
ATTDEF
  5
173
330
160
100
AcDbEntity
  8
AM_6
100
AcDbText
 10
10.28440000000001
 20
-5.881025641025641
 30
0.0
 40
0.5
  1
10.5
100
AcDbAttributeDefinition
  3

  2
B
 70
     8
280
     0
  0
ATTDEF
  5
174
330
160
100
AcDbEntity
  8
AM_6
100
AcDbText
 10
10.28440000000001
 20
-6.381025641025641
 30
0.0
 40
0.5
  1
10.5000000
100
AcDbAttributeDefinition
  3

  2
B1
 70
     8
280
     0
  0
ATTDEF
  5
175
330
160
100
AcDbEntity
  8
AM_6
100
AcDbText
 10
10.28440000000001
 20
-6.881025641025641
 30
0.0
 40
0.5
  1
2.87
100
AcDbAttributeDefinition
  3

  2
C
 70
     8
280
     0
  0
ATTDEF
  5
176
330
160
100
AcDbEntity
  8
AM_6
100
AcDbText
 10
10.28440000000001
 20
-7.381025641025641
 30
0.0
 40
0.5
  1
2.8700000
100
AcDbAttributeDefinition
  3

  2
C1
 70
     8
280
     0
  0
ATTDEF
  5
177
330
160
100
AcDbEntity
  8
AM_6
100
AcDbText
 10
10.28440000000001
 20
-7.881025641025641
 30
0.0
 40
0.5
  1
8.38
100
AcDbAttributeDefinition
  3

  2
DMIN
 70
     8
280
     0
  0
ATTDEF
  5
178
330
160
100
AcDbEntity
  8
AM_6
100
AcDbText
 10
10.28440000000001
 20
-8.38102564102564
 30
0.0
 40
0.5
  1
8.3800000
100
AcDbAttributeDefinition
  3

  2
DMIN1
 70
     8
280
     0
  0
ATTDEF
  5
179
330
160
100
AcDbEntity
  8
AM_6
100
AcDbText
 10
10.28440000000001
 20
-8.88102564102564
 30
0.0
 40
0.5
  1
8.62
100
AcDbAttributeDefinition
  3

  2
DMAX
 70
     8
280
     0
  0
ATTDEF
  5
17A
330
160
100
AcDbEntity
  8
AM_6
100
AcDbText
 10
10.28440000000001
 20
-9.38102564102564
 30
0.0
 40
0.5
  1
8.6200000
100
AcDbAttributeDefinition
  3

  2
DMAX1
 70
     8
280
     0
  0
ATTDEF
  5
17B
330
160
100
AcDbEntity
  8
AM_6
100
AcDbText
 10
10.28440000000001
 20
-9.88102564102564
 30
0.0
 40
0.5
  1
5/8
100
AcDbAttributeDefinition
  3

  2
F
 70
     8
280
     0
  0
ATTDEF
  5
17C
330
160
100
AcDbEntity
  8
AM_6
100
AcDbText
 10
10.28440000000001
 20
-10.38102564102564
 30
0.0
 40
0.5
  1
0.6250000
100
AcDbAttributeDefinition
  3

  2
F1
 70
     8
280
     0
  0
ATTDEF
  5
17D
330
160
100
AcDbEntity
  8
AM_6
100
AcDbText
 10
10.28440000000001
 20
-10.88102564102564
 30
0.0
 40
0.5
  1
0.88
100
AcDbAttributeDefinition
  3

  2
G
 70
     8
280
     0
  0
ATTDEF
  5
17E
330
160
100
AcDbEntity
  8
AM_6
100
AcDbText
 10
10.28440000000001
 20
-11.38102564102564
 30
0.0
 40
0.5
  1
0.8800000
100
AcDbAttributeDefinition
  3

  2
G1
 70
     8
280
     0
  0
ATTDEF
  5
17F
330
160
100
AcDbEntity
  8
AM_6
100
AcDbText
 10
10.28440000000001
 20
-11.88102564102564
 30
0.0
 40
0.5
  1
1.63
100
AcDbAttributeDefinition
  3

  2
H
 70
     8
280
     0
  0
ATTDEF
  5
180
330
160
100
AcDbEntity
  8
AM_6
100
AcDbText
 10
10.28440000000001
 20
-12.38102564102564
 30
0.0
 40
0.5
  1
1.6300000
100
AcDbAttributeDefinition
  3

  2
H1
 70
     8
280
     0
  0
ATTDEF
  5
181
330
160
100
AcDbEntity
  8
AM_6
100
AcDbText
 10
10.28440000000001
 20
-12.88102564102564
 30
0.0
 40
0.5
  1
5.71
100
AcDbAttributeDefinition
  3

  2
J
 70
     8
280
     0
  0
ATTDEF
  5
182
330
160
100
AcDbEntity
  8
AM_6
100
AcDbText
 10
10.28440000000001
 20
-13.38102564102564
 30
0.0
 40
0.5
  1
5.7100000
100
AcDbAttributeDefinition
  3

  2
JJ
 70
     8
280
     0
  0
ATTDEF
  5
183
330
160
100
AcDbEntity
  8
AM_6
100
AcDbText
 10
10.28440000000001
 20
-13.88102564102564
 30
0.0
 40
0.5
  1
3.86
100
AcDbAttributeDefinition
  3

  2
L
 70
     8
280
     0
  0
ATTDEF
  5
184
330
160
100
AcDbEntity
  8
AM_6
100
AcDbText
 10
10.28440000000001
 20
-14.38102564102564
 30
0.0
 40
0.5
  1
3.8600000
100
AcDbAttributeDefinition
  3

  2
L1
 70
     8
280
     0
  0
ATTDEF
  5
185
330
160
100
AcDbEntity
  8
AM_6
100
AcDbText
 10
10.28440000000001
 20
-14.88102564102564
 30
0.0
 40
0.5
  1
2.75
100
AcDbAttributeDefinition
  3

  2
M
 70
     8
280
     0
  0
ATTDEF
  5
186
330
160
100
AcDbEntity
  8
AM_6
100
AcDbText
 10
10.28440000000001
 20
-15.38102564102564
 30
0.0
 40
0.5
  1
2.750000
100
AcDbAttributeDefinition
  3

  2
M1
 70
     8
280
     0
  0
ATTDEF
  5
187
330
160
100
AcDbEntity
  8
AM_6
100
AcDbText
 10
10.28440000000001
 20
-15.88102564102564
 30
0.0
 40
0.5
  1
1.2
100
AcDbAttributeDefinition
  3

  2
R
 70
     8
280
     0
  0
ATTDEF
  5
188
330
160
100
AcDbEntity
  8
AM_6
100
AcDbText
 10
10.28440000000001
 20
-16.38102564102564
 30
0.0
 40
0.5
  1
1.200000
100
AcDbAttributeDefinition
  3

  2
R1
 70
     8
280
     0
  0
ATTDEF
  5
189
330
160
100
AcDbEntity
  8
AM_6
100
AcDbText
 10
10.28440000000001
 20
-16.88102564102564
 30
0.0
 40
0.5
  1
2
100
AcDbAttributeDefinition
  3

  2
S
 70
     8
280
     0
  0
ATTDEF
  5
18A
330
160
100
AcDbEntity
  8
AM_6
100
AcDbText
 10
10.28440000000001
 20
-17.38102564102564
 30
0.0
 40
0.5
  1
2.000000
100
AcDbAttributeDefinition
  3

  2
S1
 70
     8
280
     0
  0
ATTDEF
  5
18B
330
160
100
AcDbEntity
  8
AM_6
100
AcDbText
 10
10.28440000000001
 20
-17.88102564102564
 30
0.0
 40
0.5
  1
0.25
100
AcDbAttributeDefinition
  3

  2
X
 70
     8
280
     0
  0
ATTDEF
  5
18C
330
160
100
AcDbEntity
  8
AM_6
100
AcDbText
 10
10.28440000000001
 20
-18.38102564102564
 30
0.0
 40
0.5
  1
0.250000
100
AcDbAttributeDefinition
  3

  2
X1
 70
     8
280
     0
  0
ATTDEF
  5
18D
330
160
100
AcDbEntity
  8
AM_6
100
AcDbText
 10
10.28440000000001
 20
-18.88102564102564
 30
0.0
 40
0.5
  1
0.025
100
AcDbAttributeDefinition
  3

  2
Y
 70
     8
280
     0
  0
ATTDEF
  5
18E
330
160
100
AcDbEntity
  8
AM_6
100
AcDbText
 10
10.28440000000001
 20
-19.38102564102564
 30
0.0
 40
0.5
  1
2.95
100
AcDbAttributeDefinition
  3

  2
Z
 70
     8
280
     0
  0
ATTDEF
  5
18F
330
160
100
AcDbEntity
  8
AM_6
100
AcDbText
 10
10.28440000000001
 20
-19.88102564102564
 30
0.0
 40
0.5
  1
2.950000
100
AcDbAttributeDefinition
  3

  2
Z1
 70
     8
280
     0
  0
ATTDEF
  5
190
330
160
100
AcDbEntity
  8
AM_6
100
AcDbText
 10
10.28440000000001
 20
-20.38102564102564
 30
0.0
 40
0.5
  1
3/8-16
100
AcDbAttributeDefinition
  3

  2
CS
 70
     8
280
     0
  0
ATTDEF
  5
191
330
160
100
AcDbEntity
  8
AM_6
100
AcDbText
 10
10.28440000000001
 20
-20.88102564102564
 30
0.0
 40
0.5
  1
0.3750
100
AcDbAttributeDefinition
  3

  2
NDM
 70
     8
280
     0
  0
ATTDEF
  5
192
330
160
100
AcDbEntity
  8
AM_6
100
AcDbText
 10
10.28440000000001
 20
-21.38102564102564
 30
0.0
 40
0.5
  1
0.3070
100
AcDbAttributeDefinition
  3

  2
KDM
 70
     8
280
     0
  0
ATTDEF
  5
193
330
160
100
AcDbEntity
  8
AM_6
100
AcDbText
 10
10.28440000000001
 20
-21.88102564102564
 30
0.0
 40
0.5
  1
4.7241
100
AcDbAttributeDefinition
  3

  2
BORE
 70
     8
280
     0
  0
ATTDEF
  5
194
330
160
100
AcDbEntity
  8
AM_6
100
AcDbText
 10
10.28440000000001
 20
-22.38102564102564
 30
0.0
 40
0.5
  1
1
100
AcDbAttributeDefinition
  3

  2
ST1
 70
     8
280
     0
  0
ATTDEF
  5
195
330
160
100
AcDbEntity
  8
AM_6
100
AcDbText
 10
10.28440000000001
 20
-22.88102564102564
 30
0.0
 40
0.5
  1
baldor
100
AcDbAttributeDefinition
  3

  2
COMPANY
 70
     8
280
     0
  0
LINE
  5
196
330
160
100
AcDbEntity
  8
AM_9
100
AcDbLine
 10
2.36205
 20
-1.148
 30
0.0
 11
2.36205
 21
1.148
 31
0.0
  0
LINE
  5
197
330
160
100
AcDbEntity
  8
AM_9
100
AcDbLine
 10
-2.36205
 20
1.148
 30
0.0
 11
-2.36205
 21
-1.148
 31
0.0
  0
LWPOLYLINE
  5
198
330
160
100
AcDbEntity
  8
AM_9
100
AcDbPolyline
 90
        8
 70
     0
 43
0.0
 10
1.790486137844669
 20
-0.3340078844111945
 10
1.800809503917131
 20
-0.3190181427313099
 10
1.827340026226657
 20
-0.2740331208982998
 10
1.849643481500128
 20
-0.2251980343749756
 10
1.867439963751559
 20
-0.1733100342215883
 10
1.880448159364735
 20
-0.1193501665044107
 10
1.88890326089185
 20
-0.0601210612795439
 10
1.891745028263305
 20
0.0000000000000001
  0
LWPOLYLINE
  5
199
330
160
100
AcDbEntity
  8
AM_9
100
AcDbPolyline
 90
        9
 70
     0
 43
0.0
 10
1.492521116125094
 20
-0.4997903266470846
 10
1.522802170959241
 20
-0.497486659549926
 10
1.56973732773134
 20
-0.4888751588892327
 10
1.614918687251773
 20
-0.4743015007851603
 10
1.657883299611948
 20
-0.4538594264110043
 10
1.698390604509685
 20
-0.4278156479244875
 10
1.735778878739798
 20
-0.3966547970051535
 10
1.770130906643534
 20
-0.3601424777589101
 10
1.790486137844669
 20
-0.3340078844111945
  0
LINE
  5
19A
330
160
100
AcDbEntity
  8
AM_9
100
AcDbLine
 10
1.479988665970334
 20
-0.4999999998287201
 30
0.0
 11
1.492521116125094
 21
-0.4997903266470846
 31
0.0
  0
ELLIPSE
  5
19B
330
160
100
AcDbEntity
  8
AM_9
100
AcDbEllipse
 10
1.505
 20
-0.0000000000000002
 30
0.0
 11
3.061616997868381E-17
 21
0.4999999999999997
 31
0.0
210
0.0
220
0.0
230
1.0
 40
0.866025403784439
 41
3.283873058396058
 42
6.264842116641892
  0
LWPOLYLINE
  5
19C
330
160
100
AcDbEntity
  8
AM_9
100
AcDbPolyline
 90
        3
 70
     0
 43
0.0
 10
1.495975125365877
 20
0.4996583806072659
 10
1.481212806557348
 20
0.4999566415378212
 10
1.480005318741012
 20
0.4999999999622816
  0
LWPOLYLINE
  5
19D
330
160
100
AcDbEntity
  8
AM_9
100
AcDbPolyline
 90
        9
 70
     0
 43
0.0
 10
1.786457620111776
 20
0.3395126987804198
 10
1.777039337063074
 20
0.3516901082334092
 10
1.743318925710328
 20
0.3893159615209346
 10
1.706185581498713
 20
0.4219777889319136
 10
1.665585832886241
 20
0.4494492325465702
 10
1.622085790584159
 20
0.471318381319377
 10
1.576445894773913
 20
0.4871555520480573
 10
1.52947863134842
 20
0.4966454030836907
 10
1.495975125365877
 20
0.4996583806072659
  0
LWPOLYLINE
  5
19E
330
160
100
AcDbEntity
  8
AM_9
100
AcDbPolyline
 90
        8
 70
     0
 43
0.0
 10
1.891745028263305
 20
0.0000000000000001
 10
1.889296131675774
 20
0.0555970467168801
 10
1.882025915187022
 20
0.1106635729036466
 10
1.870049088707809
 20
0.1641598868628687
 10
1.853391448334248
 20
0.2155343947681318
 10
1.83220702074012
 20
0.2643740349632013
 10
1.806817786025663
 20
0.3097922321832836
 10
1.786457620111776
 20
0.3395126987804198
  0
LINE
  5
1A1
330
160
100
AcDbEntity
  8
AM_7
100
AcDbLine
 10
0.0
 20
1.618974358974359
 30
0.0
 11
0.0
 21
-1.91015625
 31
0.0
  0
LINE
  5
1A2
330
160
100
AcDbEntity
  8
AM_7
100
AcDbLine
 10
-5.284399999999998
 20
0.0000000000000007
 30
0.0
 11
-3.791
 21
0.0000000000000003
 31
0.0
  0
LINE
  5
1A3
330
160
100
AcDbEntity
  8
AM_7
100
AcDbLine
 10
-4.561999999999999
 20
-0.722399999999999
 30
0.0
 11
-4.561999999999999
 21
0.7224000000000004
 31
0.0
  0
LINE
  5
1A4
330
160
100
AcDbEntity
  8
AM_7
100
AcDbLine
 10
-4.31
 20
-0.3990000000000004
 30
0.0
 11
-4.31
 21
0.3990000000000014
 31
0.0
  0
LINE
  5
1A5
330
160
100
AcDbEntity
  8
AM_7
100
AcDbLine
 10
-4.19
 20
-0.3990000000000001
 30
0.0
 11
-4.19
 21
0.3990000000000006
 31
0.0
  0
LINE
  5
1A6
330
160
100
AcDbEntity
  8
AM_7
100
AcDbLine
 10
3.791
 20
0.0
 30
0.0
 11
5.284400000000005
 21
0.0
 31
0.0
  0
LINE
  5
1A7
330
160
100
AcDbEntity
  8
AM_7
100
AcDbLine
 10
4.562000000000005
 20
-0.7224000000000007
 30
0.0
 11
4.562000000000005
 21
0.7224000000000007
 31
0.0
  0
LINE
  5
1A8
330
160
100
AcDbEntity
  8
AM_7
100
AcDbLine
 10
4.19
 20
-0.3990000000000004
 30
0.0
 11
4.19
 21
0.3990000000000004
 31
0.0
  0
LINE
  5
1A9
330
160
100
AcDbEntity
  8
AM_7
100
AcDbLine
 10
4.31
 20
-0.3990000000000009
 30
0.0
 11
4.31
 21
0.3990000000000008
 31
0.0
  0
ARC
  5
1AA
330
160
100
AcDbEntity
  8
AM_4
100
AcDbCircle
 10
-4.19
 20
0.0000000000000004
 30
0.0
 40
0.3800000000000003
100
AcDbArc
 50
270.0
 51
90.0
  0
ARC
  5
1AB
330
160
100
AcDbEntity
  8
AM_4
100
AcDbCircle
 10
-4.31
 20
0.0000000000000003
 30
0.0
 40
0.3800000000000005
100
AcDbArc
 50
90.0
 51
270.0
  0
LINE
  5
1AC
330
160
100
AcDbEntity
  8
AM_4
100
AcDbLine
 10
-4.31
 20
0.3800000000000008
 30
0.0
 11
-4.19
 21
0.3800000000000007
 31
0.0
  0
LINE
  5
1AD
330
160
100
AcDbEntity
  8
AM_4
100
AcDbLine
 10
-4.19
 20
-0.3799999999999999
 30
0.0
 11
-4.31
 21
-0.3799999999999999
 31
0.0
  0
LINE
  5
1AE
330
160
100
AcDbEntity
  8
AM_4
100
AcDbLine
 10
-3.285999999999999
 20
0.6880000000000007
 30
0.0
 11
-4.561999999999998
 21
0.6880000000000008
 31
0.0
  0
ARC
  5
1AF
330
160
100
AcDbEntity
  8
AM_4
100
AcDbCircle
 10
-4.561999999999998
 20
0.0000000000000005
 30
0.0
 40
0.6880000000000004
100
AcDbArc
 50
90.0
 51
270.0
  0
LINE
  5
1B0
330
160
100
AcDbEntity
  8
AM_4
100
AcDbLine
 10
-4.561999999999998
 20
-0.6879999999999995
 30
0.0
 11
-3.285999999999999
 21
-0.6880000000000001
 31
0.0
  0
ARC
  5
1B1
330
160
100
AcDbEntity
  8
AM_4
100
AcDbCircle
 10
4.19
 20
-0.0000000000000002
 30
0.0
 40
0.3800000000000004
100
AcDbArc
 50
90.0
 51
270.0
  0
LINE
  5
1B2
330
160
100
AcDbEntity
  8
AM_4
100
AcDbLine
 10
4.19
 20
0.3800000000000002
 30
0.0
 11
4.31
 21
0.3800000000000002
 31
0.0
  0
ARC
  5
1B3
330
160
100
AcDbEntity
  8
AM_4
100
AcDbCircle
 10
4.31
 20
0.0000000000000001
 30
0.0
 40
0.3800000000000004
100
AcDbArc
 50
270.0
 51
90.0
  0
LINE
  5
1B4
330
160
100
AcDbEntity
  8
AM_4
100
AcDbLine
 10
4.31
 20
-0.3800000000000004
 30
0.0
 11
4.19
 21
-0.3800000000000004
 31
0.0
  0
LINE
  5
1B5
330
160
100
AcDbEntity
  8
AM_4
100
AcDbLine
 10
4.562000000000005
 20
0.6880000000000003
 30
0.0
 11
3.285999999999999
 21
0.6880000000000003
 31
0.0
  0
LINE
  5
1B6
330
160
100
AcDbEntity
  8
AM_4
100
AcDbLine
 10
3.285999999999999
 20
-0.6880000000000006
 30
0.0
 11
4.562000000000005
 21
-0.6880000000000006
 31
0.0
  0
ARC
  5
1B7
330
160
100
AcDbEntity
  8
AM_4
100
AcDbCircle
 10
4.562000000000005
 20
-0.0000000000000002
 30
0.0
 40
0.6880000000000004
100
AcDbArc
 50
270.0
 51
90.0
  0
LINE
  5
1B8
330
160
100
AcDbEntity
  8
AM_4
100
AcDbLine
 10
-4.962999999999999
 20
1.435
 30
0.0
 11
-3.259666666666666
 21
1.435000000000001
 31
0.0
  0
LINE
  5
1B9
330
160
100
AcDbEntity
  8
AM_4
100
AcDbLine
 10
-5.250000000000001
 20
1.147999999999998
 30
0.0
 11
-4.962999999999999
 21
1.435
 31
0.0
  0
LINE
  5
1BA
330
160
100
AcDbEntity
  8
AM_4
100
AcDbLine
 10
-5.25
 20
-1.148
 30
0.0
 11
-5.25
 21
1.148
 31
0.0
  0
LINE
  5
1BB
330
160
100
AcDbEntity
  8
AM_4
100
AcDbLine
 10
-4.962999999999999
 20
-1.435
 30
0.0
 11
-3.259666666666668
 21
-1.435
 31
0.0
  0
LINE
  5
1BC
330
160
100
AcDbEntity
  8
AM_4
100
AcDbLine
 10
-4.962999999999998
 20
-1.435000000000002
 30
0.0
 11
-5.25
 21
-1.148
 31
0.0
  0
LINE
  5
1BD
330
160
100
AcDbEntity
  8
AM_4
100
AcDbLine
 10
3.259666666666667
 20
1.435
 30
0.0
 11
4.962999999999999
 21
1.435
 31
0.0
  0
LINE
  5
1BE
330
160
100
AcDbEntity
  8
AM_4
100
AcDbLine
 10
4.962999999999999
 20
1.435
 30
0.0
 11
5.25
 21
1.148
 31
0.0
  0
LINE
  5
1BF
330
160
100
AcDbEntity
  8
AM_4
100
AcDbLine
 10
5.25
 20
-1.148
 30
0.0
 11
5.25
 21
1.148
 31
0.0
  0
LINE
  5
1C0
330
160
100
AcDbEntity
  8
AM_4
100
AcDbLine
 10
3.259666666666666
 20
-1.435
 30
0.0
 11
4.962999999999999
 21
-1.435
 31
0.0
  0
LINE
  5
1C1
330
160
100
AcDbEntity
  8
AM_4
100
AcDbLine
 10
5.25
 20
-1.148
 30
0.0
 11
4.962999999999999
 21
-1.435000000000001
 31
0.0
  0
LINE
  5
1C2
330
160
100
AcDbEntity
  8
AM_4
100
AcDbLine
 10
-3.122999999999999
 20
1.284666668703159
 30
0.0
 11
-3.122999999999999
 21
1.298333333333333
 31
0.0
  0
LWPOLYLINE
  5
1C3
330
160
100
AcDbEntity
  8
AM_4
100
AcDbPolyline
 90
       19
 70
     0
 43
0.0
 10
-3.122999999999999
 20
1.298333328344967
 10
-3.123520057492696
 20
1.31024461320613
 10
-3.125076272888777
 20
1.322065246035232
 10
-3.12765680244941
 20
1.333705264678953
 10
-3.13124200678647
 20
1.345076081566977
 10
-3.135804600330149
 20
1.356091157916901
 10
-3.14130985898861
 20
1.366666662346615
 10
-3.147715884419295
 20
1.376722108881746
 10
-3.154973922900612
 20
1.386180969502517
 10
-3.163028736377197
 20
1.394971256568188
 10
-3.171819022854862
 20
1.403026070686467
 10
-3.181277882945793
 20
1.410284109858287
 10
-3.191333329013281
 20
1.416690136023024
 10
-3.201908833041109
 20
1.422195395453501
 10
-3.21292390905796
 20
1.426757989801286
 10
-3.224294725684263
 20
1.430343194968422
 10
-3.235934744139604
 20
1.432923725378781
 10
-3.247755376855102
 20
1.434479941637774
 10
-3.2596666616783
 20
1.435000000000001
  0
LINE
  5
1C4
330
160
100
AcDbEntity
  8
AM_4
100
AcDbLine
 10
-3.285999999999999
 20
-1.435
 30
0.0
 11
-3.285999999999999
 21
1.435
 31
0.0
  0
LWPOLYLINE
  5
1C5
330
160
100
AcDbEntity
  8
AM_4
100
AcDbPolyline
 90
       19
 70
     0
 43
0.0
 10
-3.259666666666668
 20
-1.435
 10
-3.247755381824488
 20
-1.434479942072539
 10
-3.235934749052188
 20
-1.432923726245002
 10
-3.224294730502657
 20
-1.430343196259506
 10
-3.212923913745493
 20
-1.426757991507408
 10
-3.201908837562105
 20
-1.422195397561676
 10
-3.191333333333334
 20
-1.416690138517207
 10
-3.181277887032024
 20
-1.410284112719496
 10
-3.171819026676174
 20
-1.403026073892927
 10
-3.163028739904506
 20
-1.394971260095495
 10
-3.154973926107073
 20
-1.386180973323828
 10
-3.147715887280505
 20
-1.376722112967977
 10
-3.141309861482794
 20
-1.366666666666667
 10
-3.135804602438325
 20
-1.356091162437896
 10
-3.131242008492593
 20
-1.345076086254508
 10
-3.127656803740495
 20
-1.333705269497345
 10
-3.125076273754999
 20
-1.322065250947814
 10
-3.123520057927462
 20
-1.310244618175513
 10
-3.123
 20
-1.298333336213367
  0
LINE
  5
1C6
330
160
100
AcDbEntity
  8
AM_4
100
AcDbLine
 10
-3.123
 20
-1.298333333333333
 30
0.0
 11
-3.123
 21
-1.284666666666667
 31
0.0
  0
LWPOLYLINE
  5
1C7
330
160
100
AcDbEntity
  8
AM_4
100
AcDbPolyline
 90
       19
 70
     0
 43
0.0
 10
-2.986333333333334
 20
-1.148
 10
-2.998244618175513
 20
-1.148520057927461
 10
-3.010065250947814
 20
-1.150076273754998
 10
-3.021705269497345
 20
-1.152656803740494
 10
-3.033076086254508
 20
-1.156242008492593
 10
-3.044091162437895
 20
-1.160804602438325
 10
-3.054666666666667
 20
-1.166309861482794
 10
-3.064722112967976
 20
-1.172715887280505
 10
-3.074180973323827
 20
-1.179973926107073
 10
-3.082971260095495
 20
-1.188028739904505
 10
-3.091026073892927
 20
-1.196819026676173
 10
-3.098284112719496
 20
-1.206277887032024
 10
-3.104690138517206
 20
-1.216333333333333
 10
-3.110195397561676
 20
-1.226908837562104
 10
-3.114757991507408
 20
-1.237923913745492
 10
-3.118343196259506
 20
-1.249294730502655
 10
-3.120923726245002
 20
-1.260934749052186
 10
-3.122479942072538
 20
-1.272755381824486
 10
-3.123
 20
-1.284666666666666
  0
LWPOLYLINE
  5
1C8
330
160
100
AcDbEntity
  8
AM_4
100
AcDbPolyline
 90
       19
 70
     0
 43
0.0
 10
-3.122999999999999
 20
1.284666671655033
 10
-3.122479942507303
 20
1.272755386793871
 10
-3.120923727111222
 20
1.260934753964769
 10
-3.11834319755059
 20
1.249294735321048
 10
-3.114757993213529
 20
1.237923918433024
 10
-3.110195399669849
 20
1.2269088420831
 10
-3.104690141011389
 20
1.216333337653386
 10
-3.098284115580705
 20
1.206277891118255
 10
-3.091026077099387
 20
1.196819030497484
 10
-3.082971263622802
 20
1.188028743431813
 10
-3.074180977145137
 20
1.179973929313533
 10
-3.064722117054206
 20
1.172715890141714
 10
-3.054666670986718
 20
1.166309863976977
 10
-3.04409116695889
 20
1.1608046045465
 10
-3.033076090942039
 20
1.156242010198715
 10
-3.021705274315736
 20
1.152656805031578
 10
-3.010065255860395
 20
1.150076274621219
 10
-2.998244623144897
 20
1.148520058362227
 10
-2.986333338321699
 20
1.148
  0
LINE
  5
1C9
330
160
100
AcDbEntity
  8
AM_4
100
AcDbLine
 10
2.986333333333334
 20
1.148
 30
0.0
 11
-2.986333333333334
 21
1.148
 31
0.0
  0
LINE
  5
1CA
330
160
100
AcDbEntity
  8
AM_4
100
AcDbLine
 10
-2.986333333333334
 20
-1.148
 30
0.0
 11
2.986333333333331
 21
-1.148
 31
0.0
  0
LWPOLYLINE
  5
1CB
330
160
100
AcDbEntity
  8
AM_4
100
AcDbPolyline
 90
       19
 70
     0
 43
0.0
 10
2.986333333333334
 20
1.148
 10
2.998244618175513
 20
1.148520057927461
 10
3.010065250947814
 20
1.150076273754998
 10
3.021705269497345
 20
1.152656803740494
 10
3.033076086254508
 20
1.156242008492593
 10
3.044091162437895
 20
1.160804602438325
 10
3.054666666666667
 20
1.166309861482794
 10
3.064722112967976
 20
1.172715887280505
 10
3.074180973323827
 20
1.179973926107073
 10
3.082971260095495
 20
1.188028739904505
 10
3.091026073892927
 20
1.196819026676173
 10
3.098284112719496
 20
1.206277887032024
 10
3.104690138517206
 20
1.216333333333333
 10
3.110195397561676
 20
1.226908837562104
 10
3.114757991507408
 20
1.237923913745492
 10
3.118343196259506
 20
1.249294730502655
 10
3.120923726245002
 20
1.260934749052186
 10
3.122479942072538
 20
1.272755381824486
 10
3.123
 20
1.284666666666666
  0
LWPOLYLINE
  5
1CC
330
160
100
AcDbEntity
  8
AM_4
100
AcDbPolyline
 90
       19
 70
     0
 43
0.0
 10
3.122999999999999
 20
-1.284666663786633
 10
3.122479941821526
 20
-1.272755378955412
 10
3.120923725744889
 20
-1.260934746215907
 10
3.118343195514097
 20
-1.249294727720756
 10
3.114757990522377
 20
-1.237923911039145
 10
3.110195396344519
 20
-1.226908834951907
 10
3.104690137077189
 20
-1.216333330839151
 10
3.098284111067575
 20
-1.206277884672838
 10
3.091026072041676
 20
-1.196819024469939
 10
3.082971258059002
 20
-1.188028737868013
 10
3.074180971117592
 20
-1.179973924255823
 10
3.064722110608789
 20
-1.172715885628585
 10
3.054666664172482
 20
-1.166309860042776
 10
3.044091159827697
 20
-1.160804601221169
 10
3.03307608354816
 20
-1.156242007507563
 10
3.021705266715444
 20
-1.152656802995086
 10
3.010065248111532
 20
-1.150076273254886
 10
2.998244615306437
 20
-1.14852005767645
 10
2.986333333333329
 20
-1.148
  0
LINE
  5
1CD
330
160
100
AcDbEntity
  8
AM_4
100
AcDbLine
 10
3.122999999999999
 20
-1.284666666666668
 30
0.0
 11
3.122999999999999
 21
-1.298333333333334
 31
0.0
  0
LWPOLYLINE
  5
1CE
330
160
100
AcDbEntity
  8
AM_4
100
AcDbPolyline
 90
       19
 70
     0
 43
0.0
 10
3.122999999999999
 20
-1.298333337406317
 10
3.123520058282445
 20
-1.310244622232998
 10
3.125076274462264
 20
-1.32206525495892
 10
3.127656804794659
 20
-1.333705273431545
 10
3.131242009885634
 20
-1.345076090081861
 10
3.135804604159642
 20
-1.356091166129272
 10
3.141309863519285
 20
-1.366666670193974
 10
3.147715889616672
 20
-1.376722116304369
 10
3.154973928725136
 20
-1.386180976443913
 10
3.163028742784539
 20
-1.394971262975529
 10
3.171819029796259
 20
-1.40302607651099
 10
3.181277890368416
 20
-1.410284115055663
 10
3.19133333686064
 20
-1.416690140553698
 10
3.201908841253481
 20
-1.422195399282993
 10
3.212923917572844
 20
-1.426757992900449
 10
3.224294734436855
 20
-1.430343197313671
 10
3.235934753063292
 20
-1.432923726952267
 10
3.247755385881971
 20
-1.434479942427522
 10
3.259666666666667
 20
-1.435
  0
LINE
  5
1CF
330
160
100
AcDbEntity
  8
AM_4
100
AcDbLine
 10
3.285999999999999
 20
-1.435
 30
0.0
 11
3.285999999999999
 21
1.435
 31
0.0
  0
LWPOLYLINE
  5
1D0
330
160
100
AcDbEntity
  8
AM_4
100
AcDbPolyline
 90
       19
 70
     0
 43
0.0
 10
3.259666666666667
 20
1.435
 10
3.247755381824487
 20
1.434479942072539
 10
3.235934749052186
 20
1.432923726245002
 10
3.224294730502656
 20
1.430343196259506
 10
3.212923913745492
 20
1.426757991507407
 10
3.201908837562105
 20
1.422195397561675
 10
3.191333333333333
 20
1.416690138517206
 10
3.181277887032024
 20
1.410284112719495
 10
3.171819026676173
 20
1.403026073892926
 10
3.163028739904505
 20
1.394971260095494
 10
3.154973926107073
 20
1.386180973323826
 10
3.147715887280504
 20
1.376722112967975
 10
3.141309861482794
 20
1.366666666666666
 10
3.135804602438324
 20
1.356091162437894
 10
3.131242008492592
 20
1.345076086254507
 10
3.127656803740494
 20
1.333705269497343
 10
3.125076273754999
 20
1.322065250947812
 10
3.123520057927462
 20
1.310244618175512
 10
3.123000000000001
 20
1.298333333333332
  0
LINE
  5
1D1
330
160
100
AcDbEntity
  8
AM_4
100
AcDbLine
 10
3.123000000000001
 20
1.298333333333332
 30
0.0
 11
3.123
 21
1.284666666666667
 31
0.0
  0
LINE
  5
1D2
330
160
100
AcDbEntity
  8
AM_4
100
AcDbLine
 10
1.505
 20
0.5000000000000002
 30
0.0
 11
1.479987061195497
 21
0.5000000000000002
 31
0.0
  0
LINE
  5
1D3
330
160
100
AcDbEntity
  8
AM_4
100
AcDbLine
 10
1.479975037432519
 20
-0.5
 30
0.0
 11
1.505
 21
-0.5
 31
0.0
  0
LWPOLYLINE
  5
1D4
330
160
100
AcDbEntity
  8
AM_4
100
AcDbPolyline
 90
       30
 70
     0
 43
0.0
 10
1.480005318741012
 20
0.4999999999622816
 10
1.43256395661387
 20
0.4970225318613278
 10
1.38449581816248
 20
0.4879100448949321
 10
1.33699786622867
 20
0.4728024803063084
 10
1.290992219726869
 20
0.4519914595857545
 10
1.246774359116883
 20
0.42546757809999
 10
1.205011554433761
 20
0.3936426546982566
 10
1.166536007182762
 20
0.3571006496206649
 10
1.131414940791495
 20
0.3155731385781443
 10
1.100512013535878
 20
0.2699250758425156
 10
1.074491687426165
 20
0.2209979157140587
 10
1.053740733500485
 20
0.1691382993882636
 10
1.038488008774988
 20
0.114927343154227
 10
1.029088719411158
 20
0.0594023773642712
 10
1.025775369749911
 20
0.003785102480815
 10
1.028347417924013
 20
-0.0520574684933475
 10
1.036744665373202
 20
-0.1070623545557837
 10
1.05083012165541
 20
-0.1603437293404925
 10
1.070364871854323
 20
-0.2117929313733747
 10
1.094919357804683
 20
-0.2604728753997625
 10
1.124558180962153
 20
-0.3063219490501038
 10
1.158646804478257
 20
-0.3484979555390301
 10
1.19647730977553
 20
-0.3862373464058446
 10
1.238125704634873
 20
-0.4194602028438385
 10
1.282696628168961
 20
-0.4474890352947096
 10
1.329280833462264
 20
-0.4697860617283457
 10
1.377171928947682
 20
-0.4859828534930424
 10
1.426058313320392
 20
-0.4961109485749261
 10
1.474969002833203
 20
-0.4999662891395569
 10
1.479988665970334
 20
-0.4999999998287201
  0
ELLIPSE
  5
1D5
330
160
100
AcDbEntity
  8
AM_4
100
AcDbEllipse
 10
1.53
 20
0.0000000000000002
 30
0.0
 11
-8.266365894244637E-17
 21
-0.4500000000000002
 31
0.0
210
0.0
220
0.0
230
1.0
 40
0.8660254037844385
 41
0.0
 42
6.283185307179586
  0
LWPOLYLINE
  5
1D6
330
160
100
AcDbEntity
  8
AM_4
100
AcDbPolyline
 90
       25
 70
     0
 43
0.0
 10
1.944711431702997
 20
0.0000000000000001
 10
1.944407801933832
 20
0.0185952699783301
 10
1.942271616777177
 20
0.0526474026982211
 10
1.938098830133004
 20
0.086465364306485
 10
1.93190735822473
 20
0.1198875646795423
 10
1.9237240849448
 20
0.1527585216620143
 10
1.913585000137628
 20
0.1849248303655394
 10
1.901535183154559
 20
0.2162357902323443
 10
1.887628776363279
 20
0.2465440615454363
 10
1.871928938911939
 20
0.2757063583106737
 10
1.854507766100937
 20
0.30358418503389
 10
1.835446154649597
 20
0.3300446214023221
 10
1.814833589693295
 20
0.3549611527229699
 10
1.792767826873077
 20
0.3782145349680338
 10
1.769354444021328
 20
0.3996936719320041
 10
1.744706243222384
 20
0.4192964697929378
 10
1.718942496248607
 20
0.4369306237865221
 10
1.692188044004312
 20
0.4525142859165102
 10
1.664572281353423
 20
0.4659765646889169
 10
1.636228078616814
 20
0.4772578196021402
 10
1.607290705327458
 20
0.4863097341556507
 10
1.577896826282054
 20
0.4930951784070792
 10
1.548183632237736
 20
0.4975879003966895
 10
1.518288148324994
 20
0.499772109017139
 10
1.506178037753716
 20
0.4999982093219907
  0
LWPOLYLINE
  5
1D7
330
160
100
AcDbEntity
  8
AM_4
100
AcDbPolyline
 90
       25
 70
     0
 43
0.0
 10
1.50601804956216
 20
-0.4999986626757292
 10
1.520332803300672
 20
-0.4996965588591539
 10
1.550191510199348
 20
-0.4973577631881586
 10
1.579828865214008
 20
-0.4927215576485419
 10
1.609112250621865
 20
-0.4858105683087722
 10
1.637910693035137
 20
-0.4766563885141101
 10
1.666094961891325
 20
-0.4652996301798603
 10
1.693537770284058
 20
-0.4517900852076174
 10
1.720114119239063
 20
-0.4361869352735836
 10
1.745701800705427
 20
-0.4185589388662614
 10
1.770182046260982
 20
-0.3989845282513848
 10
1.79344028484504
 20
-0.377551764283286
 10
1.815366957801138
 20
-0.3543581196565797
 10
1.835858334998813
 20
-0.3295100860223109
 10
1.854817281145432
 20
-0.3031226222660284
 10
1.8721539338652
 20
-0.2753184765101213
 10
1.887786270936311
 20
-0.2462274215712099
 10
1.901640559585788
 20
-0.215985443286743
 10
1.913651693297218
 20
-0.1847339153697674
 10
1.923763429915909
 20
-0.1526187858327873
 10
1.931928548916149
 20
-0.1197897908683404
 10
1.938108946336982
 20
-0.0863997040103562
 10
1.942275684258214
 20
-0.0526036222399754
 10
1.944409008905403
 20
-0.0185582865768766
 10
1.944711431702997
 20
0.0000000000000001
  0
ELLIPSE
  5
1D8
330
160
100
AcDbEntity
  8
AM_4
100
AcDbEllipse
 10
1.505
 20
-0.0000000000000001
 30
0.0
 11
3.061616997868385E-17
 21
0.5000000000000004
 31
0.0
210
0.0
220
0.0
230
1.0
 40
0.8660254037844388
 41
0.0
 42
3.143895870114768
  0
LINE
  5
1D9
330
160
100
AcDbEntity
  8
AM_4
100
AcDbLine
 10
2.88780487804878
 20
-1.148
 30
0.0
 11
2.88780487804878
 21
1.148
 31
0.0
  0
LINE
  5
1DA
330
160
100
AcDbEntity
  8
AM_4
100
AcDbLine
 10
-2.88780487804878
 20
-1.148
 30
0.0
 11
-2.88780487804878
 21
1.148
 31
0.0
  0
ENDBLK
  5
163
330
160
100
AcDbEntity
  8
0
100
AcDbBlockEnd
  0
ENDSEC
  0
SECTION
  2
ENTITIES
  0
INSERT
  5
6F
330
1F
100
AcDbEntity
  8
0
100
AcDbBlockReference
  2
1_071406_4
 10
0.0
 20
0.0
 30
0.0
  0
POINT
  5
1DC
330
1F
100
AcDbEntity
  8
ConnectionPoints
100
AcDbPoint
 10
0.0
 20
-1.75
 30
0.0000000000000001
  0
POINT
  5
1DD
330
1F
100
AcDbEntity
  8
ConnectionPoints
100
AcDbPoint
 10
0.0
 20
2.24025
 30
-0.0000000000000001
  0
POINT
  5
1DE
330
1F
100
AcDbEntity
  8
ConnectionPoints
100
AcDbPoint
 10
0.0
 20
-1.75
 30
0.0000000000000001
  0
POINT
  5
1DF
330
1F
100
AcDbEntity
  8
ConnectionPoints
100
AcDbPoint
 10
1.53
 20
0.0000000000000002
 30
2.650037735580382
  0
POINT
  5
1E0
330
1F
100
AcDbEntity
  8
ConnectionPoints
100
AcDbPoint
 10
0.0
 20
-1.75
 30
0.0000000000000001
  0
POINT
  5
1E1
330
1F
100
AcDbEntity
  8
ConnectionPoints
100
AcDbPoint
 10
0.0
 20
-2.0
 30
0.0000000000000001
  0
POINT
  5
1E2
330
1F
100
AcDbEntity
  8
ConnectionPoints
100
AcDbPoint
 10
1.53
 20
0.0000000000000002
 30
2.650037735580382
  0
ENDSEC
  0
SECTION
  2
OBJECTS
  0
DICTIONARY
  5
C
330
0
100
AcDbDictionary
281
     1
  3
ACAD_DETAILVIEWSTYLE
350
1EA
  3
ACAD_GROUP
350
D
  3
ACAD_LAYOUT
350
1A
  3
ACAD_MATERIAL
350
43
  3
ACAD_MLEADERSTYLE
350
6B
  3
ACAD_MLINESTYLE
350
17
  3
ACAD_PLOTSETTINGS
350
19
  3
ACAD_PLOTSTYLENAME
350
E
  3
ACAD_SCALELIST
350
47
  3
ACAD_SECTIONVIEWSTYLE
350
1EB
  3
ACAD_TABLESTYLE
350
69
  3
ACAD_VISUALSTYLE
350
2A
  3
ACDB_RECOMPOSE_DATA
350
1E7
  3
AcDbVariableDictionary
350
1E3
  0
SUN
  5
6D
330
29
100
AcDbSun
 90
        1
290
     0
 63
     7
421
 16777215
 40
1.0
291
     1
 91
  2455826
 92
 54000000
292
     0
 70
     2
 71
   256
280
     1
  0
DICTIONARY
  5
1EA
102
{ACAD_REACTORS
330
C
102
}
330
C
100
AcDbDictionary
281
     1
  0
DICTIONARY
  5
D
102
{ACAD_REACTORS
330
C
102
}
330
C
100
AcDbDictionary
281
     1
  0
DICTIONARY
  5
1A
102
{ACAD_REACTORS
330
C
102
}
330
C
100
AcDbDictionary
281
     1
  3
Layout1
350
1E
  3
Layout2
350
26
  3
Model
350
22
  0
DICTIONARY
  5
43
102
{ACAD_REACTORS
330
C
102
}
330
C
100
AcDbDictionary
281
     1
  3
ByBlock
350
45
  3
ByLayer
350
44
  3
Global
350
46
  0
DICTIONARY
  5
6B
102
{ACAD_REACTORS
330
C
102
}
330
C
100
AcDbDictionary
281
     1
  3
Standard
350
6C
  0
DICTIONARY
  5
17
102
{ACAD_REACTORS
330
C
102
}
330
C
100
AcDbDictionary
281
     1
  3
Standard
350
18
  0
DICTIONARY
  5
19
102
{ACAD_REACTORS
330
C
102
}
330
C
100
AcDbDictionary
281
     1
  0
ACDBDICTIONARYWDFLT
  5
E
102
{ACAD_REACTORS
330
C
102
}
330
C
100
AcDbDictionary
281
     1
  3
Normal
350
F
100
AcDbDictionaryWithDefault
340
F
  0
DICTIONARY
  5
47
102
{ACAD_REACTORS
330
C
102
}
330
C
100
AcDbDictionary
281
     1
  3
A0
350
48
  3
A1
350
49
  3
A2
350
4A
  3
A3
350
4B
  3
A4
350
4C
  3
A5
350
4D
  3
A6
350
4E
  3
A7
350
4F
  3
A8
350
50
  3
A9
350
51
  3
B0
350
52
  3
B1
350
53
  3
B2
350
54
  3
B3
350
55
  3
B4
350
56
  3
B5
350
57
  3
B6
350
58
  3
B7
350
59
  3
B8
350
5A
  3
B9
350
5B
  3
C0
350
5C
  3
C1
350
5D
  3
C2
350
5E
  3
C3
350
5F
  3
C4
350
60
  3
C5
350
61
  3
C6
350
62
  3
C7
350
63
  3
C8
350
64
  3
C9
350
65
  3
D0
350
66
  3
D1
350
67
  3
D2
350
68
  0
DICTIONARY
  5
1EB
102
{ACAD_REACTORS
330
C
102
}
330
C
100
AcDbDictionary
281
     1
  0
DICTIONARY
  5
69
102
{ACAD_REACTORS
330
C
102
}
330
C
100
AcDbDictionary
281
     1
  3
Standard
350
6A
  0
DICTIONARY
  5
2A
102
{ACAD_REACTORS
330
C
102
}
330
C
100
AcDbDictionary
281
     1
  3
2dWireframe
350
2F
  3
Basic
350
32
  3
Brighten
350
36
  3
ColorChange
350
3A
  3
Conceptual
350
34
  3
Dim
350
35
  3
EdgeColorOff
350
3D
  3
Facepattern
350
39
  3
Flat
350
2B
  3
FlatWithEdges
350
2C
  3
Gouraud
350
2D
  3
GouraudWithEdges
350
2E
  3
Hidden
350
31
  3
JitterOff
350
3B
  3
Linepattern
350
38
  3
OverhangOff
350
3C
  3
Realistic
350
33
  3
Shaded
350
42
  3
Shaded with edges
350
41
  3
Shades of Gray
350
3E
  3
Sketchy
350
3F
  3
Thicken
350
37
  3
Wireframe
350
30
  3
X-Ray
350
40
  0
XRECORD
  5
1E7
102
{ACAD_REACTORS
330
C
102
}
330
C
100
AcDbXrecord
280
     1
 90
        1
330
6A
  0
DICTIONARY
  5
1E3
102
{ACAD_REACTORS
330
C
102
}
330
C
100
AcDbDictionary
281
     1
  3
CANNOSCALE
350
1E4
  3
CMLEADERSTYLE
350
1E9
  3
CTABLESTYLE
350
1E8
  0
LAYOUT
  5
1E
102
{ACAD_REACTORS
330
1A
102
}
330
1A
100
AcDbPlotSettings
  1

  2
none_device
  4

  6

 40
0.0
 41
0.0
 42
0.0
 43
0.0
 44
0.0
 45
0.0
 46
0.0
 47
0.0
 48
0.0
 49
0.0
140
0.0
141
0.0
142
1.0
143
1.0
 70
   688
 72
     0
 73
     0
 74
     5
  7

 75
    16
 76
     0
 77
     2
 78
   300
147
1.0
148
0.0
149
0.0
100
AcDbLayout
  1
Layout1
 70
     1
 71
     1
 10
0.0
 20
0.0
 11
12.0
 21
9.0
 12
0.0
 22
0.0
 32
0.0
 14
1.000000000000000E+20
 24
1.000000000000000E+20
 34
1.000000000000000E+20
 15
-1.000000000000000E+20
 25
-1.000000000000000E+20
 35
-1.000000000000000E+20
146
0.0
 13
0.0
 23
0.0
 33
0.0
 16
1.0
 26
0.0
 36
0.0
 17
0.0
 27
1.0
 37
0.0
 76
     0
330
1B
  0
LAYOUT
  5
26
102
{ACAD_REACTORS
330
1A
102
}
330
1A
100
AcDbPlotSettings
  1

  2
none_device
  4

  6

 40
0.0
 41
0.0
 42
0.0
 43
0.0
 44
0.0
 45
0.0
 46
0.0
 47
0.0
 48
0.0
 49
0.0
140
0.0
141
0.0
142
1.0
143
1.0
 70
   688
 72
     0
 73
     0
 74
     5
  7

 75
    16
 76
     0
 77
     2
 78
   300
147
1.0
148
0.0
149
0.0
100
AcDbLayout
  1
Layout2
 70
     1
 71
     2
 10
0.0
 20
0.0
 11
0.0
 21
0.0
 12
0.0
 22
0.0
 32
0.0
 14
0.0
 24
0.0
 34
0.0
 15
0.0
 25
0.0
 35
0.0
146
0.0
 13
0.0
 23
0.0
 33
0.0
 16
1.0
 26
0.0
 36
0.0
 17
0.0
 27
1.0
 37
0.0
 76
     0
330
23
  0
LAYOUT
  5
22
102
{ACAD_REACTORS
330
1A
102
}
330
1A
100
AcDbPlotSettings
  1

  2
none_device
  4
Letter_(8.50_x_11.00_Inches)
  6

 40
6.35
 41
6.35
 42
6.35000508
 43
6.35000508
 44
215.9
 45
279.4
 46
0.0
 47
0.0
 48
0.0
 49
0.0
140
0.0
141
0.0
142
1.0
143
1.0
 70
  1712
 72
     0
 73
     0
 74
     0
  7

 75
     0
 76
     0
 77
     2
 78
   300
147
1.0
148
0.0
149
0.0
100
AcDbLayout
  1
Model
 70
     1
 71
     0
 10
0.0
 20
0.0
 11
12.0
 21
9.0
 12
0.0
 22
0.0
 32
0.0
 14
1.000000000000000E+20
 24
1.000000000000000E+20
 34
1.000000000000000E+20
 15
-1.000000000000000E+20
 25
-1.000000000000000E+20
 35
-1.000000000000000E+20
146
0.0
 13
0.0
 23
0.0
 33
0.0
 16
1.0
 26
0.0
 36
0.0
 17
0.0
 27
1.0
 37
0.0
 76
     0
330
1F
331
29
  0
MATERIAL
  5
45
102
{ACAD_REACTORS
330
43
102
}
330
43
100
AcDbMaterial
  1
ByBlock
 72
     1
 94
      127
  0
MATERIAL
  5
44
102
{ACAD_REACTORS
330
43
102
}
330
43
100
AcDbMaterial
  1
ByLayer
 72
     1
 94
      127
  0
MATERIAL
  5
46
102
{ACAD_REACTORS
330
43
102
}
330
43
100
AcDbMaterial
  1
Global
 72
     1
 94
      127
  0
MLEADERSTYLE
  5
6C
102
{ACAD_REACTORS
330
6B
102
}
330
6B
100
AcDbMLeaderStyle
179
     2
170
     2
171
     1
172
     0
 90
        2
 40
0.0
 41
0.0
173
     1
 91
-1056964608
340
14
 92
       -2
290
     1
 42
0.09
291
     1
 43
0.36
  3
Standard
341
0
 44
0.18
300

342
11
174
     1
178
     6
175
     1
176
     0
 93
-1056964608
 45
0.18
292
     0
297
     0
 46
0.18
343
0
 94
-1056964608
 47
1.0
 49
1.0
140
1.0
293
     1
141
0.0
294
     1
177
     0
142
1.0
295
     0
296
     0
143
0.125
271
     0
272
     9
273
     9
298
     0
  0
MLINESTYLE
  5
18
102
{ACAD_REACTORS
330
17
102
}
330
17
100
AcDbMlineStyle
  2
Standard
 70
     0
  3

 62
   256
 51
90.0
 52
90.0
 71
     2
 49
0.5
 62
   256
  6
BYLAYER
 49
-0.5
 62
   256
  6
BYLAYER
  0
ACDBPLACEHOLDER
  5
F
102
{ACAD_REACTORS
330
E
102
}
330
E
  0
SCALE
  5
48
102
{ACAD_REACTORS
330
47
102
}
330
47
100
AcDbScale
 70
     0
300
1:1
140
1.0
141
1.0
290
     1
  0
SCALE
  5
49
102
{ACAD_REACTORS
330
47
102
}
330
47
100
AcDbScale
 70
     0
300
1:2
140
1.0
141
2.0
290
     0
  0
SCALE
  5
4A
102
{ACAD_REACTORS
330
47
102
}
330
47
100
AcDbScale
 70
     0
300
1:4
140
1.0
141
4.0
290
     0
  0
SCALE
  5
4B
102
{ACAD_REACTORS
330
47
102
}
330
47
100
AcDbScale
 70
     0
300
1:5
140
1.0
141
5.0
290
     0
  0
SCALE
  5
4C
102
{ACAD_REACTORS
330
47
102
}
330
47
100
AcDbScale
 70
     0
300
1:8
140
1.0
141
8.0
290
     0
  0
SCALE
  5
4D
102
{ACAD_REACTORS
330
47
102
}
330
47
100
AcDbScale
 70
     0
300
1:10
140
1.0
141
10.0
290
     0
  0
SCALE
  5
4E
102
{ACAD_REACTORS
330
47
102
}
330
47
100
AcDbScale
 70
     0
300
1:16
140
1.0
141
16.0
290
     0
  0
SCALE
  5
4F
102
{ACAD_REACTORS
330
47
102
}
330
47
100
AcDbScale
 70
     0
300
1:20
140
1.0
141
20.0
290
     0
  0
SCALE
  5
50
102
{ACAD_REACTORS
330
47
102
}
330
47
100
AcDbScale
 70
     0
300
1:30
140
1.0
141
30.0
290
     0
  0
SCALE
  5
51
102
{ACAD_REACTORS
330
47
102
}
330
47
100
AcDbScale
 70
     0
300
1:40
140
1.0
141
40.0
290
     0
  0
SCALE
  5
52
102
{ACAD_REACTORS
330
47
102
}
330
47
100
AcDbScale
 70
     0
300
1:50
140
1.0
141
50.0
290
     0
  0
SCALE
  5
53
102
{ACAD_REACTORS
330
47
102
}
330
47
100
AcDbScale
 70
     0
300
1:100
140
1.0
141
100.0
290
     0
  0
SCALE
  5
54
102
{ACAD_REACTORS
330
47
102
}
330
47
100
AcDbScale
 70
     0
300
2:1
140
2.0
141
1.0
290
     0
  0
SCALE
  5
55
102
{ACAD_REACTORS
330
47
102
}
330
47
100
AcDbScale
 70
     0
300
4:1
140
4.0
141
1.0
290
     0
  0
SCALE
  5
56
102
{ACAD_REACTORS
330
47
102
}
330
47
100
AcDbScale
 70
     0
300
8:1
140
8.0
141
1.0
290
     0
  0
SCALE
  5
57
102
{ACAD_REACTORS
330
47
102
}
330
47
100
AcDbScale
 70
     0
300
10:1
140
10.0
141
1.0
290
     0
  0
SCALE
  5
58
102
{ACAD_REACTORS
330
47
102
}
330
47
100
AcDbScale
 70
     0
300
100:1
140
100.0
141
1.0
290
     0
  0
SCALE
  5
59
102
{ACAD_REACTORS
330
47
102
}
330
47
100
AcDbScale
 70
     0
300
1/128" = 1'-0"
140
0.0078125
141
12.0
290
     0
  0
SCALE
  5
5A
102
{ACAD_REACTORS
330
47
102
}
330
47
100
AcDbScale
 70
     0
300
1/64" = 1'-0"
140
0.015625
141
12.0
290
     0
  0
SCALE
  5
5B
102
{ACAD_REACTORS
330
47
102
}
330
47
100
AcDbScale
 70
     0
300
1/32" = 1'-0"
140
0.03125
141
12.0
290
     0
  0
SCALE
  5
5C
102
{ACAD_REACTORS
330
47
102
}
330
47
100
AcDbScale
 70
     0
300
1/16" = 1'-0"
140
0.0625
141
12.0
290
     0
  0
SCALE
  5
5D
102
{ACAD_REACTORS
330
47
102
}
330
47
100
AcDbScale
 70
     0
300
3/32" = 1'-0"
140
0.09375
141
12.0
290
     0
  0
SCALE
  5
5E
102
{ACAD_REACTORS
330
47
102
}
330
47
100
AcDbScale
 70
     0
300
1/8" = 1'-0"
140
0.125
141
12.0
290
     0
  0
SCALE
  5
5F
102
{ACAD_REACTORS
330
47
102
}
330
47
100
AcDbScale
 70
     0
300
3/16" = 1'-0"
140
0.1875
141
12.0
290
     0
  0
SCALE
  5
60
102
{ACAD_REACTORS
330
47
102
}
330
47
100
AcDbScale
 70
     0
300
1/4" = 1'-0"
140
0.25
141
12.0
290
     0
  0
SCALE
  5
61
102
{ACAD_REACTORS
330
47
102
}
330
47
100
AcDbScale
 70
     0
300
3/8" = 1'-0"
140
0.375
141
12.0
290
     0
  0
SCALE
  5
62
102
{ACAD_REACTORS
330
47
102
}
330
47
100
AcDbScale
 70
     0
300
1/2" = 1'-0"
140
0.5
141
12.0
290
     0
  0
SCALE
  5
63
102
{ACAD_REACTORS
330
47
102
}
330
47
100
AcDbScale
 70
     0
300
3/4" = 1'-0"
140
0.75
141
12.0
290
     0
  0
SCALE
  5
64
102
{ACAD_REACTORS
330
47
102
}
330
47
100
AcDbScale
 70
     0
300
1" = 1'-0"
140
1.0
141
12.0
290
     0
  0
SCALE
  5
65
102
{ACAD_REACTORS
330
47
102
}
330
47
100
AcDbScale
 70
     0
300
1-1/2" = 1'-0"
140
1.5
141
12.0
290
     0
  0
SCALE
  5
66
102
{ACAD_REACTORS
330
47
102
}
330
47
100
AcDbScale
 70
     0
300
3" = 1'-0"
140
3.0
141
12.0
290
     0
  0
SCALE
  5
67
102
{ACAD_REACTORS
330
47
102
}
330
47
100
AcDbScale
 70
     0
300
6" = 1'-0"
140
6.0
141
12.0
290
     0
  0
SCALE
  5
68
102
{ACAD_REACTORS
330
47
102
}
330
47
100
AcDbScale
 70
     0
300
1'-0" = 1'-0"
140
12.0
141
12.0
290
     0
  0
TABLESTYLE
  5
6A
102
{ACAD_REACTORS
330
69
102
}
102
{ACAD_XDICTIONARY
360
1E5
102
}
330
69
100
AcDbTableStyle
  3
Standard
 70
     0
 71
     0
 40
0.06
 41
0.06
280
     0
281
     0
  7
Standard
140
0.18
170
     2
 62
     0
 63
   257
283
     0
 90
        4
 91
        0
  1

274
    -2
284
     1
 64
     0
275
    -2
285
     1
 65
     0
276
    -2
286
     1
 66
     0
277
    -2
287
     1
 67
     0
278
    -2
288
     1
 68
     0
279
    -2
289
     1
 69
     0
  7
Standard
140
0.25
170
     5
 62
     0
 63
   257
283
     0
 90
        4
 91
        0
  1

274
    -2
284
     1
 64
     0
275
    -2
285
     1
 65
     0
276
    -2
286
     1
 66
     0
277
    -2
287
     1
 67
     0
278
    -2
288
     1
 68
     0
279
    -2
289
     1
 69
     0
  7
Standard
140
0.18
170
     5
 62
     0
 63
   257
283
     0
 90
        4
 91
        0
  1

274
    -2
284
     1
 64
     0
275
    -2
285
     1
 65
     0
276
    -2
286
     1
 66
     0
277
    -2
287
     1
 67
     0
278
    -2
288
     1
 68
     0
279
    -2
289
     1
 69
     0
  0
VISUALSTYLE
  5
2F
102
{ACAD_REACTORS
330
2A
102
}
330
2A
100
AcDbVisualStyle
  2
2dWireframe
 70
     4
177
     3
291
     0
 70
    58
 90
        0
176
     1
 90
        2
176
     1
 90
        0
176
     1
 90
        0
176
     1
 40
0.6
176
     1
 40
30.0
176
     1
 62
     7
420
 16777215
176
     1
 90
        1
176
     1
 90
        4
176
     1
 62
     7
176
     1
 62
   257
176
     1
 90
        1
176
     1
 90
        1
176
     1
 40
1.0
176
     1
 90
        0
176
     1
 62
   257
176
     1
 40
1.0
176
     1
 90
        1
176
     1
 90
        6
176
     1
 90
        2
176
     1
 62
     7
176
     1
 90
        5
176
     1
 90
        0
176
     1
 90
        0
176
     1
290
     0
176
     1
 90
        1
176
     1
 40
0.0
176
     1
 90
        0
176
     1
290
     1
176
     1
290
     1
176
     1
290
     0
176
     1
290
     0
176
     1
290
     0
176
     1
290
     0
176
     1
290
     0
176
     1
290
     0
176
     1
290
     0
176
     1
 90
       50
176
     1
 40
0.0
176
     1
 40
1.0
176
     1
 90
        0
176
     1
 62
    18
420
        0
176
     1
 90
       50
176
     1
 90
        3
176
     1
 62
     5
420
      255
176
     1
290
     0
176
     1
 90
       50
176
     1
 90
       50
176
     1
 90
       50
176
     1
290
     0
176
     1
 90
       50
176
     1
 62
   256
176
     0
 40
1.0
176
     0
 90
        2
176
     1
  1
strokes_ogs.tif
176
     1
290
     0
176
     1
 40
1.0
176
     1
 40
1.0
176
     1
  0
VISUALSTYLE
  5
32
102
{ACAD_REACTORS
330
2A
102
}
330
2A
100
AcDbVisualStyle
  2
Basic
 70
     7
177
     3
291
     1
 70
    58
 90
        1
176
     1
 90
        0
176
     1
 90
        1
176
     1
 90
        0
176
     1
 40
0.6
176
     1
 40
30.0
176
     1
 62
     7
420
 16777215
176
     1
 90
        0
176
     1
 90
        4
176
     1
 62
     7
176
     1
 62
   257
176
     1
 90
        1
176
     1
 90
        1
176
     1
 40
1.0
176
     1
 90
        8
176
     1
 62
     7
176
     1
 40
1.0
176
     1
 90
        1
176
     1
 90
        6
176
     1
 90
        2
176
     1
 62
     7
176
     1
 90
        5
176
     1
 90
        0
176
     1
 90
        0
176
     1
290
     0
176
     1
 90
        1
176
     1
 40
0.0
176
     1
 90
        0
176
     1
290
     0
176
     1
290
     1
176
     1
290
     1
176
     1
290
     0
176
     1
290
     0
176
     1
290
     0
176
     1
290
     0
176
     1
290
     0
176
     1
290
     0
176
     1
 90
       50
176
     1
 40
0.0
176
     1
 40
1.0
176
     1
 90
        0
176
     1
 62
    18
420
        0
176
     1
 90
       50
176
     1
 90
        3
176
     1
 62
     5
420
      255
176
     1
290
     0
176
     1
 90
       50
176
     1
 90
       50
176
     1
 90
       50
176
     1
290
     0
176
     1
 90
       50
176
     1
 62
   256
176
     0
 40
1.0
176
     0
 90
        2
176
     1
  1
strokes_ogs.tif
176
     1
290
     0
176
     1
 40
1.0
176
     1
 40
1.0
176
     1
  0
VISUALSTYLE
  5
36
102
{ACAD_REACTORS
330
2A
102
}
330
2A
100
AcDbVisualStyle
  2
Brighten
 70
    12
177
     3
291
     1
 70
    58
 90
        2
176
     1
 90
        2
176
     1
 90
        0
176
     1
 90
        0
176
     1
 40
0.6
176
     1
 40
30.0
176
     1
 62
     7
420
 16777215
176
     1
 90
        1
176
     1
 90
        4
176
     1
 62
     7
176
     1
 62
   257
176
     1
 90
        1
176
     1
 90
        1
176
     1
 40
1.0
176
     1
 90
        8
176
     1
 62
     7
176
     1
 40
1.0
176
     1
 90
        1
176
     1
 90
        6
176
     1
 90
        2
176
     1
 62
     7
176
     1
 90
        5
176
     1
 90
        0
176
     1
 90
        0
176
     1
290
     0
176
     1
 90
        1
176
     1
 40
50.0
176
     1
 90
        0
176
     1
290
     0
176
     1
290
     1
176
     1
290
     1
176
     1
290
     0
176
     1
290
     0
176
     1
290
     0
176
     1
290
     0
176
     1
290
     0
176
     1
290
     0
176
     1
 90
       50
176
     1
 40
0.0
176
     1
 40
1.0
176
     1
 90
        0
176
     1
 62
    18
420
        0
176
     1
 90
       50
176
     1
 90
        3
176
     1
 62
     5
420
      255
176
     1
290
     0
176
     1
 90
       50
176
     1
 90
       50
176
     1
 90
       50
176
     1
290
     0
176
     1
 90
       50
176
     1
 62
   256
176
     0
 40
1.0
176
     0
 90
        2
176
     1
  1
strokes_ogs.tif
176
     1
290
     0
176
     1
 40
1.0
176
     1
 40
1.0
176
     1
  0
VISUALSTYLE
  5
3A
102
{ACAD_REACTORS
330
2A
102
}
330
2A
100
AcDbVisualStyle
  2
ColorChange
 70
    16
177
     3
291
     1
 70
    58
 90
        2
176
     1
 90
        2
176
     1
 90
        3
176
     1
 90
        0
176
     1
 40
0.6
176
     1
 40
30.0
176
     1
 62
     8
420
  8421504
176
     1
 90
        1
176
     1
 90
        4
176
     1
 62
     7
176
     1
 62
   257
176
     1
 90
        1
176
     1
 90
        1
176
     1
 40
1.0
176
     1
 90
        8
176
     1
 62
     8
420
  8421504
176
     1
 40
1.0
176
     1
 90
        1
176
     1
 90
        6
176
     1
 90
        2
176
     1
 62
     7
176
     1
 90
        5
176
     1
 90
        0
176
     1
 90
        0
176
     1
290
     0
176
     1
 90
        1
176
     1
 40
0.0
176
     1
 90
        0
176
     1
290
     0
176
     1
290
     1
176
     1
290
     1
176
     1
290
     0
176
     1
290
     0
176
     1
290
     0
176
     1
290
     0
176
     1
290
     0
176
     1
290
     0
176
     1
 90
       50
176
     1
 40
0.0
176
     1
 40
1.0
176
     1
 90
        0
176
     1
 62
    18
420
        0
176
     1
 90
       50
176
     1
 90
        3
176
     1
 62
     5
420
      255
176
     1
290
     0
176
     1
 90
       50
176
     1
 90
       50
176
     1
 90
       50
176
     1
290
     0
176
     1
 90
       50
176
     1
 62
   256
176
     0
 40
1.0
176
     0
 90
        2
176
     1
  1
strokes_ogs.tif
176
     1
290
     0
176
     1
 40
1.0
176
     1
 40
1.0
176
     1
  0
VISUALSTYLE
  5
34
102
{ACAD_REACTORS
330
2A
102
}
330
2A
100
AcDbVisualStyle
  2
Conceptual
 70
     9
177
     3
291
     0
 70
    58
 90
        3
176
     1
 90
        2
176
     1
 90
        0
176
     1
 90
        0
176
     1
 40
0.6
176
     1
 40
30.0
176
     1
 62
     7
420
 16777215
176
     1
 90
        2
176
     1
 90
        2
176
     1
 62
     7
176
     1
 62
   257
176
     1
 90
        1
176
     1
 90
        1
176
     1
 40
179.0
176
     1
 90
        8
176
     1
 62
     7
176
     1
 40
1.0
176
     1
 90
        1
176
     1
 90
        6
176
     1
 90
        2
176
     1
 62
     7
176
     1
 90
        3
176
     1
 90
        0
176
     1
 90
        0
176
     1
290
     0
176
     1
 90
        1
176
     1
 40
0.0
176
     1
 90
        0
176
     1
290
     0
176
     1
290
     1
176
     1
290
     1
176
     1
290
     0
176
     1
290
     0
176
     1
290
     0
176
     1
290
     0
176
     1
290
     0
176
     1
290
     0
176
     1
 90
       50
176
     1
 40
0.0
176
     1
 40
1.0
176
     1
 90
        0
176
     1
 62
    18
420
        0
176
     1
 90
       50
176
     1
 90
        3
176
     1
 62
     5
420
      255
176
     1
290
     0
176
     1
 90
       50
176
     1
 90
       50
176
     1
 90
       50
176
     1
290
     0
176
     1
 90
       50
176
     1
 62
   256
176
     0
 40
1.0
176
     0
 90
        2
176
     1
  1
strokes_ogs.tif
176
     1
290
     0
176
     1
 40
1.0
176
     1
 40
1.0
176
     1
  0
VISUALSTYLE
  5
35
102
{ACAD_REACTORS
330
2A
102
}
330
2A
100
AcDbVisualStyle
  2
Dim
 70
    11
177
     3
291
     1
 70
    58
 90
        2
176
     1
 90
        2
176
     1
 90
        0
176
     1
 90
        0
176
     1
 40
0.6
176
     1
 40
30.0
176
     1
 62
     7
420
 16777215
176
     1
 90
        1
176
     1
 90
        4
176
     1
 62
     7
176
     1
 62
   257
176
     1
 90
        1
176
     1
 90
        1
176
     1
 40
1.0
176
     1
 90
        8
176
     1
 62
     7
176
     1
 40
1.0
176
     1
 90
        1
176
     1
 90
        6
176
     1
 90
        2
176
     1
 62
     7
176
     1
 90
        5
176
     1
 90
        0
176
     1
 90
        0
176
     1
290
     0
176
     1
 90
        1
176
     1
 40
-50.0
176
     1
 90
        0
176
     1
290
     0
176
     1
290
     1
176
     1
290
     1
176
     1
290
     0
176
     1
290
     0
176
     1
290
     0
176
     1
290
     0
176
     1
290
     0
176
     1
290
     0
176
     1
 90
       50
176
     1
 40
0.0
176
     1
 40
1.0
176
     1
 90
        0
176
     1
 62
    18
420
        0
176
     1
 90
       50
176
     1
 90
        3
176
     1
 62
     5
420
      255
176
     1
290
     0
176
     1
 90
       50
176
     1
 90
       50
176
     1
 90
       50
176
     1
290
     0
176
     1
 90
       50
176
     1
 62
   256
176
     0
 40
1.0
176
     0
 90
        2
176
     1
  1
strokes_ogs.tif
176
     1
290
     0
176
     1
 40
1.0
176
     1
 40
1.0
176
     1
  0
VISUALSTYLE
  5
3D
102
{ACAD_REACTORS
330
2A
102
}
330
2A
100
AcDbVisualStyle
  2
EdgeColorOff
 70
    22
177
     3
291
     1
 70
    58
 90
        2
176
     0
 90
        2
176
     0
 90
        0
176
     0
 90
        0
176
     0
 40
0.6
176
     0
 40
30.0
176
     0
 62
     7
420
 16777215
176
     0
 90
        1
176
     0
 90
        4
176
     0
 62
     7
176
     0
 62
   257
176
     0
 90
        1
176
     0
 90
        1
176
     0
 40
1.0
176
     0
 90
        8
176
     2
 62
     7
176
     0
 40
1.0
176
     0
 90
        1
176
     0
 90
        6
176
     0
 90
        2
176
     0
 62
     7
176
     0
 90
        5
176
     0
 90
        0
176
     0
 90
        0
176
     0
290
     0
176
     0
 90
        1
176
     0
 40
0.0
176
     0
 90
        0
176
     0
290
     0
176
     0
290
     1
176
     0
290
     1
176
     0
290
     0
176
     0
290
     0
176
     0
290
     0
176
     0
290
     0
176
     0
290
     0
176
     0
290
     0
176
     0
 90
       50
176
     0
 40
0.0
176
     0
 40
1.0
176
     0
 90
        0
176
     0
 62
    18
420
        0
176
     0
 90
       50
176
     0
 90
        3
176
     0
 62
     5
420
      255
176
     0
290
     0
176
     0
 90
       50
176
     0
 90
       50
176
     0
 90
       50
176
     0
290
     0
176
     0
 90
       50
176
     0
 62
   256
176
     0
 40
1.0
176
     0
 90
        2
176
     0
  1
strokes_ogs.tif
176
     0
290
     0
176
     0
 40
1.0
176
     0
 40
1.0
176
     0
  0
VISUALSTYLE
  5
39
102
{ACAD_REACTORS
330
2A
102
}
330
2A
100
AcDbVisualStyle
  2
Facepattern
 70
    15
177
     3
291
     1
 70
    58
 90
        2
176
     1
 90
        2
176
     1
 90
        0
176
     1
 90
        0
176
     1
 40
0.6
176
     1
 40
30.0
176
     1
 62
     7
420
 16777215
176
     1
 90
        1
176
     1
 90
        4
176
     1
 62
     7
176
     1
 62
   257
176
     1
 90
        1
176
     1
 90
        1
176
     1
 40
1.0
176
     1
 90
        8
176
     1
 62
     7
176
     1
 40
1.0
176
     1
 90
        1
176
     1
 90
        6
176
     1
 90
        2
176
     1
 62
     7
176
     1
 90
        5
176
     1
 90
        0
176
     1
 90
        0
176
     1
290
     0
176
     1
 90
        1
176
     1
 40
0.0
176
     1
 90
        0
176
     1
290
     0
176
     1
290
     1
176
     1
290
     1
176
     1
290
     0
176
     1
290
     0
176
     1
290
     0
176
     1
290
     0
176
     1
290
     0
176
     1
290
     0
176
     1
 90
       50
176
     1
 40
0.0
176
     1
 40
1.0
176
     1
 90
        0
176
     1
 62
    18
420
        0
176
     1
 90
       50
176
     1
 90
        3
176
     1
 62
     5
420
      255
176
     1
290
     0
176
     1
 90
       50
176
     1
 90
       50
176
     1
 90
       50
176
     1
290
     0
176
     1
 90
       50
176
     1
 62
   256
176
     0
 40
1.0
176
     0
 90
        2
176
     1
  1
strokes_ogs.tif
176
     1
290
     0
176
     1
 40
1.0
176
     1
 40
1.0
176
     1
  0
VISUALSTYLE
  5
2B
102
{ACAD_REACTORS
330
2A
102
}
330
2A
100
AcDbVisualStyle
  2
Flat
 70
     0
177
     3
291
     1
 70
    58
 90
        2
176
     1
 90
        1
176
     1
 90
        1
176
     1
 90
        2
176
     1
 40
0.6
176
     1
 40
30.0
176
     1
 62
     7
420
 16777215
176
     1
 90
        0
176
     1
 90
        0
176
     1
 62
     7
176
     1
 62
   257
176
     1
 90
        1
176
     1
 90
        1
176
     1
 40
1.0
176
     1
 90
        8
176
     1
 62
     7
176
     1
 40
1.0
176
     1
 90
        1
176
     1
 90
        6
176
     1
 90
        2
176
     1
 62
     7
176
     1
 90
        5
176
     1
 90
        0
176
     1
 90
        0
176
     1
290
     0
176
     1
 90
       13
176
     1
 40
0.0
176
     1
 90
        0
176
     1
290
     0
176
     1
290
     1
176
     1
290
     1
176
     1
290
     0
176
     1
290
     0
176
     1
290
     0
176
     1
290
     0
176
     1
290
     0
176
     1
290
     0
176
     1
 90
       50
176
     1
 40
0.0
176
     1
 40
1.0
176
     1
 90
        0
176
     1
 62
    18
420
        0
176
     1
 90
       50
176
     1
 90
        3
176
     1
 62
     5
420
      255
176
     1
290
     0
176
     1
 90
       50
176
     1
 90
       50
176
     1
 90
       50
176
     1
290
     0
176
     1
 90
       50
176
     1
 62
   256
176
     0
 40
1.0
176
     0
 90
        2
176
     1
  1
strokes_ogs.tif
176
     1
290
     0
176
     1
 40
1.0
176
     1
 40
1.0
176
     1
  0
VISUALSTYLE
  5
2C
102
{ACAD_REACTORS
330
2A
102
}
330
2A
100
AcDbVisualStyle
  2
FlatWithEdges
 70
     1
177
     3
291
     1
 70
    58
 90
        2
176
     1
 90
        1
176
     1
 90
        1
176
     1
 90
        2
176
     1
 40
0.6
176
     1
 40
30.0
176
     1
 62
     7
420
 16777215
176
     1
 90
        1
176
     1
 90
        0
176
     1
 62
     7
176
     1
 62
   257
176
     1
 90
        1
176
     1
 90
        1
176
     1
 40
1.0
176
     1
 90
        0
176
     1
 62
   257
176
     1
 40
1.0
176
     1
 90
        1
176
     1
 90
        6
176
     1
 90
        2
176
     1
 62
     7
176
     1
 90
        5
176
     1
 90
        0
176
     1
 90
        0
176
     1
290
     0
176
     1
 90
       13
176
     1
 40
0.0
176
     1
 90
        0
176
     1
290
     0
176
     1
290
     1
176
     1
290
     1
176
     1
290
     0
176
     1
290
     0
176
     1
290
     0
176
     1
290
     0
176
     1
290
     0
176
     1
290
     0
176
     1
 90
       50
176
     1
 40
0.0
176
     1
 40
1.0
176
     1
 90
        0
176
     1
 62
    18
420
        0
176
     1
 90
       50
176
     1
 90
        3
176
     1
 62
     5
420
      255
176
     1
290
     0
176
     1
 90
       50
176
     1
 90
       50
176
     1
 90
       50
176
     1
290
     0
176
     1
 90
       50
176
     1
 62
   256
176
     0
 40
1.0
176
     0
 90
        2
176
     1
  1
strokes_ogs.tif
176
     1
290
     0
176
     1
 40
1.0
176
     1
 40
1.0
176
     1
  0
VISUALSTYLE
  5
2D
102
{ACAD_REACTORS
330
2A
102
}
330
2A
100
AcDbVisualStyle
  2
Gouraud
 70
     2
177
     3
291
     1
 70
    58
 90
        2
176
     1
 90
        2
176
     1
 90
        1
176
     1
 90
        2
176
     1
 40
0.6
176
     1
 40
30.0
176
     1
 62
     7
420
 16777215
176
     1
 90
        0
176
     1
 90
        0
176
     1
 62
     7
176
     1
 62
   257
176
     1
 90
        1
176
     1
 90
        1
176
     1
 40
1.0
176
     1
 90
        0
176
     1
 62
     7
176
     1
 40
1.0
176
     1
 90
        1
176
     1
 90
        6
176
     1
 90
        2
176
     1
 62
     7
176
     1
 90
        5
176
     1
 90
        0
176
     1
 90
        0
176
     1
290
     0
176
     1
 90
       13
176
     1
 40
0.0
176
     1
 90
        0
176
     1
290
     0
176
     1
290
     1
176
     1
290
     1
176
     1
290
     0
176
     1
290
     0
176
     1
290
     0
176
     1
290
     0
176
     1
290
     0
176
     1
290
     0
176
     1
 90
       50
176
     1
 40
0.0
176
     1
 40
1.0
176
     1
 90
        0
176
     1
 62
    18
420
        0
176
     1
 90
       50
176
     1
 90
        3
176
     1
 62
     5
420
      255
176
     1
290
     0
176
     1
 90
       50
176
     1
 90
       50
176
     1
 90
       50
176
     1
290
     0
176
     1
 90
       50
176
     1
 62
   256
176
     0
 40
1.0
176
     0
 90
        2
176
     1
  1
strokes_ogs.tif
176
     1
290
     0
176
     1
 40
1.0
176
     1
 40
1.0
176
     1
  0
VISUALSTYLE
  5
2E
102
{ACAD_REACTORS
330
2A
102
}
330
2A
100
AcDbVisualStyle
  2
GouraudWithEdges
 70
     3
177
     3
291
     1
 70
    58
 90
        2
176
     1
 90
        2
176
     1
 90
        1
176
     1
 90
        2
176
     1
 40
0.6
176
     1
 40
30.0
176
     1
 62
     7
420
 16777215
176
     1
 90
        1
176
     1
 90
        0
176
     1
 62
     7
176
     1
 62
   257
176
     1
 90
        1
176
     1
 90
        1
176
     1
 40
1.0
176
     1
 90
        0
176
     1
 62
   257
176
     1
 40
1.0
176
     1
 90
        1
176
     1
 90
        6
176
     1
 90
        2
176
     1
 62
     7
176
     1
 90
        5
176
     1
 90
        0
176
     1
 90
        0
176
     1
290
     0
176
     1
 90
       13
176
     1
 40
0.0
176
     1
 90
        0
176
     1
290
     0
176
     1
290
     1
176
     1
290
     1
176
     1
290
     0
176
     1
290
     0
176
     1
290
     0
176
     1
290
     0
176
     1
290
     0
176
     1
290
     0
176
     1
 90
       50
176
     1
 40
0.0
176
     1
 40
1.0
176
     1
 90
        0
176
     1
 62
    18
420
        0
176
     1
 90
       50
176
     1
 90
        3
176
     1
 62
     5
420
      255
176
     1
290
     0
176
     1
 90
       50
176
     1
 90
       50
176
     1
 90
       50
176
     1
290
     0
176
     1
 90
       50
176
     1
 62
   256
176
     0
 40
1.0
176
     0
 90
        2
176
     1
  1
strokes_ogs.tif
176
     1
290
     0
176
     1
 40
1.0
176
     1
 40
1.0
176
     1
  0
VISUALSTYLE
  5
31
102
{ACAD_REACTORS
330
2A
102
}
330
2A
100
AcDbVisualStyle
  2
Hidden
 70
     6
177
     3
291
     0
 70
    58
 90
        1
176
     1
 90
        2
176
     1
 90
        2
176
     1
 90
        0
176
     1
 40
0.6
176
     1
 40
30.0
176
     1
 62
     7
420
 16777215
176
     1
 90
        2
176
     1
 90
        2
176
     1
 62
     7
176
     1
 62
   257
176
     1
 90
        2
176
     1
 90
        1
176
     1
 40
40.0
176
     1
 90
        0
176
     1
 62
   257
176
     1
 40
1.0
176
     1
 90
        1
176
     1
 90
        6
176
     1
 90
        2
176
     1
 62
     7
176
     1
 90
        3
176
     1
 90
        0
176
     1
 90
        0
176
     1
290
     0
176
     1
 90
        1
176
     1
 40
0.0
176
     1
 90
        0
176
     1
290
     0
176
     1
290
     1
176
     1
290
     1
176
     1
290
     0
176
     1
290
     0
176
     1
290
     0
176
     1
290
     0
176
     1
290
     0
176
     1
290
     0
176
     1
 90
       50
176
     1
 40
0.0
176
     1
 40
1.0
176
     1
 90
        0
176
     1
 62
    18
420
        0
176
     1
 90
       50
176
     1
 90
        3
176
     1
 62
     5
420
      255
176
     1
290
     0
176
     1
 90
       50
176
     1
 90
       50
176
     1
 90
       50
176
     1
290
     0
176
     1
 90
       50
176
     1
 62
   256
176
     0
 40
1.0
176
     0
 90
        2
176
     1
  1
strokes_ogs.tif
176
     1
290
     0
176
     1
 40
1.0
176
     1
 40
1.0
176
     1
  0
VISUALSTYLE
  5
3B
102
{ACAD_REACTORS
330
2A
102
}
330
2A
100
AcDbVisualStyle
  2
JitterOff
 70
    20
177
     3
291
     1
 70
    58
 90
        2
176
     0
 90
        2
176
     0
 90
        0
176
     0
 90
        0
176
     0
 40
0.6
176
     0
 40
30.0
176
     0
 62
     7
420
 16777215
176
     0
 90
        1
176
     0
 90
        4
176
     0
 62
     7
176
     0
 62
   257
176
     0
 90
        1
176
     0
 90
        1
176
     0
 40
1.0
176
     0
 90
       10
176
     2
 62
     7
176
     0
 40
1.0
176
     0
 90
        1
176
     0
 90
        6
176
     0
 90
        2
176
     0
 62
     7
176
     0
 90
        5
176
     0
 90
        0
176
     0
 90
        0
176
     0
290
     0
176
     0
 90
        1
176
     0
 40
0.0
176
     0
 90
        0
176
     0
290
     0
176
     0
290
     1
176
     0
290
     1
176
     0
290
     0
176
     0
290
     0
176
     0
290
     0
176
     0
290
     0
176
     0
290
     0
176
     0
290
     0
176
     0
 90
       50
176
     0
 40
0.0
176
     0
 40
1.0
176
     0
 90
        0
176
     0
 62
    18
420
        0
176
     0
 90
       50
176
     0
 90
        3
176
     0
 62
     5
420
      255
176
     0
290
     0
176
     0
 90
       50
176
     0
 90
       50
176
     0
 90
       50
176
     0
290
     0
176
     0
 90
       50
176
     0
 62
   256
176
     0
 40
1.0
176
     0
 90
        2
176
     0
  1
strokes_ogs.tif
176
     0
290
     0
176
     0
 40
1.0
176
     0
 40
1.0
176
     0
  0
VISUALSTYLE
  5
38
102
{ACAD_REACTORS
330
2A
102
}
330
2A
100
AcDbVisualStyle
  2
Linepattern
 70
    14
177
     3
291
     1
 70
    58
 90
        2
176
     1
 90
        2
176
     1
 90
        0
176
     1
 90
        0
176
     1
 40
0.6
176
     1
 40
30.0
176
     1
 62
     7
420
 16777215
176
     1
 90
        1
176
     1
 90
        4
176
     1
 62
     7
176
     1
 62
   257
176
     1
 90
        7
176
     1
 90
        7
176
     1
 40
1.0
176
     1
 90
        8
176
     1
 62
     7
176
     1
 40
1.0
176
     1
 90
        1
176
     1
 90
        6
176
     1
 90
        2
176
     1
 62
     7
176
     1
 90
        5
176
     1
 90
        0
176
     1
 90
        0
176
     1
290
     0
176
     1
 90
        1
176
     1
 40
0.0
176
     1
 90
        0
176
     1
290
     0
176
     1
290
     1
176
     1
290
     1
176
     1
290
     0
176
     1
290
     0
176
     1
290
     0
176
     1
290
     0
176
     1
290
     0
176
     1
290
     0
176
     1
 90
       50
176
     1
 40
0.0
176
     1
 40
1.0
176
     1
 90
        0
176
     1
 62
    18
420
        0
176
     1
 90
       50
176
     1
 90
        3
176
     1
 62
     5
420
      255
176
     1
290
     0
176
     1
 90
       50
176
     1
 90
       50
176
     1
 90
       50
176
     1
290
     0
176
     1
 90
       50
176
     1
 62
   256
176
     0
 40
1.0
176
     0
 90
        2
176
     1
  1
strokes_ogs.tif
176
     1
290
     0
176
     1
 40
1.0
176
     1
 40
1.0
176
     1
  0
VISUALSTYLE
  5
3C
102
{ACAD_REACTORS
330
2A
102
}
330
2A
100
AcDbVisualStyle
  2
OverhangOff
 70
    21
177
     3
291
     1
 70
    58
 90
        2
176
     0
 90
        2
176
     0
 90
        0
176
     0
 90
        0
176
     0
 40
0.6
176
     0
 40
30.0
176
     0
 62
     7
420
 16777215
176
     0
 90
        1
176
     0
 90
        4
176
     0
 62
     7
176
     0
 62
   257
176
     0
 90
        1
176
     0
 90
        1
176
     0
 40
1.0
176
     0
 90
        9
176
     2
 62
     7
176
     0
 40
1.0
176
     0
 90
        1
176
     0
 90
        6
176
     0
 90
        2
176
     0
 62
     7
176
     0
 90
        5
176
     0
 90
        0
176
     0
 90
        0
176
     0
290
     0
176
     0
 90
        1
176
     0
 40
0.0
176
     0
 90
        0
176
     0
290
     0
176
     0
290
     1
176
     0
290
     1
176
     0
290
     0
176
     0
290
     0
176
     0
290
     0
176
     0
290
     0
176
     0
290
     0
176
     0
290
     0
176
     0
 90
       50
176
     0
 40
0.0
176
     0
 40
1.0
176
     0
 90
        0
176
     0
 62
    18
420
        0
176
     0
 90
       50
176
     0
 90
        3
176
     0
 62
     5
420
      255
176
     0
290
     0
176
     0
 90
       50
176
     0
 90
       50
176
     0
 90
       50
176
     0
290
     0
176
     0
 90
       50
176
     0
 62
   256
176
     0
 40
1.0
176
     0
 90
        2
176
     0
  1
strokes_ogs.tif
176
     0
290
     0
176
     0
 40
1.0
176
     0
 40
1.0
176
     0
  0
VISUALSTYLE
  5
33
102
{ACAD_REACTORS
330
2A
102
}
330
2A
100
AcDbVisualStyle
  2
Realistic
 70
     8
177
     3
291
     0
 70
    58
 90
        2
176
     1
 90
        3
176
     1
 90
        0
176
     1
 90
        2
176
     1
 40
0.6
176
     1
 40
30.0
176
     1
 62
     7
420
 16777215
176
     1
 90
        0
176
     1
 90
        0
176
     1
 62
     7
176
     1
 62
   257
176
     1
 90
        1
176
     1
 90
        1
176
     1
 40
1.0
176
     1
 90
        8
176
     1
 62
   257
176
     1
 40
1.0
176
     1
 90
        1
176
     1
 90
        6
176
     1
 90
        2
176
     1
 62
     7
176
     1
 90
        3
176
     1
 90
        0
176
     1
 90
        0
176
     1
290
     0
176
     1
 90
       13
176
     1
 40
0.0
176
     1
 90
        0
176
     1
290
     0
176
     1
290
     1
176
     1
290
     1
176
     1
290
     0
176
     1
290
     0
176
     1
290
     0
176
     1
290
     0
176
     1
290
     0
176
     1
290
     0
176
     1
 90
       50
176
     1
 40
0.0
176
     1
 40
1.0
176
     1
 90
        0
176
     1
 62
    18
420
        0
176
     1
 90
       50
176
     1
 90
        3
176
     1
 62
     5
420
      255
176
     1
290
     0
176
     1
 90
       50
176
     1
 90
       50
176
     1
 90
       50
176
     1
290
     0
176
     1
 90
       50
176
     1
 62
   256
176
     0
 40
1.0
176
     0
 90
        2
176
     1
  1
strokes_ogs.tif
176
     1
290
     0
176
     1
 40
1.0
176
     1
 40
1.0
176
     1
  0
VISUALSTYLE
  5
42
102
{ACAD_REACTORS
330
2A
102
}
330
2A
100
AcDbVisualStyle
  2
Shaded
 70
    27
177
     3
291
     0
 70
    58
 90
        2
176
     1
 90
        2
176
     1
 90
        1
176
     1
 90
        2
176
     1
 40
0.6
176
     1
 40
30.0
176
     1
 62
     7
420
 16777215
176
     1
 90
        0
176
     1
 90
        4
176
     1
 62
     7
176
     1
 62
   257
176
     1
 90
        1
176
     1
 90
        1
176
     1
 40
1.0
176
     1
 90
        8
176
     1
 62
   257
176
     1
 40
1.0
176
     1
 90
        1
176
     1
 90
        6
176
     1
 90
        2
176
     1
 62
     8
420
  7895160
176
     1
 90
        3
176
     1
 90
        0
176
     1
 90
        0
176
     1
290
     0
176
     1
 90
        5
176
     1
 40
0.0
176
     1
 90
        0
176
     1
290
     0
176
     1
290
     1
176
     1
290
     1
176
     1
290
     0
176
     1
290
     0
176
     1
290
     0
176
     1
290
     0
176
     1
290
     0
176
     1
290
     0
176
     1
 90
       50
176
     1
 40
0.0
176
     1
 40
1.0
176
     1
 90
        0
176
     1
 62
    18
420
        0
176
     1
 90
       50
176
     1
 90
        3
176
     1
 62
     5
420
      255
176
     1
290
     0
176
     1
 90
       50
176
     1
 90
       50
176
     1
 90
       50
176
     1
290
     0
176
     1
 90
       50
176
     1
 62
   256
176
     0
 40
1.0
176
     0
 90
        2
176
     1
  1
strokes_ogs.tif
176
     1
290
     0
176
     1
 40
1.0
176
     1
 40
1.0
176
     1
  0
VISUALSTYLE
  5
41
102
{ACAD_REACTORS
330
2A
102
}
330
2A
100
AcDbVisualStyle
  2
Shaded with edges
 70
    26
177
     3
291
     0
 70
    58
 90
        2
176
     1
 90
        2
176
     1
 90
        1
176
     1
 90
        2
176
     1
 40
0.6
176
     1
 40
30.0
176
     1
 62
     7
420
 16777215
176
     1
 90
        1
176
     1
 90
       10
176
     1
 62
     7
176
     1
 62
   257
176
     1
 90
        2
176
     1
 90
        1
176
     1
 40
1.0
176
     1
 90
        8
176
     1
 62
   257
176
     1
 40
1.0
176
     1
 90
        1
176
     1
 90
        6
176
     1
 90
        2
176
     1
 62
     7
176
     1
 90
        3
176
     1
 90
        0
176
     1
 90
        0
176
     1
290
     0
176
     1
 90
        5
176
     1
 40
0.0
176
     1
 90
        0
176
     1
290
     0
176
     1
290
     1
176
     1
290
     1
176
     1
290
     0
176
     1
290
     0
176
     1
290
     0
176
     1
290
     0
176
     1
290
     0
176
     1
290
     0
176
     1
 90
       50
176
     1
 40
0.0
176
     1
 40
1.0
176
     1
 90
        0
176
     1
 62
    18
420
        0
176
     1
 90
       50
176
     1
 90
        3
176
     1
 62
     5
420
      255
176
     1
290
     0
176
     1
 90
       50
176
     1
 90
       50
176
     1
 90
       50
176
     1
290
     0
176
     1
 90
       50
176
     1
 62
   256
176
     0
 40
1.0
176
     0
 90
        2
176
     1
  1
strokes_ogs.tif
176
     1
290
     0
176
     1
 40
1.0
176
     1
 40
1.0
176
     1
  0
VISUALSTYLE
  5
3E
102
{ACAD_REACTORS
330
2A
102
}
330
2A
100
AcDbVisualStyle
  2
Shades of Gray
 70
    23
177
     3
291
     0
 70
    58
 90
        2
176
     1
 90
        2
176
     1
 90
        3
176
     1
 90
        0
176
     1
 40
0.6
176
     1
 40
30.0
176
     1
 62
     7
420
 16777215
176
     1
 90
        2
176
     1
 90
        2
176
     1
 62
     7
176
     1
 62
     7
176
     1
 90
        1
176
     1
 90
        1
176
     1
 40
40.0
176
     1
 90
        8
176
     1
 62
     7
176
     1
 40
1.0
176
     1
 90
        1
176
     1
 90
        6
176
     1
 90
        2
176
     1
 62
     7
176
     1
 90
        3
176
     1
 90
        0
176
     1
 90
        0
176
     1
290
     0
176
     1
 90
        1
176
     1
 40
0.0
176
     1
 90
        0
176
     1
290
     0
176
     1
290
     1
176
     1
290
     1
176
     1
290
     0
176
     1
290
     0
176
     1
290
     0
176
     1
290
     0
176
     1
290
     0
176
     1
290
     0
176
     1
 90
       50
176
     1
 40
0.0
176
     1
 40
1.0
176
     1
 90
        0
176
     1
 62
    18
420
        0
176
     1
 90
       50
176
     1
 90
        3
176
     1
 62
     5
420
      255
176
     1
290
     0
176
     1
 90
       50
176
     1
 90
       50
176
     1
 90
       50
176
     1
290
     0
176
     1
 90
       50
176
     1
 62
   256
176
     0
 40
1.0
176
     0
 90
        2
176
     1
  1
strokes_ogs.tif
176
     1
290
     0
176
     1
 40
1.0
176
     1
 40
1.0
176
     1
  0
VISUALSTYLE
  5
3F
102
{ACAD_REACTORS
330
2A
102
}
330
2A
100
AcDbVisualStyle
  2
Sketchy
 70
    24
177
     3
291
     0
 70
    58
 90
        1
176
     1
 90
        2
176
     1
 90
        2
176
     1
 90
        0
176
     1
 40
0.6
176
     1
 40
30.0
176
     1
 62
     7
420
 16777215
176
     1
 90
        2
176
     1
 90
        2
176
     1
 62
     7
176
     1
 62
     7
176
     1
 90
        1
176
     1
 90
        1
176
     1
 40
40.0
176
     1
 90
       11
176
     1
 62
     7
176
     1
 40
1.0
176
     1
 90
        1
176
     1
 90
        6
176
     1
 90
        2
176
     1
 62
     7
176
     1
 90
        6
176
     1
 90
        0
176
     1
 90
        0
176
     1
290
     0
176
     1
 90
        1
176
     1
 40
0.0
176
     1
 90
        0
176
     1
290
     0
176
     1
290
     1
176
     1
290
     1
176
     1
290
     0
176
     1
290
     0
176
     1
290
     0
176
     1
290
     0
176
     1
290
     0
176
     1
290
     0
176
     1
 90
       50
176
     1
 40
0.0
176
     1
 40
1.0
176
     1
 90
        0
176
     1
 62
    18
420
        0
176
     1
 90
       50
176
     1
 90
        3
176
     1
 62
     5
420
      255
176
     1
290
     0
176
     1
 90
       50
176
     1
 90
       50
176
     1
 90
       50
176
     1
290
     0
176
     1
 90
       50
176
     1
 62
   256
176
     0
 40
1.0
176
     0
 90
        2
176
     1
  1
strokes_ogs.tif
176
     1
290
     0
176
     1
 40
1.0
176
     1
 40
1.0
176
     1
  0
VISUALSTYLE
  5
37
102
{ACAD_REACTORS
330
2A
102
}
330
2A
100
AcDbVisualStyle
  2
Thicken
 70
    13
177
     3
291
     1
 70
    58
 90
        2
176
     1
 90
        2
176
     1
 90
        0
176
     1
 90
        0
176
     1
 40
0.6
176
     1
 40
30.0
176
     1
 62
     7
420
 16777215
176
     1
 90
        1
176
     1
 90
        4
176
     1
 62
     7
176
     1
 62
   257
176
     1
 90
        1
176
     1
 90
        1
176
     1
 40
1.0
176
     1
 90
       12
176
     1
 62
     7
176
     1
 40
1.0
176
     1
 90
        1
176
     1
 90
        6
176
     1
 90
        2
176
     1
 62
     7
176
     1
 90
        5
176
     1
 90
        0
176
     1
 90
        0
176
     1
290
     0
176
     1
 90
        1
176
     1
 40
0.0
176
     1
 90
        0
176
     1
290
     0
176
     1
290
     1
176
     1
290
     1
176
     1
290
     0
176
     1
290
     0
176
     1
290
     0
176
     1
290
     0
176
     1
290
     0
176
     1
290
     0
176
     1
 90
       50
176
     1
 40
0.0
176
     1
 40
1.0
176
     1
 90
        0
176
     1
 62
    18
420
        0
176
     1
 90
       50
176
     1
 90
        3
176
     1
 62
     5
420
      255
176
     1
290
     0
176
     1
 90
       50
176
     1
 90
       50
176
     1
 90
       50
176
     1
290
     0
176
     1
 90
       50
176
     1
 62
   256
176
     0
 40
1.0
176
     0
 90
        2
176
     1
  1
strokes_ogs.tif
176
     1
290
     0
176
     1
 40
1.0
176
     1
 40
1.0
176
     1
  0
VISUALSTYLE
  5
30
102
{ACAD_REACTORS
330
2A
102
}
330
2A
100
AcDbVisualStyle
  2
Wireframe
 70
     5
177
     3
291
     0
 70
    58
 90
        0
176
     1
 90
        2
176
     1
 90
        0
176
     1
 90
        0
176
     1
 40
0.6
176
     1
 40
30.0
176
     1
 62
     7
420
 16777215
176
     1
 90
        1
176
     1
 90
        4
176
     1
 62
     7
176
     1
 62
   257
176
     1
 90
        1
176
     1
 90
        1
176
     1
 40
1.0
176
     1
 90
        0
176
     1
 62
   257
176
     1
 40
1.0
176
     1
 90
        1
176
     1
 90
        6
176
     1
 90
        2
176
     1
 62
     7
176
     1
 90
        3
176
     1
 90
        0
176
     1
 90
        0
176
     1
290
     0
176
     1
 90
        1
176
     1
 40
0.0
176
     1
 90
        0
176
     1
290
     0
176
     1
290
     1
176
     1
290
     1
176
     1
290
     0
176
     1
290
     0
176
     1
290
     0
176
     1
290
     0
176
     1
290
     0
176
     1
290
     0
176
     1
 90
       50
176
     1
 40
0.0
176
     1
 40
1.0
176
     1
 90
        0
176
     1
 62
    18
420
        0
176
     1
 90
       50
176
     1
 90
        3
176
     1
 62
     5
420
      255
176
     1
290
     0
176
     1
 90
       50
176
     1
 90
       50
176
     1
 90
       50
176
     1
290
     0
176
     1
 90
       50
176
     1
 62
   256
176
     0
 40
1.0
176
     0
 90
        2
176
     1
  1
strokes_ogs.tif
176
     1
290
     0
176
     1
 40
1.0
176
     1
 40
1.0
176
     1
  0
VISUALSTYLE
  5
40
102
{ACAD_REACTORS
330
2A
102
}
330
2A
100
AcDbVisualStyle
  2
X-Ray
 70
    25
177
     3
291
     0
 70
    58
 90
        2
176
     1
 90
        2
176
     1
 90
        1
176
     1
 90
        1
176
     1
 40
0.5
176
     1
 40
30.0
176
     1
 62
     7
420
 16777215
176
     1
 90
        1
176
     1
 90
        0
176
     1
 62
     7
176
     1
 62
   257
176
     1
 90
        1
176
     1
 90
        1
176
     1
 40
1.0
176
     1
 90
        8
176
     1
 62
     7
176
     1
 40
1.0
176
     1
 90
        1
176
     1
 90
        6
176
     1
 90
        2
176
     1
 62
     7
176
     1
 90
        3
176
     1
 90
        0
176
     1
 90
        0
176
     1
290
     0
176
     1
 90
       13
176
     1
 40
0.0
176
     1
 90
        0
176
     1
290
     0
176
     1
290
     1
176
     1
290
     1
176
     1
290
     0
176
     1
290
     0
176
     1
290
     0
176
     1
290
     0
176
     1
290
     0
176
     1
290
     0
176
     1
 90
       50
176
     1
 40
0.0
176
     1
 40
1.0
176
     1
 90
        0
176
     1
 62
    18
420
        0
176
     1
 90
       50
176
     1
 90
        3
176
     1
 62
     5
420
      255
176
     1
290
     0
176
     1
 90
       50
176
     1
 90
       50
176
     1
 90
       50
176
     1
290
     0
176
     1
 90
       50
176
     1
 62
   256
176
     0
 40
1.0
176
     0
 90
        2
176
     1
  1
strokes_ogs.tif
176
     1
290
     0
176
     1
 40
1.0
176
     1
 40
1.0
176
     1
  0
DICTIONARYVAR
  5
1E4
102
{ACAD_REACTORS
330
1E3
102
}
330
1E3
100
DictionaryVariables
280
     0
  1
1:1
  0
DICTIONARYVAR
  5
1E9
102
{ACAD_REACTORS
330
1E3
102
}
330
1E3
100
DictionaryVariables
280
     0
  1
Standard
  0
DICTIONARYVAR
  5
1E8
102
{ACAD_REACTORS
330
1E3
102
}
330
1E3
100
DictionaryVariables
280
     0
  1
Standard
  0
DICTIONARY
  5
1E5
330
6A
100
AcDbDictionary
280
     1
281
     1
  3
ACAD_ROUNDTRIP_2008_TABLESTYLE_CELLSTYLEMAP
360
1E6
  0
CELLSTYLEMAP
  5
1E6
102
{ACAD_REACTORS
330
1E5
102
}
330
1E5
100
AcDbCellStyleMap
 90
        3
300
CELLSTYLE
  1
TABLEFORMAT_BEGIN
 90
        5
170
     1
 91
        0
 92
    32768
 62
   257
 93
        1
300
CONTENTFORMAT
  1
CONTENTFORMAT_BEGIN
 90
        0
 91
        0
 92
        4
 93
        0
300

 40
0.0
140
1.0
 94
        5
 62
     0
340
11
144
0.25
309
CONTENTFORMAT_END
171
     1
301
MARGIN
  1
CELLMARGIN_BEGIN
 40
0.06
 40
0.06
 40
0.06
 40
0.06
 40
0.06
 40
0.06
309
CELLMARGIN_END
 94
        6
 95
        1
302
GRIDFORMAT
  1
GRIDFORMAT_BEGIN
 90
        0
 91
        1
 62
     0
 92
       -2
340
14
 93
        0
 40
0.045
309
GRIDFORMAT_END
 95
        2
302
GRIDFORMAT
  1
GRIDFORMAT_BEGIN
 90
        0
 91
        1
 62
     0
 92
       -2
340
14
 93
        0
 40
0.045
309
GRIDFORMAT_END
 95
        4
302
GRIDFORMAT
  1
GRIDFORMAT_BEGIN
 90
        0
 91
        1
 62
     0
 92
       -2
340
14
 93
        0
 40
0.045
309
GRIDFORMAT_END
 95
        8
302
GRIDFORMAT
  1
GRIDFORMAT_BEGIN
 90
        0
 91
        1
 62
     0
 92
       -2
340
14
 93
        0
 40
0.045
309
GRIDFORMAT_END
 95
       16
302
GRIDFORMAT
  1
GRIDFORMAT_BEGIN
 90
        0
 91
        1
 62
     0
 92
       -2
340
14
 93
        0
 40
0.045
309
GRIDFORMAT_END
 95
       32
302
GRIDFORMAT
  1
GRIDFORMAT_BEGIN
 90
        0
 91
        1
 62
     0
 92
       -2
340
14
 93
        0
 40
0.045
309
GRIDFORMAT_END
309
TABLEFORMAT_END
  1
CELLSTYLE_BEGIN
 90
        1
 91
        1
300
_TITLE
309
CELLSTYLE_END
300
CELLSTYLE
  1
TABLEFORMAT_BEGIN
 90
        5
170
     1
 91
        0
 92
        0
 62
   257
 93
        1
300
CONTENTFORMAT
  1
CONTENTFORMAT_BEGIN
 90
        0
 91
        0
 92
        4
 93
        0
300

 40
0.0
140
1.0
 94
        5
 62
     0
340
11
144
0.18
309
CONTENTFORMAT_END
171
     1
301
MARGIN
  1
CELLMARGIN_BEGIN
 40
0.06
 40
0.06
 40
0.06
 40
0.06
 40
0.06
 40
0.06
309
CELLMARGIN_END
 94
        6
 95
        1
302
GRIDFORMAT
  1
GRIDFORMAT_BEGIN
 90
        0
 91
        1
 62
     0
 92
       -2
340
14
 93
        0
 40
0.045
309
GRIDFORMAT_END
 95
        2
302
GRIDFORMAT
  1
GRIDFORMAT_BEGIN
 90
        0
 91
        1
 62
     0
 92
       -2
340
14
 93
        0
 40
0.045
309
GRIDFORMAT_END
 95
        4
302
GRIDFORMAT
  1
GRIDFORMAT_BEGIN
 90
        0
 91
        1
 62
     0
 92
       -2
340
14
 93
        0
 40
0.045
309
GRIDFORMAT_END
 95
        8
302
GRIDFORMAT
  1
GRIDFORMAT_BEGIN
 90
        0
 91
        1
 62
     0
 92
       -2
340
14
 93
        0
 40
0.045
309
GRIDFORMAT_END
 95
       16
302
GRIDFORMAT
  1
GRIDFORMAT_BEGIN
 90
        0
 91
        1
 62
     0
 92
       -2
340
14
 93
        0
 40
0.045
309
GRIDFORMAT_END
 95
       32
302
GRIDFORMAT
  1
GRIDFORMAT_BEGIN
 90
        0
 91
        1
 62
     0
 92
       -2
340
14
 93
        0
 40
0.045
309
GRIDFORMAT_END
309
TABLEFORMAT_END
  1
CELLSTYLE_BEGIN
 90
        2
 91
        1
300
_HEADER
309
CELLSTYLE_END
300
CELLSTYLE
  1
TABLEFORMAT_BEGIN
 90
        5
170
     1
 91
        0
 92
        0
 62
   257
 93
        1
300
CONTENTFORMAT
  1
CONTENTFORMAT_BEGIN
 90
        0
 91
        0
 92
        4
 93
        0
300

 40
0.0
140
1.0
 94
        2
 62
     0
340
11
144
0.18
309
CONTENTFORMAT_END
171
     1
301
MARGIN
  1
CELLMARGIN_BEGIN
 40
0.06
 40
0.06
 40
0.06
 40
0.06
 40
0.06
 40
0.06
309
CELLMARGIN_END
 94
        6
 95
        1
302
GRIDFORMAT
  1
GRIDFORMAT_BEGIN
 90
        0
 91
        1
 62
     0
 92
       -2
340
14
 93
        0
 40
0.045
309
GRIDFORMAT_END
 95
        2
302
GRIDFORMAT
  1
GRIDFORMAT_BEGIN
 90
        0
 91
        1
 62
     0
 92
       -2
340
14
 93
        0
 40
0.045
309
GRIDFORMAT_END
 95
        4
302
GRIDFORMAT
  1
GRIDFORMAT_BEGIN
 90
        0
 91
        1
 62
     0
 92
       -2
340
14
 93
        0
 40
0.045
309
GRIDFORMAT_END
 95
        8
302
GRIDFORMAT
  1
GRIDFORMAT_BEGIN
 90
        0
 91
        1
 62
     0
 92
       -2
340
14
 93
        0
 40
0.045
309
GRIDFORMAT_END
 95
       16
302
GRIDFORMAT
  1
GRIDFORMAT_BEGIN
 90
        0
 91
        1
 62
     0
 92
       -2
340
14
 93
        0
 40
0.045
309
GRIDFORMAT_END
 95
       32
302
GRIDFORMAT
  1
GRIDFORMAT_BEGIN
 90
        0
 91
        1
 62
     0
 92
       -2
340
14
 93
        0
 40
0.045
309
GRIDFORMAT_END
309
TABLEFORMAT_END
  1
CELLSTYLE_BEGIN
 90
        3
 91
        2
300
_DATA
309
CELLSTYLE_END
  0
ENDSEC
  0
EOF