0
SECTION
  2
HEADER
  9
$ACADVER
  1
AC1027
  9
$ACADMAINTVER
 70
     8
  9
$DWGCODEPAGE
  3
ANSI_1252
  9
$REQUIREDVERSIONS
160
                 0
  9
$COMMENTS
  1
File was created by Cadenas
  9
$CUSTOMPROPERTYTAG
  1
NN
  9
$CUSTOMPROPERTY
  1
S-2000 Pillow Block with Type E Dimensions 2-Bolt Trident Seal Non-Expansion
  9
$CUSTOMPROPERTYTAG
  1
NT
  9
$CUSTOMPROPERTY
  1
S-2000 - E Type - Inch
  9
$CUSTOMPROPERTYTAG
  1
NB
  9
$CUSTOMPROPERTY
  1
071391
  9
$CUSTOMPROPERTYTAG
  1
NBSYN
  9
$CUSTOMPROPERTY
  1
$PN.
  9
$CUSTOMPROPERTYTAG
  1
LINA
  9
$CUSTOMPROPERTY
  1
071391
  9
$CUSTOMPROPERTYTAG
  1
SS
  9
$CUSTOMPROPERTY
  1
1-11/16
  9
$CUSTOMPROPERTYTAG
  1
TYPE
  9
$CUSTOMPROPERTY
  1
Non-Expansion
  9
$CUSTOMPROPERTYTAG
  1
PN
  9
$CUSTOMPROPERTY
  1
071391
  9
$CUSTOMPROPERTYTAG
  1
DESCRIPTION
  9
$CUSTOMPROPERTY
  1
EP2B-S2-111R
  9
$CUSTOMPROPERTYTAG
  1
A
  9
$CUSTOMPROPERTY
  1
2.67
  9
$CUSTOMPROPERTYTAG
  1
B
  9
$CUSTOMPROPERTY
  1
7.88
  9
$CUSTOMPROPERTYTAG
  1
C
  9
$CUSTOMPROPERTY
  1
2.38
  9
$CUSTOMPROPERTYTAG
  1
DMIN
  9
$CUSTOMPROPERTY
  1
6.13
  9
$CUSTOMPROPERTYTAG
  1
DMAX
  9
$CUSTOMPROPERTY
  1
6.38
  9
$CUSTOMPROPERTYTAG
  1
F
  9
$CUSTOMPROPERTY
  1
1/2
  9
$CUSTOMPROPERTYTAG
  1
G
  9
$CUSTOMPROPERTY
  1
0.75
  9
$CUSTOMPROPERTYTAG
  1
H
  9
$CUSTOMPROPERTY
  1
1.25
  9
$CUSTOMPROPERTYTAG
  1
J
  9
$CUSTOMPROPERTY
  1
4.25
  9
$CUSTOMPROPERTYTAG
  1
L
  9
$CUSTOMPROPERTY
  1
3.01
  9
$CUSTOMPROPERTYTAG
  1
M
  9
$CUSTOMPROPERTY
  1
2.125
  9
$CUSTOMPROPERTYTAG
  1
R
  9
$CUSTOMPROPERTY
  1
0.98
  9
$CUSTOMPROPERTYTAG
  1
S
  9
$CUSTOMPROPERTY
  1
1.69
  9
$CUSTOMPROPERTYTAG
  1
X
  9
$CUSTOMPROPERTY
  1
0.19
  9
$CUSTOMPROPERTYTAG
  1
Y
  9
$CUSTOMPROPERTY
  1
0.020
  9
$CUSTOMPROPERTYTAG
  1
Z
  9
$CUSTOMPROPERTY
  1
2.08
  9
$CUSTOMPROPERTYTAG
  1
CS
  9
$CUSTOMPROPERTY
  1
5/16-18
  9
$CUSTOMPROPERTYTAG
  1
TORQUE
  9
$CUSTOMPROPERTY
  1
165
  9
$CUSTOMPROPERTYTAG
  1
COMPANY
  9
$CUSTOMPROPERTY
  1
baldor
  9
$INSBASE
 10
0.0
 20
0.0
 30
0.0
  9
$EXTMIN
 10
1.000000000000000E+20
 20
1.000000000000000E+20
 30
1.000000000000000E+20
  9
$EXTMAX
 10
-1.000000000000000E+20
 20
-1.000000000000000E+20
 30
-1.000000000000000E+20
  9
$LIMMIN
 10
0.0
 20
0.0
  9
$LIMMAX
 10
12.0
 20
9.0
  9
$ORTHOMODE
 70
     0
  9
$REGENMODE
 70
     1
  9
$FILLMODE
 70
     1
  9
$QTEXTMODE
 70
     0
  9
$MIRRTEXT
 70
     1
  9
$LTSCALE
 40
1.0
  9
$ATTMODE
 70
     1
  9
$TEXTSIZE
 40
0.2
  9
$TRACEWID
 40
0.05
  9
$TEXTSTYLE
  7
Standard
  9
$CLAYER
  8
0
  9
$CELTYPE
  6
ByLayer
  9
$CECOLOR
 62
   256
  9
$CELTSCALE
 40
1.0
  9
$DISPSILH
 70
     0
  9
$DIMSCALE
 40
1.0
  9
$DIMASZ
 40
0.18
  9
$DIMEXO
 40
0.0625
  9
$DIMDLI
 40
0.38
  9
$DIMRND
 40
0.0
  9
$DIMDLE
 40
0.0
  9
$DIMEXE
 40
0.18
  9
$DIMTP
 40
0.0
  9
$DIMTM
 40
0.0
  9
$DIMTXT
 40
0.18
  9
$DIMCEN
 40
0.09
  9
$DIMTSZ
 40
0.0
  9
$DIMTOL
 70
     0
  9
$DIMLIM
 70
     0
  9
$DIMTIH
 70
     1
  9
$DIMTOH
 70
     1
  9
$DIMSE1
 70
     0
  9
$DIMSE2
 70
     0
  9
$DIMTAD
 70
     0
  9
$DIMZIN
 70
     0
  9
$DIMBLK
  1

  9
$DIMASO
 70
     1
  9
$DIMSHO
 70
     1
  9
$DIMPOST
  1

  9
$DIMAPOST
  1

  9
$DIMALT
 70
     0
  9
$DIMALTD
 70
     2
  9
$DIMALTF
 40
25.4
  9
$DIMLFAC
 40
1.0
  9
$DIMTOFL
 70
     0
  9
$DIMTVP
 40
0.0
  9
$DIMTIX
 70
     0
  9
$DIMSOXD
 70
     0
  9
$DIMSAH
 70
     0
  9
$DIMBLK1
  1

  9
$DIMBLK2
  1

  9
$DIMSTYLE
  2
Standard
  9
$DIMCLRD
 70
     0
  9
$DIMCLRE
 70
     0
  9
$DIMCLRT
 70
     0
  9
$DIMTFAC
 40
1.0
  9
$DIMGAP
 40
0.09
  9
$DIMJUST
 70
     0
  9
$DIMSD1
 70
     0
  9
$DIMSD2
 70
     0
  9
$DIMTOLJ
 70
     1
  9
$DIMTZIN
 70
     0
  9
$DIMALTZ
 70
     0
  9
$DIMALTTZ
 70
     0
  9
$DIMUPT
 70
     0
  9
$DIMDEC
 70
     4
  9
$DIMTDEC
 70
     4
  9
$DIMALTU
 70
     2
  9
$DIMALTTD
 70
     2
  9
$DIMTXSTY
  7
Standard
  9
$DIMAUNIT
 70
     0
  9
$DIMADEC
 70
     0
  9
$DIMALTRND
 40
0.0
  9
$DIMAZIN
 70
     0
  9
$DIMDSEP
 70
    46
  9
$DIMATFIT
 70
     3
  9
$DIMFRAC
 70
     0
  9
$DIMLDRBLK
  1

  9
$DIMLUNIT
 70
     2
  9
$DIMLWD
 70
    -2
  9
$DIMLWE
 70
    -2
  9
$DIMTMOVE
 70
     0
  9
$DIMFXL
 40
1.0
  9
$DIMFXLON
 70
     0
  9
$DIMJOGANG
 40
0.7853981633974483
  9
$DIMTFILL
 70
     0
  9
$DIMTFILLCLR
 70
     0
  9
$DIMARCSYM
 70
     0
  9
$DIMLTYPE
  6

  9
$DIMLTEX1
  6

  9
$DIMLTEX2
  6

  9
$DIMTXTDIRECTION
 70
     0
  9
$LUNITS
 70
     2
  9
$LUPREC
 70
     4
  9
$SKETCHINC
 40
0.1
  9
$FILLETRAD
 40
0.5
  9
$AUNITS
 70
     0
  9
$AUPREC
 70
     0
  9
$MENU
  1
.
  9
$ELEVATION
 40
0.0
  9
$PELEVATION
 40
0.0
  9
$THICKNESS
 40
0.0
  9
$LIMCHECK
 70
     0
  9
$CHAMFERA
 40
0.0
  9
$CHAMFERB
 40
0.0
  9
$CHAMFERC
 40
0.0
  9
$CHAMFERD
 40
0.0
  9
$SKPOLY
 70
     0
  9
$TDCREATE
 40
2458168.981321759
  9
$TDUCREATE
 40
2458168.939655093
  9
$TDUPDATE
 40
2458168.981321944
  9
$TDUUPDATE
 40
2458168.939655278
  9
$TDINDWG
 40
0.0000000116
  9
$TDUSRTIMER
 40
0.0000000116
  9
$USRTIMER
 70
     1
  9
$ANGBASE
 50
0.0
  9
$ANGDIR
 70
     0
  9
$PDMODE
 70
     0
  9
$PDSIZE
 40
0.0
  9
$PLINEWID
 40
0.0
  9
$SPLFRAME
 70
     0
  9
$SPLINETYPE
 70
     6
  9
$SPLINESEGS
 70
     8
  9
$HANDSEED
  5
1F4
  9
$SURFTAB1
 70
     6
  9
$SURFTAB2
 70
     6
  9
$SURFTYPE
 70
     6
  9
$SURFU
 70
     6
  9
$SURFV
 70
     6
  9
$UCSBASE
  2

  9
$UCSNAME
  2

  9
$UCSORG
 10
0.0
 20
0.0
 30
0.0
  9
$UCSXDIR
 10
1.0
 20
0.0
 30
0.0
  9
$UCSYDIR
 10
0.0
 20
1.0
 30
0.0
  9
$UCSORTHOREF
  2

  9
$UCSORTHOVIEW
 70
     0
  9
$UCSORGTOP
 10
0.0
 20
0.0
 30
0.0
  9
$UCSORGBOTTOM
 10
0.0
 20
0.0
 30
0.0
  9
$UCSORGLEFT
 10
0.0
 20
0.0
 30
0.0
  9
$UCSORGRIGHT
 10
0.0
 20
0.0
 30
0.0
  9
$UCSORGFRONT
 10
0.0
 20
0.0
 30
0.0
  9
$UCSORGBACK
 10
0.0
 20
0.0
 30
0.0
  9
$PUCSBASE
  2

  9
$PUCSNAME
  2

  9
$PUCSORG
 10
0.0
 20
0.0
 30
0.0
  9
$PUCSXDIR
 10
1.0
 20
0.0
 30
0.0
  9
$PUCSYDIR
 10
0.0
 20
1.0
 30
0.0
  9
$PUCSORTHOREF
  2

  9
$PUCSORTHOVIEW
 70
     0
  9
$PUCSORGTOP
 10
0.0
 20
0.0
 30
0.0
  9
$PUCSORGBOTTOM
 10
0.0
 20
0.0
 30
0.0
  9
$PUCSORGLEFT
 10
0.0
 20
0.0
 30
0.0
  9
$PUCSORGRIGHT
 10
0.0
 20
0.0
 30
0.0
  9
$PUCSORGFRONT
 10
0.0
 20
0.0
 30
0.0
  9
$PUCSORGBACK
 10
0.0
 20
0.0
 30
0.0
  9
$USERI1
 70
     0
  9
$USERI2
 70
     0
  9
$USERI3
 70
     0
  9
$USERI4
 70
     0
  9
$USERI5
 70
     0
  9
$USERR1
 40
0.0
  9
$USERR2
 40
0.0
  9
$USERR3
 40
0.0
  9
$USERR4
 40
0.0
  9
$USERR5
 40
0.0
  9
$WORLDVIEW
 70
     1
  9
$SHADEDGE
 70
     3
  9
$SHADEDIF
 70
    70
  9
$TILEMODE
 70
     1
  9
$MAXACTVP
 70
    64
  9
$PINSBASE
 10
0.0
 20
0.0
 30
0.0
  9
$PLIMCHECK
 70
     0
  9
$PEXTMIN
 10
1.000000000000000E+20
 20
1.000000000000000E+20
 30
1.000000000000000E+20
  9
$PEXTMAX
 10
-1.000000000000000E+20
 20
-1.000000000000000E+20
 30
-1.000000000000000E+20
  9
$PLIMMIN
 10
0.0
 20
0.0
  9
$PLIMMAX
 10
12.0
 20
9.0
  9
$UNITMODE
 70
     0
  9
$VISRETAIN
 70
     1
  9
$PLINEGEN
 70
     0
  9
$PSLTSCALE
 70
     1
  9
$TREEDEPTH
 70
  3020
  9
$CMLSTYLE
  2
Standard
  9
$CMLJUST
 70
     0
  9
$CMLSCALE
 40
1.0
  9
$PROXYGRAPHICS
 70
     1
  9
$MEASUREMENT
 70
     0
  9
$CELWEIGHT
370
    -1
  9
$ENDCAPS
280
     0
  9
$JOINSTYLE
280
     0
  9
$LWDISPLAY
290
     0
  9
$INSUNITS
 70
     1
  9
$HYPERLINKBASE
  1

  9
$STYLESHEET
  1

  9
$XEDIT
290
     1
  9
$CEPSNTYPE
380
     0
  9
$PSTYLEMODE
290
     1
  9
$FINGERPRINTGUID
  2
{CFDF4B9C-551C-4537-B216-B283CA5D590A}
  9
$VERSIONGUID
  2
{FAEB1C32-E019-11D5-929B-00C0DF256EC4}
  9
$EXTNAMES
290
     1
  9
$PSVPSCALE
 40
0.0
  9
$OLESTARTUP
290
     0
  9
$SORTENTS
280
   127
  9
$INDEXCTL
280
     0
  9
$HIDETEXT
280
     1
  9
$XCLIPFRAME
280
     2
  9
$HALOGAP
280
     0
  9
$OBSCOLOR
 70
   257
  9
$OBSLTYPE
280
     0
  9
$INTERSECTIONDISPLAY
280
     0
  9
$INTERSECTIONCOLOR
 70
   257
  9
$DIMASSOC
280
     2
  9
$PROJECTNAME
  1

  9
$CAMERADISPLAY
290
     0
  9
$LENSLENGTH
 40
50.0
  9
$CAMERAHEIGHT
 40
0.0
  9
$STEPSPERSEC
 40
2.0
  9
$STEPSIZE
 40
6.0
  9
$3DDWFPREC
 40
2.0
  9
$PSOLWIDTH
 40
0.25
  9
$PSOLHEIGHT
 40
4.0
  9
$LOFTANG1
 40
1.570796326794897
  9
$LOFTANG2
 40
1.570796326794897
  9
$LOFTMAG1
 40
0.0
  9
$LOFTMAG2
 40
0.0
  9
$LOFTPARAM
 70
     7
  9
$LOFTNORMALS
280
     1
  9
$LATITUDE
 40
37.795
  9
$LONGITUDE
 40
-122.394
  9
$NORTHDIRECTION
 40
0.0
  9
$TIMEZONE
 70
 -8000
  9
$LIGHTGLYPHDISPLAY
280
     1
  9
$TILEMODELIGHTSYNCH
280
     1
  9
$CMATERIAL
347
44
  9
$SOLIDHIST
280
     0
  9
$SHOWHIST
280
     1
  9
$DWFFRAME
280
     2
  9
$DGNFRAME
280
     2
  9
$REALWORLDSCALE
290
     1
  9
$INTERFERECOLOR
 62
   256
  9
$CSHADOW
280
     0
  9
$SHADOWPLANELOCATION
 40
0.0
  0
ENDSEC
  0
SECTION
  2
CLASSES
  0
CLASS
  1
ACDBDICTIONARYWDFLT
  2
AcDbDictionaryWithDefault
  3
ObjectDBX Classes
 90
        0
 91
        4
280
     0
281
     0
  0
CLASS
  1
VISUALSTYLE
  2
AcDbVisualStyle
  3
ObjectDBX Classes
 90
     4095
 91
        4
280
     0
281
     0
  0
CLASS
  1
MATERIAL
  2
AcDbMaterial
  3
ObjectDBX Classes
 90
     1153
 91
        4
280
     0
281
     0
  0
CLASS
  1
SCALE
  2
AcDbScale
  3
ObjectDBX Classes
 90
     1153
 91
        4
280
     0
281
     0
  0
CLASS
  1
TABLESTYLE
  2
AcDbTableStyle
  3
ObjectDBX Classes
 90
     4095
 91
        4
280
     0
281
     0
  0
CLASS
  1
MLEADERSTYLE
  2
AcDbMLeaderStyle
  3
ACDB_MLEADERSTYLE_CLASS
 90
     4095
 91
        4
280
     0
281
     0
  0
CLASS
  1
SUN
  2
AcDbSun
  3
SCENEOE
 90
     1153
 91
        4
280
     0
281
     0
  0
CLASS
  1
DICTIONARYVAR
  2
AcDbDictionaryVar
  3
ObjectDBX Classes
 90
        0
 91
        4
280
     0
281
     0
  0
CLASS
  1
CELLSTYLEMAP
  2
AcDbCellStyleMap
  3
ObjectDBX Classes
 90
     1152
 91
        4
280
     0
281
     0
  0
ENDSEC
  0
SECTION
  2
TABLES
  0
TABLE
  2
VPORT
  5
8
330
0
100
AcDbSymbolTable
 70
     1
  0
VPORT
  5
29
330
8
100
AcDbSymbolTableRecord
100
AcDbViewportTableRecord
  2
*Active
 70
     0
 10
0.0
 20
0.0
 11
1.0
 21
1.0
 12
0.0000000000000036
 22
-0.0541562500000001
 13
0.0
 23
0.0
 14
0.5
 24
0.5
 15
0.5
 25
0.5
 16
0.0
 26
0.0
 36
1.0
 17
0.0
 27
0.0
 37
0.0
 40
3.608058749999999
 41
2.243935190911178
 42
50.0
 43
0.0
 44
0.0
 50
0.0
 51
0.0
 71
     0
 72
   100
 73
     1
 74
     3
 75
     0
 76
     0
 77
     0
 78
     0
281
     0
 65
     1
110
0.0
120
0.0
130
0.0
111
1.0
121
0.0
131
0.0
112
0.0
122
1.0
132
0.0
 79
     0
146
0.0
348
2F
 60
     3
 61
     5
292
     1
282
     1
141
0.0
142
0.0
 63
   250
361
6D
  0
ENDTAB
  0
TABLE
  2
LTYPE
  5
5
330
0
100
AcDbSymbolTable
 70
     3
  0
LTYPE
  5
14
330
5
100
AcDbSymbolTableRecord
100
AcDbLinetypeTableRecord
  2
ByBlock
 70
     0
  3

 72
    65
 73
     0
 40
0.0
  0
LTYPE
  5
15
330
5
100
AcDbSymbolTableRecord
100
AcDbLinetypeTableRecord
  2
ByLayer
 70
     0
  3

 72
    65
 73
     0
 40
0.0
  0
LTYPE
  5
16
330
5
100
AcDbSymbolTableRecord
100
AcDbLinetypeTableRecord
  2
Continuous
 70
     0
  3
Solid line
 72
    65
 73
     0
 40
0.0
  0
LTYPE
  5
A8
330
5
100
AcDbSymbolTableRecord
100
AcDbLinetypeTableRecord
  2
Dashed
 70
     0
  3

 72
    65
 73
     2
 40
2.0
 49
1.0
 74
     0
 49
-1.0
 74
     0
  0
LTYPE
  5
BC
330
5
100
AcDbSymbolTableRecord
100
AcDbLinetypeTableRecord
  2
Center
 70
     0
  3

 72
    65
 73
     4
 40
1.5
 49
0.45
 74
     0
 49
-0.5
 74
     0
 49
0.05
 74
     0
 49
-0.5
 74
     0
  0
ENDTAB
  0
TABLE
  2
LAYER
  5
2
330
0
100
AcDbSymbolTable
 70
     7
  0
LAYER
  5
10
330
2
100
AcDbSymbolTableRecord
100
AcDbLayerTableRecord
  2
0
 70
     0
 62
     7
  6
Continuous
370
    -3
390
F
347
46
348
0
  0
LAYER
  5
72
330
2
100
AcDbSymbolTableRecord
100
AcDbLayerTableRecord
  2
AM_6
 70
     0
 62
    -2
  6
Continuous
370
    35
390
F
347
46
348
0
  0
LAYER
  5
A9
330
2
100
AcDbSymbolTableRecord
100
AcDbLayerTableRecord
  2
AM_9
 70
     0
 62
     6
  6
Dashed
370
    25
390
F
347
46
348
0
  0
LAYER
  5
BD
330
2
100
AcDbSymbolTableRecord
100
AcDbLayerTableRecord
  2
AM_7
 70
     0
 62
     7
  6
Center
370
    25
390
F
347
46
348
0
  0
LAYER
  5
BF
330
2
100
AcDbSymbolTableRecord
100
AcDbLayerTableRecord
  2
AM_4
 70
     0
 62
     7
  6
Continuous
370
    50
390
F
347
46
348
0
  0
LAYER
  5
D4
330
2
100
AcDbSymbolTableRecord
100
AcDbLayerTableRecord
  2
AM_5
 70
     0
 62
     3
  6
Continuous
370
    25
390
F
347
46
348
0
  0
LAYER
  5
1E3
330
2
100
AcDbSymbolTableRecord
100
AcDbLayerTableRecord
  2
ConnectionPoints
 70
     0
 62
     7
  6
Continuous
370
    50
390
F
347
46
348
0
  0
ENDTAB
  0
TABLE
  2
STYLE
  5
3
330
0
100
AcDbSymbolTable
 70
     1
  0
STYLE
  5
11
330
3
100
AcDbSymbolTableRecord
100
AcDbTextStyleTableRecord
  2
Standard
 70
     0
 40
0.0
 41
1.0
 50
0.0
 71
     0
 42
0.2
  3
txt
  4

  0
ENDTAB
  0
TABLE
  2
VIEW
  5
6
330
0
100
AcDbSymbolTable
 70
     0
  0
ENDTAB
  0
TABLE
  2
UCS
  5
7
330
0
100
AcDbSymbolTable
 70
     0
  0
ENDTAB
  0
TABLE
  2
APPID
  5
9
330
0
100
AcDbSymbolTable
 70
     1
  0
APPID
  5
12
330
9
100
AcDbSymbolTableRecord
100
AcDbRegAppTableRecord
  2
ACAD
 70
     0
  0
ENDTAB
  0
TABLE
  2
DIMSTYLE
  5
A
330
0
100
AcDbSymbolTable
 70
     1
100
AcDbDimStyleTable
  0
DIMSTYLE
105
27
330
A
100
AcDbSymbolTableRecord
100
AcDbDimStyleTableRecord
  2
Standard
 70
     0
178
     0
340
11
  0
ENDTAB
  0
TABLE
  2
BLOCK_RECORD
  5
1
330
0
100
AcDbSymbolTable
 70
     6
  0
BLOCK_RECORD
  5
1F
330
1
100
AcDbSymbolTableRecord
100
AcDbBlockTableRecord
  2
*Model_Space
340
22
 70
     0
280
     1
281
     0
  0
BLOCK_RECORD
  5
1B
330
1
100
AcDbSymbolTableRecord
100
AcDbBlockTableRecord
  2
*Paper_Space
340
1E
 70
     0
280
     1
281
     0
  0
BLOCK_RECORD
  5
23
330
1
100
AcDbSymbolTableRecord
100
AcDbBlockTableRecord
  2
*Paper_Space0
340
26
 70
     0
280
     1
281
     0
  0
BLOCK_RECORD
  5
6E
330
1
100
AcDbSymbolTableRecord
100
AcDbBlockTableRecord
  2
1_071391_4
340
0
102
{BLKREFS
331
6F
102
}
 70
     0
280
     1
281
     0
  0
BLOCK_RECORD
  5
8F
330
1
100
AcDbSymbolTableRecord
100
AcDbBlockTableRecord
  2
2_1_11_16CS2i_0_in_071391_4
340
0
102
{BLKREFS
331
90
102
}
 70
     0
280
     1
281
     0
  0
BLOCK_RECORD
  5
D6
330
1
100
AcDbSymbolTableRecord
100
AcDbBlockTableRecord
  2
3_070003i_0_in_071391_4
340
0
102
{BLKREFS
331
D7
102
}
 70
     0
280
     1
281
     0
  0
BLOCK_RECORD
  5
12A
330
1
100
AcDbSymbolTableRecord
100
AcDbBlockTableRecord
  2
4_405015E_Inch_0_in_071391_4
340
0
102
{BLKREFS
331
12B
102
}
 70
     0
280
     1
281
     0
  0
BLOCK_RECORD
  5
169
330
1
100
AcDbSymbolTableRecord
100
AcDbBlockTableRecord
  2
5_B071402_0_in_071391_4
340
0
102
{BLKREFS
331
16A
102
}
 70
     0
280
     1
281
     0
  0
ENDTAB
  0
ENDSEC
  0
SECTION
  2
BLOCKS
  0
BLOCK
  5
20
330
1F
100
AcDbEntity
  8
0
100
AcDbBlockBegin
  2
*Model_Space
 70
     0
 10
0.0
 20
0.0
 30
0.0
  3
*Model_Space
  1

  0
ENDBLK
  5
21
330
1F
100
AcDbEntity
  8
0
100
AcDbBlockEnd
  0
BLOCK
  5
1C
330
1B
100
AcDbEntity
 67
     1
  8
0
100
AcDbBlockBegin
  2
*Paper_Space
 70
     0
 10
0.0
 20
0.0
 30
0.0
  3
*Paper_Space
  1

  0
ENDBLK
  5
1D
330
1B
100
AcDbEntity
 67
     1
  8
0
100
AcDbBlockEnd
  0
BLOCK
  5
24
330
23
100
AcDbEntity
  8
0
100
AcDbBlockBegin
  2
*Paper_Space0
 70
     0
 10
0.0
 20
0.0
 30
0.0
  3
*Paper_Space0
  1

  0
ENDBLK
  5
25
330
23
100
AcDbEntity
  8
0
100
AcDbBlockEnd
  0
BLOCK
  5
70
330
6E
100
AcDbEntity
  8
0
100
AcDbBlockBegin
  2
1_071391_4
 70
     2
 10
0.0
 20
0.0
 30
0.0
  3
1_071391_4
  1

  0
ATTDEF
  5
73
330
6E
100
AcDbEntity
  8
AM_6
100
AcDbText
 10
8.968750000000002
 20
1.342564102564102
 30
0.0
 40
0.5
  1
S-2000 Pillow Block with Type E Dimensions 2-Bolt Trident Seal Non-Expansion
100
AcDbAttributeDefinition
  3

  2
NN
 70
     8
280
     0
  0
ATTDEF
  5
74
330
6E
100
AcDbEntity
  8
AM_6
100
AcDbText
 10
8.968750000000002
 20
0.8425641025641024
 30
0.0
 40
0.5
  1
S-2000 - E Type - Inch
100
AcDbAttributeDefinition
  3

  2
NT
 70
     8
280
     0
  0
ATTDEF
  5
75
330
6E
100
AcDbEntity
  8
AM_6
100
AcDbText
 10
8.968750000000002
 20
0.3425641025641024
 30
0.0
 40
0.5
  1
071391
100
AcDbAttributeDefinition
  3

  2
NB
 70
     8
280
     0
  0
ATTDEF
  5
76
330
6E
100
AcDbEntity
  8
AM_6
100
AcDbText
 10
8.968750000000002
 20
-0.1574358974358976
 30
0.0
 40
0.5
  1
$PN.
100
AcDbAttributeDefinition
  3

  2
NBSYN
 70
     8
280
     0
  0
ATTDEF
  5
77
330
6E
100
AcDbEntity
  8
AM_6
100
AcDbText
 10
8.968750000000002
 20
-0.6574358974358976
 30
0.0
 40
0.5
  1
071391
100
AcDbAttributeDefinition
  3

  2
LINA
 70
     8
280
     0
  0
ATTDEF
  5
78
330
6E
100
AcDbEntity
  8
AM_6
100
AcDbText
 10
8.968750000000002
 20
-1.157435897435898
 30
0.0
 40
0.5
  1
1-11/16
100
AcDbAttributeDefinition
  3

  2
SS
 70
     8
280
     0
  0
ATTDEF
  5
79
330
6E
100
AcDbEntity
  8
AM_6
100
AcDbText
 10
8.968750000000002
 20
-1.657435897435898
 30
0.0
 40
0.5
  1
Non-Expansion
100
AcDbAttributeDefinition
  3

  2
TYPE
 70
     8
280
     0
  0
ATTDEF
  5
7A
330
6E
100
AcDbEntity
  8
AM_6
100
AcDbText
 10
8.968750000000002
 20
-2.157435897435898
 30
0.0
 40
0.5
  1
071391
100
AcDbAttributeDefinition
  3

  2
PN
 70
     8
280
     0
  0
ATTDEF
  5
7B
330
6E
100
AcDbEntity
  8
AM_6
100
AcDbText
 10
8.968750000000002
 20
-2.657435897435898
 30
0.0
 40
0.5
  1
EP2B-S2-111R
100
AcDbAttributeDefinition
  3

  2
DESCRIPTION
 70
     8
280
     0
  0
ATTDEF
  5
7C
330
6E
100
AcDbEntity
  8
AM_6
100
AcDbText
 10
8.968750000000002
 20
-3.157435897435898
 30
0.0
 40
0.5
  1
2.67
100
AcDbAttributeDefinition
  3

  2
A
 70
     8
280
     0
  0
ATTDEF
  5
7D
330
6E
100
AcDbEntity
  8
AM_6
100
AcDbText
 10
8.968750000000002
 20
-3.657435897435898
 30
0.0
 40
0.5
  1
7.88
100
AcDbAttributeDefinition
  3

  2
B
 70
     8
280
     0
  0
ATTDEF
  5
7E
330
6E
100
AcDbEntity
  8
AM_6
100
AcDbText
 10
8.968750000000002
 20
-4.157435897435898
 30
0.0
 40
0.5
  1
2.38
100
AcDbAttributeDefinition
  3

  2
C
 70
     8
280
     0
  0
ATTDEF
  5
7F
330
6E
100
AcDbEntity
  8
AM_6
100
AcDbText
 10
8.968750000000002
 20
-4.657435897435898
 30
0.0
 40
0.5
  1
6.13
100
AcDbAttributeDefinition
  3

  2
DMIN
 70
     8
280
     0
  0
ATTDEF
  5
80
330
6E
100
AcDbEntity
  8
AM_6
100
AcDbText
 10
8.968750000000002
 20
-5.157435897435898
 30
0.0
 40
0.5
  1
6.38
100
AcDbAttributeDefinition
  3

  2
DMAX
 70
     8
280
     0
  0
ATTDEF
  5
81
330
6E
100
AcDbEntity
  8
AM_6
100
AcDbText
 10
8.968750000000002
 20
-5.657435897435898
 30
0.0
 40
0.5
  1
1/2
100
AcDbAttributeDefinition
  3

  2
F
 70
     8
280
     0
  0
ATTDEF
  5
82
330
6E
100
AcDbEntity
  8
AM_6
100
AcDbText
 10
8.968750000000002
 20
-6.157435897435898
 30
0.0
 40
0.5
  1
0.75
100
AcDbAttributeDefinition
  3

  2
G
 70
     8
280
     0
  0
ATTDEF
  5
83
330
6E
100
AcDbEntity
  8
AM_6
100
AcDbText
 10
8.968750000000002
 20
-6.657435897435898
 30
0.0
 40
0.5
  1
1.25
100
AcDbAttributeDefinition
  3

  2
H
 70
     8
280
     0
  0
ATTDEF
  5
84
330
6E
100
AcDbEntity
  8
AM_6
100
AcDbText
 10
8.968750000000002
 20
-7.157435897435898
 30
0.0
 40
0.5
  1
4.25
100
AcDbAttributeDefinition
  3

  2
J
 70
     8
280
     0
  0
ATTDEF
  5
85
330
6E
100
AcDbEntity
  8
AM_6
100
AcDbText
 10
8.968750000000002
 20
-7.657435897435898
 30
0.0
 40
0.5
  1
3.01
100
AcDbAttributeDefinition
  3

  2
L
 70
     8
280
     0
  0
ATTDEF
  5
86
330
6E
100
AcDbEntity
  8
AM_6
100
AcDbText
 10
8.968750000000002
 20
-8.157435897435898
 30
0.0
 40
0.5
  1
2.125
100
AcDbAttributeDefinition
  3

  2
M
 70
     8
280
     0
  0
ATTDEF
  5
87
330
6E
100
AcDbEntity
  8
AM_6
100
AcDbText
 10
8.968750000000002
 20
-8.657435897435898
 30
0.0
 40
0.5
  1
0.98
100
AcDbAttributeDefinition
  3

  2
R
 70
     8
280
     0
  0
ATTDEF
  5
88
330
6E
100
AcDbEntity
  8
AM_6
100
AcDbText
 10
8.968750000000002
 20
-9.157435897435898
 30
0.0
 40
0.5
  1
1.69
100
AcDbAttributeDefinition
  3

  2
S
 70
     8
280
     0
  0
ATTDEF
  5
89
330
6E
100
AcDbEntity
  8
AM_6
100
AcDbText
 10
8.968750000000002
 20
-9.657435897435898
 30
0.0
 40
0.5
  1
0.19
100
AcDbAttributeDefinition
  3

  2
X
 70
     8
280
     0
  0
ATTDEF
  5
8A
330
6E
100
AcDbEntity
  8
AM_6
100
AcDbText
 10
8.968750000000002
 20
-10.1574358974359
 30
0.0
 40
0.5
  1
0.020
100
AcDbAttributeDefinition
  3

  2
Y
 70
     8
280
     0
  0
ATTDEF
  5
8B
330
6E
100
AcDbEntity
  8
AM_6
100
AcDbText
 10
8.968750000000002
 20
-10.6574358974359
 30
0.0
 40
0.5
  1
2.08
100
AcDbAttributeDefinition
  3

  2
Z
 70
     8
280
     0
  0
ATTDEF
  5
8C
330
6E
100
AcDbEntity
  8
AM_6
100
AcDbText
 10
8.968750000000002
 20
-11.1574358974359
 30
0.0
 40
0.5
  1
5/16-18
100
AcDbAttributeDefinition
  3

  2
CS
 70
     8
280
     0
  0
ATTDEF
  5
8D
330
6E
100
AcDbEntity
  8
AM_6
100
AcDbText
 10
8.968750000000002
 20
-11.6574358974359
 30
0.0
 40
0.5
  1
165
100
AcDbAttributeDefinition
  3

  2
TORQUE
 70
     8
280
     0
  0
ATTDEF
  5
8E
330
6E
100
AcDbEntity
  8
AM_6
100
AcDbText
 10
8.968750000000002
 20
-12.1574358974359
 30
0.0
 40
0.5
  1
baldor
100
AcDbAttributeDefinition
  3

  2
COMPANY
 70
     8
280
     0
  0
INSERT
  5
90
330
6E
100
AcDbEntity
  8
0
100
AcDbBlockReference
  2
2_1_11_16CS2i_0_in_071391_4
 10
0.0
 20
0.0
 30
0.0
  0
INSERT
  5
D7
330
6E
100
AcDbEntity
  8
0
100
AcDbBlockReference
  2
3_070003i_0_in_071391_4
 10
0.0
 20
0.0
 30
0.0
  0
INSERT
  5
12B
330
6E
100
AcDbEntity
  8
0
100
AcDbBlockReference
  2
4_405015E_Inch_0_in_071391_4
 10
0.0
 20
0.0
 30
0.0
  0
INSERT
  5
16A
330
6E
100
AcDbEntity
  8
0
100
AcDbBlockReference
  2
5_B071402_0_in_071391_4
 10
0.0
 20
0.0
 30
0.0
  0
ENDBLK
  5
71
330
6E
100
AcDbEntity
  8
0
100
AcDbBlockEnd
  0
BLOCK
  5
91
330
8F
100
AcDbEntity
  8
0
100
AcDbBlockBegin
  2
2_1_11_16CS2i_0_in_071391_4
 70
     2
 10
0.0
 20
0.0
 30
0.0
  3
2_1_11_16CS2i_0_in_071391_4
  1

  0
ATTDEF
  5
93
330
8F
100
AcDbEntity
  8
AM_6
100
AcDbText
 10
6.59375
 20
-1.118
 30
0.0
 40
0.5
  1
S-2000 Collar -Inch
100
AcDbAttributeDefinition
  3

  2
NN
 70
     8
280
     0
  0
ATTDEF
  5
94
330
8F
100
AcDbEntity
  8
AM_6
100
AcDbText
 10
6.59375
 20
-1.618
 30
0.0
 40
0.5
  1
S-2000 Bearings
100
AcDbAttributeDefinition
  3

  2
NT
 70
     8
280
     0
  0
ATTDEF
  5
95
330
8F
100
AcDbEntity
  8
AM_6
100
AcDbText
 10
6.59375
 20
-2.118
 30
0.0
 40
0.5
  1
1-11/16CS2i
100
AcDbAttributeDefinition
  3

  2
NB
 70
     8
280
     0
  0
ATTDEF
  5
96
330
8F
100
AcDbEntity
  8
AM_6
100
AcDbText
 10
6.59375
 20
-2.618
 30
0.0
 40
0.5
  1
$BORE.CS2i
100
AcDbAttributeDefinition
  3

  2
NBSYN
 70
     8
280
     0
  0
ATTDEF
  5
97
330
8F
100
AcDbEntity
  8
AM_6
100
AcDbText
 10
6.59375
 20
-3.118
 30
0.0
 40
0.5
  1
1-11/16CS2i
100
AcDbAttributeDefinition
  3

  2
LINA
 70
     8
280
     0
  0
ATTDEF
  5
98
330
8F
100
AcDbEntity
  8
AM_6
100
AcDbText
 10
6.59375
 20
-3.618
 30
0.0
 40
0.5
  1
1-11/16
100
AcDbAttributeDefinition
  3

  2
BORE
 70
     8
280
     0
  0
ATTDEF
  5
99
330
8F
100
AcDbEntity
  8
AM_6
100
AcDbText
 10
6.59375
 20
-4.118
 30
0.0
 40
0.5
  1
1.687500
100
AcDbAttributeDefinition
  3

  2
BORE1
 70
     8
280
     0
  0
ATTDEF
  5
9A
330
8F
100
AcDbEntity
  8
AM_6
100
AcDbText
 10
6.59375
 20
-4.618
 30
0.0
 40
0.5
  1
3-3/16
100
AcDbAttributeDefinition
  3

  2
L1
 70
     8
280
     0
  0
ATTDEF
  5
9B
330
8F
100
AcDbEntity
  8
AM_6
100
AcDbText
 10
6.59375
 20
-5.118
 30
0.0
 40
0.5
  1
3.18750
100
AcDbAttributeDefinition
  3

  2
L
 70
     8
280
     0
  0
ATTDEF
  5
9C
330
8F
100
AcDbEntity
  8
AM_6
100
AcDbText
 10
6.59375
 20
-5.618
 30
0.0
 40
0.5
  1
3.09375
100
AcDbAttributeDefinition
  3

  2
L2
 70
     8
280
     0
  0
ATTDEF
  5
9D
330
8F
100
AcDbEntity
  8
AM_6
100
AcDbText
 10
6.59375
 20
-6.118
 30
0.0
 40
0.5
  1
3.38
100
AcDbAttributeDefinition
  3

  2
A
 70
     8
280
     0
  0
ATTDEF
  5
9E
330
8F
100
AcDbEntity
  8
AM_6
100
AcDbText
 10
6.59375
 20
-6.618
 30
0.0
 40
0.5
  1
1.50
100
AcDbAttributeDefinition
  3

  2
B
 70
     8
280
     0
  0
ATTDEF
  5
9F
330
8F
100
AcDbEntity
  8
AM_6
100
AcDbText
 10
6.59375
 20
-7.118
 30
0.0
 40
0.5
  1
2.06
100
AcDbAttributeDefinition
  3

  2
C
 70
     8
280
     0
  0
ATTDEF
  5
A0
330
8F
100
AcDbEntity
  8
AM_6
100
AcDbText
 10
6.59375
 20
-7.618
 30
0.0
 40
0.5
  1
3.25
100
AcDbAttributeDefinition
  3

  2
D
 70
     8
280
     0
  0
ATTDEF
  5
A1
330
8F
100
AcDbEntity
  8
AM_6
100
AcDbText
 10
6.59375
 20
-8.118
 30
0.0
 40
0.5
  1
0.35
100
AcDbAttributeDefinition
  3

  2
E
 70
     8
280
     0
  0
ATTDEF
  5
A2
330
8F
100
AcDbEntity
  8
AM_6
100
AcDbText
 10
6.59375
 20
-8.618
 30
0.0
 40
0.5
  1
0.286
100
AcDbAttributeDefinition
  3

  2
F
 70
     8
280
     0
  0
ATTDEF
  5
A3
330
8F
100
AcDbEntity
  8
AM_6
100
AcDbText
 10
6.59375
 20
-9.118
 30
0.0
 40
0.5
  1
5/16-18
100
AcDbAttributeDefinition
  3

  2
CS
 70
     8
280
     0
  0
ATTDEF
  5
A4
330
8F
100
AcDbEntity
  8
AM_6
100
AcDbText
 10
6.59375
 20
-9.618
 30
0.0
 40
0.5
  1
0.3125
100
AcDbAttributeDefinition
  3

  2
NDM
 70
     8
280
     0
  0
ATTDEF
  5
A5
330
8F
100
AcDbEntity
  8
AM_6
100
AcDbText
 10
6.59375
 20
-10.118
 30
0.0
 40
0.5
  1
0.2520
100
AcDbAttributeDefinition
  3

  2
KDM
 70
     8
280
     0
  0
ATTDEF
  5
A6
330
8F
100
AcDbEntity
  8
AM_6
100
AcDbText
 10
6.59375
 20
-10.618
 30
0.0
 40
0.5
  1
1
100
AcDbAttributeDefinition
  3

  2
DD
 70
     8
280
     0
  0
ATTDEF
  5
A7
330
8F
100
AcDbEntity
  8
AM_6
100
AcDbText
 10
6.59375
 20
-11.118
 30
0.0
 40
0.5
  1
baldor
100
AcDbAttributeDefinition
  3

  2
COMPANY
 70
     8
280
     0
  0
LINE
  5
AA
330
8F
100
AcDbEntity
  8
AM_9
100
AcDbLine
 10
0.9667204080673113
 20
-1.292360626202667
 30
0.0
 11
0.9588186057002681
 21
-1.28250481410742
 31
0.0
  0
LINE
  5
AB
330
8F
100
AcDbEntity
  8
AM_9
100
AcDbLine
 10
0.9588039485709583
 20
-1.525513467533352
 30
0.0
 11
0.9667204080673114
 21
-1.515639373797333
 31
0.0
  0
LWPOLYLINE
  5
AC
330
8F
100
AcDbEntity
  8
AM_9
100
AcDbPolyline
 90
       25
 70
     0
 43
0.0
 10
0.9587681927256435
 20
-1.282441934688562
 10
0.9507830359024692
 20
-1.27460526031026
 10
0.9411861948580292
 20
-1.269691538561018
 10
0.9304615446755495
 20
-1.268759337983458
 10
0.9192537850760377
 20
-1.272033471004591
 10
0.9077846982770182
 20
-1.279600752480756
 10
0.8966001711739593
 20
-1.291240121137572
 10
0.8863394900795775
 20
-1.306476601168282
 10
0.8773099536379897
 20
-1.325069779287333
 10
0.8703783002532659
 20
-1.345401886865826
 10
0.8654291956609259
 20
-1.367760572410201
 10
0.8629620940377323
 20
-1.389539899785714
 10
0.8626208703802728
 20
-1.411775263705619
 10
0.8643096398213272
 20
-1.432528298899272
 10
0.8678149661738626
 20
-1.452490383472096
 10
0.8730221968277888
 20
-1.471283698131489
 10
0.879624267861575
 20
-1.488326636269268
 10
0.8878597638570164
 20
-1.504118201389448
 10
0.8969912772847339
 20
-1.517246269160129
 10
0.9074231362706906
 20
-1.528094504743312
 10
0.9181139245863288
 20
-1.535404346588575
 10
0.9292472675127298
 20
-1.5390863723685
 10
0.9399411462321269
 20
-1.538644252685196
 10
0.9500774323464586
 20
-1.53390479885606
 10
0.9587685337061724
 20
-1.525557640018546
  0
LWPOLYLINE
  5
AD
330
8F
100
AcDbEntity
  8
AM_9
100
AcDbPolyline
 90
        6
 70
     0
 43
0.0
 10
0.98571096865438
 20
-1.403999999999991
 10
0.9854587962131792
 20
-1.38945865374442
 10
0.9842069558582288
 20
-1.368632304702639
 10
0.9819465546978767
 20
-1.349104663110749
 10
0.9786999673425218
 20
-1.331020782964526
 10
0.9715380727787517
 20
-1.306116833062571
  0
LWPOLYLINE
  5
AE
330
8F
100
AcDbEntity
  8
AM_9
100
AcDbPolyline
 90
        8
 70
     0
 43
0.0
 10
0.9633471053088699
 20
-1.519010194491262
 10
0.9671228985571815
 20
-1.512116433877426
 10
0.973740314130867
 20
-1.495582906120249
 10
0.9787827345822117
 20
-1.476562102812568
 10
0.9824922755808612
 20
-1.455011188780092
 10
0.9846796929994053
 20
-1.433339595658369
 10
0.9856582099085004
 20
-1.410704484274783
 10
0.98571096865438
 20
-1.403999999999991
  0
LWPOLYLINE
  5
AF
330
8F
100
AcDbEntity
  8
AM_9
100
AcDbPolyline
 90
        3
 70
     0
 43
0.0
 10
0.9587685337061724
 20
-1.525557640018546
 10
0.9592213460049205
 20
-1.524985224404417
 10
0.9633471053088699
 20
-1.519010194491262
  0
LINE
  5
B0
330
8F
100
AcDbEntity
  8
AM_9
100
AcDbLine
 10
0.9418501574182655
 20
-1.5302
 30
0.0
 11
1.40191480397609
 21
-1.5302
 31
0.0
  0
LINE
  5
B1
330
8F
100
AcDbEntity
  8
AM_9
100
AcDbLine
 10
1.41719348658921
 20
-1.2778
 30
0.0
 11
0.9418501574182655
 21
-1.2778
 31
0.0
  0
ELLIPSE
  5
B2
330
8F
100
AcDbEntity
  8
AM_9
100
AcDbEllipse
 10
1.417193486589214
 20
-1.404000000000011
 30
0.0
 11
-2.318256390786137E-17
 21
-0.1262000000000107
 31
0.0
210
0.0
220
0.0
230
1.0
 40
0.4226182617407162
 41
3.428594994483197
 42
4.71238898038469
  0
LINE
  5
B3
330
8F
100
AcDbEntity
  8
AM_9
100
AcDbLine
 10
1.412279345543547
 20
-1.267469638391662
 30
0.0
 11
1.392323235940168
 21
-1.292360626202661
 31
0.0
  0
LWPOLYLINE
  5
B4
330
8F
100
AcDbEntity
  8
AM_9
100
AcDbPolyline
 90
       39
 70
     0
 43
0.0
 10
-0.1011837417154391
 20
-1.306667359787586
 10
-0.1154451229961441
 20
-1.321477477419788
 10
-0.1275895126737103
 20
-1.338654393636444
 10
-0.1375725029473131
 20
-1.359322012062167
 10
-0.1438745639902234
 20
-1.382214106283162
 10
-0.145785094457335
 20
-1.40348753047403
 10
-0.1439354379935623
 20
-1.42543839526777
 10
-0.1387727767224035
 20
-1.44536984342837
 10
-0.1302296369189202
 20
-1.464703936932303
 10
-0.1186768172277753
 20
-1.482475561672243
 10
-0.1041315660981364
 20
-1.498611883531857
 10
-0.0864699337885861
 20
-1.512897243092778
 10
-0.0662765237808774
 20
-1.524531134445209
 10
-0.0435455198347405
 20
-1.533196442012864
 10
-0.0190623504813185
 20
-1.538246449480162
 10
0.0062421128853624
 20
-1.539291658032935
 10
0.0320838252594779
 20
-1.53607542734938
 10
0.0565610929496561
 20
-1.528747146372804
 10
0.0800977413472401
 20
-1.517033245786087
 10
0.1002674196002208
 20
-1.502147654098443
 10
0.1180164255137912
 20
-1.483328395851473
 10
0.1309257165826867
 20
-1.46340333163606
 10
0.1402989398493195
 20
-1.440688340667502
 10
0.1448503976764733
 20
-1.41926754052213
 10
0.1455701751135866
 20
-1.39665639529542
 10
0.1426543100415935
 20
-1.376171739643923
 10
0.1362208359348267
 20
-1.355898058575519
 10
0.1267734816985202
 20
-1.337302805808241
 10
0.1142060426877187
 20
-1.320005404729406
 10
0.0985328443793699
 20
-1.304347453471454
 10
0.0801509260258057
 20
-1.290999373010249
 10
0.0589090895114302
 20
-1.280198321888074
 10
0.0356057842945749
 20
-1.272710214943638
 10
0.0108061051736513
 20
-1.268958311504053
 10
-0.0149793067815089
 20
-1.269304761947528
 10
-0.040126471167456
 20
-1.273846552164758
 10
-0.0648396314262601
 20
-1.282793764097208
 10
-0.0837044041666521
 20
-1.293250141863338
 10
-0.1011837417154391
 20
-1.306667359787586
  0
LWPOLYLINE
  5
B5
330
8F
100
AcDbEntity
  8
AM_9
100
AcDbPolyline
 90
        3
 70
     0
 43
0.0
 10
0.961872225025841
 20
-1.286688139086531
 10
0.959460277050453
 20
-1.283323037174173
 10
0.9587681927256435
 20
-1.282441934688562
  0
LWPOLYLINE
  5
B6
330
8F
100
AcDbEntity
  8
AM_9
100
AcDbPolyline
 90
        3
 70
     0
 43
0.0
 10
0.9715380727787517
 20
-1.306116833062571
 10
0.9659135475690981
 20
-1.293502989187927
 10
0.961872225025841
 20
-1.286688139086531
  0
LINE
  5
B7
330
8F
100
AcDbEntity
  8
AM_9
100
AcDbLine
 10
1.03
 20
-1.69
 30
0.0
 11
1.03
 21
-1.118
 31
0.0
  0
LINE
  5
B8
330
8F
100
AcDbEntity
  8
AM_9
100
AcDbLine
 10
-1.03
 20
-1.118
 30
0.0
 11
-1.03
 21
-1.69
 31
0.0
  0
LINE
  5
B9
330
8F
100
AcDbEntity
  8
AM_9
100
AcDbLine
 10
0.1262
 20
-1.404
 30
0.0
 11
-0.1262
 21
-1.404
 31
0.0
  0
LINE
  5
BA
330
8F
100
AcDbEntity
  8
AM_9
100
AcDbLine
 10
1.45060587496844
 20
-1.404
 30
0.0
 11
1.375006425067283
 21
-1.404
 31
0.0
  0
ELLIPSE
  5
BB
330
8F
100
AcDbEntity
  8
AM_9
100
AcDbEllipse
 10
0.9418501574182654
 20
-1.404
 30
0.0
 11
-2.318256390785937E-17
 21
-0.1261999999999999
 31
0.0
210
0.0
220
0.0
230
1.0
 40
0.4226182617406989
 41
0.0
 42
6.283185307179586
  0
LINE
  5
BE
330
8F
100
AcDbEntity
  8
AM_7
100
AcDbLine
 10
-0.1325100000000001
 20
-1.404
 30
0.0
 11
0.1325100000000001
 21
-1.404
 31
0.0
  0
LWPOLYLINE
  5
C0
330
8F
100
AcDbEntity
  8
AM_4
100
AcDbPolyline
 90
       11
 70
     0
 43
0.0
 10
1.401949860168383
 20
-1.530199999444958
 10
1.395793835313083
 20
-1.529374536368185
 10
1.386710762115303
 20
-1.525182841066026
 10
1.377828377914045
 20
-1.517599375050977
 10
1.369433429652407
 20
-1.506779858318032
 10
1.361822592240212
 20
-1.493080024252794
 10
1.35526897053142
 20
-1.476796854187362
 10
1.350029655263705
 20
-1.458457621368244
 10
1.34633317829946
 20
-1.438552559300718
 10
1.344305617241938
 20
-1.417667232792412
 10
1.343937025705087
 20
-1.404
  0
ELLIPSE
  5
C1
330
8F
100
AcDbEntity
  8
AM_4
100
AcDbEllipse
 10
1.417193486589207
 20
-1.404000000000013
 30
0.0
 11
-2.318256390786190E-17
 21
-0.1262000000000136
 31
0.0
210
0.0
220
0.0
230
1.0
 40
0.4226182617406941
 41
1.570796326794897
 42
3.428594994483068
  0
LWPOLYLINE
  5
C2
330
8F
100
AcDbEntity
  8
AM_4
100
AcDbPolyline
 90
       14
 70
     0
 43
0.0
 10
1.412472058877737
 20
-1.267229270594893
 10
1.416272372498417
 20
-1.262825922588543
 10
1.427182634111719
 20
-1.253401517702168
 10
1.43780179810946
 20
-1.248615489088133
 10
1.448285589353586
 20
-1.248046680305927
 10
1.458013108909809
 20
-1.251610625746726
 10
1.467066896052486
 20
-1.259037704928751
 10
1.475276373024548
 20
-1.27018997194344
 10
1.482467496432611
 20
-1.284626607257703
 10
1.488728538399785
 20
-1.302614815288959
 10
1.493742245813405
 20
-1.323131632476385
 10
1.497605972810762
 20
-1.346698295572245
 10
1.500066777575348
 20
-1.371762034409511
 10
1.501155039651383
 20
-1.404
  0
LINE
  5
C3
330
8F
100
AcDbEntity
  8
AM_4
100
AcDbLine
 10
-1.451541666666667
 20
-1.69
 30
0.0
 11
1.451541666664903
 21
-1.69
 31
0.0
  0
ARC
  5
C4
330
8F
100
AcDbEntity
  8
AM_4
100
AcDbCircle
 10
1.451541666666667
 20
-1.594666666666667
 30
0.0
 40
0.0953333333333326
100
AcDbArc
 50
270.0
 51
0.0
  0
ARC
  5
C5
330
8F
100
AcDbEntity
  8
AM_4
100
AcDbCircle
 10
-1.451541666666667
 20
-1.594666666666667
 30
0.0
 40
0.0953333333333326
100
AcDbArc
 50
180.0
 51
270.0
  0
LWPOLYLINE
  5
C6
330
8F
100
AcDbEntity
  8
AM_4
100
AcDbPolyline
 90
       20
 70
     0
 43
0.0
 10
0.1262
 20
-1.404
 10
0.1244662230619141
 20
-1.424847045754779
 10
0.1191135707347935
 20
-1.445694091509557
 10
0.1105942711623785
 20
-1.464789367376724
 10
0.0986654825119593
 20
-1.482686482706258
 10
0.084291975585004
 20
-1.49792179114549
 10
0.0670813894643619
 20
-1.510894935275394
 10
0.0484467990429591
 20
-1.520530458089253
 10
0.0278700190161526
 20
-1.527084125865358
 10
0.0071328170976539
 20
-1.529998265544615
 10
-0.0144106082613638
 20
-1.529374536368185
 10
-0.0348971357837976
 20
-1.525279140473897
 10
-0.0549692822222316
 20
-1.517599375050977
 10
-0.0729699954174484
 20
-1.506965138609034
 10
-0.0893934521042879
 20
-1.493080024252794
 10
-0.1029061849383112
 20
-1.477053111511024
 10
-0.113845542182876
 20
-1.458457621368244
 10
-0.1212923012408125
 20
-1.438851365248839
 10
-0.1254577488551345
 20
-1.417667232792413
 10
-0.1262
 20
-1.404
  0
LINE
  5
C7
330
8F
100
AcDbEntity
  8
AM_4
100
AcDbLine
 10
-1.546875
 20
-1.594666666666666
 30
0.0
 11
1.546875
 21
-1.594666666666666
 31
0.0
  0
LWPOLYLINE
  5
C8
330
8F
100
AcDbEntity
  8
AM_4
100
AcDbPolyline
 90
       11
 70
     0
 43
0.0
 10
1.45060587496844
 20
-1.404
 10
1.449979613046136
 20
-1.42514554540323
 10
1.448121890416464
 20
-1.445694091509557
 10
1.445040395444181
 20
-1.465048516313501
 10
1.440787973716159
 20
-1.482686482706258
 10
1.435396933634526
 20
-1.498115160833197
 10
1.428975817602072
 20
-1.510894935275394
 10
1.421616455255208
 20
-1.52063607669659
 10
1.413495674784955
 20
-1.527084125865358
 10
1.404814283661268
 20
-1.530002390805061
 10
1.401949860168383
 20
-1.530199999444958
  0
LINE
  5
C9
330
8F
100
AcDbEntity
  8
AM_4
100
AcDbLine
 10
1.546875
 20
-1.594666666666666
 30
0.0
 11
1.546875
 21
-1.404
 31
0.0
  0
LINE
  5
CA
330
8F
100
AcDbEntity
  8
AM_4
100
AcDbLine
 10
-1.546875
 20
-1.404
 30
0.0
 11
-1.546875
 21
-1.594666666666666
 31
0.0
  0
LINE
  5
CB
330
8F
100
AcDbEntity
  8
AM_4
100
AcDbLine
 10
-1.59375
 20
-1.118
 30
0.0
 11
1.59375
 21
-1.118
 31
0.0
  0
LINE
  5
CC
330
8F
100
AcDbEntity
  8
AM_4
100
AcDbLine
 10
1.45060587496844
 20
-1.404
 30
0.0
 11
1.59375
 21
-1.404
 31
0.0
  0
LINE
  5
CD
330
8F
100
AcDbEntity
  8
AM_4
100
AcDbLine
 10
0.1262
 20
-1.404
 30
0.0
 11
1.375006425067283
 21
-1.404
 31
0.0
  0
LWPOLYLINE
  5
CE
330
8F
100
AcDbEntity
  8
AM_4
100
AcDbPolyline
 90
        8
 70
     0
 43
0.0
 10
1.375006425067282
 20
-1.404
 10
1.375603610274095
 20
-1.384474900347037
 10
1.377374308722599
 20
-1.365232564561306
 10
1.381774594442294
 20
-1.339317643503851
 10
1.388230696283223
 20
-1.315270570502154
 10
1.396385437631925
 20
-1.294182646161386
 10
1.405988624668408
 20
-1.276321060910985
 10
1.412472058877737
 20
-1.267229270594893
  0
LINE
  5
CF
330
8F
100
AcDbEntity
  8
AM_4
100
AcDbLine
 10
1.59375
 20
-1.404
 30
0.0
 11
1.59375
 21
-1.118
 31
0.0
  0
LINE
  5
D0
330
8F
100
AcDbEntity
  8
AM_4
100
AcDbLine
 10
-1.59375
 20
-1.118
 30
0.0
 11
-1.59375
 21
-1.404
 31
0.0
  0
LINE
  5
D1
330
8F
100
AcDbEntity
  8
AM_4
100
AcDbLine
 10
-1.59375
 20
-1.404
 30
0.0
 11
-0.1262
 21
-1.404
 31
0.0
  0
LWPOLYLINE
  5
D2
330
8F
100
AcDbEntity
  8
AM_4
100
AcDbPolyline
 90
       20
 70
     0
 43
0.0
 10
-0.1492465257706967
 20
-1.404
 10
-0.1480915551664565
 20
-1.384616282280653
 10
-0.1445716942492129
 20
-1.365232564561306
 10
-0.1359953122458272
 20
-1.339683548330239
 10
-0.1228116816392781
 20
-1.315270570502154
 10
-0.1063953261478705
 20
-1.294475127738356
 10
-0.0859783476052249
 20
-1.276321060910985
 10
-0.0642472407257995
 20
-1.262992230446697
 10
-0.0397432474638978
 20
-1.253401517702168
 10
-0.0158878299207928
 20
-1.248639459158595
 10
0.009184503265869
 20
-1.248046680305927
 10
0.0325503573725985
 20
-1.251517996674122
 10
0.0556524977003318
 20
-1.259037704928751
 10
0.0767216146825558
 20
-1.270007997719587
 10
0.0962470835281895
 20
-1.284626607257703
 10
0.1133060201774791
 20
-1.302354415434583
 10
0.1276714277698224
 20
-1.323131632476385
 10
0.1387059129233944
 20
-1.346367471168241
 10
0.1460296633229249
 20
-1.371762034409511
 10
0.1492465257706969
 20
-1.404
  0
ARC
  5
D3
330
8F
100
AcDbEntity
  8
AM_4
100
AcDbCircle
 10
0.0
 20
-1.404
 30
0.0
 40
0.1262
100
AcDbArc
 50
0.0
 51
180.0
  0
CIRCLE
  5
D5
330
8F
100
AcDbEntity
  8
AM_5
100
AcDbCircle
 10
0.0
 20
-1.404
 30
0.0
 40
0.15625
  0
ENDBLK
  5
92
330
8F
100
AcDbEntity
  8
0
100
AcDbBlockEnd
  0
BLOCK
  5
D8
330
D6
100
AcDbEntity
  8
0
100
AcDbBlockBegin
  2
3_070003i_0_in_071391_4
 70
     2
 10
0.0
 20
0.0
 30
0.0
  3
3_070003i_0_in_071391_4
  1

  0
ATTDEF
  5
DA
330
D6
100
AcDbEntity
  8
AM_6
100
AcDbText
 10
6.673249999999999
 20
0.9662499999999998
 30
0.0
 40
0.5
  1
S-2000 Insert -Inch
100
AcDbAttributeDefinition
  3

  2
NN
 70
     8
280
     0
  0
ATTDEF
  5
DB
330
D6
100
AcDbEntity
  8
AM_6
100
AcDbText
 10
6.673249999999999
 20
0.4662499999999998
 30
0.0
 40
0.5
  1
S-2000 Bearings
100
AcDbAttributeDefinition
  3

  2
NT
 70
     8
280
     0
  0
ATTDEF
  5
DC
330
D6
100
AcDbEntity
  8
AM_6
100
AcDbText
 10
6.673249999999999
 20
-0.0337500000000002
 30
0.0
 40
0.5
  1
070003i
100
AcDbAttributeDefinition
  3

  2
NB
 70
     8
280
     0
  0
ATTDEF
  5
DD
330
D6
100
AcDbEntity
  8
AM_6
100
AcDbText
 10
6.673249999999999
 20
-0.5337500000000002
 30
0.0
 40
0.5
  1
$PN.i
100
AcDbAttributeDefinition
  3

  2
NBSYN
 70
     8
280
     0
  0
ATTDEF
  5
DE
330
D6
100
AcDbEntity
  8
AM_6
100
AcDbText
 10
6.673249999999999
 20
-1.03375
 30
0.0
 40
0.5
  1
070003i
100
AcDbAttributeDefinition
  3

  2
LINA
 70
     8
280
     0
  0
ATTDEF
  5
DF
330
D6
100
AcDbEntity
  8
AM_6
100
AcDbText
 10
6.673249999999999
 20
-1.53375
 30
0.0
 40
0.5
  1
1-11/16
100
AcDbAttributeDefinition
  3

  2
SS
 70
     8
280
     0
  0
ATTDEF
  5
E0
330
D6
100
AcDbEntity
  8
AM_6
100
AcDbText
 10
6.673249999999999
 20
-2.03375
 30
0.0
 40
0.5
  1
2.06
100
AcDbAttributeDefinition
  3

  2
CC
 70
     8
280
     0
  0
ATTDEF
  5
E1
330
D6
100
AcDbEntity
  8
AM_6
100
AcDbText
 10
6.673249999999999
 20
-2.53375
 30
0.0
 40
0.5
  1
1.687500
100
AcDbAttributeDefinition
  3

  2
SS1
 70
     8
280
     0
  0
ATTDEF
  5
E2
330
D6
100
AcDbEntity
  8
AM_6
100
AcDbText
 10
6.673249999999999
 20
-3.03375
 30
0.0
 40
0.5
  1
070003
100
AcDbAttributeDefinition
  3

  2
PN
 70
     8
280
     0
  0
ATTDEF
  5
E3
330
D6
100
AcDbEntity
  8
AM_6
100
AcDbText
 10
6.673249999999999
 20
-3.53375
 30
0.0
 40
0.5
  1
INS-S2-111R
100
AcDbAttributeDefinition
  3

  2
DESCRIPTION
 70
     8
280
     0
  0
ATTDEF
  5
E4
330
D6
100
AcDbEntity
  8
AM_6
100
AcDbText
 10
6.673249999999999
 20
-4.03375
 30
0.0
 40
0.5
  1
Contact Seal
100
AcDbAttributeDefinition
  3

  2
ST
 70
     8
280
     0
  0
ATTDEF
  5
E5
330
D6
100
AcDbEntity
  8
AM_6
100
AcDbText
 10
6.673249999999999
 20
-4.53375
 30
0.0
 40
0.5
  1
1
100
AcDbAttributeDefinition
  3

  2
ST1
 70
     8
280
     0
  0
ATTDEF
  5
E6
330
D6
100
AcDbEntity
  8
AM_6
100
AcDbText
 10
6.673249999999999
 20
-5.03375
 30
0.0
 40
0.5
  1
3.3465
100
AcDbAttributeDefinition
  3

  2
A
 70
     8
280
     0
  0
ATTDEF
  5
E7
330
D6
100
AcDbEntity
  8
AM_6
100
AcDbText
 10
6.673249999999999
 20
-5.53375
 30
0.0
 40
0.5
  1
61/64
100
AcDbAttributeDefinition
  3

  2
B
 70
     8
280
     0
  0
ATTDEF
  5
E8
330
D6
100
AcDbEntity
  8
AM_6
100
AcDbText
 10
6.673249999999999
 20
-6.03375
 30
0.0
 40
0.5
  1
2-21/32
100
AcDbAttributeDefinition
  3

  2
C
 70
     8
280
     0
  0
ATTDEF
  5
E9
330
D6
100
AcDbEntity
  8
AM_6
100
AcDbText
 10
6.673249999999999
 20
-6.53375
 30
0.0
 40
0.5
  1
0.954
100
AcDbAttributeDefinition
  3

  2
D
 70
     8
280
     0
  0
ATTDEF
  5
EA
330
D6
100
AcDbEntity
  8
AM_6
100
AcDbText
 10
6.673249999999999
 20
-7.03375
 30
0.0
 40
0.5
  1
3-3/32
100
AcDbAttributeDefinition
  3

  2
E
 70
     8
280
     0
  0
ATTDEF
  5
EB
330
D6
100
AcDbEntity
  8
AM_6
100
AcDbText
 10
6.673249999999999
 20
-7.53375
 30
0.0
 40
0.5
  1
0.43750
100
AcDbAttributeDefinition
  3

  2
F
 70
     8
280
     0
  0
ATTDEF
  5
EC
330
D6
100
AcDbEntity
  8
AM_6
100
AcDbText
 10
6.673249999999999
 20
-8.033750000000001
 30
0.0
 40
0.5
  1
1
100
AcDbAttributeDefinition
  3

  2
DD
 70
     8
280
     0
  0
ATTDEF
  5
ED
330
D6
100
AcDbEntity
  8
AM_6
100
AcDbText
 10
6.673249999999999
 20
-8.533750000000001
 30
0.0
 40
0.5
  1
baldor
100
AcDbAttributeDefinition
  3

  2
COMPANY
 70
     8
280
     0
  0
LINE
  5
EE
330
D6
100
AcDbEntity
  8
AM_9
100
AcDbLine
 10
0.9334970206477494
 20
-1.229
 30
0.0
 11
0.764585154649415
 21
-1.229
 31
0.0
  0
LINE
  5
EF
330
D6
100
AcDbEntity
  8
AM_9
100
AcDbLine
 10
0.7646428863050215
 20
-1.579
 30
0.0
 11
0.9334970206477494
 21
-1.579
 31
0.0
  0
LWPOLYLINE
  5
F0
330
D6
100
AcDbEntity
  8
AM_9
100
AcDbPolyline
 90
       21
 70
     0
 43
0.0
 10
0.7647024545667869
 20
-1.229000000442484
 10
0.7567078629163582
 20
-1.229977498004595
 10
0.7437150010061728
 20
-1.23540378832049
 10
0.7305206401813004
 20
-1.245374912098702
 10
0.7175317605173477
 20
-1.259766902450915
 10
0.7053697617018831
 20
-1.278068949011015
 10
0.6943956960059723
 20
-1.30027794161401
 10
0.6853624648708054
 20
-1.325438702106717
 10
0.6787671986097901
 20
-1.352970397484138
 10
0.6749626073479323
 20
-1.382002683002282
 10
0.6742148173231044
 20
-1.41115058907853
 10
0.6764153762569717
 20
-1.440093328071883
 10
0.6814217926907294
 20
-1.467704892449707
 10
0.6889199372474976
 20
-1.493559189133867
 10
0.6987050540134999
 20
-1.517251164998647
 10
0.7101742289173747
 20
-1.53781500688338
 10
0.7230315500651252
 20
-1.554905186583435
 10
0.736513988618672
 20
-1.567715821255897
 10
0.7499751521766135
 20
-1.575763491100058
 10
0.7629974178996768
 20
-1.578954241647471
 10
0.7646897742937441
 20
-1.578999999119066
  0
LWPOLYLINE
  5
F1
330
D6
100
AcDbEntity
  8
AM_9
100
AcDbPolyline
 90
       11
 70
     0
 43
0.0
 10
0.7646897742937441
 20
-1.578999999119066
 10
0.7749080189292755
 20
-1.577191867649613
 10
0.7856701516814166
 20
-1.570707803208309
 10
0.7950274460732306
 20
-1.5596717459112
 10
0.802940240684227
 20
-1.544452774179592
 10
0.8094714482202195
 20
-1.525055884610496
 10
0.8145455745829233
 20
-1.502284903394636
 10
0.8182695497297021
 20
-1.476399213830468
 10
0.8206884392503663
 20
-1.448398222510987
 10
0.8216937669214359
 20
-1.426389551359212
 10
0.8220267857380449
 20
-1.404
  0
LWPOLYLINE
  5
F2
330
D6
100
AcDbEntity
  8
AM_9
100
AcDbPolyline
 90
       12
 70
     0
 43
0.0
 10
0.8459665306186321
 20
-1.404
 10
0.8460972915007771
 20
-1.395569276640261
 10
0.8483045205344526
 20
-1.366560157994551
 10
0.8531963862303122
 20
-1.338810598729266
 10
0.8604852257224107
 20
-1.312871577916395
 10
0.8699498509986966
 20
-1.289264045698534
 10
0.8810607881163172
 20
-1.268848210716401
 10
0.8934853375283645
 20
-1.252068789970946
 10
0.9065759252811613
 20
-1.239590922987896
 10
0.9197554728270229
 20
-1.231871945740266
 10
0.932617101031755
 20
-1.229012332757163
 10
0.9334920782865638
 20
-1.229000000390745
  0
LWPOLYLINE
  5
F3
330
D6
100
AcDbEntity
  8
AM_9
100
AcDbPolyline
 90
       11
 70
     0
 43
0.0
 10
0.933502972877559
 20
-1.578999999433229
 10
0.9252838876503529
 20
-1.577959402438499
 10
0.9123807932615888
 20
-1.572385631169831
 10
0.8994187050831411
 20
-1.562207001435086
 10
0.8868114676302247
 20
-1.547579018102753
 10
0.8751181360945851
 20
-1.529007179214583
 10
0.8647295837672877
 20
-1.506649442412315
 10
0.8562578777081846
 20
-1.481377185835338
 10
0.8501473626291758
 20
-1.453820207691442
 10
0.8466852168874098
 20
-1.424818694058289
 10
0.8459665306186321
 20
-1.404
  0
LWPOLYLINE
  5
F4
330
D6
100
AcDbEntity
  8
AM_9
100
AcDbPolyline
 90
        3
 70
     0
 43
0.0
 10
0.9931408766852389
 20
-1.372972274982218
 10
0.9935423664932882
 20
-1.382926628812851
 10
0.9938829222278768
 20
-1.404
  0
LWPOLYLINE
  5
F5
330
D6
100
AcDbEntity
  8
AM_9
100
AcDbPolyline
 90
       10
 70
     0
 43
0.0
 10
0.9334920782865638
 20
-1.229000000390745
 10
0.9445852859611437
 20
-1.231114570914647
 10
0.9555334438596798
 20
-1.237977859537033
 10
0.965202732295545
 20
-1.249445503433349
 10
0.97350030216979
 20
-1.265132819781523
 10
0.9804196938669213
 20
-1.284914599966389
 10
0.9858731565762477
 20
-1.308033463828577
 10
0.9899003790166316
 20
-1.334090125710379
 10
0.9925196932323541
 20
-1.36216691677462
 10
0.9931408766852389
 20
-1.372972274982218
  0
LWPOLYLINE
  5
F6
330
D6
100
AcDbEntity
  8
AM_9
100
AcDbPolyline
 90
       11
 70
     0
 43
0.0
 10
0.8220267857380449
 20
-1.404
 10
0.8214637074819153
 20
-1.374978669779035
 10
0.8197573356778369
 20
-1.346784139375298
 10
0.8168439648204789
 20
-1.320245970663662
 10
0.8126456306850048
 20
-1.296030297649272
 10
0.8069693639802173
 20
-1.274543910057596
 10
0.7998038539575456
 20
-1.256669703758914
 10
0.7910044535002854
 20
-1.242846532766196
 10
0.7807117398323272
 20
-1.233613976152086
 10
0.7692261414283416
 20
-1.229357436970345
 10
0.7647024545667869
 20
-1.229000000442484
  0
LINE
  5
F7
330
D6
100
AcDbEntity
  8
AM_9
100
AcDbLine
 10
-0.84375
 20
0.9662499999999998
 30
0.0
 11
-0.84375
 21
-1.69
 31
0.0
  0
LINE
  5
F8
330
D6
100
AcDbEntity
  8
AM_9
100
AcDbLine
 10
0.84375
 20
-1.69
 30
0.0
 11
0.84375
 21
0.9662499999999998
 31
0.0
  0
LWPOLYLINE
  5
F9
330
D6
100
AcDbEntity
  8
AM_9
100
AcDbPolyline
 90
       10
 70
     0
 43
0.0
 10
0.9931217754478859
 20
-1.435419406366411
 10
0.9912563220164304
 20
-1.461450445305748
 10
0.987929340784163
 20
-1.488105996380489
 10
0.9832129705546523
 20
-1.512416777649895
 10
0.976987028612051
 20
-1.533868429806787
 10
0.9692886140666136
 20
-1.551683949005365
 10
0.9600605874320728
 20
-1.565383453474293
 10
0.9494738003690122
 20
-1.574501741688253
 10
0.9378111283897613
 20
-1.578676356212409
 10
0.933502972877559
 20
-1.578999999433229
  0
LWPOLYLINE
  5
FA
330
D6
100
AcDbEntity
  8
AM_9
100
AcDbPolyline
 90
        3
 70
     0
 43
0.0
 10
0.9938829222278768
 20
-1.404
 10
0.9932270559878094
 20
-1.433138799809129
 10
0.9931217754478859
 20
-1.435419406366411
  0
LWPOLYLINE
  5
FB
330
D6
100
AcDbEntity
  8
AM_9
100
AcDbPolyline
 90
       21
 70
     0
 43
0.0
 10
-0.1749999999999999
 20
-1.404
 10
-0.1748167393483924
 20
-1.395993275101752
 10
-0.1709481156099914
 20
-1.366560157994551
 10
-0.1625538556677182
 20
-1.339182995999826
 10
-0.1494008389820899
 20
-1.312871577916395
 10
-0.1323981873899364
 20
-1.289563467477124
 10
-0.111171011749654
 20
-1.268848210716401
 10
-0.0871895983241894
 20
-1.252266767173218
 10
-0.0599554450907342
 20
-1.239590922987896
 10
-0.0319026251259537
 20
-1.231932505945856
 10
-0.0020775738037907
 20
-1.229012332757163
 10
0.0265972562462647
 20
-1.231032991700236
 10
0.0553321685468324
 20
-1.237977859537033
 10
0.0816982203405888
 20
-1.249240829696006
 10
0.1064936911660454
 20
-1.265132819781523
 10
0.1279391803991794
 20
-1.284599136859124
 10
0.1463400968130711
 20
-1.308033463828577
 10
0.1602526280677691
 20
-1.333685739729602
 10
0.1699264345175832
 20
-1.362166916774621
 10
0.1737073028630756
 20
-1.382768586197906
 10
0.175
 20
-1.404
  0
LWPOLYLINE
  5
FC
330
D6
100
AcDbEntity
  8
AM_9
100
AcDbPolyline
 90
       20
 70
     0
 43
0.0
 10
0.175
 20
-1.404
 10
0.1726263641033512
 20
-1.432725222652874
 10
0.1653010778372946
 20
-1.461450445305748
 10
0.153656272928678
 20
-1.487754103121385
 10
0.1373710388837956
 20
-1.512416777649894
 10
0.1175946466448141
 20
-1.533601308174267
 10
0.093885308787801
 20
-1.551683949005365
 10
0.0680387470719213
 20
-1.565231910293474
 10
0.0394227863205064
 20
-1.574501741688253
 10
0.0107628715723161
 20
-1.578668716705419
 10
-0.0190558731954269
 20
-1.577959402438499
 10
-0.0472026499957344
 20
-1.572513826831451
 10
-0.074803373566428
 20
-1.562207001435086
 10
-0.0996967128808768
 20
-1.547824773390219
 10
-0.1224671594543335
 20
-1.529007179214583
 10
-0.141476887088545
 20
-1.507001409794891
 10
-0.1569642351371913
 20
-1.481377185835338
 10
-0.1676323576327585
 20
-1.45424333462742
 10
-0.1737572501442956
 20
-1.424818694058289
 10
-0.1749999999999999
 20
-1.404
  0
LINE
  5
FD
330
D6
100
AcDbEntity
  8
AM_9
100
AcDbLine
 10
-1.03
 20
-1.118
 30
0.0
 11
-1.03
 21
-1.69
 31
0.0
  0
LINE
  5
FE
330
D6
100
AcDbEntity
  8
AM_9
100
AcDbLine
 10
-1.03
 20
-0.6805
 30
0.0
 11
-1.03
 21
-0.9519999999999998
 31
0.0
  0
LINE
  5
FF
330
D6
100
AcDbEntity
  8
AM_9
100
AcDbLine
 10
1.03
 20
-0.9519999999999998
 30
0.0
 11
1.03
 21
-0.6805
 31
0.0
  0
LINE
  5
100
330
D6
100
AcDbEntity
  8
AM_9
100
AcDbLine
 10
1.03
 20
-1.69
 30
0.0
 11
1.03
 21
-1.118
 31
0.0
  0
LINE
  5
101
330
D6
100
AcDbEntity
  8
AM_9
100
AcDbLine
 10
-1.03
 20
0.9519999999999998
 30
0.0
 11
-1.03
 21
0.705
 31
0.0
  0
LINE
  5
102
330
D6
100
AcDbEntity
  8
AM_9
100
AcDbLine
 10
1.03
 20
0.705
 30
0.0
 11
1.03
 21
0.9519999999999998
 31
0.0
  0
LINE
  5
103
330
D6
100
AcDbEntity
  8
AM_9
100
AcDbLine
 10
1.2432875
 20
0.705
 30
0.0
 11
-1.2432875
 21
0.705
 31
0.0
  0
ARC
  5
104
330
D6
100
AcDbEntity
  8
AM_9
100
AcDbCircle
 10
-1.243287499999999
 20
0.6096874999999994
 30
0.0
 40
0.0953125000000006
100
AcDbArc
 50
90.0
 51
180.0
  0
ARC
  5
105
330
D6
100
AcDbEntity
  8
AM_9
100
AcDbCircle
 10
1.243287499999999
 20
0.6096874999999994
 30
0.0
 40
0.0953125000000006
100
AcDbArc
 50
0.0
 51
90.0
  0
LINE
  5
106
330
D6
100
AcDbEntity
  8
AM_9
100
AcDbLine
 10
-1.3386
 20
0.6096875
 30
0.0
 11
-1.3386
 21
0.4888125000000003
 31
0.0
  0
LINE
  5
107
330
D6
100
AcDbEntity
  8
AM_9
100
AcDbLine
 10
1.3386
 20
0.4888125000000003
 30
0.0
 11
1.3386
 21
0.6096875
 31
0.0
  0
LINE
  5
108
330
D6
100
AcDbEntity
  8
AM_9
100
AcDbLine
 10
1.3386
 20
0.6096875
 30
0.0
 11
-1.3386
 21
0.6096875
 31
0.0
  0
LINE
  5
109
330
D6
100
AcDbEntity
  8
AM_9
100
AcDbLine
 10
1.2432875
 20
-0.6804999999999999
 30
0.0
 11
-1.2432875
 21
-0.6804999999999999
 31
0.0
  0
ARC
  5
10A
330
D6
100
AcDbEntity
  8
AM_9
100
AcDbCircle
 10
-1.243287500000001
 20
-0.5851875000000001
 30
0.0
 40
0.0953124999999997
100
AcDbArc
 50
180.0
 51
270.0
  0
ARC
  5
10B
330
D6
100
AcDbEntity
  8
AM_9
100
AcDbCircle
 10
1.243287500000001
 20
-0.5851875000000001
 30
0.0
 40
0.0953124999999998
100
AcDbArc
 50
270.0
 51
0.0
  0
LINE
  5
10C
330
D6
100
AcDbEntity
  8
AM_9
100
AcDbLine
 10
-1.3386
 20
-0.4643124999999999
 30
0.0
 11
-1.3386
 21
-0.5851874999999999
 31
0.0
  0
LINE
  5
10D
330
D6
100
AcDbEntity
  8
AM_9
100
AcDbLine
 10
1.3386
 20
-0.5851874999999999
 30
0.0
 11
1.3386
 21
-0.4643124999999999
 31
0.0
  0
LINE
  5
10E
330
D6
100
AcDbEntity
  8
AM_9
100
AcDbLine
 10
1.3386
 20
-0.5851874999999999
 30
0.0
 11
-1.3386
 21
-0.5851874999999999
 31
0.0
  0
LINE
  5
10F
330
D6
100
AcDbEntity
  8
AM_9
100
AcDbLine
 10
-1.60632
 20
0.059906250000002
 30
0.0
 11
-1.60632
 21
-0.0354062500000018
 31
0.0
  0
LINE
  5
110
330
D6
100
AcDbEntity
  8
AM_9
100
AcDbLine
 10
1.60632
 20
-0.0354062500000018
 30
0.0
 11
1.60632
 21
0.059906250000002
 31
0.0
  0
LINE
  5
111
330
D6
100
AcDbEntity
  8
AM_9
100
AcDbLine
 10
-1.67325
 20
-0.0740483035168634
 30
0.0
 11
-1.67325
 21
-0.3689999999999998
 31
0.0
  0
LINE
  5
112
330
D6
100
AcDbEntity
  8
AM_9
100
AcDbLine
 10
1.67325
 20
-0.3689999999999998
 30
0.0
 11
1.67325
 21
-0.0740483035168634
 31
0.0
  0
LINE
  5
113
330
D6
100
AcDbEntity
  8
AM_9
100
AcDbLine
 10
-1.60632
 20
-0.0354062500000018
 30
0.0
 11
-1.67325
 21
-0.0740483035168634
 31
0.0
  0
LINE
  5
114
330
D6
100
AcDbEntity
  8
AM_9
100
AcDbLine
 10
1.67325
 20
-0.0740483035168634
 30
0.0
 11
1.60632
 21
-0.0354062500000018
 31
0.0
  0
LINE
  5
115
330
D6
100
AcDbEntity
  8
AM_9
100
AcDbLine
 10
1.60632
 20
-0.0354062500000018
 30
0.0
 11
-1.60632
 21
-0.0354062500000018
 31
0.0
  0
LINE
  5
116
330
D6
100
AcDbEntity
  8
AM_9
100
AcDbLine
 10
1.67325
 20
-0.0740483035168634
 30
0.0
 11
-1.67325
 21
-0.0740483035168634
 31
0.0
  0
LINE
  5
117
330
D6
100
AcDbEntity
  8
AM_9
100
AcDbLine
 10
1.5779375
 20
-0.4643124999999999
 30
0.0
 11
-1.5779375
 21
-0.4643124999999999
 31
0.0
  0
ARC
  5
118
330
D6
100
AcDbEntity
  8
AM_9
100
AcDbCircle
 10
-1.5779375
 20
-0.3689999999999997
 30
0.0
 40
0.0953125000000004
100
AcDbArc
 50
179.9999991462263
 51
270.0
  0
ARC
  5
119
330
D6
100
AcDbEntity
  8
AM_9
100
AcDbCircle
 10
1.5779375
 20
-0.3689999999999998
 30
0.0
 40
0.0953125
100
AcDbArc
 50
270.0
 51
0.0
  0
LINE
  5
11A
330
D6
100
AcDbEntity
  8
AM_9
100
AcDbLine
 10
1.67325
 20
-0.3689999999999998
 30
0.0
 11
-1.67325
 21
-0.3689999999999998
 31
0.0
  0
LINE
  5
11B
330
D6
100
AcDbEntity
  8
AM_9
100
AcDbLine
 10
1.5779375
 20
0.4888125000000003
 30
0.0
 11
-1.5779375
 21
0.4888125000000003
 31
0.0
  0
ARC
  5
11C
330
D6
100
AcDbEntity
  8
AM_9
100
AcDbCircle
 10
-1.5779375
 20
0.3935000000000003
 30
0.0
 40
0.0953125
100
AcDbArc
 50
90.0
 51
180.0
  0
ARC
  5
11D
330
D6
100
AcDbEntity
  8
AM_9
100
AcDbCircle
 10
1.5779375
 20
0.3935000000000003
 30
0.0
 40
0.0953125000000001
100
AcDbArc
 50
0.0
 51
90.0
  0
LINE
  5
11E
330
D6
100
AcDbEntity
  8
AM_9
100
AcDbLine
 10
-1.67325
 20
0.3935000000000003
 30
0.0
 11
-1.67325
 21
0.0985483035168636
 31
0.0
  0
LINE
  5
11F
330
D6
100
AcDbEntity
  8
AM_9
100
AcDbLine
 10
1.67325
 20
0.0985483035168636
 30
0.0
 11
1.67325
 21
0.3935000000000003
 31
0.0
  0
LINE
  5
120
330
D6
100
AcDbEntity
  8
AM_9
100
AcDbLine
 10
1.67325
 20
0.3935000000000003
 30
0.0
 11
-1.67325
 21
0.3935000000000003
 31
0.0
  0
LINE
  5
121
330
D6
100
AcDbEntity
  8
AM_9
100
AcDbLine
 10
1.60632
 20
0.059906250000002
 30
0.0
 11
1.67325
 21
0.0985483035168636
 31
0.0
  0
LINE
  5
122
330
D6
100
AcDbEntity
  8
AM_9
100
AcDbLine
 10
-1.67325
 20
0.0985483035168636
 30
0.0
 11
-1.60632
 21
0.059906250000002
 31
0.0
  0
LINE
  5
123
330
D6
100
AcDbEntity
  8
AM_9
100
AcDbLine
 10
1.67325
 20
0.0985483035168636
 30
0.0
 11
-1.67325
 21
0.0985483035168636
 31
0.0
  0
LINE
  5
124
330
D6
100
AcDbEntity
  8
AM_9
100
AcDbLine
 10
1.60632
 20
0.059906250000002
 30
0.0
 11
-1.60632
 21
0.059906250000002
 31
0.0
  0
LINE
  5
125
330
D6
100
AcDbEntity
  8
AM_4
100
AcDbLine
 10
-1.03
 20
-0.9519999999999998
 30
0.0
 11
-1.03
 21
-1.118
 31
0.0
  0
LINE
  5
126
330
D6
100
AcDbEntity
  8
AM_4
100
AcDbLine
 10
1.03
 20
-1.118
 30
0.0
 11
1.03
 21
-0.9519999999999998
 31
0.0
  0
LINE
  5
127
330
D6
100
AcDbEntity
  8
AM_4
100
AcDbLine
 10
-1.03
 20
0.9662499999999998
 30
0.0
 11
-1.03
 21
0.9519999999999998
 31
0.0
  0
LINE
  5
128
330
D6
100
AcDbEntity
  8
AM_4
100
AcDbLine
 10
1.03
 20
0.9519999999999998
 30
0.0
 11
1.03
 21
0.9662499999999998
 31
0.0
  0
LINE
  5
129
330
D6
100
AcDbEntity
  8
AM_4
100
AcDbLine
 10
1.03
 20
0.9662499999999998
 30
0.0
 11
-1.03
 21
0.9662499999999998
 31
0.0
  0
ENDBLK
  5
D9
330
D6
100
AcDbEntity
  8
0
100
AcDbBlockEnd
  0
BLOCK
  5
12C
330
12A
100
AcDbEntity
  8
0
100
AcDbBlockBegin
  2
4_405015E_Inch_0_in_071391_4
 70
     2
 10
0.0
 20
0.0
 30
0.0
  3
4_405015E_Inch_0_in_071391_4
  1

  0
ATTDEF
  5
12E
330
12A
100
AcDbEntity
  8
AM_6
100
AcDbText
 10
6.388921671481428
 20
0.2187500000000009
 30
0.0
 40
0.5
  1
405015E -Inch
100
AcDbAttributeDefinition
  3

  2
NN
 70
     8
280
     0
  0
ATTDEF
  5
12F
330
12A
100
AcDbEntity
  8
AM_6
100
AcDbText
 10
6.388921671481428
 20
-0.2812499999999991
 30
0.0
 40
0.5
  1
Grease Fitting
100
AcDbAttributeDefinition
  3

  2
NT
 70
     8
280
     0
  0
ATTDEF
  5
130
330
12A
100
AcDbEntity
  8
AM_6
100
AcDbText
 10
6.388921671481428
 20
-0.7812499999999991
 30
0.0
 40
0.5
  1
405015E-Inch
100
AcDbAttributeDefinition
  3

  2
NB
 70
     8
280
     0
  0
ATTDEF
  5
131
330
12A
100
AcDbEntity
  8
AM_6
100
AcDbText
 10
6.388921671481428
 20
-1.281249999999999
 30
0.0
 40
0.5
  1
$MN.-Inch
100
AcDbAttributeDefinition
  3

  2
NBSYN
 70
     8
280
     0
  0
ATTDEF
  5
132
330
12A
100
AcDbEntity
  8
AM_6
100
AcDbText
 10
6.388921671481428
 20
-1.781249999999999
 30
0.0
 40
0.5
  1
405015E
100
AcDbAttributeDefinition
  3

  2
LINA
 70
     8
280
     0
  0
ATTDEF
  5
133
330
12A
100
AcDbEntity
  8
AM_6
100
AcDbText
 10
6.388921671481428
 20
-2.281249999999999
 30
0.0
 40
0.5
  1
405015E
100
AcDbAttributeDefinition
  3

  2
MN
 70
     8
280
     0
  0
ATTDEF
  5
134
330
12A
100
AcDbEntity
  8
AM_6
100
AcDbText
 10
6.388921671481428
 20
-2.781249999999999
 30
0.0
 40
0.5
  1
1/8 x 27PTF
100
AcDbAttributeDefinition
  3

  2
T
 70
     8
280
     0
  0
ATTDEF
  5
135
330
12A
100
AcDbEntity
  8
AM_6
100
AcDbText
 10
6.388921671481428
 20
-3.281249999999999
 30
0.0
 40
0.5
  1
baldor
100
AcDbAttributeDefinition
  3

  2
COMPANY
 70
     8
280
     0
  0
ELLIPSE
  5
136
330
12A
100
AcDbEntity
  8
AM_9
100
AcDbEllipse
 10
0.9800000000000002
 20
0.0000000000000001
 30
0.0
 11
9.913691727296317E-18
 21
0.161902872472269
 31
0.0
210
0.0
220
0.0
230
1.0
 40
0.8660254037844383
 41
0.0
 42
6.283185307179586
  0
LINE
  5
137
330
12A
100
AcDbEntity
  8
AM_9
100
AcDbLine
 10
1.297531439188034
 20
-0.0687684948218701
 30
0.0
 11
1.2765625
 21
-0.1093749999999999
 31
0.0
  0
LINE
  5
138
330
12A
100
AcDbEntity
  8
AM_9
100
AcDbLine
 10
1.335783799848308
 20
0.0000000000000001
 30
0.0
 11
1.314954024418997
 21
-0.0367513202528063
 31
0.0
  0
LINE
  5
139
330
12A
100
AcDbEntity
  8
AM_9
100
AcDbLine
 10
1.312327334319737
 20
0.0414944727798883
 30
0.0
 11
1.335783799848308
 21
0.0000000000000001
 31
0.0
  0
LINE
  5
13A
330
12A
100
AcDbEntity
  8
AM_9
100
AcDbLine
 10
1.2765625
 20
0.1093750000000001
 30
0.0
 11
1.297930836390579
 21
0.068018747444006
 31
0.0
  0
LWPOLYLINE
  5
13B
330
12A
100
AcDbEntity
  8
AM_9
100
AcDbPolyline
 90
        4
 70
     0
 43
0.0
 10
1.3265625
 20
-0.1093749999999999
 10
1.339930667998001
 20
-0.0820312499999999
 10
1.352709559607483
 20
-0.0546874999999999
 10
1.376716200151693
 20
0.0000000000000001
  0
LWPOLYLINE
  5
13C
330
12A
100
AcDbEntity
  8
AM_9
100
AcDbPolyline
 90
        4
 70
     0
 43
0.0
 10
1.376716200151693
 20
0.0000000000000001
 10
1.358986748285697
 20
0.0408050906197752
 10
1.340007718547504
 20
0.0818700010907652
 10
1.3265625
 20
0.109375
  0
LWPOLYLINE
  5
13D
330
12A
100
AcDbEntity
  8
AM_9
100
AcDbPolyline
 90
        4
 70
     0
 43
0.0
 10
1.226408799848308
 20
0.2187500000000001
 10
1.244138251714304
 20
0.177944909380225
 10
1.263117281452497
 20
0.136879998909235
 10
1.2765625
 20
0.1093750000000001
  0
LWPOLYLINE
  5
13E
330
12A
100
AcDbEntity
  8
AM_9
100
AcDbPolyline
 90
        4
 70
     0
 43
0.0
 10
1.2765625
 20
-0.1093749999999999
 10
1.263194332002
 20
-0.1367187499999998
 10
1.250400395778899
 20
-0.164095414483217
 10
1.226408799848308
 20
-0.2187499999999999
  0
LINE
  5
13F
330
12A
100
AcDbEntity
  8
AM_9
100
AcDbLine
 10
1.376716200151693
 20
0.0000000000000001
 30
0.0
 11
1.335783799848308
 21
0.0000000000000001
 31
0.0
  0
LINE
  5
140
330
12A
100
AcDbEntity
  8
AM_9
100
AcDbLine
 10
0.9890467106261549
 20
-0.1983264404626879
 30
0.0
 11
1.102854897832291
 21
-0.2054502516015134
 31
0.0
  0
LINE
  5
141
330
12A
100
AcDbEntity
  8
AM_9
100
AcDbLine
 10
1.10285489783229
 20
0.2054502516015136
 30
0.0
 11
0.9890467106261549
 21
0.198326440462688
 31
0.0
  0
ELLIPSE
  5
142
330
12A
100
AcDbEntity
  8
AM_9
100
AcDbEllipse
 10
1.162500000006285
 20
0.0000000000036012
 30
0.0
 11
-4.018372309571735E-17
 21
-0.218749999992895
 31
0.0
210
0.0
220
0.0
230
1.0
 40
0.8660254037805658
 41
1.032970329585856
 42
2.108622323975662
  0
ELLIPSE
  5
143
330
12A
100
AcDbEntity
  8
AM_9
100
AcDbEllipse
 10
1.162499999999998
 20
0.0
 30
0.0
 11
-3.926523799766227E-17
 21
-0.2137500000000014
 31
0.0
210
0.0
220
0.0
230
1.0
 40
0.8660254037844417
 41
0.9862868522353558
 42
2.155305801354437
  0
ELLIPSE
  5
144
330
12A
100
AcDbEntity
  8
AM_9
100
AcDbEllipse
 10
1.171659099270442
 20
0.0000000000000003
 30
0.0
 11
-3.169399141454459E-17
 21
-0.1725340532830156
 31
0.0
210
0.0
220
0.0
230
1.0
 40
0.8660254037844328
 41
0.6732704101475253
 42
2.468322243442267
  0
LINE
  5
145
330
12A
100
AcDbEntity
  8
AM_9
100
AcDbLine
 10
1.2825
 20
0.0703562363973517
 30
0.0
 11
1.275260904853149
 21
0.0796165180238022
 31
0.0
  0
LINE
  5
146
330
12A
100
AcDbEntity
  8
AM_9
100
AcDbLine
 10
1.275260904853149
 20
-0.0796165180238018
 30
0.0
 11
1.2825
 21
-0.0703562363973514
 31
0.0
  0
ELLIPSE
  5
147
330
12A
100
AcDbEntity
  8
AM_9
100
AcDbEllipse
 10
1.198876560809286
 20
0.0000000000000002
 30
0.0
 11
-2.182689656893354E-17
 21
-0.1188200907348975
 31
0.0
210
0.0
220
0.0
230
1.0
 40
0.8660254037844404
 41
0.0521714424106028
 42
3.089421211179192
  0
LINE
  5
148
330
12A
100
AcDbEntity
  8
AM_9
100
AcDbLine
 10
1.215
 20
-0.1049999999999999
 30
0.0
 11
1.23
 21
-0.1049999999999999
 31
0.0
  0
LINE
  5
149
330
12A
100
AcDbEntity
  8
AM_9
100
AcDbLine
 10
1.23
 20
0.1050000000000001
 30
0.0
 11
1.215
 21
0.1050000000000001
 31
0.0
  0
ELLIPSE
  5
14A
330
12A
100
AcDbEntity
  8
AM_9
100
AcDbEllipse
 10
1.230000000000002
 20
-0.0000000000000005
 30
0.0
 11
-1.928818708657093E-17
 21
-0.1050000000000006
 31
0.0
210
0.0
220
0.0
230
1.0
 40
0.8660254037844438
 41
5.235987755982981
 42
10.47197551196598
  0
ELLIPSE
  5
14B
330
12A
100
AcDbEntity
  8
AM_9
100
AcDbEllipse
 10
1.215000000000003
 20
0.0000000000000031
 30
0.0
 11
-1.928818708657137E-17
 21
-0.105000000000003
 31
0.0
210
0.0
220
0.0
230
1.0
 40
0.8660254037844388
 41
5.858105981271231
 42
9.849857286677759
  0
ELLIPSE
  5
14C
330
12A
100
AcDbEntity
  8
AM_9
100
AcDbEllipse
 10
1.260000000000002
 20
0.0000000000000002
 30
0.0
 11
-2.479909768273378E-17
 21
-0.1349999999999993
 31
0.0
210
0.0
220
0.0
230
1.0
 40
0.8660254037844338
 41
0.7751090107151155
 42
2.366483642874676
  0
ELLIPSE
  5
14D
330
12A
100
AcDbEntity
  8
AM_9
100
AcDbEllipse
 10
1.1125
 20
0.0000000000000003
 30
0.0
 11
-3.779601035290904E-17
 21
-0.2057518972230693
 31
0.0
210
0.0
220
0.0
230
1.0
 40
0.866025403784439
 41
0.0
 42
6.283185307179586
  0
ELLIPSE
  5
14E
330
12A
100
AcDbEntity
  8
AM_9
100
AcDbEllipse
 10
0.9983573771544733
 20
0.0000000000000002
 30
0.0
 11
-3.648546613377884E-17
 21
-0.1986176267812153
 31
0.0
210
0.0
220
0.0
230
1.0
 40
0.8660254037844395
 41
0.0
 42
6.283185307179586
  0
ELLIPSE
  5
14F
330
12A
100
AcDbEntity
  8
AM_9
100
AcDbEllipse
 10
1.112500000000001
 20
0.0000000000000001
 30
0.0
 11
-4.018372309702268E-17
 21
-0.2187500000000008
 31
0.0
210
0.0
220
0.0
230
1.0
 40
0.8660254037844408
 41
0.0
 42
6.283185307179586
  0
LWPOLYLINE
  5
150
330
12A
100
AcDbEntity
  8
AM_4
100
AcDbPolyline
 90
        4
 70
     0
 43
0.0
 10
1.267341200151693
 20
-0.2187499999999999
 10
1.290416838905472
 20
-0.1779449093802248
 10
1.312502719638269
 20
-0.1368799989092347
 10
1.3265625
 20
-0.1093749999999999
  0
LWPOLYLINE
  5
151
330
12A
100
AcDbEntity
  8
AM_4
100
AcDbPolyline
 90
        4
 70
     0
 43
0.0
 10
1.3265625
 20
0.109375
 10
1.312586917998001
 20
0.1367187500000001
 10
1.298022059607483
 20
0.1640625000000001
 10
1.267341200151693
 20
0.2187500000000001
  0
ELLIPSE
  5
152
330
12A
100
AcDbEntity
  8
AM_4
100
AcDbEllipse
 10
1.1625
 20
0.0
 30
0.0
 11
-4.018372309702252E-17
 21
-0.21875
 31
0.0
210
0.0
220
0.0
230
1.0
 40
0.8660254037844392
 41
2.108622323974773
 42
7.316155636794607
  0
ELLIPSE
  5
153
330
12A
100
AcDbEntity
  8
AM_4
100
AcDbEllipse
 10
1.1625
 20
0.0000000000000001
 30
0.0
 11
-3.926523799766203E-17
 21
-0.2137500000000001
 31
0.0
210
0.0
220
0.0
230
1.0
 40
0.8660254037844385
 41
2.155305801354442
 42
7.269472159414938
  0
LWPOLYLINE
  5
154
330
12A
100
AcDbEntity
  8
AM_4
100
AcDbPolyline
 90
        4
 70
     0
 43
0.0
 10
1.048591200151693
 20
0.2187500000000001
 10
1.036900889819991
 20
0.1915825951815903
 10
1.011882718547504
 20
0.1368799989092349
 10
0.9984375000000003
 20
0.109375
  0
LINE
  5
155
330
12A
100
AcDbEntity
  8
AM_4
100
AcDbLine
 10
1.267341200151693
 20
0.2187500000000001
 30
0.0
 11
1.007658799848308
 21
0.2187500000000001
 31
0.0
  0
LWPOLYLINE
  5
156
330
12A
100
AcDbEntity
  8
AM_4
100
AcDbPolyline
 90
        4
 70
     0
 43
0.0
 10
0.9484375000000003
 20
0.1093750000000001
 10
0.9624130820019998
 20
0.1367187500000001
 10
0.9769779403925175
 20
0.1640625000000001
 10
1.007658799848308
 20
0.2187500000000001
  0
LWPOLYLINE
  5
157
330
12A
100
AcDbEntity
  8
AM_4
100
AcDbPolyline
 90
        4
 70
     0
 43
0.0
 10
0.8982837998483075
 20
0.0000000000000001
 10
0.9160132517143036
 20
0.0408050906197752
 10
0.9349922814524965
 20
0.0818700010907652
 10
0.9484375000000003
 20
0.1093750000000001
  0
LINE
  5
158
330
12A
100
AcDbEntity
  8
AM_4
100
AcDbLine
 10
1.267341200151693
 20
-0.2187499999999999
 30
0.0
 11
1.007658799848308
 21
-0.2187499999999999
 31
0.0
  0
LWPOLYLINE
  5
159
330
12A
100
AcDbEntity
  8
AM_4
100
AcDbPolyline
 90
        4
 70
     0
 43
0.0
 10
0.9984375000000003
 20
-0.1093749999999999
 10
1.011805667998001
 20
-0.1367187499999999
 10
1.024599604221101
 20
-0.164095414483217
 10
1.048591200151693
 20
-0.2187499999999999
  0
LINE
  5
15A
330
12A
100
AcDbEntity
  8
AM_4
100
AcDbLine
 10
0.939216200151693
 20
0.0000000000000001
 30
0.0
 11
0.8982837998483075
 21
0.0000000000000001
 31
0.0
  0
LWPOLYLINE
  5
15B
330
12A
100
AcDbEntity
  8
AM_4
100
AcDbPolyline
 90
        4
 70
     0
 43
0.0
 10
0.9484375000000003
 20
-0.1093749999999999
 10
0.9350693320019998
 20
-0.0820312499999999
 10
0.9222904403925176
 20
-0.0546874999999999
 10
0.8982837998483075
 20
0.0000000000000001
  0
LWPOLYLINE
  5
15C
330
12A
100
AcDbEntity
  8
AM_4
100
AcDbPolyline
 90
        4
 70
     0
 43
0.0
 10
1.007658799848308
 20
-0.2187499999999999
 10
0.9845831610945286
 20
-0.1779449093802248
 10
0.9624972803617313
 20
-0.1368799989092347
 10
0.9484375000000003
 20
-0.1093749999999999
  0
LWPOLYLINE
  5
15D
330
12A
100
AcDbEntity
  8
AM_4
100
AcDbPolyline
 90
        4
 70
     0
 43
0.0
 10
0.9984375000000003
 20
0.109375
 10
0.9844619179980006
 20
0.0820312500000001
 10
0.9698791897378839
 20
0.0546545855167829
 10
0.939216200151693
 20
0.0000000000000001
  0
LWPOLYLINE
  5
15E
330
12A
100
AcDbEntity
  8
AM_4
100
AcDbPolyline
 90
        4
 70
     0
 43
0.0
 10
0.939216200151693
 20
0.0000000000000001
 10
0.9546932946384011
 20
-0.0271674048184096
 10
0.984377719638269
 20
-0.081870001090765
 10
0.9984375000000003
 20
-0.1093749999999999
  0
ELLIPSE
  5
15F
330
12A
100
AcDbEntity
  8
AM_4
100
AcDbEllipse
 10
1.171659099270441
 20
0.0000000000000002
 30
0.0
 11
-3.169399141454459E-17
 21
-0.1725340532830156
 31
0.0
210
0.0
220
0.0
230
1.0
 40
0.8660254037844393
 41
2.468322243442266
 42
6.956455717327113
  0
ELLIPSE
  5
160
330
12A
100
AcDbEntity
  8
AM_4
100
AcDbEllipse
 10
1.198876560809286
 20
0.0000000000000001
 30
0.0
 11
-2.182689656893359E-17
 21
-0.1188200907348978
 31
0.0
210
0.0
220
0.0
230
1.0
 40
0.8660254037844438
 41
3.089421211179192
 42
6.33535674959019
  0
ELLIPSE
  5
161
330
12A
100
AcDbEntity
  8
AM_4
100
AcDbEllipse
 10
1.215000000000001
 20
0.0000000000000001
 30
0.0
 11
-1.928818708657083E-17
 21
-0.1050000000000001
 31
0.0
210
0.0
220
0.0
230
1.0
 40
0.86602540378444
 41
3.566671979498137
 42
5.858105981271242
  0
LINE
  5
162
330
12A
100
AcDbEntity
  8
AM_4
100
AcDbLine
 10
1.15125
 20
-0.0524999999999999
 30
0.0
 11
1.15875
 21
-0.0674999999999999
 31
0.0
  0
LINE
  5
163
330
12A
100
AcDbEntity
  8
AM_4
100
AcDbLine
 10
1.15875
 20
0.0675000000000002
 30
0.0
 11
1.15125
 21
0.0525000000000002
 31
0.0
  0
ELLIPSE
  5
164
330
12A
100
AcDbEntity
  8
AM_4
100
AcDbEllipse
 10
1.260000000000001
 20
0.0000000000000001
 30
0.0
 11
-2.479909768273395E-17
 21
-0.1350000000000003
 31
0.0
210
0.0
220
0.0
230
1.0
 40
0.8660254037844412
 41
2.366483642874676
 42
7.058294317894704
  0
ELLIPSE
  5
165
330
12A
100
AcDbEntity
  8
AM_4
100
AcDbEllipse
 10
1.230000000000002
 20
0.0000000000000001
 30
0.0
 11
-1.928818708657091E-17
 21
-0.1050000000000005
 31
0.0
210
0.0
220
0.0
230
1.0
 40
0.8660254037844513
 41
4.188790204786393
 42
5.235987755982985
  0
LINE
  5
166
330
12A
100
AcDbEntity
  8
AM_4
100
AcDbLine
 10
1.362226847792107
 20
0.0733474205218688
 30
0.0
 11
1.34181531073162
 21
0.0964365416902992
 31
0.0
  0
LINE
  5
167
330
12A
100
AcDbEntity
  8
AM_4
100
AcDbLine
 10
1.34181531073162
 20
-0.0964365416902989
 30
0.0
 11
1.362226847792107
 21
-0.0733474205218686
 31
0.0
  0
ELLIPSE
  5
168
330
12A
100
AcDbEntity
  8
AM_4
100
AcDbEllipse
 10
1.299999999999999
 20
0.0000000000000004
 30
0.0
 11
-1.886162459184654E-17
 21
-0.1026779019331873
 31
0.0
210
0.0
220
0.0
230
1.0
 40
0.8660254037844528
 41
0.0
 42
6.283185307179586
  0
ENDBLK
  5
12D
330
12A
100
AcDbEntity
  8
0
100
AcDbBlockEnd
  0
BLOCK
  5
16B
330
169
100
AcDbEntity
  8
0
100
AcDbBlockBegin
  2
5_B071402_0_in_071391_4
 70
     2
 10
0.0
 20
0.0
 30
0.0
  3
5_B071402_0_in_071391_4
  1

  0
ATTDEF
  5
16D
330
169
100
AcDbEntity
  8
AM_6
100
AcDbText
 10
8.968750000000002
 20
1.342564102564102
 30
0.0
 40
0.5
  1
EP2B-S2-(Contact Seal)-Housing
100
AcDbAttributeDefinition
  3

  2
NN
 70
     8
280
     0
  0
ATTDEF
  5
16E
330
169
100
AcDbEntity
  8
AM_6
100
AcDbText
 10
8.968750000000002
 20
0.8425641025641024
 30
0.0
 40
0.5
  1
S-2000/E Type Pillow Block Bearing -Inch (2-Bolt Base)
100
AcDbAttributeDefinition
  3

  2
NT
 70
     8
280
     0
  0
ATTDEF
  5
16F
330
169
100
AcDbEntity
  8
AM_6
100
AcDbText
 10
8.968750000000002
 20
0.3425641025641024
 30
0.0
 40
0.5
  1
B071402
100
AcDbAttributeDefinition
  3

  2
NB
 70
     8
280
     0
  0
ATTDEF
  5
170
330
169
100
AcDbEntity
  8
AM_6
100
AcDbText
 10
8.968750000000002
 20
-0.1574358974358976
 30
0.0
 40
0.5
  1
$PN.
100
AcDbAttributeDefinition
  3

  2
NBSYN
 70
     8
280
     0
  0
ATTDEF
  5
171
330
169
100
AcDbEntity
  8
AM_6
100
AcDbText
 10
8.968750000000002
 20
-0.6574358974358976
 30
0.0
 40
0.5
  1
B071402
100
AcDbAttributeDefinition
  3

  2
LINA
 70
     8
280
     0
  0
ATTDEF
  5
172
330
169
100
AcDbEntity
  8
AM_6
100
AcDbText
 10
8.968750000000002
 20
-1.157435897435898
 30
0.0
 40
0.5
  1
1-11/16
100
AcDbAttributeDefinition
  3

  2
SS
 70
     8
280
     0
  0
ATTDEF
  5
173
330
169
100
AcDbEntity
  8
AM_6
100
AcDbText
 10
8.968750000000002
 20
-1.657435897435898
 30
0.0
 40
0.5
  1
1.687500
100
AcDbAttributeDefinition
  3

  2
SS1
 70
     8
280
     0
  0
ATTDEF
  5
174
330
169
100
AcDbEntity
  8
AM_6
100
AcDbText
 10
8.968750000000002
 20
-2.157435897435898
 30
0.0
 40
0.5
  1
Non-Expansion
100
AcDbAttributeDefinition
  3

  2
TYPE
 70
     8
280
     0
  0
ATTDEF
  5
175
330
169
100
AcDbEntity
  8
AM_6
100
AcDbText
 10
8.968750000000002
 20
-2.657435897435898
 30
0.0
 40
0.5
  1
071391
100
AcDbAttributeDefinition
  3

  2
PN1
 70
     8
280
     0
  0
ATTDEF
  5
176
330
169
100
AcDbEntity
  8
AM_6
100
AcDbText
 10
8.968750000000002
 20
-3.157435897435898
 30
0.0
 40
0.5
  1
071402
100
AcDbAttributeDefinition
  3

  2
PN2
 70
     8
280
     0
  0
ATTDEF
  5
177
330
169
100
AcDbEntity
  8
AM_6
100
AcDbText
 10
8.968750000000002
 20
-3.657435897435898
 30
0.0
 40
0.5
  1
EP2B-S2-111R
100
AcDbAttributeDefinition
  3

  2
DECS1
 70
     8
280
     0
  0
ATTDEF
  5
178
330
169
100
AcDbEntity
  8
AM_6
100
AcDbText
 10
8.968750000000002
 20
-4.157435897435898
 30
0.0
 40
0.5
  1
Non-Expansion Type
100
AcDbAttributeDefinition
  3

  2
EF
 70
     8
280
     0
  0
ATTDEF
  5
179
330
169
100
AcDbEntity
  8
AM_6
100
AcDbText
 10
8.968750000000002
 20
-4.657435897435898
 30
0.0
 40
0.5
  1
1
100
AcDbAttributeDefinition
  3

  2
EF1
 70
     8
280
     0
  0
ATTDEF
  5
17A
330
169
100
AcDbEntity
  8
AM_6
100
AcDbText
 10
8.968750000000002
 20
-5.157435897435898
 30
0.0
 40
0.5
  1
2.67
100
AcDbAttributeDefinition
  3

  2
A
 70
     8
280
     0
  0
ATTDEF
  5
17B
330
169
100
AcDbEntity
  8
AM_6
100
AcDbText
 10
8.968750000000002
 20
-5.657435897435898
 30
0.0
 40
0.5
  1
2.6700000
100
AcDbAttributeDefinition
  3

  2
A1
 70
     8
280
     0
  0
ATTDEF
  5
17C
330
169
100
AcDbEntity
  8
AM_6
100
AcDbText
 10
8.968750000000002
 20
-6.157435897435898
 30
0.0
 40
0.5
  1
7.88
100
AcDbAttributeDefinition
  3

  2
B
 70
     8
280
     0
  0
ATTDEF
  5
17D
330
169
100
AcDbEntity
  8
AM_6
100
AcDbText
 10
8.968750000000002
 20
-6.657435897435898
 30
0.0
 40
0.5
  1
7.8800000
100
AcDbAttributeDefinition
  3

  2
B1
 70
     8
280
     0
  0
ATTDEF
  5
17E
330
169
100
AcDbEntity
  8
AM_6
100
AcDbText
 10
8.968750000000002
 20
-7.157435897435898
 30
0.0
 40
0.5
  1
2.38
100
AcDbAttributeDefinition
  3

  2
C
 70
     8
280
     0
  0
ATTDEF
  5
17F
330
169
100
AcDbEntity
  8
AM_6
100
AcDbText
 10
8.968750000000002
 20
-7.657435897435898
 30
0.0
 40
0.5
  1
2.3800000
100
AcDbAttributeDefinition
  3

  2
C1
 70
     8
280
     0
  0
ATTDEF
  5
180
330
169
100
AcDbEntity
  8
AM_6
100
AcDbText
 10
8.968750000000002
 20
-8.157435897435898
 30
0.0
 40
0.5
  1
6.13
100
AcDbAttributeDefinition
  3

  2
DMIN
 70
     8
280
     0
  0
ATTDEF
  5
181
330
169
100
AcDbEntity
  8
AM_6
100
AcDbText
 10
8.968750000000002
 20
-8.657435897435898
 30
0.0
 40
0.5
  1
6.1300000
100
AcDbAttributeDefinition
  3

  2
DMIN1
 70
     8
280
     0
  0
ATTDEF
  5
182
330
169
100
AcDbEntity
  8
AM_6
100
AcDbText
 10
8.968750000000002
 20
-9.157435897435898
 30
0.0
 40
0.5
  1
6.38
100
AcDbAttributeDefinition
  3

  2
DMAX
 70
     8
280
     0
  0
ATTDEF
  5
183
330
169
100
AcDbEntity
  8
AM_6
100
AcDbText
 10
8.968750000000002
 20
-9.657435897435898
 30
0.0
 40
0.5
  1
6.3800000
100
AcDbAttributeDefinition
  3

  2
DMAX1
 70
     8
280
     0
  0
ATTDEF
  5
184
330
169
100
AcDbEntity
  8
AM_6
100
AcDbText
 10
8.968750000000002
 20
-10.1574358974359
 30
0.0
 40
0.5
  1
1/2
100
AcDbAttributeDefinition
  3

  2
F
 70
     8
280
     0
  0
ATTDEF
  5
185
330
169
100
AcDbEntity
  8
AM_6
100
AcDbText
 10
8.968750000000002
 20
-10.6574358974359
 30
0.0
 40
0.5
  1
0.5000000
100
AcDbAttributeDefinition
  3

  2
F1
 70
     8
280
     0
  0
ATTDEF
  5
186
330
169
100
AcDbEntity
  8
AM_6
100
AcDbText
 10
8.968750000000002
 20
-11.1574358974359
 30
0.0
 40
0.5
  1
0.75
100
AcDbAttributeDefinition
  3

  2
G
 70
     8
280
     0
  0
ATTDEF
  5
187
330
169
100
AcDbEntity
  8
AM_6
100
AcDbText
 10
8.968750000000002
 20
-11.6574358974359
 30
0.0
 40
0.5
  1
0.7500000
100
AcDbAttributeDefinition
  3

  2
G1
 70
     8
280
     0
  0
ATTDEF
  5
188
330
169
100
AcDbEntity
  8
AM_6
100
AcDbText
 10
8.968750000000002
 20
-12.1574358974359
 30
0.0
 40
0.5
  1
1.25
100
AcDbAttributeDefinition
  3

  2
H
 70
     8
280
     0
  0
ATTDEF
  5
189
330
169
100
AcDbEntity
  8
AM_6
100
AcDbText
 10
8.968750000000002
 20
-12.6574358974359
 30
0.0
 40
0.5
  1
1.2500000
100
AcDbAttributeDefinition
  3

  2
H1
 70
     8
280
     0
  0
ATTDEF
  5
18A
330
169
100
AcDbEntity
  8
AM_6
100
AcDbText
 10
8.968750000000002
 20
-13.1574358974359
 30
0.0
 40
0.5
  1
4.25
100
AcDbAttributeDefinition
  3

  2
J
 70
     8
280
     0
  0
ATTDEF
  5
18B
330
169
100
AcDbEntity
  8
AM_6
100
AcDbText
 10
8.968750000000002
 20
-13.6574358974359
 30
0.0
 40
0.5
  1
4.2500000
100
AcDbAttributeDefinition
  3

  2
JJ
 70
     8
280
     0
  0
ATTDEF
  5
18C
330
169
100
AcDbEntity
  8
AM_6
100
AcDbText
 10
8.968750000000002
 20
-14.1574358974359
 30
0.0
 40
0.5
  1
3.01
100
AcDbAttributeDefinition
  3

  2
L
 70
     8
280
     0
  0
ATTDEF
  5
18D
330
169
100
AcDbEntity
  8
AM_6
100
AcDbText
 10
8.968750000000002
 20
-14.6574358974359
 30
0.0
 40
0.5
  1
3.0100000
100
AcDbAttributeDefinition
  3

  2
L1
 70
     8
280
     0
  0
ATTDEF
  5
18E
330
169
100
AcDbEntity
  8
AM_6
100
AcDbText
 10
8.968750000000002
 20
-15.1574358974359
 30
0.0
 40
0.5
  1
2.125
100
AcDbAttributeDefinition
  3

  2
M
 70
     8
280
     0
  0
ATTDEF
  5
18F
330
169
100
AcDbEntity
  8
AM_6
100
AcDbText
 10
8.968750000000002
 20
-15.6574358974359
 30
0.0
 40
0.5
  1
2.125000
100
AcDbAttributeDefinition
  3

  2
M1
 70
     8
280
     0
  0
ATTDEF
  5
190
330
169
100
AcDbEntity
  8
AM_6
100
AcDbText
 10
8.968750000000002
 20
-16.1574358974359
 30
0.0
 40
0.5
  1
0.98
100
AcDbAttributeDefinition
  3

  2
R
 70
     8
280
     0
  0
ATTDEF
  5
191
330
169
100
AcDbEntity
  8
AM_6
100
AcDbText
 10
8.968750000000002
 20
-16.6574358974359
 30
0.0
 40
0.5
  1
0.980000
100
AcDbAttributeDefinition
  3

  2
R1
 70
     8
280
     0
  0
ATTDEF
  5
192
330
169
100
AcDbEntity
  8
AM_6
100
AcDbText
 10
8.968750000000002
 20
-17.1574358974359
 30
0.0
 40
0.5
  1
1.69
100
AcDbAttributeDefinition
  3

  2
S
 70
     8
280
     0
  0
ATTDEF
  5
193
330
169
100
AcDbEntity
  8
AM_6
100
AcDbText
 10
8.968750000000002
 20
-17.6574358974359
 30
0.0
 40
0.5
  1
1.690000
100
AcDbAttributeDefinition
  3

  2
S1
 70
     8
280
     0
  0
ATTDEF
  5
194
330
169
100
AcDbEntity
  8
AM_6
100
AcDbText
 10
8.968750000000002
 20
-18.1574358974359
 30
0.0
 40
0.5
  1
0.19
100
AcDbAttributeDefinition
  3

  2
X
 70
     8
280
     0
  0
ATTDEF
  5
195
330
169
100
AcDbEntity
  8
AM_6
100
AcDbText
 10
8.968750000000002
 20
-18.6574358974359
 30
0.0
 40
0.5
  1
0.190000
100
AcDbAttributeDefinition
  3

  2
X1
 70
     8
280
     0
  0
ATTDEF
  5
196
330
169
100
AcDbEntity
  8
AM_6
100
AcDbText
 10
8.968750000000002
 20
-19.1574358974359
 30
0.0
 40
0.5
  1
0.020
100
AcDbAttributeDefinition
  3

  2
Y
 70
     8
280
     0
  0
ATTDEF
  5
197
330
169
100
AcDbEntity
  8
AM_6
100
AcDbText
 10
8.968750000000002
 20
-19.6574358974359
 30
0.0
 40
0.5
  1
2.08
100
AcDbAttributeDefinition
  3

  2
Z
 70
     8
280
     0
  0
ATTDEF
  5
198
330
169
100
AcDbEntity
  8
AM_6
100
AcDbText
 10
8.968750000000002
 20
-20.1574358974359
 30
0.0
 40
0.5
  1
2.080000
100
AcDbAttributeDefinition
  3

  2
Z1
 70
     8
280
     0
  0
ATTDEF
  5
199
330
169
100
AcDbEntity
  8
AM_6
100
AcDbText
 10
8.968750000000002
 20
-20.6574358974359
 30
0.0
 40
0.5
  1
5/16-18
100
AcDbAttributeDefinition
  3

  2
CS
 70
     8
280
     0
  0
ATTDEF
  5
19A
330
169
100
AcDbEntity
  8
AM_6
100
AcDbText
 10
8.968750000000002
 20
-21.1574358974359
 30
0.0
 40
0.5
  1
0.3125
100
AcDbAttributeDefinition
  3

  2
NDM
 70
     8
280
     0
  0
ATTDEF
  5
19B
330
169
100
AcDbEntity
  8
AM_6
100
AcDbText
 10
8.968750000000002
 20
-21.6574358974359
 30
0.0
 40
0.5
  1
0.2520
100
AcDbAttributeDefinition
  3

  2
KDM
 70
     8
280
     0
  0
ATTDEF
  5
19C
330
169
100
AcDbEntity
  8
AM_6
100
AcDbText
 10
8.968750000000002
 20
-22.1574358974359
 30
0.0
 40
0.5
  1
3.3465
100
AcDbAttributeDefinition
  3

  2
BORE
 70
     8
280
     0
  0
ATTDEF
  5
19D
330
169
100
AcDbEntity
  8
AM_6
100
AcDbText
 10
8.968750000000002
 20
-22.6574358974359
 30
0.0
 40
0.5
  1
1
100
AcDbAttributeDefinition
  3

  2
ST1
 70
     8
280
     0
  0
ATTDEF
  5
19E
330
169
100
AcDbEntity
  8
AM_6
100
AcDbText
 10
8.968750000000002
 20
-23.1574358974359
 30
0.0
 40
0.5
  1
baldor
100
AcDbAttributeDefinition
  3

  2
COMPANY
 70
     8
280
     0
  0
LINE
  5
19F
330
169
100
AcDbEntity
  8
AM_9
100
AcDbLine
 10
1.67325
 20
-0.952
 30
0.0
 11
1.67325
 21
0.9520000000000001
 31
0.0
  0
LINE
  5
1A0
330
169
100
AcDbEntity
  8
AM_9
100
AcDbLine
 10
-1.67325
 20
0.9520000000000001
 30
0.0
 11
-1.67325
 21
-0.952
 31
0.0
  0
LINE
  5
1A1
330
169
100
AcDbEntity
  8
AM_9
100
AcDbLine
 10
1.086556996770556
 20
0.4992218627068406
 30
0.0
 11
1.062493526169566
 21
0.4999999999441196
 31
0.0
  0
LWPOLYLINE
  5
1A2
330
169
100
AcDbEntity
  8
AM_9
100
AcDbPolyline
 90
       11
 70
     0
 43
0.0
 10
1.356761482368426
 20
0.3498222528188508
 10
1.342008017205329
 20
0.3680789790513784
 10
1.316368683782225
 20
0.3954845696250159
 10
1.288688575835508
 20
0.4200514194161416
 10
1.259598299004679
 20
0.4412641579071201
 10
1.228815130377565
 20
0.4594066285742295
 10
1.195505768764692
 20
0.4747298544937436
 10
1.160788988114599
 20
0.4865239140723969
 10
1.126599375919141
 20
0.4943736896208507
 10
1.091565083299342
 20
0.4988619427162498
 10
1.086556996770556
 20
0.4992218627068406
  0
LWPOLYLINE
  5
1A3
330
169
100
AcDbEntity
  8
AM_9
100
AcDbPolyline
 90
       11
 70
     0
 43
0.0
 10
1.465682179508363
 20
0.0000000000000001
 10
1.464433637634239
 20
0.0408657662921692
 10
1.460701775826871
 20
0.0814434255359906
 10
1.45427552438528
 20
0.1226179823277098
 10
1.445266989221787
 20
0.1628868510719811
 10
1.434080275399334
 20
0.2008477760015941
 10
1.420546174194116
 20
0.2374357250509457
 10
1.404236974025125
 20
0.2733681262021755
 10
1.385576012108566
 20
0.3073646798193645
 10
1.36486226135395
 20
0.3388795864423599
 10
1.356761482368426
 20
0.3498222528188508
  0
LWPOLYLINE
  5
1A4
330
169
100
AcDbEntity
  8
AM_9
100
AcDbPolyline
 90
       20
 70
     0
 43
0.0
 10
1.062497087776041
 20
-0.499999999988692
 10
1.083682291288574
 20
-0.4993942808389452
 10
1.11839368952984
 20
-0.4957416920647006
 10
1.153314604475007
 20
-0.4885437443411156
 10
1.187185373484907
 20
-0.4779304778801307
 10
1.218762857257423
 20
-0.464472823355091
 10
1.248975781874774
 20
-0.4479937967269497
 10
1.278435243200254
 20
-0.4280202566234835
 10
1.306133895860947
 20
-0.4051221053753217
 10
1.331781004228081
 20
-0.379612877155573
 10
1.355441489425588
 20
-0.3515400338308802
 10
1.37758333932062
 20
-0.3201870691347424
 10
1.397421020222707
 20
-0.2865273566681863
 10
1.414652270295923
 20
-0.2512515858770425
 10
1.429480818049609
 20
-0.2141809793881772
 10
1.442165665203497
 20
-0.1743806371497924
 10
1.452173138798614
 20
-0.133231182921813
 10
1.462228763796276
 20
-0.0679002188039803
 10
1.464817168115905
 20
-0.0340333924877963
 10
1.465682179508363
 20
0.0000000000000001
  0
ELLIPSE
  5
1A5
330
169
100
AcDbEntity
  8
AM_9
100
AcDbEllipse
 10
1.08750000000011
 20
0.0000000000001437
 30
0.0
 11
3.061616997869262E-17
 21
0.5000000000001437
 31
0.0
210
0.0
220
0.0
230
1.0
 40
0.866025403784432
 41
3.145190123323797
 42
3.212698867799809
  0
ELLIPSE
  5
1A6
330
169
100
AcDbEntity
  8
AM_9
100
AcDbEllipse
 10
1.0875
 20
0.0000000000000002
 30
0.0
 11
3.061616997868384E-17
 21
0.5000000000000001
 31
0.0
210
0.0
220
0.0
230
1.0
 40
0.866025403784439
 41
3.224968724326835
 42
6.241442071195467
  0
ELLIPSE
  5
1A7
330
169
100
AcDbEntity
  8
AM_9
100
AcDbEllipse
 10
1.08749999999955
 20
-0.0000000000004784
 30
0.0
 11
3.061616997871313E-17
 21
0.5000000000004785
 31
0.0
210
0.0
220
0.0
230
1.0
 40
0.866025403784464
 41
6.24635370391015
 42
6.271035845111427
  0
LINE
  5
1A8
330
169
100
AcDbEntity
  8
AM_7
100
AcDbLine
 10
0.0
 20
1.342564102564102
 30
0.0
 11
0.0
 21
-1.8228125
 31
0.0
  0
LINE
  5
1A9
330
169
100
AcDbEntity
  8
AM_7
100
AcDbLine
 10
-3.190000000000001
 20
-0.3281249999999997
 30
0.0
 11
-3.190000000000001
 21
0.3281250000000003
 31
0.0
  0
LINE
  5
1AA
330
169
100
AcDbEntity
  8
AM_7
100
AcDbLine
 10
-3.968749999999994
 20
0.0000000000000003
 30
0.0
 11
-2.736874999999999
 21
0.0000000000000003
 31
0.0
  0
LINE
  5
1AB
330
169
100
AcDbEntity
  8
AM_7
100
AcDbLine
 10
-3.364999999999994
 20
-0.60375
 30
0.0
 11
-3.364999999999994
 21
0.6037500000000005
 31
0.0
  0
LINE
  5
1AC
330
169
100
AcDbEntity
  8
AM_7
100
AcDbLine
 10
2.736874999999999
 20
-0.0000000000000001
 30
0.0
 11
3.968750000000001
 21
0.0
 31
0.0
  0
LINE
  5
1AD
330
169
100
AcDbEntity
  8
AM_7
100
AcDbLine
 10
3.064999999999999
 20
-0.3281250000000001
 30
0.0
 11
3.064999999999999
 21
0.3281249999999999
 31
0.0
  0
LINE
  5
1AE
330
169
100
AcDbEntity
  8
AM_7
100
AcDbLine
 10
3.365000000000002
 20
-0.6037499999999998
 30
0.0
 11
3.365000000000002
 21
0.6037499999999998
 31
0.0
  0
LINE
  5
1AF
330
169
100
AcDbEntity
  8
AM_7
100
AcDbLine
 10
-3.064999999999999
 20
-0.3281249999999997
 30
0.0
 11
-3.064999999999999
 21
0.3281250000000003
 31
0.0
  0
LINE
  5
1B0
330
169
100
AcDbEntity
  8
AM_7
100
AcDbLine
 10
3.190000000000001
 20
-0.3281250000000001
 30
0.0
 11
3.190000000000001
 21
0.3281249999999999
 31
0.0
  0
LINE
  5
1B1
330
169
100
AcDbEntity
  8
AM_4
100
AcDbLine
 10
-3.702
 20
1.19
 30
0.0
 11
-2.363333333333332
 21
1.19
 31
0.0
  0
LINE
  5
1B2
330
169
100
AcDbEntity
  8
AM_4
100
AcDbLine
 10
-3.94
 20
0.9519999999999998
 30
0.0
 11
-3.702
 21
1.19
 31
0.0
  0
LINE
  5
1B3
330
169
100
AcDbEntity
  8
AM_4
100
AcDbLine
 10
-3.94
 20
-0.9520000000000001
 30
0.0
 11
-3.94
 21
0.9519999999999998
 31
0.0
  0
ARC
  5
1B4
330
169
100
AcDbEntity
  8
AM_4
100
AcDbCircle
 10
-3.064999999999999
 20
0.0000000000000002
 30
0.0
 40
0.3124999999999999
100
AcDbArc
 50
270.0
 51
90.0
  0
ARC
  5
1B5
330
169
100
AcDbEntity
  8
AM_4
100
AcDbCircle
 10
-3.190000000000001
 20
0.0000000000000004
 30
0.0
 40
0.3125
100
AcDbArc
 50
90.0
 51
270.0
  0
LINE
  5
1B6
330
169
100
AcDbEntity
  8
AM_4
100
AcDbLine
 10
-3.190000000000001
 20
0.3125000000000003
 30
0.0
 11
-3.064999999999999
 21
0.3125000000000002
 31
0.0
  0
LINE
  5
1B7
330
169
100
AcDbEntity
  8
AM_4
100
AcDbLine
 10
-3.064999999999999
 20
-0.3124999999999997
 30
0.0
 11
-3.190000000000001
 21
-0.3124999999999997
 31
0.0
  0
LINE
  5
1B8
330
169
100
AcDbEntity
  8
AM_4
100
AcDbLine
 10
-2.375
 20
0.5750000000000002
 30
0.0
 11
-3.364999999999994
 21
0.5750000000000004
 31
0.0
  0
ARC
  5
1B9
330
169
100
AcDbEntity
  8
AM_4
100
AcDbCircle
 10
-3.364999999999994
 20
0.0000000000000002
 30
0.0
 40
0.5750000000000002
100
AcDbArc
 50
90.0
 51
270.0
  0
LINE
  5
1BA
330
169
100
AcDbEntity
  8
AM_4
100
AcDbLine
 10
-3.364999999999994
 20
-0.575
 30
0.0
 11
-2.375
 21
-0.575
 31
0.0
  0
LINE
  5
1BB
330
169
100
AcDbEntity
  8
AM_4
100
AcDbLine
 10
-3.702
 20
-1.19
 30
0.0
 11
-2.363333333333333
 21
-1.19
 31
0.0
  0
LINE
  5
1BC
330
169
100
AcDbEntity
  8
AM_4
100
AcDbLine
 10
-3.701999999999999
 20
-1.190000000000001
 30
0.0
 11
-3.94
 21
-0.9520000000000006
 31
0.0
  0
ARC
  5
1BD
330
169
100
AcDbEntity
  8
AM_4
100
AcDbCircle
 10
3.064999999999999
 20
0.0
 30
0.0
 40
0.3125
100
AcDbArc
 50
90.0
 51
270.0
  0
LINE
  5
1BE
330
169
100
AcDbEntity
  8
AM_4
100
AcDbLine
 10
3.064999999999999
 20
0.3124999999999999
 30
0.0
 11
3.190000000000001
 21
0.3124999999999999
 31
0.0
  0
ARC
  5
1BF
330
169
100
AcDbEntity
  8
AM_4
100
AcDbCircle
 10
3.190000000000001
 20
-0.0000000000000001
 30
0.0
 40
0.3125
100
AcDbArc
 50
270.0
 51
90.0
  0
LINE
  5
1C0
330
169
100
AcDbEntity
  8
AM_4
100
AcDbLine
 10
3.190000000000001
 20
-0.3125000000000001
 30
0.0
 11
3.064999999999999
 21
-0.3125000000000001
 31
0.0
  0
LINE
  5
1C1
330
169
100
AcDbEntity
  8
AM_4
100
AcDbLine
 10
3.365000000000002
 20
0.5750000000000001
 30
0.0
 11
2.374999999999999
 21
0.575
 31
0.0
  0
LINE
  5
1C2
330
169
100
AcDbEntity
  8
AM_4
100
AcDbLine
 10
2.374999999999999
 20
-0.5750000000000001
 30
0.0
 11
3.365000000000002
 21
-0.5750000000000001
 31
0.0
  0
ARC
  5
1C3
330
169
100
AcDbEntity
  8
AM_4
100
AcDbCircle
 10
3.365000000000002
 20
-0.0000000000000001
 30
0.0
 40
0.575
100
AcDbArc
 50
270.0
 51
90.0
  0
LINE
  5
1C4
330
169
100
AcDbEntity
  8
AM_4
100
AcDbLine
 10
2.363333333333333
 20
1.19
 30
0.0
 11
3.702
 21
1.19
 31
0.0
  0
LINE
  5
1C5
330
169
100
AcDbEntity
  8
AM_4
100
AcDbLine
 10
3.702
 20
1.19
 30
0.0
 11
3.94
 21
0.9519999999999998
 31
0.0
  0
LINE
  5
1C6
330
169
100
AcDbEntity
  8
AM_4
100
AcDbLine
 10
3.94
 20
-0.9520000000000001
 30
0.0
 11
3.94
 21
0.9519999999999998
 31
0.0
  0
LINE
  5
1C7
330
169
100
AcDbEntity
  8
AM_4
100
AcDbLine
 10
2.363333333333332
 20
-1.19
 30
0.0
 11
3.702
 21
-1.19
 31
0.0
  0
LINE
  5
1C8
330
169
100
AcDbEntity
  8
AM_4
100
AcDbLine
 10
3.94
 20
-0.9520000000000001
 30
0.0
 11
3.702
 21
-1.19
 31
0.0
  0
LWPOLYLINE
  5
1C9
330
169
100
AcDbEntity
  8
AM_4
100
AcDbPolyline
 90
       19
 70
     0
 43
0.0
 10
2.136666666666667
 20
0.9520000000000003
 10
2.146544317511402
 20
0.9524312675496024
 10
2.156346793468919
 20
0.9537217879919501
 10
2.165999491778286
 20
0.9558617396872392
 10
2.175428949576909
 20
0.9588348363109307
 10
2.184563402997279
 20
0.9626184508025132
 10
2.193333333333334
 20
0.967183787571097
 10
2.201671996119785
 20
0.9724961016472476
 10
2.209515929097808
 20
0.9785149631131825
 10
2.216805435201142
 20
0.9851945647988579
 10
2.223485036886818
 20
0.9924840709021922
 10
2.229503898352752
 20
1.000328003880215
 10
2.234816212428903
 20
1.008666666666667
 10
2.239381549197487
 20
1.017436597002721
 10
2.24316516368907
 20
1.02657105042309
 10
2.246138260312761
 20
1.036000508221714
 10
2.24827821200805
 20
1.045653206531081
 10
2.249568732450398
 20
1.055455682488598
 10
2.25
 20
1.065333333333333
  0
LWPOLYLINE
  5
1CA
330
169
100
AcDbEntity
  8
AM_4
100
AcDbPolyline
 90
       19
 70
     0
 43
0.0
 10
2.249999999999999
 20
-1.065333333333333
 10
2.249568732450396
 20
-1.055455682488599
 10
2.248278212008049
 20
-1.045653206531081
 10
2.24613826031276
 20
-1.036000508221714
 10
2.243165163689068
 20
-1.026571050423091
 10
2.239381549197486
 20
-1.017436597002721
 10
2.234816212428902
 20
-1.008666666666667
 10
2.229503898352751
 20
-1.000328003880215
 10
2.223485036886816
 20
-0.9924840709021922
 10
2.21680543520114
 20
-0.9851945647988579
 10
2.209515929097806
 20
-0.9785149631131824
 10
2.201671996119784
 20
-0.9724961016472475
 10
2.193333333333332
 20
-0.9671837875710969
 10
2.184563402997278
 20
-0.962618450802513
 10
2.175428949576908
 20
-0.9588348363109304
 10
2.165999491778284
 20
-0.955861739687239
 10
2.156346793468917
 20
-0.9537217879919497
 10
2.1465443175114
 20
-0.9524312675496022
 10
2.136666666666665
 20
-0.952
  0
LINE
  5
1CB
330
169
100
AcDbEntity
  8
AM_4
100
AcDbLine
 10
2.249999999999999
 20
-1.065333333333333
 30
0.0
 11
2.249999999999999
 21
-1.076666666666667
 31
0.0
  0
LWPOLYLINE
  5
1CC
330
169
100
AcDbEntity
  8
AM_4
100
AcDbPolyline
 90
       19
 70
     0
 43
0.0
 10
2.249999999999999
 20
-1.076666669054988
 10
2.250431267757757
 20
-1.086544319890634
 10
2.251721788406676
 20
-1.096346795820956
 10
2.253861740305381
 20
-1.105999494085227
 10
2.256834837127783
 20
-1.115428951821197
 10
2.26061845181186
 20
-1.124563405161833
 10
2.265183788765256
 20
-1.13333333540168
 10
2.270496103017131
 20
-1.141671998076183
 10
2.276514964648365
 20
-1.149515930927368
 10
2.283194566487655
 20
-1.15680543688994
 10
2.290484072731751
 20
-1.163485038422001
 10
2.298328005836612
 20
-1.169503899722637
 10
2.306666668735012
 20
-1.174816213623064
 10
2.315436599167274
 20
-1.179381550206835
 10
2.324571052667378
 20
-1.183165164505923
 10
2.334000510528654
 20
-1.186138260930904
 10
2.343653208883117
 20
-1.188278212422778
 10
2.35345568486783
 20
-1.189568732658554
 10
2.363333333333331
 20
-1.19
  0
LINE
  5
1CD
330
169
100
AcDbEntity
  8
AM_4
100
AcDbLine
 10
2.374999999999999
 20
-1.19
 30
0.0
 11
2.374999999999999
 21
1.19
 31
0.0
  0
LWPOLYLINE
  5
1CE
330
169
100
AcDbEntity
  8
AM_4
100
AcDbPolyline
 90
       19
 70
     0
 43
0.0
 10
2.363333333333334
 20
1.19
 10
2.353455682488599
 20
1.189568732450398
 10
2.343653206531082
 20
1.18827821200805
 10
2.334000508221715
 20
1.186138260312761
 10
2.324571050423092
 20
1.18316516368907
 10
2.315436597002722
 20
1.179381549197487
 10
2.306666666666667
 20
1.174816212428903
 10
2.298328003880215
 20
1.169503898352753
 10
2.290484070902193
 20
1.163485036886818
 10
2.283194564798858
 20
1.156805435201143
 10
2.276514963113183
 20
1.149515929097808
 10
2.270496101647248
 20
1.141671996119786
 10
2.265183787571098
 20
1.133333333333334
 10
2.260618450802514
 20
1.12456340299728
 10
2.256834836310931
 20
1.11542894957691
 10
2.25386173968724
 20
1.105999491778287
 10
2.25172178799195
 20
1.09634679346892
 10
2.250431267549602
 20
1.086544317511402
 10
2.25
 20
1.076666672267777
  0
LINE
  5
1CF
330
169
100
AcDbEntity
  8
AM_4
100
AcDbLine
 10
2.25
 20
1.076666668355465
 30
0.0
 11
2.25
 21
1.065333333333333
 31
0.0
  0
LINE
  5
1D0
330
169
100
AcDbEntity
  8
AM_4
100
AcDbLine
 10
-2.136666666666667
 20
-0.9520000000000003
 30
0.0
 11
2.136666666666664
 21
-0.952
 31
0.0
  0
LINE
  5
1D1
330
169
100
AcDbEntity
  8
AM_4
100
AcDbLine
 10
2.136666666666667
 20
0.9520000000000003
 30
0.0
 11
-2.136666666666664
 21
0.9519999999999998
 31
0.0
  0
LINE
  5
1D2
330
169
100
AcDbEntity
  8
AM_4
100
AcDbLine
 10
-2.249999999999998
 20
1.065333335022131
 30
0.0
 11
-2.249999999999999
 21
1.076666666666667
 31
0.0
  0
LWPOLYLINE
  5
1D3
330
169
100
AcDbEntity
  8
AM_4
100
AcDbPolyline
 90
       19
 70
     0
 43
0.0
 10
-2.249999999999999
 20
1.076666666666667
 10
-2.250431267549601
 20
1.086544317511402
 10
-2.251721787991948
 20
1.096346793468919
 10
-2.253861739687237
 20
1.105999491778286
 10
-2.256834836310929
 20
1.115428949576909
 10
-2.260618450802512
 20
1.12456340299728
 10
-2.265183787571096
 20
1.133333333333334
 10
-2.270496101647246
 20
1.141671996119785
 10
-2.276514963113181
 20
1.149515929097808
 10
-2.283194564798857
 20
1.156805435201142
 10
-2.290484070902191
 20
1.163485036886817
 10
-2.298328003880213
 20
1.169503898352752
 10
-2.306666666666665
 20
1.174816212428903
 10
-2.315436597002719
 20
1.179381549197487
 10
-2.324571050423089
 20
1.183165163689069
 10
-2.334000508221712
 20
1.186138260312761
 10
-2.343653206531079
 20
1.18827821200805
 10
-2.353455682488597
 20
1.189568732450398
 10
-2.363333333333331
 20
1.19
  0
LINE
  5
1D4
330
169
100
AcDbEntity
  8
AM_4
100
AcDbLine
 10
-2.375
 20
-1.19
 30
0.0
 11
-2.375
 21
1.19
 31
0.0
  0
LWPOLYLINE
  5
1D5
330
169
100
AcDbEntity
  8
AM_4
100
AcDbPolyline
 90
       19
 70
     0
 43
0.0
 10
-2.363333333333334
 20
-1.19
 10
-2.353455682488599
 20
-1.189568732450398
 10
-2.343653206531081
 20
-1.18827821200805
 10
-2.334000508221715
 20
-1.186138260312761
 10
-2.324571050423091
 20
-1.18316516368907
 10
-2.315436597002721
 20
-1.179381549197487
 10
-2.306666666666667
 20
-1.174816212428903
 10
-2.298328003880215
 20
-1.169503898352753
 10
-2.290484070902193
 20
-1.163485036886818
 10
-2.283194564798858
 20
-1.156805435201143
 10
-2.276514963113183
 20
-1.149515929097808
 10
-2.270496101647248
 20
-1.141671996119786
 10
-2.265183787571097
 20
-1.133333333333334
 10
-2.260618450802513
 20
-1.12456340299728
 10
-2.256834836310931
 20
-1.11542894957691
 10
-2.253861739687239
 20
-1.105999491778286
 10
-2.25172178799195
 20
-1.09634679346892
 10
-2.250431267549602
 20
-1.086544317511402
 10
-2.25
 20
-1.076666666666668
  0
LINE
  5
1D6
330
169
100
AcDbEntity
  8
AM_4
100
AcDbLine
 10
-2.25
 20
-1.076666664977868
 30
0.0
 11
-2.25
 21
-1.065333333333333
 31
0.0
  0
LWPOLYLINE
  5
1D7
330
169
100
AcDbEntity
  8
AM_4
100
AcDbPolyline
 90
       19
 70
     0
 43
0.0
 10
-2.136666666666667
 20
-0.9520000000000003
 10
-2.146544317511402
 20
-0.9524312675496024
 10
-2.156346793468919
 20
-0.9537217879919501
 10
-2.165999491778286
 20
-0.9558617396872392
 10
-2.175428949576909
 20
-0.9588348363109307
 10
-2.184563402997279
 20
-0.9626184508025132
 10
-2.193333333333334
 20
-0.967183787571097
 10
-2.201671996119785
 20
-0.9724961016472476
 10
-2.209515929097808
 20
-0.9785149631131825
 10
-2.216805435201142
 20
-0.9851945647988579
 10
-2.223485036886818
 20
-0.9924840709021922
 10
-2.229503898352752
 20
-1.000328003880215
 10
-2.234816212428903
 20
-1.008666666666667
 10
-2.239381549197487
 20
-1.017436597002721
 10
-2.24316516368907
 20
-1.02657105042309
 10
-2.246138260312761
 20
-1.036000508221714
 10
-2.24827821200805
 20
-1.045653206531081
 10
-2.249568732450398
 20
-1.055455682488598
 10
-2.25
 20
-1.065333333333333
  0
LWPOLYLINE
  5
1D8
330
169
100
AcDbEntity
  8
AM_4
100
AcDbPolyline
 90
       19
 70
     0
 43
0.0
 10
-2.249999999999998
 20
1.065333339652238
 10
-2.249568733001125
 20
1.055455688783458
 10
-2.248278213105315
 20
1.045653212753987
 10
-2.246138261948212
 20
1.036000514325307
 10
-2.24316516585026
 20
1.026571056360919
 10
-2.23938155186797
 20
1.017436602729593
 10
-2.234816215588354
 20
1.008666672138999
 10
-2.229503901977126
 20
1.000328009056358
 10
-2.22348504094853
 20
0.9924840757427539
 10
-2.216805439669281
 20
0.9851945692669983
 10
-2.209515933938368
 20
0.978514967174896
 10
-2.201672001295928
 20
0.9724961052716226
 10
-2.193333338805664
 20
0.9671837907305494
 10
-2.18456340872415
 20
0.9626184534729976
 10
-2.175428955514736
 20
0.9588348384721231
 10
-2.165999497881878
 20
0.955861741322692
 10
-2.156346799691824
 20
0.9537217890892162
 10
-2.14654432380626
 20
0.9524312681003311
 10
-2.13666667298557
 20
0.9520000000000001
  0
LINE
  5
1D9
330
169
100
AcDbEntity
  8
AM_4
100
AcDbLine
 10
2.073170731707318
 20
-0.952
 30
0.0
 11
2.073170731707318
 21
0.9519999999999998
 31
0.0
  0
LINE
  5
1DA
330
169
100
AcDbEntity
  8
AM_4
100
AcDbLine
 10
-2.073170731707317
 20
-0.952
 30
0.0
 11
-2.073170731707317
 21
0.9519999999999998
 31
0.0
  0
LINE
  5
1DB
330
169
100
AcDbEntity
  8
AM_4
100
AcDbLine
 10
1.0875
 20
0.5000000000000001
 30
0.0
 11
1.062464335545743
 21
0.5000000000000001
 31
0.0
  0
LINE
  5
1DC
330
169
100
AcDbEntity
  8
AM_4
100
AcDbLine
 10
1.062452952206938
 20
-0.4999999999999998
 30
0.0
 11
1.0875
 21
-0.4999999999999998
 31
0.0
  0
LWPOLYLINE
  5
1DD
330
169
100
AcDbEntity
  8
AM_4
100
AcDbPolyline
 90
       40
 70
     0
 43
0.0
 10
1.062493526169566
 20
0.4999999999441196
 10
1.054835949912005
 20
0.4999182387728047
 10
1.017741424558623
 20
0.4973587842580191
 10
0.9823431622801674
 20
0.4915682725988561
 10
0.9471299894086672
 20
0.482564246609462
 10
0.9113737076721627
 20
0.4700112251173028
 10
0.876362398933275
 20
0.4542301163192972
 10
0.8430179448266698
 20
0.4357242391249988
 10
0.8109035125892412
 20
0.4143582788610957
 10
0.7794411264627273
 20
0.3895630082478702
 10
0.7497892943241079
 20
0.3620699850951399
 10
0.7223045739816706
 20
0.3321795525336236
 10
0.6970892107353884
 20
0.2999898306205844
 10
0.6737545300867211
 20
0.2646846613690077
 10
0.6532761116289706
 20
0.2274090057031173
 10
0.6362665250101285
 20
0.1894111309688566
 10
0.6223354158304907
 20
0.1500446742176155
 10
0.6113659714678402
 20
0.1083309585864346
 10
0.6039428430135659
 20
0.0657706716555932
 10
0.6002750112375448
 20
0.0249496505366619
 10
0.5999110499050702
 20
-0.0160482717705754
 10
0.6030083141627633
 20
-0.0581507123774797
 10
0.6095784099364026
 20
-0.0998169746069615
 10
0.6190755363512146
 20
-0.1390375726192031
 10
0.6315978628171646
 20
-0.1773134190251217
 10
0.6475083813191297
 20
-0.2154125639004742
 10
0.6663303076498289
 20
-0.2519947109817698
 10
0.6876668802956919
 20
-0.2864760760339818
 10
0.7114932632316474
 20
-0.319017885924854
 10
0.738370863414278
 20
-0.3502224815801876
 10
0.7674301360230863
 20
-0.3789562496095717
 10
0.7982259087791346
 20
-0.4048580265832195
 10
0.8306819646710167
 20
-0.4279537903946924
 10
0.8655578115726864
 20
-0.4486171973161995
 10
0.9016216853534421
 20
-0.4659750788351988
 10
0.9372331869961675
 20
-0.4794365888366687
 10
0.9733897197848224
 20
-0.4895903051698943
 10
1.010924460425376
 20
-0.4964936091146461
 10
1.048435650150703
 20
-0.4997373471196649
 10
1.062497087776041
 20
-0.499999999988692
  0
ELLIPSE
  5
1DE
330
169
100
AcDbEntity
  8
AM_4
100
AcDbEllipse
 10
1.0875
 20
0.0000000000000001
 30
0.0
 11
3.061616997868382E-17
 21
0.4999999999999999
 31
0.0
210
0.0
220
0.0
230
1.0
 40
0.8660254037844388
 41
0.0
 42
3.141592653589793
  0
ELLIPSE
  5
1DF
330
169
100
AcDbEntity
  8
AM_4
100
AcDbEllipse
 10
1.087499999995606
 20
-0.0000000000016122
 30
0.0
 11
3.061616997878255E-17
 21
0.5000000000016123
 31
0.0
210
0.0
220
0.0
230
1.0
 40
0.866025403784488
 41
6.271035845102344
 42
6.283185307179586
  0
ELLIPSE
  5
1E0
330
169
100
AcDbEntity
  8
AM_4
100
AcDbEllipse
 10
1.1125
 20
0.0000000000000001
 30
0.0
 11
-8.266365894244633E-17
 21
-0.45
 31
0.0
210
0.0
220
0.0
230
1.0
 40
0.866025403784439
 41
0.0
 42
6.283185307179586
  0
LWPOLYLINE
  5
1E1
330
169
100
AcDbEntity
  8
AM_4
100
AcDbPolyline
 90
       26
 70
     0
 43
0.0
 10
1.527211431702997
 20
0.0000000000000001
 10
1.526938389627866
 20
0.0176340759494614
 10
1.525017473780093
 20
0.0499314211357662
 10
1.521264533471669
 20
0.0820290904986503
 10
1.51569405338659
 20
0.1137892216073047
 10
1.508327769127643
 20
0.1450790338666627
 10
1.499194779976245
 20
0.1757673379880963
 10
1.488331537076758
 20
0.205725014032561
 10
1.475781825207154
 20
0.2348255095949797
 10
1.461596732125352
 20
0.2629453627598748
 10
1.445834596366711
 20
0.2899647553422985
 10
1.428560921096375
 20
0.3157681000844855
 10
1.409848238511165
 20
0.3402446621050525
 10
1.389775907053871
 20
0.3632892097729025
 10
1.36842982326353
 20
0.3848026834072811
 10
1.34590203239855
 20
0.404692862381311
 10
1.322290227769011
 20
0.4228750035021051
 10
1.297697138168351
 20
0.4392724176397922
 10
1.272229815193454
 20
0.4538169493881983
 10
1.245998845873132
 20
0.4664493276862289
 10
1.219117528357109
 20
0.4771193645569187
 10
1.191701056639414
 20
0.485785993821947
 10
1.163865762071026
 20
0.4924171597414581
 10
1.13572845363537
 20
0.4969895838148473
 10
1.10740588611126
 20
0.4994884529018339
 10
1.092936683751351
 20
0.4999618597830411
  0
LWPOLYLINE
  5
1E2
330
169
100
AcDbEntity
  8
AM_4
100
AcDbPolyline
 90
       26
 70
     0
 43
0.0
 10
1.089112162876751
 20
-0.4999966463510462
 10
1.108495588499329
 20
-0.4994308798648983
 10
1.136782644503706
 20
-0.4968561156989362
 10
1.164855013926407
 20
-0.4922178520165682
 10
1.192599714862383
 20
-0.4855360662270535
 10
1.219905049383415
 20
-0.4768380109260976
 10
1.246660693468065
 20
-0.4661582707867025
 10
1.272757865356256
 20
-0.4535388941315951
 10
1.298089599263688
 20
-0.4390295558824474
 10
1.322551134172659
 20
-0.4226877029262362
 10
1.34604040897323
 20
-0.4045786354464333
 10
1.368458639545654
 20
-0.3847754874271758
 10
1.389710942917815
 20
-0.363359084053839
 10
1.409706969660335
 20
-0.3404176700231641
 10
1.428361508032264
 20
-0.3160465177397944
 10
1.445595030650982
 20
-0.2903474356219495
 10
1.461334164477844
 20
-0.2634282030443128
 10
1.475512075425454
 20
-0.2354019598275432
 10
1.488068768078362
 20
-0.2063865756175832
 10
1.498951307787324
 20
-0.1765040194548301
 10
1.508113976425977
 20
-0.1458797438106006
 10
1.515518374661331
 20
-0.1146420915611135
 10
1.521133483298107
 20
-0.0829217295245061
 10
1.524935694819183
 20
-0.0508511086099128
 10
1.52690882428855
 20
-0.0185639482910683
 10
1.527211431702997
 20
0.0000000000000001
  0
ENDBLK
  5
16C
330
169
100
AcDbEntity
  8
0
100
AcDbBlockEnd
  0
ENDSEC
  0
SECTION
  2
ENTITIES
  0
INSERT
  5
6F
330
1F
100
AcDbEntity
  8
0
100
AcDbBlockReference
  2
1_071391_4
 10
0.0
 20
0.0
 30
0.0
  0
POINT
  5
1E4
330
1F
100
AcDbEntity
  8
ConnectionPoints
100
AcDbPoint
 10
0.0
 20
-1.69
 30
0.0000000000000001
  0
POINT
  5
1E5
330
1F
100
AcDbEntity
  8
ConnectionPoints
100
AcDbPoint
 10
0.0
 20
1.7145
 30
-0.0000000000000001
  0
POINT
  5
1E6
330
1F
100
AcDbEntity
  8
ConnectionPoints
100
AcDbPoint
 10
0.0
 20
-1.69
 30
0.0000000000000001
  0
POINT
  5
1E7
330
1F
100
AcDbEntity
  8
ConnectionPoints
100
AcDbPoint
 10
1.1125
 20
0.0000000000000001
 30
1.926906523420376
  0
POINT
  5
1E8
330
1F
100
AcDbEntity
  8
ConnectionPoints
100
AcDbPoint
 10
0.0
 20
-1.5
 30
0.0000000000000001
  0
POINT
  5
1E9
330
1F
100
AcDbEntity
  8
ConnectionPoints
100
AcDbPoint
 10
0.0
 20
-1.69
 30
0.0000000000000001
  0
POINT
  5
1EA
330
1F
100
AcDbEntity
  8
ConnectionPoints
100
AcDbPoint
 10
1.1125
 20
0.0000000000000001
 30
1.926906523420376
  0
ENDSEC
  0
SECTION
  2
OBJECTS
  0
DICTIONARY
  5
C
330
0
100
AcDbDictionary
281
     1
  3
ACAD_DETAILVIEWSTYLE
350
1F2
  3
ACAD_GROUP
350
D
  3
ACAD_LAYOUT
350
1A
  3
ACAD_MATERIAL
350
43
  3
ACAD_MLEADERSTYLE
350
6B
  3
ACAD_MLINESTYLE
350
17
  3
ACAD_PLOTSETTINGS
350
19
  3
ACAD_PLOTSTYLENAME
350
E
  3
ACAD_SCALELIST
350
47
  3
ACAD_SECTIONVIEWSTYLE
350
1F3
  3
ACAD_TABLESTYLE
350
69
  3
ACAD_VISUALSTYLE
350
2A
  3
ACDB_RECOMPOSE_DATA
350
1EF
  3
AcDbVariableDictionary
350
1EB
  0
SUN
  5
6D
330
29
100
AcDbSun
 90
        1
290
     0
 63
     7
421
 16777215
 40
1.0
291
     1
 91
  2455826
 92
 54000000
292
     0
 70
     2
 71
   256
280
     1
  0
DICTIONARY
  5
1F2
102
{ACAD_REACTORS
330
C
102
}
330
C
100
AcDbDictionary
281
     1
  0
DICTIONARY
  5
D
102
{ACAD_REACTORS
330
C
102
}
330
C
100
AcDbDictionary
281
     1
  0
DICTIONARY
  5
1A
102
{ACAD_REACTORS
330
C
102
}
330
C
100
AcDbDictionary
281
     1
  3
Layout1
350
1E
  3
Layout2
350
26
  3
Model
350
22
  0
DICTIONARY
  5
43
102
{ACAD_REACTORS
330
C
102
}
330
C
100
AcDbDictionary
281
     1
  3
ByBlock
350
45
  3
ByLayer
350
44
  3
Global
350
46
  0
DICTIONARY
  5
6B
102
{ACAD_REACTORS
330
C
102
}
330
C
100
AcDbDictionary
281
     1
  3
Standard
350
6C
  0
DICTIONARY
  5
17
102
{ACAD_REACTORS
330
C
102
}
330
C
100
AcDbDictionary
281
     1
  3
Standard
350
18
  0
DICTIONARY
  5
19
102
{ACAD_REACTORS
330
C
102
}
330
C
100
AcDbDictionary
281
     1
  0
ACDBDICTIONARYWDFLT
  5
E
102
{ACAD_REACTORS
330
C
102
}
330
C
100
AcDbDictionary
281
     1
  3
Normal
350
F
100
AcDbDictionaryWithDefault
340
F
  0
DICTIONARY
  5
47
102
{ACAD_REACTORS
330
C
102
}
330
C
100
AcDbDictionary
281
     1
  3
A0
350
48
  3
A1
350
49
  3
A2
350
4A
  3
A3
350
4B
  3
A4
350
4C
  3
A5
350
4D
  3
A6
350
4E
  3
A7
350
4F
  3
A8
350
50
  3
A9
350
51
  3
B0
350
52
  3
B1
350
53
  3
B2
350
54
  3
B3
350
55
  3
B4
350
56
  3
B5
350
57
  3
B6
350
58
  3
B7
350
59
  3
B8
350
5A
  3
B9
350
5B
  3
C0
350
5C
  3
C1
350
5D
  3
C2
350
5E
  3
C3
350
5F
  3
C4
350
60
  3
C5
350
61
  3
C6
350
62
  3
C7
350
63
  3
C8
350
64
  3
C9
350
65
  3
D0
350
66
  3
D1
350
67
  3
D2
350
68
  0
DICTIONARY
  5
1F3
102
{ACAD_REACTORS
330
C
102
}
330
C
100
AcDbDictionary
281
     1
  0
DICTIONARY
  5
69
102
{ACAD_REACTORS
330
C
102
}
330
C
100
AcDbDictionary
281
     1
  3
Standard
350
6A
  0
DICTIONARY
  5
2A
102
{ACAD_REACTORS
330
C
102
}
330
C
100
AcDbDictionary
281
     1
  3
2dWireframe
350
2F
  3
Basic
350
32
  3
Brighten
350
36
  3
ColorChange
350
3A
  3
Conceptual
350
34
  3
Dim
350
35
  3
EdgeColorOff
350
3D
  3
Facepattern
350
39
  3
Flat
350
2B
  3
FlatWithEdges
350
2C
  3
Gouraud
350
2D
  3
GouraudWithEdges
350
2E
  3
Hidden
350
31
  3
JitterOff
350
3B
  3
Linepattern
350
38
  3
OverhangOff
350
3C
  3
Realistic
350
33
  3
Shaded
350
42
  3
Shaded with edges
350
41
  3
Shades of Gray
350
3E
  3
Sketchy
350
3F
  3
Thicken
350
37
  3
Wireframe
350
30
  3
X-Ray
350
40
  0
XRECORD
  5
1EF
102
{ACAD_REACTORS
330
C
102
}
330
C
100
AcDbXrecord
280
     1
 90
        1
330
6A
  0
DICTIONARY
  5
1EB
102
{ACAD_REACTORS
330
C
102
}
330
C
100
AcDbDictionary
281
     1
  3
CANNOSCALE
350
1EC
  3
CMLEADERSTYLE
350
1F1
  3
CTABLESTYLE
350
1F0
  0
LAYOUT
  5
1E
102
{ACAD_REACTORS
330
1A
102
}
330
1A
100
AcDbPlotSettings
  1

  2
none_device
  4

  6

 40
0.0
 41
0.0
 42
0.0
 43
0.0
 44
0.0
 45
0.0
 46
0.0
 47
0.0
 48
0.0
 49
0.0
140
0.0
141
0.0
142
1.0
143
1.0
 70
   688
 72
     0
 73
     0
 74
     5
  7

 75
    16
 76
     0
 77
     2
 78
   300
147
1.0
148
0.0
149
0.0
100
AcDbLayout
  1
Layout1
 70
     1
 71
     1
 10
0.0
 20
0.0
 11
12.0
 21
9.0
 12
0.0
 22
0.0
 32
0.0
 14
1.000000000000000E+20
 24
1.000000000000000E+20
 34
1.000000000000000E+20
 15
-1.000000000000000E+20
 25
-1.000000000000000E+20
 35
-1.000000000000000E+20
146
0.0
 13
0.0
 23
0.0
 33
0.0
 16
1.0
 26
0.0
 36
0.0
 17
0.0
 27
1.0
 37
0.0
 76
     0
330
1B
  0
LAYOUT
  5
26
102
{ACAD_REACTORS
330
1A
102
}
330
1A
100
AcDbPlotSettings
  1

  2
none_device
  4

  6

 40
0.0
 41
0.0
 42
0.0
 43
0.0
 44
0.0
 45
0.0
 46
0.0
 47
0.0
 48
0.0
 49
0.0
140
0.0
141
0.0
142
1.0
143
1.0
 70
   688
 72
     0
 73
     0
 74
     5
  7

 75
    16
 76
     0
 77
     2
 78
   300
147
1.0
148
0.0
149
0.0
100
AcDbLayout
  1
Layout2
 70
     1
 71
     2
 10
0.0
 20
0.0
 11
0.0
 21
0.0
 12
0.0
 22
0.0
 32
0.0
 14
0.0
 24
0.0
 34
0.0
 15
0.0
 25
0.0
 35
0.0
146
0.0
 13
0.0
 23
0.0
 33
0.0
 16
1.0
 26
0.0
 36
0.0
 17
0.0
 27
1.0
 37
0.0
 76
     0
330
23
  0
LAYOUT
  5
22
102
{ACAD_REACTORS
330
1A
102
}
330
1A
100
AcDbPlotSettings
  1

  2
none_device
  4
Letter_(8.50_x_11.00_Inches)
  6

 40
6.35
 41
6.35
 42
6.35000508
 43
6.35000508
 44
215.9
 45
279.4
 46
0.0
 47
0.0
 48
0.0
 49
0.0
140
0.0
141
0.0
142
1.0
143
1.0
 70
  1712
 72
     0
 73
     0
 74
     0
  7

 75
     0
 76
     0
 77
     2
 78
   300
147
1.0
148
0.0
149
0.0
100
AcDbLayout
  1
Model
 70
     1
 71
     0
 10
0.0
 20
0.0
 11
12.0
 21
9.0
 12
0.0
 22
0.0
 32
0.0
 14
1.000000000000000E+20
 24
1.000000000000000E+20
 34
1.000000000000000E+20
 15
-1.000000000000000E+20
 25
-1.000000000000000E+20
 35
-1.000000000000000E+20
146
0.0
 13
0.0
 23
0.0
 33
0.0
 16
1.0
 26
0.0
 36
0.0
 17
0.0
 27
1.0
 37
0.0
 76
     0
330
1F
331
29
  0
MATERIAL
  5
45
102
{ACAD_REACTORS
330
43
102
}
330
43
100
AcDbMaterial
  1
ByBlock
 72
     1
 94
      127
  0
MATERIAL
  5
44
102
{ACAD_REACTORS
330
43
102
}
330
43
100
AcDbMaterial
  1
ByLayer
 72
     1
 94
      127
  0
MATERIAL
  5
46
102
{ACAD_REACTORS
330
43
102
}
330
43
100
AcDbMaterial
  1
Global
 72
     1
 94
      127
  0
MLEADERSTYLE
  5
6C
102
{ACAD_REACTORS
330
6B
102
}
330
6B
100
AcDbMLeaderStyle
179
     2
170
     2
171
     1
172
     0
 90
        2
 40
0.0
 41
0.0
173
     1
 91
-1056964608
340
14
 92
       -2
290
     1
 42
0.09
291
     1
 43
0.36
  3
Standard
341
0
 44
0.18
300

342
11
174
     1
178
     6
175
     1
176
     0
 93
-1056964608
 45
0.18
292
     0
297
     0
 46
0.18
343
0
 94
-1056964608
 47
1.0
 49
1.0
140
1.0
293
     1
141
0.0
294
     1
177
     0
142
1.0
295
     0
296
     0
143
0.125
271
     0
272
     9
273
     9
298
     0
  0
MLINESTYLE
  5
18
102
{ACAD_REACTORS
330
17
102
}
330
17
100
AcDbMlineStyle
  2
Standard
 70
     0
  3

 62
   256
 51
90.0
 52
90.0
 71
     2
 49
0.5
 62
   256
  6
BYLAYER
 49
-0.5
 62
   256
  6
BYLAYER
  0
ACDBPLACEHOLDER
  5
F
102
{ACAD_REACTORS
330
E
102
}
330
E
  0
SCALE
  5
48
102
{ACAD_REACTORS
330
47
102
}
330
47
100
AcDbScale
 70
     0
300
1:1
140
1.0
141
1.0
290
     1
  0
SCALE
  5
49
102
{ACAD_REACTORS
330
47
102
}
330
47
100
AcDbScale
 70
     0
300
1:2
140
1.0
141
2.0
290
     0
  0
SCALE
  5
4A
102
{ACAD_REACTORS
330
47
102
}
330
47
100
AcDbScale
 70
     0
300
1:4
140
1.0
141
4.0
290
     0
  0
SCALE
  5
4B
102
{ACAD_REACTORS
330
47
102
}
330
47
100
AcDbScale
 70
     0
300
1:5
140
1.0
141
5.0
290
     0
  0
SCALE
  5
4C
102
{ACAD_REACTORS
330
47
102
}
330
47
100
AcDbScale
 70
     0
300
1:8
140
1.0
141
8.0
290
     0
  0
SCALE
  5
4D
102
{ACAD_REACTORS
330
47
102
}
330
47
100
AcDbScale
 70
     0
300
1:10
140
1.0
141
10.0
290
     0
  0
SCALE
  5
4E
102
{ACAD_REACTORS
330
47
102
}
330
47
100
AcDbScale
 70
     0
300
1:16
140
1.0
141
16.0
290
     0
  0
SCALE
  5
4F
102
{ACAD_REACTORS
330
47
102
}
330
47
100
AcDbScale
 70
     0
300
1:20
140
1.0
141
20.0
290
     0
  0
SCALE
  5
50
102
{ACAD_REACTORS
330
47
102
}
330
47
100
AcDbScale
 70
     0
300
1:30
140
1.0
141
30.0
290
     0
  0
SCALE
  5
51
102
{ACAD_REACTORS
330
47
102
}
330
47
100
AcDbScale
 70
     0
300
1:40
140
1.0
141
40.0
290
     0
  0
SCALE
  5
52
102
{ACAD_REACTORS
330
47
102
}
330
47
100
AcDbScale
 70
     0
300
1:50
140
1.0
141
50.0
290
     0
  0
SCALE
  5
53
102
{ACAD_REACTORS
330
47
102
}
330
47
100
AcDbScale
 70
     0
300
1:100
140
1.0
141
100.0
290
     0
  0
SCALE
  5
54
102
{ACAD_REACTORS
330
47
102
}
330
47
100
AcDbScale
 70
     0
300
2:1
140
2.0
141
1.0
290
     0
  0
SCALE
  5
55
102
{ACAD_REACTORS
330
47
102
}
330
47
100
AcDbScale
 70
     0
300
4:1
140
4.0
141
1.0
290
     0
  0
SCALE
  5
56
102
{ACAD_REACTORS
330
47
102
}
330
47
100
AcDbScale
 70
     0
300
8:1
140
8.0
141
1.0
290
     0
  0
SCALE
  5
57
102
{ACAD_REACTORS
330
47
102
}
330
47
100
AcDbScale
 70
     0
300
10:1
140
10.0
141
1.0
290
     0
  0
SCALE
  5
58
102
{ACAD_REACTORS
330
47
102
}
330
47
100
AcDbScale
 70
     0
300
100:1
140
100.0
141
1.0
290
     0
  0
SCALE
  5
59
102
{ACAD_REACTORS
330
47
102
}
330
47
100
AcDbScale
 70
     0
300
1/128" = 1'-0"
140
0.0078125
141
12.0
290
     0
  0
SCALE
  5
5A
102
{ACAD_REACTORS
330
47
102
}
330
47
100
AcDbScale
 70
     0
300
1/64" = 1'-0"
140
0.015625
141
12.0
290
     0
  0
SCALE
  5
5B
102
{ACAD_REACTORS
330
47
102
}
330
47
100
AcDbScale
 70
     0
300
1/32" = 1'-0"
140
0.03125
141
12.0
290
     0
  0
SCALE
  5
5C
102
{ACAD_REACTORS
330
47
102
}
330
47
100
AcDbScale
 70
     0
300
1/16" = 1'-0"
140
0.0625
141
12.0
290
     0
  0
SCALE
  5
5D
102
{ACAD_REACTORS
330
47
102
}
330
47
100
AcDbScale
 70
     0
300
3/32" = 1'-0"
140
0.09375
141
12.0
290
     0
  0
SCALE
  5
5E
102
{ACAD_REACTORS
330
47
102
}
330
47
100
AcDbScale
 70
     0
300
1/8" = 1'-0"
140
0.125
141
12.0
290
     0
  0
SCALE
  5
5F
102
{ACAD_REACTORS
330
47
102
}
330
47
100
AcDbScale
 70
     0
300
3/16" = 1'-0"
140
0.1875
141
12.0
290
     0
  0
SCALE
  5
60
102
{ACAD_REACTORS
330
47
102
}
330
47
100
AcDbScale
 70
     0
300
1/4" = 1'-0"
140
0.25
141
12.0
290
     0
  0
SCALE
  5
61
102
{ACAD_REACTORS
330
47
102
}
330
47
100
AcDbScale
 70
     0
300
3/8" = 1'-0"
140
0.375
141
12.0
290
     0
  0
SCALE
  5
62
102
{ACAD_REACTORS
330
47
102
}
330
47
100
AcDbScale
 70
     0
300
1/2" = 1'-0"
140
0.5
141
12.0
290
     0
  0
SCALE
  5
63
102
{ACAD_REACTORS
330
47
102
}
330
47
100
AcDbScale
 70
     0
300
3/4" = 1'-0"
140
0.75
141
12.0
290
     0
  0
SCALE
  5
64
102
{ACAD_REACTORS
330
47
102
}
330
47
100
AcDbScale
 70
     0
300
1" = 1'-0"
140
1.0
141
12.0
290
     0
  0
SCALE
  5
65
102
{ACAD_REACTORS
330
47
102
}
330
47
100
AcDbScale
 70
     0
300
1-1/2" = 1'-0"
140
1.5
141
12.0
290
     0
  0
SCALE
  5
66
102
{ACAD_REACTORS
330
47
102
}
330
47
100
AcDbScale
 70
     0
300
3" = 1'-0"
140
3.0
141
12.0
290
     0
  0
SCALE
  5
67
102
{ACAD_REACTORS
330
47
102
}
330
47
100
AcDbScale
 70
     0
300
6" = 1'-0"
140
6.0
141
12.0
290
     0
  0
SCALE
  5
68
102
{ACAD_REACTORS
330
47
102
}
330
47
100
AcDbScale
 70
     0
300
1'-0" = 1'-0"
140
12.0
141
12.0
290
     0
  0
TABLESTYLE
  5
6A
102
{ACAD_REACTORS
330
69
102
}
102
{ACAD_XDICTIONARY
360
1ED
102
}
330
69
100
AcDbTableStyle
  3
Standard
 70
     0
 71
     0
 40
0.06
 41
0.06
280
     0
281
     0
  7
Standard
140
0.18
170
     2
 62
     0
 63
   257
283
     0
 90
        4
 91
        0
  1

274
    -2
284
     1
 64
     0
275
    -2
285
     1
 65
     0
276
    -2
286
     1
 66
     0
277
    -2
287
     1
 67
     0
278
    -2
288
     1
 68
     0
279
    -2
289
     1
 69
     0
  7
Standard
140
0.25
170
     5
 62
     0
 63
   257
283
     0
 90
        4
 91
        0
  1

274
    -2
284
     1
 64
     0
275
    -2
285
     1
 65
     0
276
    -2
286
     1
 66
     0
277
    -2
287
     1
 67
     0
278
    -2
288
     1
 68
     0
279
    -2
289
     1
 69
     0
  7
Standard
140
0.18
170
     5
 62
     0
 63
   257
283
     0
 90
        4
 91
        0
  1

274
    -2
284
     1
 64
     0
275
    -2
285
     1
 65
     0
276
    -2
286
     1
 66
     0
277
    -2
287
     1
 67
     0
278
    -2
288
     1
 68
     0
279
    -2
289
     1
 69
     0
  0
VISUALSTYLE
  5
2F
102
{ACAD_REACTORS
330
2A
102
}
330
2A
100
AcDbVisualStyle
  2
2dWireframe
 70
     4
177
     3
291
     0
 70
    58
 90
        0
176
     1
 90
        2
176
     1
 90
        0
176
     1
 90
        0
176
     1
 40
0.6
176
     1
 40
30.0
176
     1
 62
     7
420
 16777215
176
     1
 90
        1
176
     1
 90
        4
176
     1
 62
     7
176
     1
 62
   257
176
     1
 90
        1
176
     1
 90
        1
176
     1
 40
1.0
176
     1
 90
        0
176
     1
 62
   257
176
     1
 40
1.0
176
     1
 90
        1
176
     1
 90
        6
176
     1
 90
        2
176
     1
 62
     7
176
     1
 90
        5
176
     1
 90
        0
176
     1
 90
        0
176
     1
290
     0
176
     1
 90
        1
176
     1
 40
0.0
176
     1
 90
        0
176
     1
290
     1
176
     1
290
     1
176
     1
290
     0
176
     1
290
     0
176
     1
290
     0
176
     1
290
     0
176
     1
290
     0
176
     1
290
     0
176
     1
290
     0
176
     1
 90
       50
176
     1
 40
0.0
176
     1
 40
1.0
176
     1
 90
        0
176
     1
 62
    18
420
        0
176
     1
 90
       50
176
     1
 90
        3
176
     1
 62
     5
420
      255
176
     1
290
     0
176
     1
 90
       50
176
     1
 90
       50
176
     1
 90
       50
176
     1
290
     0
176
     1
 90
       50
176
     1
 62
   256
176
     0
 40
1.0
176
     0
 90
        2
176
     1
  1
strokes_ogs.tif
176
     1
290
     0
176
     1
 40
1.0
176
     1
 40
1.0
176
     1
  0
VISUALSTYLE
  5
32
102
{ACAD_REACTORS
330
2A
102
}
330
2A
100
AcDbVisualStyle
  2
Basic
 70
     7
177
     3
291
     1
 70
    58
 90
        1
176
     1
 90
        0
176
     1
 90
        1
176
     1
 90
        0
176
     1
 40
0.6
176
     1
 40
30.0
176
     1
 62
     7
420
 16777215
176
     1
 90
        0
176
     1
 90
        4
176
     1
 62
     7
176
     1
 62
   257
176
     1
 90
        1
176
     1
 90
        1
176
     1
 40
1.0
176
     1
 90
        8
176
     1
 62
     7
176
     1
 40
1.0
176
     1
 90
        1
176
     1
 90
        6
176
     1
 90
        2
176
     1
 62
     7
176
     1
 90
        5
176
     1
 90
        0
176
     1
 90
        0
176
     1
290
     0
176
     1
 90
        1
176
     1
 40
0.0
176
     1
 90
        0
176
     1
290
     0
176
     1
290
     1
176
     1
290
     1
176
     1
290
     0
176
     1
290
     0
176
     1
290
     0
176
     1
290
     0
176
     1
290
     0
176
     1
290
     0
176
     1
 90
       50
176
     1
 40
0.0
176
     1
 40
1.0
176
     1
 90
        0
176
     1
 62
    18
420
        0
176
     1
 90
       50
176
     1
 90
        3
176
     1
 62
     5
420
      255
176
     1
290
     0
176
     1
 90
       50
176
     1
 90
       50
176
     1
 90
       50
176
     1
290
     0
176
     1
 90
       50
176
     1
 62
   256
176
     0
 40
1.0
176
     0
 90
        2
176
     1
  1
strokes_ogs.tif
176
     1
290
     0
176
     1
 40
1.0
176
     1
 40
1.0
176
     1
  0
VISUALSTYLE
  5
36
102
{ACAD_REACTORS
330
2A
102
}
330
2A
100
AcDbVisualStyle
  2
Brighten
 70
    12
177
     3
291
     1
 70
    58
 90
        2
176
     1
 90
        2
176
     1
 90
        0
176
     1
 90
        0
176
     1
 40
0.6
176
     1
 40
30.0
176
     1
 62
     7
420
 16777215
176
     1
 90
        1
176
     1
 90
        4
176
     1
 62
     7
176
     1
 62
   257
176
     1
 90
        1
176
     1
 90
        1
176
     1
 40
1.0
176
     1
 90
        8
176
     1
 62
     7
176
     1
 40
1.0
176
     1
 90
        1
176
     1
 90
        6
176
     1
 90
        2
176
     1
 62
     7
176
     1
 90
        5
176
     1
 90
        0
176
     1
 90
        0
176
     1
290
     0
176
     1
 90
        1
176
     1
 40
50.0
176
     1
 90
        0
176
     1
290
     0
176
     1
290
     1
176
     1
290
     1
176
     1
290
     0
176
     1
290
     0
176
     1
290
     0
176
     1
290
     0
176
     1
290
     0
176
     1
290
     0
176
     1
 90
       50
176
     1
 40
0.0
176
     1
 40
1.0
176
     1
 90
        0
176
     1
 62
    18
420
        0
176
     1
 90
       50
176
     1
 90
        3
176
     1
 62
     5
420
      255
176
     1
290
     0
176
     1
 90
       50
176
     1
 90
       50
176
     1
 90
       50
176
     1
290
     0
176
     1
 90
       50
176
     1
 62
   256
176
     0
 40
1.0
176
     0
 90
        2
176
     1
  1
strokes_ogs.tif
176
     1
290
     0
176
     1
 40
1.0
176
     1
 40
1.0
176
     1
  0
VISUALSTYLE
  5
3A
102
{ACAD_REACTORS
330
2A
102
}
330
2A
100
AcDbVisualStyle
  2
ColorChange
 70
    16
177
     3
291
     1
 70
    58
 90
        2
176
     1
 90
        2
176
     1
 90
        3
176
     1
 90
        0
176
     1
 40
0.6
176
     1
 40
30.0
176
     1
 62
     8
420
  8421504
176
     1
 90
        1
176
     1
 90
        4
176
     1
 62
     7
176
     1
 62
   257
176
     1
 90
        1
176
     1
 90
        1
176
     1
 40
1.0
176
     1
 90
        8
176
     1
 62
     8
420
  8421504
176
     1
 40
1.0
176
     1
 90
        1
176
     1
 90
        6
176
     1
 90
        2
176
     1
 62
     7
176
     1
 90
        5
176
     1
 90
        0
176
     1
 90
        0
176
     1
290
     0
176
     1
 90
        1
176
     1
 40
0.0
176
     1
 90
        0
176
     1
290
     0
176
     1
290
     1
176
     1
290
     1
176
     1
290
     0
176
     1
290
     0
176
     1
290
     0
176
     1
290
     0
176
     1
290
     0
176
     1
290
     0
176
     1
 90
       50
176
     1
 40
0.0
176
     1
 40
1.0
176
     1
 90
        0
176
     1
 62
    18
420
        0
176
     1
 90
       50
176
     1
 90
        3
176
     1
 62
     5
420
      255
176
     1
290
     0
176
     1
 90
       50
176
     1
 90
       50
176
     1
 90
       50
176
     1
290
     0
176
     1
 90
       50
176
     1
 62
   256
176
     0
 40
1.0
176
     0
 90
        2
176
     1
  1
strokes_ogs.tif
176
     1
290
     0
176
     1
 40
1.0
176
     1
 40
1.0
176
     1
  0
VISUALSTYLE
  5
34
102
{ACAD_REACTORS
330
2A
102
}
330
2A
100
AcDbVisualStyle
  2
Conceptual
 70
     9
177
     3
291
     0
 70
    58
 90
        3
176
     1
 90
        2
176
     1
 90
        0
176
     1
 90
        0
176
     1
 40
0.6
176
     1
 40
30.0
176
     1
 62
     7
420
 16777215
176
     1
 90
        2
176
     1
 90
        2
176
     1
 62
     7
176
     1
 62
   257
176
     1
 90
        1
176
     1
 90
        1
176
     1
 40
179.0
176
     1
 90
        8
176
     1
 62
     7
176
     1
 40
1.0
176
     1
 90
        1
176
     1
 90
        6
176
     1
 90
        2
176
     1
 62
     7
176
     1
 90
        3
176
     1
 90
        0
176
     1
 90
        0
176
     1
290
     0
176
     1
 90
        1
176
     1
 40
0.0
176
     1
 90
        0
176
     1
290
     0
176
     1
290
     1
176
     1
290
     1
176
     1
290
     0
176
     1
290
     0
176
     1
290
     0
176
     1
290
     0
176
     1
290
     0
176
     1
290
     0
176
     1
 90
       50
176
     1
 40
0.0
176
     1
 40
1.0
176
     1
 90
        0
176
     1
 62
    18
420
        0
176
     1
 90
       50
176
     1
 90
        3
176
     1
 62
     5
420
      255
176
     1
290
     0
176
     1
 90
       50
176
     1
 90
       50
176
     1
 90
       50
176
     1
290
     0
176
     1
 90
       50
176
     1
 62
   256
176
     0
 40
1.0
176
     0
 90
        2
176
     1
  1
strokes_ogs.tif
176
     1
290
     0
176
     1
 40
1.0
176
     1
 40
1.0
176
     1
  0
VISUALSTYLE
  5
35
102
{ACAD_REACTORS
330
2A
102
}
330
2A
100
AcDbVisualStyle
  2
Dim
 70
    11
177
     3
291
     1
 70
    58
 90
        2
176
     1
 90
        2
176
     1
 90
        0
176
     1
 90
        0
176
     1
 40
0.6
176
     1
 40
30.0
176
     1
 62
     7
420
 16777215
176
     1
 90
        1
176
     1
 90
        4
176
     1
 62
     7
176
     1
 62
   257
176
     1
 90
        1
176
     1
 90
        1
176
     1
 40
1.0
176
     1
 90
        8
176
     1
 62
     7
176
     1
 40
1.0
176
     1
 90
        1
176
     1
 90
        6
176
     1
 90
        2
176
     1
 62
     7
176
     1
 90
        5
176
     1
 90
        0
176
     1
 90
        0
176
     1
290
     0
176
     1
 90
        1
176
     1
 40
-50.0
176
     1
 90
        0
176
     1
290
     0
176
     1
290
     1
176
     1
290
     1
176
     1
290
     0
176
     1
290
     0
176
     1
290
     0
176
     1
290
     0
176
     1
290
     0
176
     1
290
     0
176
     1
 90
       50
176
     1
 40
0.0
176
     1
 40
1.0
176
     1
 90
        0
176
     1
 62
    18
420
        0
176
     1
 90
       50
176
     1
 90
        3
176
     1
 62
     5
420
      255
176
     1
290
     0
176
     1
 90
       50
176
     1
 90
       50
176
     1
 90
       50
176
     1
290
     0
176
     1
 90
       50
176
     1
 62
   256
176
     0
 40
1.0
176
     0
 90
        2
176
     1
  1
strokes_ogs.tif
176
     1
290
     0
176
     1
 40
1.0
176
     1
 40
1.0
176
     1
  0
VISUALSTYLE
  5
3D
102
{ACAD_REACTORS
330
2A
102
}
330
2A
100
AcDbVisualStyle
  2
EdgeColorOff
 70
    22
177
     3
291
     1
 70
    58
 90
        2
176
     0
 90
        2
176
     0
 90
        0
176
     0
 90
        0
176
     0
 40
0.6
176
     0
 40
30.0
176
     0
 62
     7
420
 16777215
176
     0
 90
        1
176
     0
 90
        4
176
     0
 62
     7
176
     0
 62
   257
176
     0
 90
        1
176
     0
 90
        1
176
     0
 40
1.0
176
     0
 90
        8
176
     2
 62
     7
176
     0
 40
1.0
176
     0
 90
        1
176
     0
 90
        6
176
     0
 90
        2
176
     0
 62
     7
176
     0
 90
        5
176
     0
 90
        0
176
     0
 90
        0
176
     0
290
     0
176
     0
 90
        1
176
     0
 40
0.0
176
     0
 90
        0
176
     0
290
     0
176
     0
290
     1
176
     0
290
     1
176
     0
290
     0
176
     0
290
     0
176
     0
290
     0
176
     0
290
     0
176
     0
290
     0
176
     0
290
     0
176
     0
 90
       50
176
     0
 40
0.0
176
     0
 40
1.0
176
     0
 90
        0
176
     0
 62
    18
420
        0
176
     0
 90
       50
176
     0
 90
        3
176
     0
 62
     5
420
      255
176
     0
290
     0
176
     0
 90
       50
176
     0
 90
       50
176
     0
 90
       50
176
     0
290
     0
176
     0
 90
       50
176
     0
 62
   256
176
     0
 40
1.0
176
     0
 90
        2
176
     0
  1
strokes_ogs.tif
176
     0
290
     0
176
     0
 40
1.0
176
     0
 40
1.0
176
     0
  0
VISUALSTYLE
  5
39
102
{ACAD_REACTORS
330
2A
102
}
330
2A
100
AcDbVisualStyle
  2
Facepattern
 70
    15
177
     3
291
     1
 70
    58
 90
        2
176
     1
 90
        2
176
     1
 90
        0
176
     1
 90
        0
176
     1
 40
0.6
176
     1
 40
30.0
176
     1
 62
     7
420
 16777215
176
     1
 90
        1
176
     1
 90
        4
176
     1
 62
     7
176
     1
 62
   257
176
     1
 90
        1
176
     1
 90
        1
176
     1
 40
1.0
176
     1
 90
        8
176
     1
 62
     7
176
     1
 40
1.0
176
     1
 90
        1
176
     1
 90
        6
176
     1
 90
        2
176
     1
 62
     7
176
     1
 90
        5
176
     1
 90
        0
176
     1
 90
        0
176
     1
290
     0
176
     1
 90
        1
176
     1
 40
0.0
176
     1
 90
        0
176
     1
290
     0
176
     1
290
     1
176
     1
290
     1
176
     1
290
     0
176
     1
290
     0
176
     1
290
     0
176
     1
290
     0
176
     1
290
     0
176
     1
290
     0
176
     1
 90
       50
176
     1
 40
0.0
176
     1
 40
1.0
176
     1
 90
        0
176
     1
 62
    18
420
        0
176
     1
 90
       50
176
     1
 90
        3
176
     1
 62
     5
420
      255
176
     1
290
     0
176
     1
 90
       50
176
     1
 90
       50
176
     1
 90
       50
176
     1
290
     0
176
     1
 90
       50
176
     1
 62
   256
176
     0
 40
1.0
176
     0
 90
        2
176
     1
  1
strokes_ogs.tif
176
     1
290
     0
176
     1
 40
1.0
176
     1
 40
1.0
176
     1
  0
VISUALSTYLE
  5
2B
102
{ACAD_REACTORS
330
2A
102
}
330
2A
100
AcDbVisualStyle
  2
Flat
 70
     0
177
     3
291
     1
 70
    58
 90
        2
176
     1
 90
        1
176
     1
 90
        1
176
     1
 90
        2
176
     1
 40
0.6
176
     1
 40
30.0
176
     1
 62
     7
420
 16777215
176
     1
 90
        0
176
     1
 90
        0
176
     1
 62
     7
176
     1
 62
   257
176
     1
 90
        1
176
     1
 90
        1
176
     1
 40
1.0
176
     1
 90
        8
176
     1
 62
     7
176
     1
 40
1.0
176
     1
 90
        1
176
     1
 90
        6
176
     1
 90
        2
176
     1
 62
     7
176
     1
 90
        5
176
     1
 90
        0
176
     1
 90
        0
176
     1
290
     0
176
     1
 90
       13
176
     1
 40
0.0
176
     1
 90
        0
176
     1
290
     0
176
     1
290
     1
176
     1
290
     1
176
     1
290
     0
176
     1
290
     0
176
     1
290
     0
176
     1
290
     0
176
     1
290
     0
176
     1
290
     0
176
     1
 90
       50
176
     1
 40
0.0
176
     1
 40
1.0
176
     1
 90
        0
176
     1
 62
    18
420
        0
176
     1
 90
       50
176
     1
 90
        3
176
     1
 62
     5
420
      255
176
     1
290
     0
176
     1
 90
       50
176
     1
 90
       50
176
     1
 90
       50
176
     1
290
     0
176
     1
 90
       50
176
     1
 62
   256
176
     0
 40
1.0
176
     0
 90
        2
176
     1
  1
strokes_ogs.tif
176
     1
290
     0
176
     1
 40
1.0
176
     1
 40
1.0
176
     1
  0
VISUALSTYLE
  5
2C
102
{ACAD_REACTORS
330
2A
102
}
330
2A
100
AcDbVisualStyle
  2
FlatWithEdges
 70
     1
177
     3
291
     1
 70
    58
 90
        2
176
     1
 90
        1
176
     1
 90
        1
176
     1
 90
        2
176
     1
 40
0.6
176
     1
 40
30.0
176
     1
 62
     7
420
 16777215
176
     1
 90
        1
176
     1
 90
        0
176
     1
 62
     7
176
     1
 62
   257
176
     1
 90
        1
176
     1
 90
        1
176
     1
 40
1.0
176
     1
 90
        0
176
     1
 62
   257
176
     1
 40
1.0
176
     1
 90
        1
176
     1
 90
        6
176
     1
 90
        2
176
     1
 62
     7
176
     1
 90
        5
176
     1
 90
        0
176
     1
 90
        0
176
     1
290
     0
176
     1
 90
       13
176
     1
 40
0.0
176
     1
 90
        0
176
     1
290
     0
176
     1
290
     1
176
     1
290
     1
176
     1
290
     0
176
     1
290
     0
176
     1
290
     0
176
     1
290
     0
176
     1
290
     0
176
     1
290
     0
176
     1
 90
       50
176
     1
 40
0.0
176
     1
 40
1.0
176
     1
 90
        0
176
     1
 62
    18
420
        0
176
     1
 90
       50
176
     1
 90
        3
176
     1
 62
     5
420
      255
176
     1
290
     0
176
     1
 90
       50
176
     1
 90
       50
176
     1
 90
       50
176
     1
290
     0
176
     1
 90
       50
176
     1
 62
   256
176
     0
 40
1.0
176
     0
 90
        2
176
     1
  1
strokes_ogs.tif
176
     1
290
     0
176
     1
 40
1.0
176
     1
 40
1.0
176
     1
  0
VISUALSTYLE
  5
2D
102
{ACAD_REACTORS
330
2A
102
}
330
2A
100
AcDbVisualStyle
  2
Gouraud
 70
     2
177
     3
291
     1
 70
    58
 90
        2
176
     1
 90
        2
176
     1
 90
        1
176
     1
 90
        2
176
     1
 40
0.6
176
     1
 40
30.0
176
     1
 62
     7
420
 16777215
176
     1
 90
        0
176
     1
 90
        0
176
     1
 62
     7
176
     1
 62
   257
176
     1
 90
        1
176
     1
 90
        1
176
     1
 40
1.0
176
     1
 90
        0
176
     1
 62
     7
176
     1
 40
1.0
176
     1
 90
        1
176
     1
 90
        6
176
     1
 90
        2
176
     1
 62
     7
176
     1
 90
        5
176
     1
 90
        0
176
     1
 90
        0
176
     1
290
     0
176
     1
 90
       13
176
     1
 40
0.0
176
     1
 90
        0
176
     1
290
     0
176
     1
290
     1
176
     1
290
     1
176
     1
290
     0
176
     1
290
     0
176
     1
290
     0
176
     1
290
     0
176
     1
290
     0
176
     1
290
     0
176
     1
 90
       50
176
     1
 40
0.0
176
     1
 40
1.0
176
     1
 90
        0
176
     1
 62
    18
420
        0
176
     1
 90
       50
176
     1
 90
        3
176
     1
 62
     5
420
      255
176
     1
290
     0
176
     1
 90
       50
176
     1
 90
       50
176
     1
 90
       50
176
     1
290
     0
176
     1
 90
       50
176
     1
 62
   256
176
     0
 40
1.0
176
     0
 90
        2
176
     1
  1
strokes_ogs.tif
176
     1
290
     0
176
     1
 40
1.0
176
     1
 40
1.0
176
     1
  0
VISUALSTYLE
  5
2E
102
{ACAD_REACTORS
330
2A
102
}
330
2A
100
AcDbVisualStyle
  2
GouraudWithEdges
 70
     3
177
     3
291
     1
 70
    58
 90
        2
176
     1
 90
        2
176
     1
 90
        1
176
     1
 90
        2
176
     1
 40
0.6
176
     1
 40
30.0
176
     1
 62
     7
420
 16777215
176
     1
 90
        1
176
     1
 90
        0
176
     1
 62
     7
176
     1
 62
   257
176
     1
 90
        1
176
     1
 90
        1
176
     1
 40
1.0
176
     1
 90
        0
176
     1
 62
   257
176
     1
 40
1.0
176
     1
 90
        1
176
     1
 90
        6
176
     1
 90
        2
176
     1
 62
     7
176
     1
 90
        5
176
     1
 90
        0
176
     1
 90
        0
176
     1
290
     0
176
     1
 90
       13
176
     1
 40
0.0
176
     1
 90
        0
176
     1
290
     0
176
     1
290
     1
176
     1
290
     1
176
     1
290
     0
176
     1
290
     0
176
     1
290
     0
176
     1
290
     0
176
     1
290
     0
176
     1
290
     0
176
     1
 90
       50
176
     1
 40
0.0
176
     1
 40
1.0
176
     1
 90
        0
176
     1
 62
    18
420
        0
176
     1
 90
       50
176
     1
 90
        3
176
     1
 62
     5
420
      255
176
     1
290
     0
176
     1
 90
       50
176
     1
 90
       50
176
     1
 90
       50
176
     1
290
     0
176
     1
 90
       50
176
     1
 62
   256
176
     0
 40
1.0
176
     0
 90
        2
176
     1
  1
strokes_ogs.tif
176
     1
290
     0
176
     1
 40
1.0
176
     1
 40
1.0
176
     1
  0
VISUALSTYLE
  5
31
102
{ACAD_REACTORS
330
2A
102
}
330
2A
100
AcDbVisualStyle
  2
Hidden
 70
     6
177
     3
291
     0
 70
    58
 90
        1
176
     1
 90
        2
176
     1
 90
        2
176
     1
 90
        0
176
     1
 40
0.6
176
     1
 40
30.0
176
     1
 62
     7
420
 16777215
176
     1
 90
        2
176
     1
 90
        2
176
     1
 62
     7
176
     1
 62
   257
176
     1
 90
        2
176
     1
 90
        1
176
     1
 40
40.0
176
     1
 90
        0
176
     1
 62
   257
176
     1
 40
1.0
176
     1
 90
        1
176
     1
 90
        6
176
     1
 90
        2
176
     1
 62
     7
176
     1
 90
        3
176
     1
 90
        0
176
     1
 90
        0
176
     1
290
     0
176
     1
 90
        1
176
     1
 40
0.0
176
     1
 90
        0
176
     1
290
     0
176
     1
290
     1
176
     1
290
     1
176
     1
290
     0
176
     1
290
     0
176
     1
290
     0
176
     1
290
     0
176
     1
290
     0
176
     1
290
     0
176
     1
 90
       50
176
     1
 40
0.0
176
     1
 40
1.0
176
     1
 90
        0
176
     1
 62
    18
420
        0
176
     1
 90
       50
176
     1
 90
        3
176
     1
 62
     5
420
      255
176
     1
290
     0
176
     1
 90
       50
176
     1
 90
       50
176
     1
 90
       50
176
     1
290
     0
176
     1
 90
       50
176
     1
 62
   256
176
     0
 40
1.0
176
     0
 90
        2
176
     1
  1
strokes_ogs.tif
176
     1
290
     0
176
     1
 40
1.0
176
     1
 40
1.0
176
     1
  0
VISUALSTYLE
  5
3B
102
{ACAD_REACTORS
330
2A
102
}
330
2A
100
AcDbVisualStyle
  2
JitterOff
 70
    20
177
     3
291
     1
 70
    58
 90
        2
176
     0
 90
        2
176
     0
 90
        0
176
     0
 90
        0
176
     0
 40
0.6
176
     0
 40
30.0
176
     0
 62
     7
420
 16777215
176
     0
 90
        1
176
     0
 90
        4
176
     0
 62
     7
176
     0
 62
   257
176
     0
 90
        1
176
     0
 90
        1
176
     0
 40
1.0
176
     0
 90
       10
176
     2
 62
     7
176
     0
 40
1.0
176
     0
 90
        1
176
     0
 90
        6
176
     0
 90
        2
176
     0
 62
     7
176
     0
 90
        5
176
     0
 90
        0
176
     0
 90
        0
176
     0
290
     0
176
     0
 90
        1
176
     0
 40
0.0
176
     0
 90
        0
176
     0
290
     0
176
     0
290
     1
176
     0
290
     1
176
     0
290
     0
176
     0
290
     0
176
     0
290
     0
176
     0
290
     0
176
     0
290
     0
176
     0
290
     0
176
     0
 90
       50
176
     0
 40
0.0
176
     0
 40
1.0
176
     0
 90
        0
176
     0
 62
    18
420
        0
176
     0
 90
       50
176
     0
 90
        3
176
     0
 62
     5
420
      255
176
     0
290
     0
176
     0
 90
       50
176
     0
 90
       50
176
     0
 90
       50
176
     0
290
     0
176
     0
 90
       50
176
     0
 62
   256
176
     0
 40
1.0
176
     0
 90
        2
176
     0
  1
strokes_ogs.tif
176
     0
290
     0
176
     0
 40
1.0
176
     0
 40
1.0
176
     0
  0
VISUALSTYLE
  5
38
102
{ACAD_REACTORS
330
2A
102
}
330
2A
100
AcDbVisualStyle
  2
Linepattern
 70
    14
177
     3
291
     1
 70
    58
 90
        2
176
     1
 90
        2
176
     1
 90
        0
176
     1
 90
        0
176
     1
 40
0.6
176
     1
 40
30.0
176
     1
 62
     7
420
 16777215
176
     1
 90
        1
176
     1
 90
        4
176
     1
 62
     7
176
     1
 62
   257
176
     1
 90
        7
176
     1
 90
        7
176
     1
 40
1.0
176
     1
 90
        8
176
     1
 62
     7
176
     1
 40
1.0
176
     1
 90
        1
176
     1
 90
        6
176
     1
 90
        2
176
     1
 62
     7
176
     1
 90
        5
176
     1
 90
        0
176
     1
 90
        0
176
     1
290
     0
176
     1
 90
        1
176
     1
 40
0.0
176
     1
 90
        0
176
     1
290
     0
176
     1
290
     1
176
     1
290
     1
176
     1
290
     0
176
     1
290
     0
176
     1
290
     0
176
     1
290
     0
176
     1
290
     0
176
     1
290
     0
176
     1
 90
       50
176
     1
 40
0.0
176
     1
 40
1.0
176
     1
 90
        0
176
     1
 62
    18
420
        0
176
     1
 90
       50
176
     1
 90
        3
176
     1
 62
     5
420
      255
176
     1
290
     0
176
     1
 90
       50
176
     1
 90
       50
176
     1
 90
       50
176
     1
290
     0
176
     1
 90
       50
176
     1
 62
   256
176
     0
 40
1.0
176
     0
 90
        2
176
     1
  1
strokes_ogs.tif
176
     1
290
     0
176
     1
 40
1.0
176
     1
 40
1.0
176
     1
  0
VISUALSTYLE
  5
3C
102
{ACAD_REACTORS
330
2A
102
}
330
2A
100
AcDbVisualStyle
  2
OverhangOff
 70
    21
177
     3
291
     1
 70
    58
 90
        2
176
     0
 90
        2
176
     0
 90
        0
176
     0
 90
        0
176
     0
 40
0.6
176
     0
 40
30.0
176
     0
 62
     7
420
 16777215
176
     0
 90
        1
176
     0
 90
        4
176
     0
 62
     7
176
     0
 62
   257
176
     0
 90
        1
176
     0
 90
        1
176
     0
 40
1.0
176
     0
 90
        9
176
     2
 62
     7
176
     0
 40
1.0
176
     0
 90
        1
176
     0
 90
        6
176
     0
 90
        2
176
     0
 62
     7
176
     0
 90
        5
176
     0
 90
        0
176
     0
 90
        0
176
     0
290
     0
176
     0
 90
        1
176
     0
 40
0.0
176
     0
 90
        0
176
     0
290
     0
176
     0
290
     1
176
     0
290
     1
176
     0
290
     0
176
     0
290
     0
176
     0
290
     0
176
     0
290
     0
176
     0
290
     0
176
     0
290
     0
176
     0
 90
       50
176
     0
 40
0.0
176
     0
 40
1.0
176
     0
 90
        0
176
     0
 62
    18
420
        0
176
     0
 90
       50
176
     0
 90
        3
176
     0
 62
     5
420
      255
176
     0
290
     0
176
     0
 90
       50
176
     0
 90
       50
176
     0
 90
       50
176
     0
290
     0
176
     0
 90
       50
176
     0
 62
   256
176
     0
 40
1.0
176
     0
 90
        2
176
     0
  1
strokes_ogs.tif
176
     0
290
     0
176
     0
 40
1.0
176
     0
 40
1.0
176
     0
  0
VISUALSTYLE
  5
33
102
{ACAD_REACTORS
330
2A
102
}
330
2A
100
AcDbVisualStyle
  2
Realistic
 70
     8
177
     3
291
     0
 70
    58
 90
        2
176
     1
 90
        3
176
     1
 90
        0
176
     1
 90
        2
176
     1
 40
0.6
176
     1
 40
30.0
176
     1
 62
     7
420
 16777215
176
     1
 90
        0
176
     1
 90
        0
176
     1
 62
     7
176
     1
 62
   257
176
     1
 90
        1
176
     1
 90
        1
176
     1
 40
1.0
176
     1
 90
        8
176
     1
 62
   257
176
     1
 40
1.0
176
     1
 90
        1
176
     1
 90
        6
176
     1
 90
        2
176
     1
 62
     7
176
     1
 90
        3
176
     1
 90
        0
176
     1
 90
        0
176
     1
290
     0
176
     1
 90
       13
176
     1
 40
0.0
176
     1
 90
        0
176
     1
290
     0
176
     1
290
     1
176
     1
290
     1
176
     1
290
     0
176
     1
290
     0
176
     1
290
     0
176
     1
290
     0
176
     1
290
     0
176
     1
290
     0
176
     1
 90
       50
176
     1
 40
0.0
176
     1
 40
1.0
176
     1
 90
        0
176
     1
 62
    18
420
        0
176
     1
 90
       50
176
     1
 90
        3
176
     1
 62
     5
420
      255
176
     1
290
     0
176
     1
 90
       50
176
     1
 90
       50
176
     1
 90
       50
176
     1
290
     0
176
     1
 90
       50
176
     1
 62
   256
176
     0
 40
1.0
176
     0
 90
        2
176
     1
  1
strokes_ogs.tif
176
     1
290
     0
176
     1
 40
1.0
176
     1
 40
1.0
176
     1
  0
VISUALSTYLE
  5
42
102
{ACAD_REACTORS
330
2A
102
}
330
2A
100
AcDbVisualStyle
  2
Shaded
 70
    27
177
     3
291
     0
 70
    58
 90
        2
176
     1
 90
        2
176
     1
 90
        1
176
     1
 90
        2
176
     1
 40
0.6
176
     1
 40
30.0
176
     1
 62
     7
420
 16777215
176
     1
 90
        0
176
     1
 90
        4
176
     1
 62
     7
176
     1
 62
   257
176
     1
 90
        1
176
     1
 90
        1
176
     1
 40
1.0
176
     1
 90
        8
176
     1
 62
   257
176
     1
 40
1.0
176
     1
 90
        1
176
     1
 90
        6
176
     1
 90
        2
176
     1
 62
     8
420
  7895160
176
     1
 90
        3
176
     1
 90
        0
176
     1
 90
        0
176
     1
290
     0
176
     1
 90
        5
176
     1
 40
0.0
176
     1
 90
        0
176
     1
290
     0
176
     1
290
     1
176
     1
290
     1
176
     1
290
     0
176
     1
290
     0
176
     1
290
     0
176
     1
290
     0
176
     1
290
     0
176
     1
290
     0
176
     1
 90
       50
176
     1
 40
0.0
176
     1
 40
1.0
176
     1
 90
        0
176
     1
 62
    18
420
        0
176
     1
 90
       50
176
     1
 90
        3
176
     1
 62
     5
420
      255
176
     1
290
     0
176
     1
 90
       50
176
     1
 90
       50
176
     1
 90
       50
176
     1
290
     0
176
     1
 90
       50
176
     1
 62
   256
176
     0
 40
1.0
176
     0
 90
        2
176
     1
  1
strokes_ogs.tif
176
     1
290
     0
176
     1
 40
1.0
176
     1
 40
1.0
176
     1
  0
VISUALSTYLE
  5
41
102
{ACAD_REACTORS
330
2A
102
}
330
2A
100
AcDbVisualStyle
  2
Shaded with edges
 70
    26
177
     3
291
     0
 70
    58
 90
        2
176
     1
 90
        2
176
     1
 90
        1
176
     1
 90
        2
176
     1
 40
0.6
176
     1
 40
30.0
176
     1
 62
     7
420
 16777215
176
     1
 90
        1
176
     1
 90
       10
176
     1
 62
     7
176
     1
 62
   257
176
     1
 90
        2
176
     1
 90
        1
176
     1
 40
1.0
176
     1
 90
        8
176
     1
 62
   257
176
     1
 40
1.0
176
     1
 90
        1
176
     1
 90
        6
176
     1
 90
        2
176
     1
 62
     7
176
     1
 90
        3
176
     1
 90
        0
176
     1
 90
        0
176
     1
290
     0
176
     1
 90
        5
176
     1
 40
0.0
176
     1
 90
        0
176
     1
290
     0
176
     1
290
     1
176
     1
290
     1
176
     1
290
     0
176
     1
290
     0
176
     1
290
     0
176
     1
290
     0
176
     1
290
     0
176
     1
290
     0
176
     1
 90
       50
176
     1
 40
0.0
176
     1
 40
1.0
176
     1
 90
        0
176
     1
 62
    18
420
        0
176
     1
 90
       50
176
     1
 90
        3
176
     1
 62
     5
420
      255
176
     1
290
     0
176
     1
 90
       50
176
     1
 90
       50
176
     1
 90
       50
176
     1
290
     0
176
     1
 90
       50
176
     1
 62
   256
176
     0
 40
1.0
176
     0
 90
        2
176
     1
  1
strokes_ogs.tif
176
     1
290
     0
176
     1
 40
1.0
176
     1
 40
1.0
176
     1
  0
VISUALSTYLE
  5
3E
102
{ACAD_REACTORS
330
2A
102
}
330
2A
100
AcDbVisualStyle
  2
Shades of Gray
 70
    23
177
     3
291
     0
 70
    58
 90
        2
176
     1
 90
        2
176
     1
 90
        3
176
     1
 90
        0
176
     1
 40
0.6
176
     1
 40
30.0
176
     1
 62
     7
420
 16777215
176
     1
 90
        2
176
     1
 90
        2
176
     1
 62
     7
176
     1
 62
     7
176
     1
 90
        1
176
     1
 90
        1
176
     1
 40
40.0
176
     1
 90
        8
176
     1
 62
     7
176
     1
 40
1.0
176
     1
 90
        1
176
     1
 90
        6
176
     1
 90
        2
176
     1
 62
     7
176
     1
 90
        3
176
     1
 90
        0
176
     1
 90
        0
176
     1
290
     0
176
     1
 90
        1
176
     1
 40
0.0
176
     1
 90
        0
176
     1
290
     0
176
     1
290
     1
176
     1
290
     1
176
     1
290
     0
176
     1
290
     0
176
     1
290
     0
176
     1
290
     0
176
     1
290
     0
176
     1
290
     0
176
     1
 90
       50
176
     1
 40
0.0
176
     1
 40
1.0
176
     1
 90
        0
176
     1
 62
    18
420
        0
176
     1
 90
       50
176
     1
 90
        3
176
     1
 62
     5
420
      255
176
     1
290
     0
176
     1
 90
       50
176
     1
 90
       50
176
     1
 90
       50
176
     1
290
     0
176
     1
 90
       50
176
     1
 62
   256
176
     0
 40
1.0
176
     0
 90
        2
176
     1
  1
strokes_ogs.tif
176
     1
290
     0
176
     1
 40
1.0
176
     1
 40
1.0
176
     1
  0
VISUALSTYLE
  5
3F
102
{ACAD_REACTORS
330
2A
102
}
330
2A
100
AcDbVisualStyle
  2
Sketchy
 70
    24
177
     3
291
     0
 70
    58
 90
        1
176
     1
 90
        2
176
     1
 90
        2
176
     1
 90
        0
176
     1
 40
0.6
176
     1
 40
30.0
176
     1
 62
     7
420
 16777215
176
     1
 90
        2
176
     1
 90
        2
176
     1
 62
     7
176
     1
 62
     7
176
     1
 90
        1
176
     1
 90
        1
176
     1
 40
40.0
176
     1
 90
       11
176
     1
 62
     7
176
     1
 40
1.0
176
     1
 90
        1
176
     1
 90
        6
176
     1
 90
        2
176
     1
 62
     7
176
     1
 90
        6
176
     1
 90
        0
176
     1
 90
        0
176
     1
290
     0
176
     1
 90
        1
176
     1
 40
0.0
176
     1
 90
        0
176
     1
290
     0
176
     1
290
     1
176
     1
290
     1
176
     1
290
     0
176
     1
290
     0
176
     1
290
     0
176
     1
290
     0
176
     1
290
     0
176
     1
290
     0
176
     1
 90
       50
176
     1
 40
0.0
176
     1
 40
1.0
176
     1
 90
        0
176
     1
 62
    18
420
        0
176
     1
 90
       50
176
     1
 90
        3
176
     1
 62
     5
420
      255
176
     1
290
     0
176
     1
 90
       50
176
     1
 90
       50
176
     1
 90
       50
176
     1
290
     0
176
     1
 90
       50
176
     1
 62
   256
176
     0
 40
1.0
176
     0
 90
        2
176
     1
  1
strokes_ogs.tif
176
     1
290
     0
176
     1
 40
1.0
176
     1
 40
1.0
176
     1
  0
VISUALSTYLE
  5
37
102
{ACAD_REACTORS
330
2A
102
}
330
2A
100
AcDbVisualStyle
  2
Thicken
 70
    13
177
     3
291
     1
 70
    58
 90
        2
176
     1
 90
        2
176
     1
 90
        0
176
     1
 90
        0
176
     1
 40
0.6
176
     1
 40
30.0
176
     1
 62
     7
420
 16777215
176
     1
 90
        1
176
     1
 90
        4
176
     1
 62
     7
176
     1
 62
   257
176
     1
 90
        1
176
     1
 90
        1
176
     1
 40
1.0
176
     1
 90
       12
176
     1
 62
     7
176
     1
 40
1.0
176
     1
 90
        1
176
     1
 90
        6
176
     1
 90
        2
176
     1
 62
     7
176
     1
 90
        5
176
     1
 90
        0
176
     1
 90
        0
176
     1
290
     0
176
     1
 90
        1
176
     1
 40
0.0
176
     1
 90
        0
176
     1
290
     0
176
     1
290
     1
176
     1
290
     1
176
     1
290
     0
176
     1
290
     0
176
     1
290
     0
176
     1
290
     0
176
     1
290
     0
176
     1
290
     0
176
     1
 90
       50
176
     1
 40
0.0
176
     1
 40
1.0
176
     1
 90
        0
176
     1
 62
    18
420
        0
176
     1
 90
       50
176
     1
 90
        3
176
     1
 62
     5
420
      255
176
     1
290
     0
176
     1
 90
       50
176
     1
 90
       50
176
     1
 90
       50
176
     1
290
     0
176
     1
 90
       50
176
     1
 62
   256
176
     0
 40
1.0
176
     0
 90
        2
176
     1
  1
strokes_ogs.tif
176
     1
290
     0
176
     1
 40
1.0
176
     1
 40
1.0
176
     1
  0
VISUALSTYLE
  5
30
102
{ACAD_REACTORS
330
2A
102
}
330
2A
100
AcDbVisualStyle
  2
Wireframe
 70
     5
177
     3
291
     0
 70
    58
 90
        0
176
     1
 90
        2
176
     1
 90
        0
176
     1
 90
        0
176
     1
 40
0.6
176
     1
 40
30.0
176
     1
 62
     7
420
 16777215
176
     1
 90
        1
176
     1
 90
        4
176
     1
 62
     7
176
     1
 62
   257
176
     1
 90
        1
176
     1
 90
        1
176
     1
 40
1.0
176
     1
 90
        0
176
     1
 62
   257
176
     1
 40
1.0
176
     1
 90
        1
176
     1
 90
        6
176
     1
 90
        2
176
     1
 62
     7
176
     1
 90
        3
176
     1
 90
        0
176
     1
 90
        0
176
     1
290
     0
176
     1
 90
        1
176
     1
 40
0.0
176
     1
 90
        0
176
     1
290
     0
176
     1
290
     1
176
     1
290
     1
176
     1
290
     0
176
     1
290
     0
176
     1
290
     0
176
     1
290
     0
176
     1
290
     0
176
     1
290
     0
176
     1
 90
       50
176
     1
 40
0.0
176
     1
 40
1.0
176
     1
 90
        0
176
     1
 62
    18
420
        0
176
     1
 90
       50
176
     1
 90
        3
176
     1
 62
     5
420
      255
176
     1
290
     0
176
     1
 90
       50
176
     1
 90
       50
176
     1
 90
       50
176
     1
290
     0
176
     1
 90
       50
176
     1
 62
   256
176
     0
 40
1.0
176
     0
 90
        2
176
     1
  1
strokes_ogs.tif
176
     1
290
     0
176
     1
 40
1.0
176
     1
 40
1.0
176
     1
  0
VISUALSTYLE
  5
40
102
{ACAD_REACTORS
330
2A
102
}
330
2A
100
AcDbVisualStyle
  2
X-Ray
 70
    25
177
     3
291
     0
 70
    58
 90
        2
176
     1
 90
        2
176
     1
 90
        1
176
     1
 90
        1
176
     1
 40
0.5
176
     1
 40
30.0
176
     1
 62
     7
420
 16777215
176
     1
 90
        1
176
     1
 90
        0
176
     1
 62
     7
176
     1
 62
   257
176
     1
 90
        1
176
     1
 90
        1
176
     1
 40
1.0
176
     1
 90
        8
176
     1
 62
     7
176
     1
 40
1.0
176
     1
 90
        1
176
     1
 90
        6
176
     1
 90
        2
176
     1
 62
     7
176
     1
 90
        3
176
     1
 90
        0
176
     1
 90
        0
176
     1
290
     0
176
     1
 90
       13
176
     1
 40
0.0
176
     1
 90
        0
176
     1
290
     0
176
     1
290
     1
176
     1
290
     1
176
     1
290
     0
176
     1
290
     0
176
     1
290
     0
176
     1
290
     0
176
     1
290
     0
176
     1
290
     0
176
     1
 90
       50
176
     1
 40
0.0
176
     1
 40
1.0
176
     1
 90
        0
176
     1
 62
    18
420
        0
176
     1
 90
       50
176
     1
 90
        3
176
     1
 62
     5
420
      255
176
     1
290
     0
176
     1
 90
       50
176
     1
 90
       50
176
     1
 90
       50
176
     1
290
     0
176
     1
 90
       50
176
     1
 62
   256
176
     0
 40
1.0
176
     0
 90
        2
176
     1
  1
strokes_ogs.tif
176
     1
290
     0
176
     1
 40
1.0
176
     1
 40
1.0
176
     1
  0
DICTIONARYVAR
  5
1EC
102
{ACAD_REACTORS
330
1EB
102
}
330
1EB
100
DictionaryVariables
280
     0
  1
1:1
  0
DICTIONARYVAR
  5
1F1
102
{ACAD_REACTORS
330
1EB
102
}
330
1EB
100
DictionaryVariables
280
     0
  1
Standard
  0
DICTIONARYVAR
  5
1F0
102
{ACAD_REACTORS
330
1EB
102
}
330
1EB
100
DictionaryVariables
280
     0
  1
Standard
  0
DICTIONARY
  5
1ED
330
6A
100
AcDbDictionary
280
     1
281
     1
  3
ACAD_ROUNDTRIP_2008_TABLESTYLE_CELLSTYLEMAP
360
1EE
  0
CELLSTYLEMAP
  5
1EE
102
{ACAD_REACTORS
330
1ED
102
}
330
1ED
100
AcDbCellStyleMap
 90
        3
300
CELLSTYLE
  1
TABLEFORMAT_BEGIN
 90
        5
170
     1
 91
        0
 92
    32768
 62
   257
 93
        1
300
CONTENTFORMAT
  1
CONTENTFORMAT_BEGIN
 90
        0
 91
        0
 92
        4
 93
        0
300

 40
0.0
140
1.0
 94
        5
 62
     0
340
11
144
0.25
309
CONTENTFORMAT_END
171
     1
301
MARGIN
  1
CELLMARGIN_BEGIN
 40
0.06
 40
0.06
 40
0.06
 40
0.06
 40
0.06
 40
0.06
309
CELLMARGIN_END
 94
        6
 95
        1
302
GRIDFORMAT
  1
GRIDFORMAT_BEGIN
 90
        0
 91
        1
 62
     0
 92
       -2
340
14
 93
        0
 40
0.045
309
GRIDFORMAT_END
 95
        2
302
GRIDFORMAT
  1
GRIDFORMAT_BEGIN
 90
        0
 91
        1
 62
     0
 92
       -2
340
14
 93
        0
 40
0.045
309
GRIDFORMAT_END
 95
        4
302
GRIDFORMAT
  1
GRIDFORMAT_BEGIN
 90
        0
 91
        1
 62
     0
 92
       -2
340
14
 93
        0
 40
0.045
309
GRIDFORMAT_END
 95
        8
302
GRIDFORMAT
  1
GRIDFORMAT_BEGIN
 90
        0
 91
        1
 62
     0
 92
       -2
340
14
 93
        0
 40
0.045
309
GRIDFORMAT_END
 95
       16
302
GRIDFORMAT
  1
GRIDFORMAT_BEGIN
 90
        0
 91
        1
 62
     0
 92
       -2
340
14
 93
        0
 40
0.045
309
GRIDFORMAT_END
 95
       32
302
GRIDFORMAT
  1
GRIDFORMAT_BEGIN
 90
        0
 91
        1
 62
     0
 92
       -2
340
14
 93
        0
 40
0.045
309
GRIDFORMAT_END
309
TABLEFORMAT_END
  1
CELLSTYLE_BEGIN
 90
        1
 91
        1
300
_TITLE
309
CELLSTYLE_END
300
CELLSTYLE
  1
TABLEFORMAT_BEGIN
 90
        5
170
     1
 91
        0
 92
        0
 62
   257
 93
        1
300
CONTENTFORMAT
  1
CONTENTFORMAT_BEGIN
 90
        0
 91
        0
 92
        4
 93
        0
300

 40
0.0
140
1.0
 94
        5
 62
     0
340
11
144
0.18
309
CONTENTFORMAT_END
171
     1
301
MARGIN
  1
CELLMARGIN_BEGIN
 40
0.06
 40
0.06
 40
0.06
 40
0.06
 40
0.06
 40
0.06
309
CELLMARGIN_END
 94
        6
 95
        1
302
GRIDFORMAT
  1
GRIDFORMAT_BEGIN
 90
        0
 91
        1
 62
     0
 92
       -2
340
14
 93
        0
 40
0.045
309
GRIDFORMAT_END
 95
        2
302
GRIDFORMAT
  1
GRIDFORMAT_BEGIN
 90
        0
 91
        1
 62
     0
 92
       -2
340
14
 93
        0
 40
0.045
309
GRIDFORMAT_END
 95
        4
302
GRIDFORMAT
  1
GRIDFORMAT_BEGIN
 90
        0
 91
        1
 62
     0
 92
       -2
340
14
 93
        0
 40
0.045
309
GRIDFORMAT_END
 95
        8
302
GRIDFORMAT
  1
GRIDFORMAT_BEGIN
 90
        0
 91
        1
 62
     0
 92
       -2
340
14
 93
        0
 40
0.045
309
GRIDFORMAT_END
 95
       16
302
GRIDFORMAT
  1
GRIDFORMAT_BEGIN
 90
        0
 91
        1
 62
     0
 92
       -2
340
14
 93
        0
 40
0.045
309
GRIDFORMAT_END
 95
       32
302
GRIDFORMAT
  1
GRIDFORMAT_BEGIN
 90
        0
 91
        1
 62
     0
 92
       -2
340
14
 93
        0
 40
0.045
309
GRIDFORMAT_END
309
TABLEFORMAT_END
  1
CELLSTYLE_BEGIN
 90
        2
 91
        1
300
_HEADER
309
CELLSTYLE_END
300
CELLSTYLE
  1
TABLEFORMAT_BEGIN
 90
        5
170
     1
 91
        0
 92
        0
 62
   257
 93
        1
300
CONTENTFORMAT
  1
CONTENTFORMAT_BEGIN
 90
        0
 91
        0
 92
        4
 93
        0
300

 40
0.0
140
1.0
 94
        2
 62
     0
340
11
144
0.18
309
CONTENTFORMAT_END
171
     1
301
MARGIN
  1
CELLMARGIN_BEGIN
 40
0.06
 40
0.06
 40
0.06
 40
0.06
 40
0.06
 40
0.06
309
CELLMARGIN_END
 94
        6
 95
        1
302
GRIDFORMAT
  1
GRIDFORMAT_BEGIN
 90
        0
 91
        1
 62
     0
 92
       -2
340
14
 93
        0
 40
0.045
309
GRIDFORMAT_END
 95
        2
302
GRIDFORMAT
  1
GRIDFORMAT_BEGIN
 90
        0
 91
        1
 62
     0
 92
       -2
340
14
 93
        0
 40
0.045
309
GRIDFORMAT_END
 95
        4
302
GRIDFORMAT
  1
GRIDFORMAT_BEGIN
 90
        0
 91
        1
 62
     0
 92
       -2
340
14
 93
        0
 40
0.045
309
GRIDFORMAT_END
 95
        8
302
GRIDFORMAT
  1
GRIDFORMAT_BEGIN
 90
        0
 91
        1
 62
     0
 92
       -2
340
14
 93
        0
 40
0.045
309
GRIDFORMAT_END
 95
       16
302
GRIDFORMAT
  1
GRIDFORMAT_BEGIN
 90
        0
 91
        1
 62
     0
 92
       -2
340
14
 93
        0
 40
0.045
309
GRIDFORMAT_END
 95
       32
302
GRIDFORMAT
  1
GRIDFORMAT_BEGIN
 90
        0
 91
        1
 62
     0
 92
       -2
340
14
 93
        0
 40
0.045
309
GRIDFORMAT_END
309
TABLEFORMAT_END
  1
CELLSTYLE_BEGIN
 90
        3
 91
        2
300
_DATA
309
CELLSTYLE_END
  0
ENDSEC
  0
EOF