0
SECTION
  2
HEADER
  9
$ACADVER
  1
AC1027
  9
$ACADMAINTVER
 70
     8
  9
$DWGCODEPAGE
  3
ANSI_1252
  9
$REQUIREDVERSIONS
160
                 0
  9
$COMMENTS
  1
File was created by Cadenas
  9
$CUSTOMPROPERTYTAG
  1
NN
  9
$CUSTOMPROPERTY
  1
Imperial - IP Flange - Square with Type E Dimensions 1-3/8 thru 2-3/16 inch Labyrinth Seal Expansion
  9
$CUSTOMPROPERTYTAG
  1
NT
  9
$CUSTOMPROPERTY
  1
Imperial/E 4 Bolt Square Flange Bearings
  9
$CUSTOMPROPERTYTAG
  1
NB
  9
$CUSTOMPROPERTY
  1
071371
  9
$CUSTOMPROPERTYTAG
  1
NBSYN
  9
$CUSTOMPROPERTY
  1
$PN.
  9
$CUSTOMPROPERTYTAG
  1
LINA
  9
$CUSTOMPROPERTY
  1
071371
  9
$CUSTOMPROPERTYTAG
  1
SS
  9
$CUSTOMPROPERTY
  1
1-15/16
  9
$CUSTOMPROPERTYTAG
  1
TYPE
  9
$CUSTOMPROPERTY
  1
Expansion
  9
$CUSTOMPROPERTYTAG
  1
PN
  9
$CUSTOMPROPERTY
  1
071371
  9
$CUSTOMPROPERTYTAG
  1
DESCRIPTION
  9
$CUSTOMPROPERTY
  1
EF4B-IP-115LE
  9
$CUSTOMPROPERTYTAG
  1
ST
  9
$CUSTOMPROPERTY
  1
Labyrinth Seal
  9
$CUSTOMPROPERTYTAG
  1
A
  9
$CUSTOMPROPERTY
  1
2.86
  9
$CUSTOMPROPERTYTAG
  1
B
  9
$CUSTOMPROPERTY
  1
5.63
  9
$CUSTOMPROPERTYTAG
  1
C
  9
$CUSTOMPROPERTY
  1
3.64
  9
$CUSTOMPROPERTYTAG
  1
D
  9
$CUSTOMPROPERTY
  1
4.38
  9
$CUSTOMPROPERTYTAG
  1
F
  9
$CUSTOMPROPERTY
  1
1/2
  9
$CUSTOMPROPERTYTAG
  1
G
  9
$CUSTOMPROPERTY
  1
0.65
  9
$CUSTOMPROPERTYTAG
  1
H
  9
$CUSTOMPROPERTY
  1
1.18
  9
$CUSTOMPROPERTYTAG
  1
J
  9
$CUSTOMPROPERTY
  1
4.36
  9
$CUSTOMPROPERTYTAG
  1
L
  9
$CUSTOMPROPERTY
  1
3.28
  9
$CUSTOMPROPERTYTAG
  1
N
  9
$CUSTOMPROPERTY
  1
2.6
  9
$CUSTOMPROPERTYTAG
  1
P
  9
$CUSTOMPROPERTY
  1
0.79
  9
$CUSTOMPROPERTYTAG
  1
X
  9
$CUSTOMPROPERTY
  1
0.22
  9
$CUSTOMPROPERTYTAG
  1
Y
  9
$CUSTOMPROPERTY
  1
0.020
  9
$CUSTOMPROPERTYTAG
  1
Z
  9
$CUSTOMPROPERTY
  1
2.3
  9
$CUSTOMPROPERTYTAG
  1
COMPANY
  9
$CUSTOMPROPERTY
  1
baldor
  9
$INSBASE
 10
0.0
 20
0.0
 30
0.0
  9
$EXTMIN
 10
1.000000000000000E+20
 20
1.000000000000000E+20
 30
1.000000000000000E+20
  9
$EXTMAX
 10
-1.000000000000000E+20
 20
-1.000000000000000E+20
 30
-1.000000000000000E+20
  9
$LIMMIN
 10
0.0
 20
0.0
  9
$LIMMAX
 10
12.0
 20
9.0
  9
$ORTHOMODE
 70
     0
  9
$REGENMODE
 70
     1
  9
$FILLMODE
 70
     1
  9
$QTEXTMODE
 70
     0
  9
$MIRRTEXT
 70
     1
  9
$LTSCALE
 40
1.0
  9
$ATTMODE
 70
     1
  9
$TEXTSIZE
 40
0.2
  9
$TRACEWID
 40
0.05
  9
$TEXTSTYLE
  7
Standard
  9
$CLAYER
  8
0
  9
$CELTYPE
  6
ByLayer
  9
$CECOLOR
 62
   256
  9
$CELTSCALE
 40
1.0
  9
$DISPSILH
 70
     0
  9
$DIMSCALE
 40
1.0
  9
$DIMASZ
 40
0.18
  9
$DIMEXO
 40
0.0625
  9
$DIMDLI
 40
0.38
  9
$DIMRND
 40
0.0
  9
$DIMDLE
 40
0.0
  9
$DIMEXE
 40
0.18
  9
$DIMTP
 40
0.0
  9
$DIMTM
 40
0.0
  9
$DIMTXT
 40
0.18
  9
$DIMCEN
 40
0.09
  9
$DIMTSZ
 40
0.0
  9
$DIMTOL
 70
     0
  9
$DIMLIM
 70
     0
  9
$DIMTIH
 70
     1
  9
$DIMTOH
 70
     1
  9
$DIMSE1
 70
     0
  9
$DIMSE2
 70
     0
  9
$DIMTAD
 70
     0
  9
$DIMZIN
 70
     0
  9
$DIMBLK
  1

  9
$DIMASO
 70
     1
  9
$DIMSHO
 70
     1
  9
$DIMPOST
  1

  9
$DIMAPOST
  1

  9
$DIMALT
 70
     0
  9
$DIMALTD
 70
     2
  9
$DIMALTF
 40
25.4
  9
$DIMLFAC
 40
1.0
  9
$DIMTOFL
 70
     0
  9
$DIMTVP
 40
0.0
  9
$DIMTIX
 70
     0
  9
$DIMSOXD
 70
     0
  9
$DIMSAH
 70
     0
  9
$DIMBLK1
  1

  9
$DIMBLK2
  1

  9
$DIMSTYLE
  2
Standard
  9
$DIMCLRD
 70
     0
  9
$DIMCLRE
 70
     0
  9
$DIMCLRT
 70
     0
  9
$DIMTFAC
 40
1.0
  9
$DIMGAP
 40
0.09
  9
$DIMJUST
 70
     0
  9
$DIMSD1
 70
     0
  9
$DIMSD2
 70
     0
  9
$DIMTOLJ
 70
     1
  9
$DIMTZIN
 70
     0
  9
$DIMALTZ
 70
     0
  9
$DIMALTTZ
 70
     0
  9
$DIMUPT
 70
     0
  9
$DIMDEC
 70
     4
  9
$DIMTDEC
 70
     4
  9
$DIMALTU
 70
     2
  9
$DIMALTTD
 70
     2
  9
$DIMTXSTY
  7
Standard
  9
$DIMAUNIT
 70
     0
  9
$DIMADEC
 70
     0
  9
$DIMALTRND
 40
0.0
  9
$DIMAZIN
 70
     0
  9
$DIMDSEP
 70
    46
  9
$DIMATFIT
 70
     3
  9
$DIMFRAC
 70
     0
  9
$DIMLDRBLK
  1

  9
$DIMLUNIT
 70
     2
  9
$DIMLWD
 70
    -2
  9
$DIMLWE
 70
    -2
  9
$DIMTMOVE
 70
     0
  9
$DIMFXL
 40
1.0
  9
$DIMFXLON
 70
     0
  9
$DIMJOGANG
 40
0.7853981633974483
  9
$DIMTFILL
 70
     0
  9
$DIMTFILLCLR
 70
     0
  9
$DIMARCSYM
 70
     0
  9
$DIMLTYPE
  6

  9
$DIMLTEX1
  6

  9
$DIMLTEX2
  6

  9
$DIMTXTDIRECTION
 70
     0
  9
$LUNITS
 70
     2
  9
$LUPREC
 70
     4
  9
$SKETCHINC
 40
0.1
  9
$FILLETRAD
 40
0.5
  9
$AUNITS
 70
     0
  9
$AUPREC
 70
     0
  9
$MENU
  1
.
  9
$ELEVATION
 40
0.0
  9
$PELEVATION
 40
0.0
  9
$THICKNESS
 40
0.0
  9
$LIMCHECK
 70
     0
  9
$CHAMFERA
 40
0.0
  9
$CHAMFERB
 40
0.0
  9
$CHAMFERC
 40
0.0
  9
$CHAMFERD
 40
0.0
  9
$SKPOLY
 70
     0
  9
$TDCREATE
 40
2458168.972178287
  9
$TDUCREATE
 40
2458168.93051162
  9
$TDUPDATE
 40
2458168.972178287
  9
$TDUUPDATE
 40
2458168.93051162
  9
$TDINDWG
 40
0.0000000116
  9
$TDUSRTIMER
 40
0.0000000116
  9
$USRTIMER
 70
     1
  9
$ANGBASE
 50
0.0
  9
$ANGDIR
 70
     0
  9
$PDMODE
 70
     0
  9
$PDSIZE
 40
0.0
  9
$PLINEWID
 40
0.0
  9
$SPLFRAME
 70
     0
  9
$SPLINETYPE
 70
     6
  9
$SPLINESEGS
 70
     8
  9
$HANDSEED
  5
21A
  9
$SURFTAB1
 70
     6
  9
$SURFTAB2
 70
     6
  9
$SURFTYPE
 70
     6
  9
$SURFU
 70
     6
  9
$SURFV
 70
     6
  9
$UCSBASE
  2

  9
$UCSNAME
  2

  9
$UCSORG
 10
0.0
 20
0.0
 30
0.0
  9
$UCSXDIR
 10
1.0
 20
0.0
 30
0.0
  9
$UCSYDIR
 10
0.0
 20
1.0
 30
0.0
  9
$UCSORTHOREF
  2

  9
$UCSORTHOVIEW
 70
     0
  9
$UCSORGTOP
 10
0.0
 20
0.0
 30
0.0
  9
$UCSORGBOTTOM
 10
0.0
 20
0.0
 30
0.0
  9
$UCSORGLEFT
 10
0.0
 20
0.0
 30
0.0
  9
$UCSORGRIGHT
 10
0.0
 20
0.0
 30
0.0
  9
$UCSORGFRONT
 10
0.0
 20
0.0
 30
0.0
  9
$UCSORGBACK
 10
0.0
 20
0.0
 30
0.0
  9
$PUCSBASE
  2

  9
$PUCSNAME
  2

  9
$PUCSORG
 10
0.0
 20
0.0
 30
0.0
  9
$PUCSXDIR
 10
1.0
 20
0.0
 30
0.0
  9
$PUCSYDIR
 10
0.0
 20
1.0
 30
0.0
  9
$PUCSORTHOREF
  2

  9
$PUCSORTHOVIEW
 70
     0
  9
$PUCSORGTOP
 10
0.0
 20
0.0
 30
0.0
  9
$PUCSORGBOTTOM
 10
0.0
 20
0.0
 30
0.0
  9
$PUCSORGLEFT
 10
0.0
 20
0.0
 30
0.0
  9
$PUCSORGRIGHT
 10
0.0
 20
0.0
 30
0.0
  9
$PUCSORGFRONT
 10
0.0
 20
0.0
 30
0.0
  9
$PUCSORGBACK
 10
0.0
 20
0.0
 30
0.0
  9
$USERI1
 70
     0
  9
$USERI2
 70
     0
  9
$USERI3
 70
     0
  9
$USERI4
 70
     0
  9
$USERI5
 70
     0
  9
$USERR1
 40
0.0
  9
$USERR2
 40
0.0
  9
$USERR3
 40
0.0
  9
$USERR4
 40
0.0
  9
$USERR5
 40
0.0
  9
$WORLDVIEW
 70
     1
  9
$SHADEDGE
 70
     3
  9
$SHADEDIF
 70
    70
  9
$TILEMODE
 70
     1
  9
$MAXACTVP
 70
    64
  9
$PINSBASE
 10
0.0
 20
0.0
 30
0.0
  9
$PLIMCHECK
 70
     0
  9
$PEXTMIN
 10
1.000000000000000E+20
 20
1.000000000000000E+20
 30
1.000000000000000E+20
  9
$PEXTMAX
 10
-1.000000000000000E+20
 20
-1.000000000000000E+20
 30
-1.000000000000000E+20
  9
$PLIMMIN
 10
0.0
 20
0.0
  9
$PLIMMAX
 10
12.0
 20
9.0
  9
$UNITMODE
 70
     0
  9
$VISRETAIN
 70
     1
  9
$PLINEGEN
 70
     0
  9
$PSLTSCALE
 70
     1
  9
$TREEDEPTH
 70
  3020
  9
$CMLSTYLE
  2
Standard
  9
$CMLJUST
 70
     0
  9
$CMLSCALE
 40
1.0
  9
$PROXYGRAPHICS
 70
     1
  9
$MEASUREMENT
 70
     0
  9
$CELWEIGHT
370
    -1
  9
$ENDCAPS
280
     0
  9
$JOINSTYLE
280
     0
  9
$LWDISPLAY
290
     0
  9
$INSUNITS
 70
     1
  9
$HYPERLINKBASE
  1

  9
$STYLESHEET
  1

  9
$XEDIT
290
     1
  9
$CEPSNTYPE
380
     0
  9
$PSTYLEMODE
290
     1
  9
$FINGERPRINTGUID
  2
{D9A92377-2B9D-4347-BA29-FF52E22C356A}
  9
$VERSIONGUID
  2
{FAEB1C32-E019-11D5-929B-00C0DF256EC4}
  9
$EXTNAMES
290
     1
  9
$PSVPSCALE
 40
0.0
  9
$OLESTARTUP
290
     0
  9
$SORTENTS
280
   127
  9
$INDEXCTL
280
     0
  9
$HIDETEXT
280
     1
  9
$XCLIPFRAME
280
     2
  9
$HALOGAP
280
     0
  9
$OBSCOLOR
 70
   257
  9
$OBSLTYPE
280
     0
  9
$INTERSECTIONDISPLAY
280
     0
  9
$INTERSECTIONCOLOR
 70
   257
  9
$DIMASSOC
280
     2
  9
$PROJECTNAME
  1

  9
$CAMERADISPLAY
290
     0
  9
$LENSLENGTH
 40
50.0
  9
$CAMERAHEIGHT
 40
0.0
  9
$STEPSPERSEC
 40
2.0
  9
$STEPSIZE
 40
6.0
  9
$3DDWFPREC
 40
2.0
  9
$PSOLWIDTH
 40
0.25
  9
$PSOLHEIGHT
 40
4.0
  9
$LOFTANG1
 40
1.570796326794897
  9
$LOFTANG2
 40
1.570796326794897
  9
$LOFTMAG1
 40
0.0
  9
$LOFTMAG2
 40
0.0
  9
$LOFTPARAM
 70
     7
  9
$LOFTNORMALS
280
     1
  9
$LATITUDE
 40
37.795
  9
$LONGITUDE
 40
-122.394
  9
$NORTHDIRECTION
 40
0.0
  9
$TIMEZONE
 70
 -8000
  9
$LIGHTGLYPHDISPLAY
280
     1
  9
$TILEMODELIGHTSYNCH
280
     1
  9
$CMATERIAL
347
44
  9
$SOLIDHIST
280
     0
  9
$SHOWHIST
280
     1
  9
$DWFFRAME
280
     2
  9
$DGNFRAME
280
     2
  9
$REALWORLDSCALE
290
     1
  9
$INTERFERECOLOR
 62
   256
  9
$CSHADOW
280
     0
  9
$SHADOWPLANELOCATION
 40
0.0
  0
ENDSEC
  0
SECTION
  2
CLASSES
  0
CLASS
  1
ACDBDICTIONARYWDFLT
  2
AcDbDictionaryWithDefault
  3
ObjectDBX Classes
 90
        0
 91
        4
280
     0
281
     0
  0
CLASS
  1
VISUALSTYLE
  2
AcDbVisualStyle
  3
ObjectDBX Classes
 90
     4095
 91
        4
280
     0
281
     0
  0
CLASS
  1
MATERIAL
  2
AcDbMaterial
  3
ObjectDBX Classes
 90
     1153
 91
        4
280
     0
281
     0
  0
CLASS
  1
SCALE
  2
AcDbScale
  3
ObjectDBX Classes
 90
     1153
 91
        4
280
     0
281
     0
  0
CLASS
  1
TABLESTYLE
  2
AcDbTableStyle
  3
ObjectDBX Classes
 90
     4095
 91
        4
280
     0
281
     0
  0
CLASS
  1
MLEADERSTYLE
  2
AcDbMLeaderStyle
  3
ACDB_MLEADERSTYLE_CLASS
 90
     4095
 91
        4
280
     0
281
     0
  0
CLASS
  1
SUN
  2
AcDbSun
  3
SCENEOE
 90
     1153
 91
        4
280
     0
281
     0
  0
CLASS
  1
DICTIONARYVAR
  2
AcDbDictionaryVar
  3
ObjectDBX Classes
 90
        0
 91
        4
280
     0
281
     0
  0
CLASS
  1
CELLSTYLEMAP
  2
AcDbCellStyleMap
  3
ObjectDBX Classes
 90
     1152
 91
        4
280
     0
281
     0
  0
ENDSEC
  0
SECTION
  2
TABLES
  0
TABLE
  2
VPORT
  5
8
330
0
100
AcDbSymbolTable
 70
     1
  0
VPORT
  5
29
330
8
100
AcDbSymbolTableRecord
100
AcDbViewportTableRecord
  2
*Active
 70
     0
 10
0.0
 20
0.0
 11
1.0
 21
1.0
 12
0.0
 22
-1.741149999985383
 13
0.0
 23
0.0
 14
0.5
 24
0.5
 15
0.5
 25
0.5
 16
0.0
 26
0.0
 36
1.0
 17
0.0
 27
0.0
 37
0.0
 40
3.894054000029819
 41
1.474709903857529
 42
50.0
 43
0.0
 44
0.0
 50
0.0
 51
0.0
 71
     0
 72
   100
 73
     1
 74
     3
 75
     0
 76
     0
 77
     0
 78
     0
281
     0
 65
     1
110
0.0
120
0.0
130
0.0
111
1.0
121
0.0
131
0.0
112
0.0
122
1.0
132
0.0
 79
     0
146
0.0
348
2F
 60
     3
 61
     5
292
     1
282
     1
141
0.0
142
0.0
 63
   250
361
6D
  0
ENDTAB
  0
TABLE
  2
LTYPE
  5
5
330
0
100
AcDbSymbolTable
 70
     3
  0
LTYPE
  5
14
330
5
100
AcDbSymbolTableRecord
100
AcDbLinetypeTableRecord
  2
ByBlock
 70
     0
  3

 72
    65
 73
     0
 40
0.0
  0
LTYPE
  5
15
330
5
100
AcDbSymbolTableRecord
100
AcDbLinetypeTableRecord
  2
ByLayer
 70
     0
  3

 72
    65
 73
     0
 40
0.0
  0
LTYPE
  5
16
330
5
100
AcDbSymbolTableRecord
100
AcDbLinetypeTableRecord
  2
Continuous
 70
     0
  3
Solid line
 72
    65
 73
     0
 40
0.0
  0
LTYPE
  5
AE
330
5
100
AcDbSymbolTableRecord
100
AcDbLinetypeTableRecord
  2
Dashed
 70
     0
  3

 72
    65
 73
     2
 40
2.0
 49
1.0
 74
     0
 49
-1.0
 74
     0
  0
LTYPE
  5
1DE
330
5
100
AcDbSymbolTableRecord
100
AcDbLinetypeTableRecord
  2
Center
 70
     0
  3

 72
    65
 73
     4
 40
1.5
 49
0.45
 74
     0
 49
-0.5
 74
     0
 49
0.05
 74
     0
 49
-0.5
 74
     0
  0
ENDTAB
  0
TABLE
  2
LAYER
  5
2
330
0
100
AcDbSymbolTable
 70
     7
  0
LAYER
  5
10
330
2
100
AcDbSymbolTableRecord
100
AcDbLayerTableRecord
  2
0
 70
     0
 62
     7
  6
Continuous
370
    -3
390
F
347
46
348
0
  0
LAYER
  5
72
330
2
100
AcDbSymbolTableRecord
100
AcDbLayerTableRecord
  2
AM_6
 70
     0
 62
    -2
  6
Continuous
370
    35
390
F
347
46
348
0
  0
LAYER
  5
9C
330
2
100
AcDbSymbolTableRecord
100
AcDbLayerTableRecord
  2
AM_5
 70
     0
 62
     3
  6
Continuous
370
    25
390
F
347
46
348
0
  0
LAYER
  5
AF
330
2
100
AcDbSymbolTableRecord
100
AcDbLayerTableRecord
  2
AM_9
 70
     0
 62
     6
  6
Dashed
370
    25
390
F
347
46
348
0
  0
LAYER
  5
BB
330
2
100
AcDbSymbolTableRecord
100
AcDbLayerTableRecord
  2
AM_4
 70
     0
 62
     7
  6
Continuous
370
    50
390
F
347
46
348
0
  0
LAYER
  5
1DF
330
2
100
AcDbSymbolTableRecord
100
AcDbLayerTableRecord
  2
AM_7
 70
     0
 62
     7
  6
Center
370
    25
390
F
347
46
348
0
  0
LAYER
  5
205
330
2
100
AcDbSymbolTableRecord
100
AcDbLayerTableRecord
  2
ConnectionPoints
 70
     0
 62
     7
  6
Continuous
370
    50
390
F
347
46
348
0
  0
ENDTAB
  0
TABLE
  2
STYLE
  5
3
330
0
100
AcDbSymbolTable
 70
     1
  0
STYLE
  5
11
330
3
100
AcDbSymbolTableRecord
100
AcDbTextStyleTableRecord
  2
Standard
 70
     0
 40
0.0
 41
1.0
 50
0.0
 71
     0
 42
0.2
  3
txt
  4

  0
ENDTAB
  0
TABLE
  2
VIEW
  5
6
330
0
100
AcDbSymbolTable
 70
     0
  0
ENDTAB
  0
TABLE
  2
UCS
  5
7
330
0
100
AcDbSymbolTable
 70
     0
  0
ENDTAB
  0
TABLE
  2
APPID
  5
9
330
0
100
AcDbSymbolTable
 70
     1
  0
APPID
  5
12
330
9
100
AcDbSymbolTableRecord
100
AcDbRegAppTableRecord
  2
ACAD
 70
     0
  0
ENDTAB
  0
TABLE
  2
DIMSTYLE
  5
A
330
0
100
AcDbSymbolTable
 70
     1
100
AcDbDimStyleTable
  0
DIMSTYLE
105
27
330
A
100
AcDbSymbolTableRecord
100
AcDbDimStyleTableRecord
  2
Standard
 70
     0
178
     0
340
11
  0
ENDTAB
  0
TABLE
  2
BLOCK_RECORD
  5
1
330
0
100
AcDbSymbolTable
 70
     8
  0
BLOCK_RECORD
  5
1F
330
1
100
AcDbSymbolTableRecord
100
AcDbBlockTableRecord
  2
*Model_Space
340
22
 70
     0
280
     1
281
     0
  0
BLOCK_RECORD
  5
1B
330
1
100
AcDbSymbolTableRecord
100
AcDbBlockTableRecord
  2
*Paper_Space
340
1E
 70
     0
280
     1
281
     0
  0
BLOCK_RECORD
  5
23
330
1
100
AcDbSymbolTableRecord
100
AcDbBlockTableRecord
  2
*Paper_Space0
340
26
 70
     0
280
     1
281
     0
  0
BLOCK_RECORD
  5
6E
330
1
100
AcDbSymbolTableRecord
100
AcDbBlockTableRecord
  2
1_071371_4
340
0
102
{BLKREFS
331
6F
102
}
 70
     0
280
     1
281
     0
  0
BLOCK_RECORD
  5
8C
330
1
100
AcDbSymbolTableRecord
100
AcDbBlockTableRecord
  2
2_ASME_B18_3_10_1_0_in_071371_4
340
0
102
{BLKREFS
331
8D
102
}
 70
     0
280
     1
281
     0
  0
BLOCK_RECORD
  5
9E
330
1
100
AcDbSymbolTableRecord
100
AcDbBlockTableRecord
  2
3_ASME_B18_3_10_2_0_in_071371_4
340
0
102
{BLKREFS
331
9F
102
}
 70
     0
280
     1
281
     0
  0
BLOCK_RECORD
  5
C2
330
1
100
AcDbSymbolTableRecord
100
AcDbBlockTableRecord
  2
4_070890LWE_0_in_071371_4
340
0
102
{BLKREFS
331
C3
102
}
 70
     0
280
     1
281
     0
  0
BLOCK_RECORD
  5
FA
330
1
100
AcDbSymbolTableRecord
100
AcDbBlockTableRecord
  2
5_070890EL_0_in_071371_4
340
0
102
{BLKREFS
331
FB
102
}
 70
     0
280
     1
281
     0
  0
BLOCK_RECORD
  5
17F
330
1
100
AcDbSymbolTableRecord
100
AcDbBlockTableRecord
  2
6_405015E_Inch_0_in_071371_4
340
0
102
{BLKREFS
331
180
102
}
 70
     0
280
     1
281
     0
  0
BLOCK_RECORD
  5
19C
330
1
100
AcDbSymbolTableRecord
100
AcDbBlockTableRecord
  2
7_071320LH_0_in_071371_4
340
0
102
{BLKREFS
331
19D
102
}
 70
     0
280
     1
281
     0
  0
ENDTAB
  0
ENDSEC
  0
SECTION
  2
BLOCKS
  0
BLOCK
  5
20
330
1F
100
AcDbEntity
  8
0
100
AcDbBlockBegin
  2
*Model_Space
 70
     0
 10
0.0
 20
0.0
 30
0.0
  3
*Model_Space
  1

  0
ENDBLK
  5
21
330
1F
100
AcDbEntity
  8
0
100
AcDbBlockEnd
  0
BLOCK
  5
1C
330
1B
100
AcDbEntity
 67
     1
  8
0
100
AcDbBlockBegin
  2
*Paper_Space
 70
     0
 10
0.0
 20
0.0
 30
0.0
  3
*Paper_Space
  1

  0
ENDBLK
  5
1D
330
1B
100
AcDbEntity
 67
     1
  8
0
100
AcDbBlockEnd
  0
BLOCK
  5
24
330
23
100
AcDbEntity
  8
0
100
AcDbBlockBegin
  2
*Paper_Space0
 70
     0
 10
0.0
 20
0.0
 30
0.0
  3
*Paper_Space0
  1

  0
ENDBLK
  5
25
330
23
100
AcDbEntity
  8
0
100
AcDbBlockEnd
  0
BLOCK
  5
70
330
6E
100
AcDbEntity
  8
0
100
AcDbBlockBegin
  2
1_071371_4
 70
     2
 10
0.0
 20
0.0
 30
0.0
  3
1_071371_4
  1

  0
ATTDEF
  5
73
330
6E
100
AcDbEntity
  8
AM_6
100
AcDbText
 10
7.815
 20
0.1677000000292345
 30
0.0
 40
0.5
  1
Imperial - IP Flange - Square with Type E Dimensions 1-3/8 thru 2-3/16 inch Labyrinth Seal Expansion
100
AcDbAttributeDefinition
  3

  2
NN
 70
     8
280
     0
  0
ATTDEF
  5
74
330
6E
100
AcDbEntity
  8
AM_6
100
AcDbText
 10
7.815
 20
-0.3322999999707655
 30
0.0
 40
0.5
  1
Imperial/E 4 Bolt Square Flange Bearings
100
AcDbAttributeDefinition
  3

  2
NT
 70
     8
280
     0
  0
ATTDEF
  5
75
330
6E
100
AcDbEntity
  8
AM_6
100
AcDbText
 10
7.815
 20
-0.8322999999707655
 30
0.0
 40
0.5
  1
071371
100
AcDbAttributeDefinition
  3

  2
NB
 70
     8
280
     0
  0
ATTDEF
  5
76
330
6E
100
AcDbEntity
  8
AM_6
100
AcDbText
 10
7.815
 20
-1.332299999970766
 30
0.0
 40
0.5
  1
$PN.
100
AcDbAttributeDefinition
  3

  2
NBSYN
 70
     8
280
     0
  0
ATTDEF
  5
77
330
6E
100
AcDbEntity
  8
AM_6
100
AcDbText
 10
7.815
 20
-1.832299999970766
 30
0.0
 40
0.5
  1
071371
100
AcDbAttributeDefinition
  3

  2
LINA
 70
     8
280
     0
  0
ATTDEF
  5
78
330
6E
100
AcDbEntity
  8
AM_6
100
AcDbText
 10
7.815
 20
-2.332299999970766
 30
0.0
 40
0.5
  1
1-15/16
100
AcDbAttributeDefinition
  3

  2
SS
 70
     8
280
     0
  0
ATTDEF
  5
79
330
6E
100
AcDbEntity
  8
AM_6
100
AcDbText
 10
7.815
 20
-2.832299999970766
 30
0.0
 40
0.5
  1
Expansion
100
AcDbAttributeDefinition
  3

  2
TYPE
 70
     8
280
     0
  0
ATTDEF
  5
7A
330
6E
100
AcDbEntity
  8
AM_6
100
AcDbText
 10
7.815
 20
-3.332299999970766
 30
0.0
 40
0.5
  1
071371
100
AcDbAttributeDefinition
  3

  2
PN
 70
     8
280
     0
  0
ATTDEF
  5
7B
330
6E
100
AcDbEntity
  8
AM_6
100
AcDbText
 10
7.815
 20
-3.832299999970766
 30
0.0
 40
0.5
  1
EF4B-IP-115LE
100
AcDbAttributeDefinition
  3

  2
DESCRIPTION
 70
     8
280
     0
  0
ATTDEF
  5
7C
330
6E
100
AcDbEntity
  8
AM_6
100
AcDbText
 10
7.815
 20
-4.332299999970766
 30
0.0
 40
0.5
  1
Labyrinth Seal
100
AcDbAttributeDefinition
  3

  2
ST
 70
     8
280
     0
  0
ATTDEF
  5
7D
330
6E
100
AcDbEntity
  8
AM_6
100
AcDbText
 10
7.815
 20
-4.832299999970766
 30
0.0
 40
0.5
  1
2.86
100
AcDbAttributeDefinition
  3

  2
A
 70
     8
280
     0
  0
ATTDEF
  5
7E
330
6E
100
AcDbEntity
  8
AM_6
100
AcDbText
 10
7.815
 20
-5.332299999970766
 30
0.0
 40
0.5
  1
5.63
100
AcDbAttributeDefinition
  3

  2
B
 70
     8
280
     0
  0
ATTDEF
  5
7F
330
6E
100
AcDbEntity
  8
AM_6
100
AcDbText
 10
7.815
 20
-5.832299999970766
 30
0.0
 40
0.5
  1
3.64
100
AcDbAttributeDefinition
  3

  2
C
 70
     8
280
     0
  0
ATTDEF
  5
80
330
6E
100
AcDbEntity
  8
AM_6
100
AcDbText
 10
7.815
 20
-6.332299999970766
 30
0.0
 40
0.5
  1
4.38
100
AcDbAttributeDefinition
  3

  2
D
 70
     8
280
     0
  0
ATTDEF
  5
81
330
6E
100
AcDbEntity
  8
AM_6
100
AcDbText
 10
7.815
 20
-6.832299999970766
 30
0.0
 40
0.5
  1
1/2
100
AcDbAttributeDefinition
  3

  2
F
 70
     8
280
     0
  0
ATTDEF
  5
82
330
6E
100
AcDbEntity
  8
AM_6
100
AcDbText
 10
7.815
 20
-7.332299999970766
 30
0.0
 40
0.5
  1
0.65
100
AcDbAttributeDefinition
  3

  2
G
 70
     8
280
     0
  0
ATTDEF
  5
83
330
6E
100
AcDbEntity
  8
AM_6
100
AcDbText
 10
7.815
 20
-7.832299999970766
 30
0.0
 40
0.5
  1
1.18
100
AcDbAttributeDefinition
  3

  2
H
 70
     8
280
     0
  0
ATTDEF
  5
84
330
6E
100
AcDbEntity
  8
AM_6
100
AcDbText
 10
7.815
 20
-8.332299999970765
 30
0.0
 40
0.5
  1
4.36
100
AcDbAttributeDefinition
  3

  2
J
 70
     8
280
     0
  0
ATTDEF
  5
85
330
6E
100
AcDbEntity
  8
AM_6
100
AcDbText
 10
7.815
 20
-8.832299999970765
 30
0.0
 40
0.5
  1
3.28
100
AcDbAttributeDefinition
  3

  2
L
 70
     8
280
     0
  0
ATTDEF
  5
86
330
6E
100
AcDbEntity
  8
AM_6
100
AcDbText
 10
7.815
 20
-9.332299999970765
 30
0.0
 40
0.5
  1
2.6
100
AcDbAttributeDefinition
  3

  2
N
 70
     8
280
     0
  0
ATTDEF
  5
87
330
6E
100
AcDbEntity
  8
AM_6
100
AcDbText
 10
7.815
 20
-9.832299999970765
 30
0.0
 40
0.5
  1
0.79
100
AcDbAttributeDefinition
  3

  2
P
 70
     8
280
     0
  0
ATTDEF
  5
88
330
6E
100
AcDbEntity
  8
AM_6
100
AcDbText
 10
7.815
 20
-10.33229999997076
 30
0.0
 40
0.5
  1
0.22
100
AcDbAttributeDefinition
  3

  2
X
 70
     8
280
     0
  0
ATTDEF
  5
89
330
6E
100
AcDbEntity
  8
AM_6
100
AcDbText
 10
7.815
 20
-10.83229999997076
 30
0.0
 40
0.5
  1
0.020
100
AcDbAttributeDefinition
  3

  2
Y
 70
     8
280
     0
  0
ATTDEF
  5
8A
330
6E
100
AcDbEntity
  8
AM_6
100
AcDbText
 10
7.815
 20
-11.33229999997076
 30
0.0
 40
0.5
  1
2.3
100
AcDbAttributeDefinition
  3

  2
Z
 70
     8
280
     0
  0
ATTDEF
  5
8B
330
6E
100
AcDbEntity
  8
AM_6
100
AcDbText
 10
7.815
 20
-11.83229999997076
 30
0.0
 40
0.5
  1
baldor
100
AcDbAttributeDefinition
  3

  2
COMPANY
 70
     8
280
     0
  0
INSERT
  5
8D
330
6E
100
AcDbEntity
  8
0
100
AcDbBlockReference
  2
2_ASME_B18_3_10_1_0_in_071371_4
 10
0.0
 20
0.0
 30
0.0
  0
INSERT
  5
9F
330
6E
100
AcDbEntity
  8
0
100
AcDbBlockReference
  2
3_ASME_B18_3_10_2_0_in_071371_4
 10
0.0
 20
0.0
 30
0.0
  0
INSERT
  5
C3
330
6E
100
AcDbEntity
  8
0
100
AcDbBlockReference
  2
4_070890LWE_0_in_071371_4
 10
0.0
 20
0.0
 30
0.0
  0
INSERT
  5
FB
330
6E
100
AcDbEntity
  8
0
100
AcDbBlockReference
  2
5_070890EL_0_in_071371_4
 10
0.0
 20
0.0
 30
0.0
  0
INSERT
  5
180
330
6E
100
AcDbEntity
  8
0
100
AcDbBlockReference
  2
6_405015E_Inch_0_in_071371_4
 10
0.0
 20
0.0
 30
0.0
  0
INSERT
  5
19D
330
6E
100
AcDbEntity
  8
0
100
AcDbBlockReference
  2
7_071320LH_0_in_071371_4
 10
0.0
 20
0.0
 30
0.0
  0
ENDBLK
  5
71
330
6E
100
AcDbEntity
  8
0
100
AcDbBlockEnd
  0
BLOCK
  5
8E
330
8C
100
AcDbEntity
  8
0
100
AcDbBlockBegin
  2
2_ASME_B18_3_10_1_0_in_071371_4
 70
     2
 10
0.0
 20
0.0
 30
0.0
  3
2_ASME_B18_3_10_1_0_in_071371_4
  1

  0
ATTDEF
  5
90
330
8C
100
AcDbEntity
  8
AM_6
100
AcDbText
 10
5.095
 20
-3.187166666666666
 30
0.0
 40
0.5
  1
ANSI/ASME B18.3-1998
100
AcDbAttributeDefinition
  3

  2
NN
 70
     8
280
     0
  0
ATTDEF
  5
91
330
8C
100
AcDbEntity
  8
AM_6
100
AcDbText
 10
5.095
 20
-3.687166666666666
 30
0.0
 40
0.5
  1
Socket Button Head Cap Screws
100
AcDbAttributeDefinition
  3

  2
NT
 70
     8
280
     0
  0
ATTDEF
  5
92
330
8C
100
AcDbEntity
  8
AM_6
100
AcDbText
 10
5.095
 20
-4.187166666666666
 30
0.0
 40
0.5
  1
ASME B18.3-10
100
AcDbAttributeDefinition
  3

  2
NB
 70
     8
280
     0
  0
ATTDEF
  5
93
330
8C
100
AcDbEntity
  8
AM_6
100
AcDbText
 10
5.095
 20
-4.687166666666666
 30
0.0
 40
0.5
  1
ASME B18.3-$NS.
100
AcDbAttributeDefinition
  3

  2
NBSYN
 70
     8
280
     0
  0
ATTDEF
  5
94
330
8C
100
AcDbEntity
  8
AM_6
100
AcDbText
 10
5.095
 20
-5.187166666666666
 30
0.0
 40
0.5
  1
ASME B18.3-10
100
AcDbAttributeDefinition
  3

  2
LINA
 70
     8
280
     0
  0
ATTDEF
  5
95
330
8C
100
AcDbEntity
  8
AM_6
100
AcDbText
 10
5.095
 20
-5.687166666666666
 30
0.0
 40
0.5
  1
10
100
AcDbAttributeDefinition
  3

  2
NS
 70
     8
280
     0
  0
ATTDEF
  5
96
330
8C
100
AcDbEntity
  8
AM_6
100
AcDbText
 10
5.095
 20
-6.187166666666666
 30
0.0
 40
0.5
  1
0.361
100
AcDbAttributeDefinition
  3

  2
A
 70
     8
280
     0
  0
ATTDEF
  5
97
330
8C
100
AcDbEntity
  8
AM_6
100
AcDbText
 10
5.095
 20
-6.687166666666666
 30
0.0
 40
0.5
  1
0.101
100
AcDbAttributeDefinition
  3

  2
H
 70
     8
280
     0
  0
ATTDEF
  5
98
330
8C
100
AcDbEntity
  8
AM_6
100
AcDbText
 10
5.095
 20
-7.187166666666666
 30
0.0
 40
0.5
  1
0.800
100
AcDbAttributeDefinition
  3

  2
L
 70
     8
280
     0
  0
ATTDEF
  5
99
330
8C
100
AcDbEntity
  8
AM_6
100
AcDbText
 10
5.095
 20
-7.687166666666666
 30
0.0
 40
0.5
  1
0.020
100
AcDbAttributeDefinition
  3

  2
S
 70
     8
280
     0
  0
ATTDEF
  5
9A
330
8C
100
AcDbEntity
  8
AM_6
100
AcDbText
 10
5.095
 20
-8.187166666666666
 30
0.0
 40
0.5
  1
0.125000
100
AcDbAttributeDefinition
  3

  2
J
 70
     8
280
     0
  0
ATTDEF
  5
9B
330
8C
100
AcDbEntity
  8
AM_6
100
AcDbText
 10
5.095
 20
-8.687166666666666
 30
0.0
 40
0.5
  1
baldor
100
AcDbAttributeDefinition
  3

  2
COMPANY
 70
     8
280
     0
  0
LINE
  5
9D
330
8C
100
AcDbEntity
  8
AM_5
100
AcDbLine
 10
0.095
 20
-3.187166666666666
 30
0.0
 11
-0.095
 21
-3.187166666666666
 31
0.0
  0
ENDBLK
  5
8F
330
8C
100
AcDbEntity
  8
0
100
AcDbBlockEnd
  0
BLOCK
  5
A0
330
9E
100
AcDbEntity
  8
0
100
AcDbBlockBegin
  2
3_ASME_B18_3_10_2_0_in_071371_4
 70
     2
 10
0.0
 20
0.0
 30
0.0
  3
3_ASME_B18_3_10_2_0_in_071371_4
  1

  0
ATTDEF
  5
A2
330
9E
100
AcDbEntity
  8
AM_6
100
AcDbText
 10
5.1805
 20
-2.467166666666666
 30
0.0
 40
0.5
  1
ANSI/ASME B18.3-1998
100
AcDbAttributeDefinition
  3

  2
NN
 70
     8
280
     0
  0
ATTDEF
  5
A3
330
9E
100
AcDbEntity
  8
AM_6
100
AcDbText
 10
5.1805
 20
-2.967166666666666
 30
0.0
 40
0.5
  1
Socket Button Head Cap Screws
100
AcDbAttributeDefinition
  3

  2
NT
 70
     8
280
     0
  0
ATTDEF
  5
A4
330
9E
100
AcDbEntity
  8
AM_6
100
AcDbText
 10
5.1805
 20
-3.467166666666666
 30
0.0
 40
0.5
  1
ASME B18.3-10
100
AcDbAttributeDefinition
  3

  2
NB
 70
     8
280
     0
  0
ATTDEF
  5
A5
330
9E
100
AcDbEntity
  8
AM_6
100
AcDbText
 10
5.1805
 20
-3.967166666666666
 30
0.0
 40
0.5
  1
ASME B18.3-$NS.
100
AcDbAttributeDefinition
  3

  2
NBSYN
 70
     8
280
     0
  0
ATTDEF
  5
A6
330
9E
100
AcDbEntity
  8
AM_6
100
AcDbText
 10
5.1805
 20
-4.467166666666666
 30
0.0
 40
0.5
  1
ASME B18.3-10
100
AcDbAttributeDefinition
  3

  2
LINA
 70
     8
280
     0
  0
ATTDEF
  5
A7
330
9E
100
AcDbEntity
  8
AM_6
100
AcDbText
 10
5.1805
 20
-4.967166666666666
 30
0.0
 40
0.5
  1
10
100
AcDbAttributeDefinition
  3

  2
NS
 70
     8
280
     0
  0
ATTDEF
  5
A8
330
9E
100
AcDbEntity
  8
AM_6
100
AcDbText
 10
5.1805
 20
-5.467166666666666
 30
0.0
 40
0.5
  1
0.361
100
AcDbAttributeDefinition
  3

  2
A
 70
     8
280
     0
  0
ATTDEF
  5
A9
330
9E
100
AcDbEntity
  8
AM_6
100
AcDbText
 10
5.1805
 20
-5.967166666666666
 30
0.0
 40
0.5
  1
0.101
100
AcDbAttributeDefinition
  3

  2
H
 70
     8
280
     0
  0
ATTDEF
  5
AA
330
9E
100
AcDbEntity
  8
AM_6
100
AcDbText
 10
5.1805
 20
-6.467166666666666
 30
0.0
 40
0.5
  1
0.800
100
AcDbAttributeDefinition
  3

  2
L
 70
     8
280
     0
  0
ATTDEF
  5
AB
330
9E
100
AcDbEntity
  8
AM_6
100
AcDbText
 10
5.1805
 20
-6.967166666666666
 30
0.0
 40
0.5
  1
0.020
100
AcDbAttributeDefinition
  3

  2
S
 70
     8
280
     0
  0
ATTDEF
  5
AC
330
9E
100
AcDbEntity
  8
AM_6
100
AcDbText
 10
5.1805
 20
-7.467166666666666
 30
0.0
 40
0.5
  1
0.125000
100
AcDbAttributeDefinition
  3

  2
J
 70
     8
280
     0
  0
ATTDEF
  5
AD
330
9E
100
AcDbEntity
  8
AM_6
100
AcDbText
 10
5.1805
 20
-7.967166666666666
 30
0.0
 40
0.5
  1
baldor
100
AcDbAttributeDefinition
  3

  2
COMPANY
 70
     8
280
     0
  0
LINE
  5
B0
330
9E
100
AcDbEntity
  8
AM_9
100
AcDbLine
 10
-0.0625
 20
-3.307166666666666
 30
0.0
 11
-0.0625
 21
-3.368166666666665
 31
0.0
  0
LINE
  5
B1
330
9E
100
AcDbEntity
  8
AM_9
100
AcDbLine
 10
0.0625
 20
-3.307166666666666
 30
0.0
 11
0.0625
 21
-3.368166666666665
 31
0.0
  0
LINE
  5
B2
330
9E
100
AcDbEntity
  8
AM_9
100
AcDbLine
 10
-0.0625
 20
-3.307166666666666
 30
0.0
 11
0.0625
 21
-3.307166666666666
 31
0.0
  0
LINE
  5
B3
330
9E
100
AcDbEntity
  8
AM_9
100
AcDbLine
 10
0.0
 20
-3.307166666666666
 30
0.0
 11
0.0
 21
-3.368166666666665
 31
0.0
  0
LINE
  5
B4
330
9E
100
AcDbEntity
  8
AM_9
100
AcDbLine
 10
-0.0764
 20
-2.467166666666666
 30
0.0
 11
-0.095
 21
-2.485766666666666
 31
0.0
  0
LINE
  5
B5
330
9E
100
AcDbEntity
  8
AM_9
100
AcDbLine
 10
0.095
 20
-2.485766666666666
 30
0.0
 11
0.0764
 21
-2.467166666666666
 31
0.0
  0
LINE
  5
B6
330
9E
100
AcDbEntity
  8
AM_9
100
AcDbLine
 10
-0.0764
 20
-2.467166666666666
 30
0.0
 11
0.0764
 21
-2.467166666666666
 31
0.0
  0
LINE
  5
B7
330
9E
100
AcDbEntity
  8
AM_9
100
AcDbLine
 10
0.095
 20
-3.267166666666666
 30
0.0
 11
0.095
 21
-2.485766666666666
 31
0.0
  0
LINE
  5
B8
330
9E
100
AcDbEntity
  8
AM_9
100
AcDbLine
 10
-0.095
 20
-2.485766666666666
 30
0.0
 11
-0.095
 21
-3.267166666666666
 31
0.0
  0
LINE
  5
B9
330
9E
100
AcDbEntity
  8
AM_9
100
AcDbLine
 10
-0.095
 20
-2.485766666666666
 30
0.0
 11
0.095
 21
-2.485766666666666
 31
0.0
  0
LINE
  5
BA
330
9E
100
AcDbEntity
  8
AM_5
100
AcDbLine
 10
-0.0950000000000001
 20
-3.187166666666666
 30
0.0
 11
0.0949999999999999
 21
-3.187166666666666
 31
0.0
  0
LINE
  5
BC
330
9E
100
AcDbEntity
  8
AM_4
100
AcDbLine
 10
0.1805
 20
-3.287166666666665
 30
0.0
 11
0.1805
 21
-3.267166666666666
 31
0.0
  0
LINE
  5
BD
330
9E
100
AcDbEntity
  8
AM_4
100
AcDbLine
 10
-0.1805
 20
-3.267166666666666
 30
0.0
 11
-0.1805
 21
-3.287166666666665
 31
0.0
  0
LINE
  5
BE
330
9E
100
AcDbEntity
  8
AM_4
100
AcDbLine
 10
-0.0994999996889004
 20
-3.368166666666665
 30
0.0
 11
0.0995
 21
-3.368166666666665
 31
0.0
  0
ARC
  5
BF
330
9E
100
AcDbEntity
  8
AM_4
100
AcDbCircle
 10
0.0995000000000001
 20
-3.287166666666665
 30
0.0
 40
0.081
100
AcDbArc
 50
270.0
 51
0.0
  0
ARC
  5
C0
330
9E
100
AcDbEntity
  8
AM_4
100
AcDbCircle
 10
-0.0995000000000001
 20
-3.287166666666665
 30
0.0
 40
0.0809999999999998
100
AcDbArc
 50
180.0
 51
270.0
  0
LINE
  5
C1
330
9E
100
AcDbEntity
  8
AM_4
100
AcDbLine
 10
-0.1805
 20
-3.287166666666665
 30
0.0
 11
0.1805
 21
-3.287166666666665
 31
0.0
  0
ENDBLK
  5
A1
330
9E
100
AcDbEntity
  8
0
100
AcDbBlockEnd
  0
BLOCK
  5
C4
330
C2
100
AcDbEntity
  8
0
100
AcDbBlockBegin
  2
4_070890LWE_0_in_071371_4
 70
     2
 10
0.0
 20
0.0
 30
0.0
  3
4_070890LWE_0_in_071371_4
  1

  0
ATTDEF
  5
C6
330
C2
100
AcDbEntity
  8
AM_6
100
AcDbText
 10
6.640000000000001
 20
-2.827166666666665
 30
0.0
 40
0.5
  1
Imperial/E Insert Lockwasher -Inch
100
AcDbAttributeDefinition
  3

  2
NN
 70
     8
280
     0
  0
ATTDEF
  5
C7
330
C2
100
AcDbEntity
  8
AM_6
100
AcDbText
 10
6.640000000000001
 20
-3.327166666666665
 30
0.0
 40
0.5
  1
Imperial/E Bearings
100
AcDbAttributeDefinition
  3

  2
NT
 70
     8
280
     0
  0
ATTDEF
  5
C8
330
C2
100
AcDbEntity
  8
AM_6
100
AcDbText
 10
6.640000000000001
 20
-3.827166666666665
 30
0.0
 40
0.5
  1
070890LWE
100
AcDbAttributeDefinition
  3

  2
NB
 70
     8
280
     0
  0
ATTDEF
  5
C9
330
C2
100
AcDbEntity
  8
AM_6
100
AcDbText
 10
6.640000000000001
 20
-4.327166666666665
 30
0.0
 40
0.5
  1
$PN.LWE
100
AcDbAttributeDefinition
  3

  2
NBSYN
 70
     8
280
     0
  0
ATTDEF
  5
CA
330
C2
100
AcDbEntity
  8
AM_6
100
AcDbText
 10
6.640000000000001
 20
-4.827166666666665
 30
0.0
 40
0.5
  1
070890
100
AcDbAttributeDefinition
  3

  2
LINA
 70
     8
280
     0
  0
ATTDEF
  5
CB
330
C2
100
AcDbEntity
  8
AM_6
100
AcDbText
 10
6.640000000000001
 20
-5.327166666666665
 30
0.0
 40
0.5
  1
1-15/16
100
AcDbAttributeDefinition
  3

  2
SS
 70
     8
280
     0
  0
ATTDEF
  5
CC
330
C2
100
AcDbEntity
  8
AM_6
100
AcDbText
 10
6.640000000000001
 20
-5.827166666666665
 30
0.0
 40
0.5
  1
3.280000
100
AcDbAttributeDefinition
  3

  2
E1
 70
     8
280
     0
  0
ATTDEF
  5
CD
330
C2
100
AcDbEntity
  8
AM_6
100
AcDbText
 10
6.640000000000001
 20
-6.327166666666665
 30
0.0
 40
0.5
  1
1.937500
100
AcDbAttributeDefinition
  3

  2
SS1
 70
     8
280
     0
  0
ATTDEF
  5
CE
330
C2
100
AcDbEntity
  8
AM_6
100
AcDbText
 10
6.640000000000001
 20
-6.827166666666665
 30
0.0
 40
0.5
  1
070890
100
AcDbAttributeDefinition
  3

  2
PN
 70
     8
280
     0
  0
ATTDEF
  5
CF
330
C2
100
AcDbEntity
  8
AM_6
100
AcDbText
 10
6.640000000000001
 20
-7.327166666666665
 30
0.0
 40
0.5
  1
INS-IP-115R
100
AcDbAttributeDefinition
  3

  2
DESCRIPTION
 70
     8
280
     0
  0
ATTDEF
  5
D0
330
C2
100
AcDbEntity
  8
AM_6
100
AcDbText
 10
6.640000000000001
 20
-7.827166666666665
 30
0.0
 40
0.5
  1
3.5433
100
AcDbAttributeDefinition
  3

  2
A
 70
     8
280
     0
  0
ATTDEF
  5
D1
330
C2
100
AcDbEntity
  8
AM_6
100
AcDbText
 10
6.640000000000001
 20
-8.327166666666665
 30
0.0
 40
0.5
  1
61/64
100
AcDbAttributeDefinition
  3

  2
B
 70
     8
280
     0
  0
ATTDEF
  5
D2
330
C2
100
AcDbEntity
  8
AM_6
100
AcDbText
 10
6.640000000000001
 20
-8.827166666666665
 30
0.0
 40
0.5
  1
0.953125
100
AcDbAttributeDefinition
  3

  2
B1
 70
     8
280
     0
  0
ATTDEF
  5
D3
330
C2
100
AcDbEntity
  8
AM_6
100
AcDbText
 10
6.640000000000001
 20
-9.327166666666665
 30
0.0
 40
0.5
  1
2-55/64
100
AcDbAttributeDefinition
  3

  2
C
 70
     8
280
     0
  0
ATTDEF
  5
D4
330
C2
100
AcDbEntity
  8
AM_6
100
AcDbText
 10
6.640000000000001
 20
-9.827166666666665
 30
0.0
 40
0.5
  1
2.859375
100
AcDbAttributeDefinition
  3

  2
C1
 70
     8
280
     0
  0
ATTDEF
  5
D5
330
C2
100
AcDbEntity
  8
AM_6
100
AcDbText
 10
6.640000000000001
 20
-10.32716666666667
 30
0.0
 40
0.5
  1
0.977
100
AcDbAttributeDefinition
  3

  2
D
 70
     8
280
     0
  0
ATTDEF
  5
D6
330
C2
100
AcDbEntity
  8
AM_6
100
AcDbText
 10
6.640000000000001
 20
-10.82716666666667
 30
0.0
 40
0.5
  1
3-9/32
100
AcDbAttributeDefinition
  3

  2
E
 70
     8
280
     0
  0
ATTDEF
  5
D7
330
C2
100
AcDbEntity
  8
AM_6
100
AcDbText
 10
6.640000000000001
 20
-11.32716666666667
 30
0.0
 40
0.5
  1
0.1900
100
AcDbAttributeDefinition
  3

  2
NDM
 70
     8
280
     0
  0
ATTDEF
  5
D8
330
C2
100
AcDbEntity
  8
AM_6
100
AcDbText
 10
6.640000000000001
 20
-11.82716666666667
 30
0.0
 40
0.5
  1
0.1450
100
AcDbAttributeDefinition
  3

  2
KDM
 70
     8
280
     0
  0
ATTDEF
  5
D9
330
C2
100
AcDbEntity
  8
AM_6
100
AcDbText
 10
6.640000000000001
 20
-12.32716666666667
 30
0.0
 40
0.5
  1
2.67
100
AcDbAttributeDefinition
  3

  2
AL
 70
     8
280
     0
  0
ATTDEF
  5
DA
330
C2
100
AcDbEntity
  8
AM_6
100
AcDbText
 10
6.640000000000001
 20
-12.82716666666667
 30
0.0
 40
0.5
  1
0.38
100
AcDbAttributeDefinition
  3

  2
BL
 70
     8
280
     0
  0
ATTDEF
  5
DB
330
C2
100
AcDbEntity
  8
AM_6
100
AcDbText
 10
6.640000000000001
 20
-13.32716666666667
 30
0.0
 40
0.5
  1
0.07
100
AcDbAttributeDefinition
  3

  2
CL
 70
     8
280
     0
  0
ATTDEF
  5
DC
330
C2
100
AcDbEntity
  8
AM_6
100
AcDbText
 10
6.640000000000001
 20
-13.82716666666667
 30
0.0
 40
0.5
  1
0.44
100
AcDbAttributeDefinition
  3

  2
DL
 70
     8
280
     0
  0
ATTDEF
  5
DD
330
C2
100
AcDbEntity
  8
AM_6
100
AcDbText
 10
6.640000000000001
 20
-14.32716666666667
 30
0.0
 40
0.5
  1
baldor
100
AcDbAttributeDefinition
  3

  2
COMPANY
 70
     8
280
     0
  0
LINE
  5
DE
330
C2
100
AcDbEntity
  8
AM_9
100
AcDbLine
 10
-1.358194444444444
 20
-3.197166666666666
 30
0.0
 11
-1.358194444444444
 21
-3.267166666666666
 31
0.0
  0
LINE
  5
DF
330
C2
100
AcDbEntity
  8
AM_9
100
AcDbLine
 10
-1.453252666588821
 20
-3.197166666666666
 30
0.0
 11
-1.453252666588821
 21
-3.267166666666666
 31
0.0
  0
LINE
  5
E0
330
C2
100
AcDbEntity
  8
AM_9
100
AcDbLine
 10
1.358194444444444
 20
-3.197166666666666
 30
0.0
 11
1.358194444444444
 21
-3.267166666666666
 31
0.0
  0
LINE
  5
E1
330
C2
100
AcDbEntity
  8
AM_9
100
AcDbLine
 10
1.453252666588821
 20
-3.267166666666666
 30
0.0
 11
1.453252666588821
 21
-3.197166666666666
 31
0.0
  0
LINE
  5
E2
330
C2
100
AcDbEntity
  8
AM_9
100
AcDbLine
 10
-1.042979687686305
 20
-3.197166666666666
 30
0.0
 11
-1.042979687686305
 21
-3.267166666666666
 31
0.0
  0
LINE
  5
E3
330
C2
100
AcDbEntity
  8
AM_9
100
AcDbLine
 10
1.042979687686306
 20
-3.197166666666666
 30
0.0
 11
1.042979687686306
 21
-3.267166666666666
 31
0.0
  0
LINE
  5
E4
330
C2
100
AcDbEntity
  8
AM_9
100
AcDbLine
 10
0.8046731540155361
 20
-3.197166666666666
 30
0.0
 11
0.8046731540155361
 21
-3.267166666666666
 31
0.0
  0
LINE
  5
E5
330
C2
100
AcDbEntity
  8
AM_9
100
AcDbLine
 10
-0.8046731540155361
 20
-3.197166666666666
 30
0.0
 11
-0.8046731540155361
 21
-3.267166666666666
 31
0.0
  0
LINE
  5
E6
330
C2
100
AcDbEntity
  8
AM_9
100
AcDbLine
 10
-0.456706260270418
 20
-2.827166666666665
 30
0.0
 11
-0.456706260270418
 21
-3.267166666666666
 31
0.0
  0
LINE
  5
E7
330
C2
100
AcDbEntity
  8
AM_9
100
AcDbLine
 10
-0.4868996023594367
 20
-3.197166666666666
 30
0.0
 11
-0.4868996023594367
 21
-3.267166666666666
 31
0.0
  0
LINE
  5
E8
330
C2
100
AcDbEntity
  8
AM_9
100
AcDbLine
 10
-0.6703228655900918
 20
-3.197166666666666
 30
0.0
 11
-0.6703228655900919
 21
-3.267166666666666
 31
0.0
  0
LINE
  5
E9
330
C2
100
AcDbEntity
  8
AM_9
100
AcDbLine
 10
-0.3113624911822921
 20
-3.197166666666666
 30
0.0
 11
-0.3113624911822921
 21
-3.267166666666666
 31
0.0
  0
LINE
  5
EA
330
C2
100
AcDbEntity
  8
AM_9
100
AcDbLine
 10
-0.281169149093273
 20
-2.827166666666665
 30
0.0
 11
-0.476307824147738
 21
-2.827166666666665
 31
0.0
  0
LINE
  5
EB
330
C2
100
AcDbEntity
  8
AM_9
100
AcDbLine
 10
-0.281169149093273
 20
-2.827166666666665
 30
0.0
 11
-0.281169149093273
 21
-3.267166666666666
 31
0.0
  0
LINE
  5
EC
330
C2
100
AcDbEntity
  8
AM_9
100
AcDbLine
 10
-0.3007707129705937
 20
-3.197166666666666
 30
0.0
 11
-0.3007707129705937
 21
-2.827166666666665
 31
0.0
  0
LINE
  5
ED
330
C2
100
AcDbEntity
  8
AM_9
100
AcDbLine
 10
-0.476307824147738
 20
-2.827166666666665
 30
0.0
 11
-0.4763078241477382
 21
-3.197166666666666
 31
0.0
  0
LINE
  5
EE
330
C2
100
AcDbEntity
  8
AM_9
100
AcDbLine
 10
0.6703228655900924
 20
-3.197166666666666
 30
0.0
 11
0.6703228655900927
 21
-3.267166666666666
 31
0.0
  0
LINE
  5
EF
330
C2
100
AcDbEntity
  8
AM_9
100
AcDbLine
 10
0.8932133576238405
 20
-3.197166666666666
 30
0.0
 11
0.8932133576238405
 21
-3.267166666666666
 31
0.0
  0
LINE
  5
F0
330
C2
100
AcDbEntity
  8
AM_9
100
AcDbLine
 10
1.027563646049285
 20
-3.197166666666666
 30
0.0
 11
1.027563646049285
 21
-3.267166666666666
 31
0.0
  0
LINE
  5
F1
330
C2
100
AcDbEntity
  8
AM_9
100
AcDbLine
 10
1.055429676332017
 20
-3.267166666666666
 30
0.0
 11
1.055429676332017
 21
-3.197166666666666
 31
0.0
  0
LINE
  5
F2
330
C2
100
AcDbEntity
  8
AM_9
100
AcDbLine
 10
-1.027563646049284
 20
-3.197166666666666
 30
0.0
 11
-1.027563646049284
 21
-3.267166666666666
 31
0.0
  0
LINE
  5
F3
330
C2
100
AcDbEntity
  8
AM_9
100
AcDbLine
 10
-0.8932133576238379
 20
-3.197166666666666
 30
0.0
 11
-0.8932133576238379
 21
-3.267166666666666
 31
0.0
  0
LINE
  5
F4
330
C2
100
AcDbEntity
  8
AM_9
100
AcDbLine
 10
-1.055429676332017
 20
-3.197166666666666
 30
0.0
 11
-1.055429676332017
 21
-3.267166666666666
 31
0.0
  0
LINE
  5
F5
330
C2
100
AcDbEntity
  8
AM_4
100
AcDbLine
 10
-1.64
 20
-3.197166666666666
 30
0.0
 11
-1.64
 21
-3.267166666666666
 31
0.0
  0
LINE
  5
F6
330
C2
100
AcDbEntity
  8
AM_4
100
AcDbLine
 10
1.64
 20
-3.267166666666666
 30
0.0
 11
1.64
 21
-3.197166666666666
 31
0.0
  0
LINE
  5
F7
330
C2
100
AcDbEntity
  8
AM_4
100
AcDbLine
 10
-1.64
 20
-3.267166666666666
 30
0.0
 11
1.64
 21
-3.267166666666666
 31
0.0
  0
LINE
  5
F8
330
C2
100
AcDbEntity
  8
AM_4
100
AcDbLine
 10
1.017940992159678
 20
-3.197166666666666
 30
0.0
 11
1.286641569010567
 21
-3.197166666666666
 31
0.0
  0
LINE
  5
F9
330
C2
100
AcDbEntity
  8
AM_4
100
AcDbLine
 10
-1.286641569010567
 20
-3.197166666666666
 30
0.0
 11
-1.019736842105263
 21
-3.197166666666666
 31
0.0
  0
ENDBLK
  5
C5
330
C2
100
AcDbEntity
  8
0
100
AcDbBlockEnd
  0
BLOCK
  5
FC
330
FA
100
AcDbEntity
  8
0
100
AcDbBlockBegin
  2
5_070890EL_0_in_071371_4
 70
     2
 10
0.0
 20
0.0
 30
0.0
  3
5_070890EL_0_in_071371_4
  1

  0
ATTDEF
  5
FE
330
FA
100
AcDbEntity
  8
AM_6
100
AcDbText
 10
6.77165
 20
-0.5499999999999998
 30
0.0
 40
0.5
  1
Imperial/E Insert -Inch
100
AcDbAttributeDefinition
  3

  2
NN
 70
     8
280
     0
  0
ATTDEF
  5
FF
330
FA
100
AcDbEntity
  8
AM_6
100
AcDbText
 10
6.77165
 20
-1.05
 30
0.0
 40
0.5
  1
Imperial Bearings
100
AcDbAttributeDefinition
  3

  2
NT
 70
     8
280
     0
  0
ATTDEF
  5
100
330
FA
100
AcDbEntity
  8
AM_6
100
AcDbText
 10
6.77165
 20
-1.55
 30
0.0
 40
0.5
  1
070890EL
100
AcDbAttributeDefinition
  3

  2
NB
 70
     8
280
     0
  0
ATTDEF
  5
101
330
FA
100
AcDbEntity
  8
AM_6
100
AcDbText
 10
6.77165
 20
-2.05
 30
0.0
 40
0.5
  1
$PN.
100
AcDbAttributeDefinition
  3

  2
NBSYN
 70
     8
280
     0
  0
ATTDEF
  5
102
330
FA
100
AcDbEntity
  8
AM_6
100
AcDbText
 10
6.77165
 20
-2.55
 30
0.0
 40
0.5
  1
070890EL
100
AcDbAttributeDefinition
  3

  2
LINA
 70
     8
280
     0
  0
ATTDEF
  5
103
330
FA
100
AcDbEntity
  8
AM_6
100
AcDbText
 10
6.77165
 20
-3.05
 30
0.0
 40
0.5
  1
1-15/16
100
AcDbAttributeDefinition
  3

  2
SS
 70
     8
280
     0
  0
ATTDEF
  5
104
330
FA
100
AcDbEntity
  8
AM_6
100
AcDbText
 10
6.77165
 20
-3.55
 30
0.0
 40
0.5
  1
1.937500
100
AcDbAttributeDefinition
  3

  2
SS1
 70
     8
280
     0
  0
ATTDEF
  5
105
330
FA
100
AcDbEntity
  8
AM_6
100
AcDbText
 10
6.77165
 20
-4.05
 30
0.0
 40
0.5
  1
070890EL
100
AcDbAttributeDefinition
  3

  2
PN
 70
     8
280
     0
  0
ATTDEF
  5
106
330
FA
100
AcDbEntity
  8
AM_6
100
AcDbText
 10
6.77165
 20
-4.55
 30
0.0
 40
0.5
  1
INS-IP-115R
100
AcDbAttributeDefinition
  3

  2
DESCRIPTION
 70
     8
280
     0
  0
ATTDEF
  5
107
330
FA
100
AcDbEntity
  8
AM_6
100
AcDbText
 10
6.77165
 20
-5.05
 30
0.0
 40
0.5
  1
Labyrinth Seal
100
AcDbAttributeDefinition
  3

  2
ST
 70
     8
280
     0
  0
ATTDEF
  5
108
330
FA
100
AcDbEntity
  8
AM_6
100
AcDbText
 10
6.77165
 20
-5.55
 30
0.0
 40
0.5
  1
1
100
AcDbAttributeDefinition
  3

  2
ST1
 70
     8
280
     0
  0
ATTDEF
  5
109
330
FA
100
AcDbEntity
  8
AM_6
100
AcDbText
 10
6.77165
 20
-6.05
 30
0.0
 40
0.5
  1
3.5433
100
AcDbAttributeDefinition
  3

  2
A
 70
     8
280
     0
  0
ATTDEF
  5
10A
330
FA
100
AcDbEntity
  8
AM_6
100
AcDbText
 10
6.77165
 20
-6.55
 30
0.0
 40
0.5
  1
61/64
100
AcDbAttributeDefinition
  3

  2
B
 70
     8
280
     0
  0
ATTDEF
  5
10B
330
FA
100
AcDbEntity
  8
AM_6
100
AcDbText
 10
6.77165
 20
-7.05
 30
0.0
 40
0.5
  1
0.953125
100
AcDbAttributeDefinition
  3

  2
B1
 70
     8
280
     0
  0
ATTDEF
  5
10C
330
FA
100
AcDbEntity
  8
AM_6
100
AcDbText
 10
6.77165
 20
-7.55
 30
0.0
 40
0.5
  1
2-55/64
100
AcDbAttributeDefinition
  3

  2
C
 70
     8
280
     0
  0
ATTDEF
  5
10D
330
FA
100
AcDbEntity
  8
AM_6
100
AcDbText
 10
6.77165
 20
-8.05
 30
0.0
 40
0.5
  1
2.860000
100
AcDbAttributeDefinition
  3

  2
C1
 70
     8
280
     0
  0
ATTDEF
  5
10E
330
FA
100
AcDbEntity
  8
AM_6
100
AcDbText
 10
6.77165
 20
-8.55
 30
0.0
 40
0.5
  1
3.64000
100
AcDbAttributeDefinition
  3

  2
CR
 70
     8
280
     0
  0
ATTDEF
  5
10F
330
FA
100
AcDbEntity
  8
AM_6
100
AcDbText
 10
6.77165
 20
-9.05
 30
0.0
 40
0.5
  1
0.977
100
AcDbAttributeDefinition
  3

  2
D
 70
     8
280
     0
  0
ATTDEF
  5
110
330
FA
100
AcDbEntity
  8
AM_6
100
AcDbText
 10
6.77165
 20
-9.55
 30
0.0
 40
0.5
  1
3-9/32
100
AcDbAttributeDefinition
  3

  2
E
 70
     8
280
     0
  0
ATTDEF
  5
111
330
FA
100
AcDbEntity
  8
AM_6
100
AcDbText
 10
6.77165
 20
-10.05
 30
0.0
 40
0.5
  1
3.281250
100
AcDbAttributeDefinition
  3

  2
E1
 70
     8
280
     0
  0
ATTDEF
  5
112
330
FA
100
AcDbEntity
  8
AM_6
100
AcDbText
 10
6.77165
 20
-10.55
 30
0.0
 40
0.5
  1
0.1900
100
AcDbAttributeDefinition
  3

  2
NDM
 70
     8
280
     0
  0
ATTDEF
  5
113
330
FA
100
AcDbEntity
  8
AM_6
100
AcDbText
 10
6.77165
 20
-11.05
 30
0.0
 40
0.5
  1
0.1450
100
AcDbAttributeDefinition
  3

  2
KDM
 70
     8
280
     0
  0
ATTDEF
  5
114
330
FA
100
AcDbEntity
  8
AM_6
100
AcDbText
 10
6.77165
 20
-11.55
 30
0.0
 40
0.5
  1
2.67
100
AcDbAttributeDefinition
  3

  2
AL
 70
     8
280
     0
  0
ATTDEF
  5
115
330
FA
100
AcDbEntity
  8
AM_6
100
AcDbText
 10
6.77165
 20
-12.05
 30
0.0
 40
0.5
  1
0.38
100
AcDbAttributeDefinition
  3

  2
BL
 70
     8
280
     0
  0
ATTDEF
  5
116
330
FA
100
AcDbEntity
  8
AM_6
100
AcDbText
 10
6.77165
 20
-12.55
 30
0.0
 40
0.5
  1
0.07
100
AcDbAttributeDefinition
  3

  2
CL
 70
     8
280
     0
  0
ATTDEF
  5
117
330
FA
100
AcDbEntity
  8
AM_6
100
AcDbText
 10
6.77165
 20
-13.05
 30
0.0
 40
0.5
  1
0.44
100
AcDbAttributeDefinition
  3

  2
DL
 70
     8
280
     0
  0
ATTDEF
  5
118
330
FA
100
AcDbEntity
  8
AM_6
100
AcDbText
 10
6.77165
 20
-13.55
 30
0.0
 40
0.5
  1
0.8000
100
AcDbAttributeDefinition
  3

  2
LL
 70
     8
280
     0
  0
ATTDEF
  5
119
330
FA
100
AcDbEntity
  8
AM_6
100
AcDbText
 10
6.77165
 20
-14.05
 30
0.0
 40
0.5
  1
0.020
100
AcDbAttributeDefinition
  3

  2
Y
 70
     8
280
     0
  0
ATTDEF
  5
11A
330
FA
100
AcDbEntity
  8
AM_6
100
AcDbText
 10
6.77165
 20
-14.55
 30
0.0
 40
0.5
  1
0.020000
100
AcDbAttributeDefinition
  3

  2
Y1
 70
     8
280
     0
  0
ATTDEF
  5
11B
330
FA
100
AcDbEntity
  8
AM_6
100
AcDbText
 10
6.77165
 20
-15.05
 30
0.0
 40
0.5
  1
2-19/64
100
AcDbAttributeDefinition
  3

  2
Z
 70
     8
280
     0
  0
ATTDEF
  5
11C
330
FA
100
AcDbEntity
  8
AM_6
100
AcDbText
 10
6.77165
 20
-15.55
 30
0.0
 40
0.5
  1
2.296875
100
AcDbAttributeDefinition
  3

  2
Z1
 70
     8
280
     0
  0
ATTDEF
  5
11D
330
FA
100
AcDbEntity
  8
AM_6
100
AcDbText
 10
6.77165
 20
-16.05
 30
0.0
 40
0.5
  1
0.79000
100
AcDbAttributeDefinition
  3

  2
P1
 70
     8
280
     0
  0
ATTDEF
  5
11E
330
FA
100
AcDbEntity
  8
AM_6
100
AcDbText
 10
6.77165
 20
-16.55
 30
0.0
 40
0.5
  1
1.18000
100
AcDbAttributeDefinition
  3

  2
H1
 70
     8
280
     0
  0
ATTDEF
  5
11F
330
FA
100
AcDbEntity
  8
AM_6
100
AcDbText
 10
6.77165
 20
-17.05
 30
0.0
 40
0.5
  1
0.65000
100
AcDbAttributeDefinition
  3

  2
G1
 70
     8
280
     0
  0
ATTDEF
  5
120
330
FA
100
AcDbEntity
  8
AM_6
100
AcDbText
 10
6.77165
 20
-17.55
 30
0.0
 40
0.5
  1
0.10100
100
AcDbAttributeDefinition
  3

  2
CW
 70
     8
280
     0
  0
ATTDEF
  5
121
330
FA
100
AcDbEntity
  8
AM_6
100
AcDbText
 10
6.77165
 20
-18.05
 30
0.0
 40
0.5
  1
3.28000
100
AcDbAttributeDefinition
  3

  2
L1
 70
     8
280
     0
  0
ATTDEF
  5
122
330
FA
100
AcDbEntity
  8
AM_6
100
AcDbText
 10
6.77165
 20
-18.55
 30
0.0
 40
0.5
  1
baldor
100
AcDbAttributeDefinition
  3

  2
COMPANY
 70
     8
280
     0
  0
LINE
  5
123
330
FA
100
AcDbEntity
  8
AM_9
100
AcDbLine
 10
-0.4773419571798344
 20
-1.0704375
 30
0.0
 11
-0.4773419571798344
 21
-3.197166666666666
 31
0.0
  0
LINE
  5
124
330
FA
100
AcDbEntity
  8
AM_9
100
AcDbLine
 10
-0.2811691490932736
 20
-1.0704375
 30
0.0
 11
-0.2811691490932737
 21
-3.43
 31
0.0
  0
LINE
  5
125
330
FA
100
AcDbEntity
  8
AM_9
100
AcDbLine
 10
-0.4567062602704181
 20
-3.267166666666666
 30
0.0
 11
-0.4567062602704181
 21
-1.0704375
 31
0.0
  0
LINE
  5
126
330
FA
100
AcDbEntity
  8
AM_9
100
AcDbLine
 10
-0.9687499999999999
 20
-1.070437499999999
 30
0.0
 11
-0.9687499999999999
 21
-3.43
 31
0.0
  0
LINE
  5
127
330
FA
100
AcDbEntity
  8
AM_9
100
AcDbLine
 10
0.9687499999999999
 20
-3.43
 30
0.0
 11
0.9687499999999999
 21
-1.070437499999999
 31
0.0
  0
LINE
  5
128
330
FA
100
AcDbEntity
  8
AM_9
100
AcDbLine
 10
-0.30180484600269
 20
-1.0704375
 30
0.0
 11
-0.30180484600269
 21
-3.197166666666666
 31
0.0
  0
LINE
  5
129
330
FA
100
AcDbEntity
  8
AM_9
100
AcDbLine
 10
-1.019736842105263
 20
-0.5699999999999996
 30
0.0
 11
-1.019736842105263
 21
-1.070437499999999
 31
0.0
  0
LINE
  5
12A
330
FA
100
AcDbEntity
  8
AM_9
100
AcDbLine
 10
1.019736842105263
 20
-1.070437499999999
 30
0.0
 11
1.019736842105263
 21
-0.5699999999999996
 31
0.0
  0
LINE
  5
12B
330
FA
100
AcDbEntity
  8
AM_9
100
AcDbLine
 10
-0.3007707129705938
 20
-3.267166666666666
 30
0.0
 11
-0.3007707129705937
 21
-3.197166666666666
 31
0.0
  0
LINE
  5
12C
330
FA
100
AcDbEntity
  8
AM_9
100
AcDbLine
 10
-0.4763078241477382
 20
-3.197166666666666
 30
0.0
 11
-0.4763078241477382
 21
-3.267166666666666
 31
0.0
  0
LINE
  5
12D
330
FA
100
AcDbEntity
  8
AM_9
100
AcDbLine
 10
-1.019736842105263
 20
-3.197166666666666
 30
0.0
 11
-1.019736842105263
 21
-3.267166666666666
 31
0.0
  0
LINE
  5
12E
330
FA
100
AcDbEntity
  8
AM_9
100
AcDbLine
 10
1.019736842105263
 20
-3.267166666666666
 30
0.0
 11
1.019736842105263
 21
-3.197166666666666
 31
0.0
  0
LINE
  5
12F
330
FA
100
AcDbEntity
  8
AM_9
100
AcDbLine
 10
0.8096372644585971
 20
-2.757166666666667
 30
0.0
 11
0.8096372644585971
 21
-3.197166666666666
 31
0.0
  0
LINE
  5
130
330
FA
100
AcDbEntity
  8
AM_9
100
AcDbLine
 10
1.078337841309485
 20
-2.757166666666667
 30
0.0
 11
1.078337841309485
 21
-3.0
 31
0.0
  0
LINE
  5
131
330
FA
100
AcDbEntity
  8
AM_9
100
AcDbLine
 10
-0.8096372644585971
 20
-2.757166666666667
 30
0.0
 11
-0.8096372644585971
 21
-3.197166666666666
 31
0.0
  0
LINE
  5
132
330
FA
100
AcDbEntity
  8
AM_9
100
AcDbLine
 10
-1.078337841309485
 20
-2.757166666666667
 30
0.0
 11
-1.078337841309485
 21
-3.0
 31
0.0
  0
LINE
  5
133
330
FA
100
AcDbEntity
  8
AM_9
100
AcDbLine
 10
1.1484375
 20
-0.5699999999999996
 30
0.0
 11
-1.1484375
 21
-0.5699999999999996
 31
0.0
  0
LINE
  5
134
330
FA
100
AcDbEntity
  8
AM_9
100
AcDbLine
 10
-1.1484375
 20
-0.5499999999999998
 30
0.0
 11
-1.1484375
 21
-0.5699999999999996
 31
0.0
  0
LINE
  5
135
330
FA
100
AcDbEntity
  8
AM_9
100
AcDbLine
 10
1.1484375
 20
-0.5699999999999996
 30
0.0
 11
1.1484375
 21
-0.5499999999999998
 31
0.0
  0
LINE
  5
136
330
FA
100
AcDbEntity
  8
AM_9
100
AcDbLine
 10
0.8096372644585971
 20
-2.757166666666667
 30
0.0
 11
1.292108926166053
 21
-2.757166666666667
 31
0.0
  0
LINE
  5
137
330
FA
100
AcDbEntity
  8
AM_9
100
AcDbLine
 10
-1.292108926166053
 20
-2.757166666666667
 30
0.0
 11
-0.8096372644585971
 21
-2.757166666666667
 31
0.0
  0
LINE
  5
138
330
FA
100
AcDbEntity
  8
AM_9
100
AcDbLine
 10
0.0
 20
-2.357166666666666
 30
0.0
 11
-0.0724499999999996
 21
-2.398995693669455
 31
0.0
  0
LINE
  5
139
330
FA
100
AcDbEntity
  8
AM_9
100
AcDbLine
 10
0.0724499999999996
 20
-2.398995693669455
 30
0.0
 11
0.0
 21
-2.357166666666666
 31
0.0
  0
LINE
  5
13A
330
FA
100
AcDbEntity
  8
AM_9
100
AcDbLine
 10
0.0724499999999997
 20
-2.398995693669455
 30
0.0
 11
-0.0724499999999997
 21
-2.398995693669455
 31
0.0
  0
LINE
  5
13B
330
FA
100
AcDbEntity
  8
AM_9
100
AcDbLine
 10
-0.0724499999999997
 20
-2.398995693669455
 30
0.0
 11
-0.0724499999999997
 21
-3.174616666666666
 31
0.0
  0
LINE
  5
13C
330
FA
100
AcDbEntity
  8
AM_9
100
AcDbLine
 10
0.0724499999999997
 20
-3.174616666666666
 30
0.0
 11
0.0724499999999997
 21
-2.398995693669455
 31
0.0
  0
LINE
  5
13D
330
FA
100
AcDbEntity
  8
AM_9
100
AcDbLine
 10
0.0724499999999997
 20
-3.174616666666666
 30
0.0
 11
-0.0724499999999997
 21
-3.174616666666666
 31
0.0
  0
LINE
  5
13E
330
FA
100
AcDbEntity
  8
AM_9
100
AcDbLine
 10
-0.0724499999999997
 20
-3.174616666666666
 30
0.0
 11
-0.0949999999999999
 21
-3.197166666666666
 31
0.0
  0
LINE
  5
13F
330
FA
100
AcDbEntity
  8
AM_9
100
AcDbLine
 10
0.0949999999999999
 20
-3.197166666666666
 30
0.0
 11
0.0724499999999997
 21
-3.174616666666666
 31
0.0
  0
ARC
  5
140
330
FA
100
AcDbEntity
  8
AM_9
100
AcDbCircle
 10
-1.403857578016765
 20
-0.9798124999999982
 30
0.0
 40
0.0999999999999985
100
AcDbArc
 50
90.0
 51
150.0000000000004
  0
ARC
  5
141
330
FA
100
AcDbEntity
  8
AM_9
100
AcDbCircle
 10
1.403857578016765
 20
-0.9798124999999982
 30
0.0
 40
0.0999999999999986
100
AcDbArc
 50
29.99999999999963
 51
90.0
  0
LINE
  5
142
330
FA
100
AcDbEntity
  8
AM_9
100
AcDbLine
 10
1.53125
 20
-0.8798124999999997
 30
0.0
 11
-1.53125
 21
-0.8798124999999997
 31
0.0
  0
LINE
  5
143
330
FA
100
AcDbEntity
  8
AM_9
100
AcDbLine
 10
-1.49090909090909
 20
-0.5499999999999998
 30
0.0
 11
-1.53125
 21
-0.5499999999999998
 31
0.0
  0
LINE
  5
144
330
FA
100
AcDbEntity
  8
AM_9
100
AcDbLine
 10
1.53125
 20
-0.5499999999999998
 30
0.0
 11
1.490909090909091
 21
-0.5499999999999998
 31
0.0
  0
LINE
  5
145
330
FA
100
AcDbEntity
  8
AM_9
100
AcDbLine
 10
-1.53125
 20
-0.5499999999999998
 30
0.0
 11
-1.53125
 21
-0.8798124999999997
 31
0.0
  0
LINE
  5
146
330
FA
100
AcDbEntity
  8
AM_9
100
AcDbLine
 10
1.53125
 20
-0.8798124999999997
 30
0.0
 11
1.53125
 21
-0.5499999999999998
 31
0.0
  0
LINE
  5
147
330
FA
100
AcDbEntity
  8
AM_9
100
AcDbLine
 10
1.490460118395209
 20
-0.9298124999999995
 30
0.0
 11
-1.490460118395209
 21
-0.9298124999999995
 31
0.0
  0
LINE
  5
148
330
FA
100
AcDbEntity
  8
AM_9
100
AcDbLine
 10
-1.490460118395209
 20
-0.9298124999999995
 30
0.0
 11
-1.57165
 21
-1.070437499999999
 31
0.0
  0
LINE
  5
149
330
FA
100
AcDbEntity
  8
AM_9
100
AcDbLine
 10
1.57165
 20
-1.070437499999999
 30
0.0
 11
1.490460118395209
 21
-0.9298124999999995
 31
0.0
  0
LINE
  5
14A
330
FA
100
AcDbEntity
  8
AM_9
100
AcDbLine
 10
-1.289091567604643
 20
-3.000000001061595
 30
0.0
 11
-1.292108926166053
 21
-2.757166666666667
 31
0.0
  0
LINE
  5
14B
330
FA
100
AcDbEntity
  8
AM_9
100
AcDbLine
 10
-1.023408349315164
 20
-2.757166666666666
 30
0.0
 11
-1.020390990753756
 21
-3.000000001061595
 31
0.0
  0
LINE
  5
14C
330
FA
100
AcDbEntity
  8
AM_9
100
AcDbLine
 10
1.020390990753756
 20
-3.000000001061595
 30
0.0
 11
1.023408349315165
 21
-2.757166666666666
 31
0.0
  0
LINE
  5
14D
330
FA
100
AcDbEntity
  8
AM_9
100
AcDbLine
 10
1.292108926166053
 20
-2.757166666666667
 30
0.0
 11
1.289091567604644
 21
-3.000000001061595
 31
0.0
  0
LINE
  5
14E
330
FA
100
AcDbEntity
  8
AM_9
100
AcDbLine
 10
1.644066556968348
 20
-3.0
 30
0.0
 11
1.660252815327159
 21
-2.072689879678136
 31
0.0
  0
LINE
  5
14F
330
FA
100
AcDbEntity
  8
AM_9
100
AcDbLine
 10
-1.660252815327159
 20
-2.072689879678136
 30
0.0
 11
-1.644066556968348
 21
-3.0
 31
0.0
  0
LINE
  5
150
330
FA
100
AcDbEntity
  8
AM_9
100
AcDbLine
 10
1.660252815327159
 20
-2.072689879678136
 30
0.0
 11
-1.660252815327159
 21
-2.072689879678136
 31
0.0
  0
ARC
  5
151
330
FA
100
AcDbEntity
  8
AM_9
100
AcDbCircle
 10
-1.710245200084978
 20
-2.073562499999999
 30
0.0
 40
0.0499999999999994
100
AcDbArc
 50
0.9999999999988067
 51
90.0
  0
ARC
  5
152
330
FA
100
AcDbEntity
  8
AM_9
100
AcDbCircle
 10
1.710245200084978
 20
-2.073562499999999
 30
0.0
 40
0.0499999999999994
100
AcDbArc
 50
90.0
 51
179.0000000000012
  0
LINE
  5
153
330
FA
100
AcDbEntity
  8
AM_9
100
AcDbLine
 10
-1.72399375
 20
-1.539485651233931
 30
0.0
 11
-1.72399375
 21
-1.594514348766068
 31
0.0
  0
LINE
  5
154
330
FA
100
AcDbEntity
  8
AM_9
100
AcDbLine
 10
1.72399375
 20
-1.594514348766068
 30
0.0
 11
1.72399375
 21
-1.539485651233931
 31
0.0
  0
LINE
  5
155
330
FA
100
AcDbEntity
  8
AM_9
100
AcDbLine
 10
1.76165
 20
-2.0235625
 30
0.0
 11
-1.761649999986334
 21
-2.0235625
 31
0.0
  0
ARC
  5
156
330
FA
100
AcDbEntity
  8
AM_9
100
AcDbCircle
 10
-1.76165
 20
-2.0135625
 30
0.0
 40
0.01
100
AcDbArc
 50
180.0
 51
270.0
  0
ARC
  5
157
330
FA
100
AcDbEntity
  8
AM_9
100
AcDbCircle
 10
1.76165
 20
-2.0135625
 30
0.0
 40
0.0099999999999998
100
AcDbArc
 50
270.0
 51
0.0
  0
LINE
  5
158
330
FA
100
AcDbEntity
  8
AM_9
100
AcDbLine
 10
1.72399375
 20
-1.539485651233931
 30
0.0
 11
-1.72399375
 21
-1.539485651233931
 31
0.0
  0
LINE
  5
159
330
FA
100
AcDbEntity
  8
AM_9
100
AcDbLine
 10
1.72399375
 20
-1.539485651233931
 30
0.0
 11
1.77165
 21
-1.511971302467864
 31
0.0
  0
LINE
  5
15A
330
FA
100
AcDbEntity
  8
AM_9
100
AcDbLine
 10
-1.77165
 20
-1.511971302467864
 30
0.0
 11
-1.72399375
 21
-1.539485651233931
 31
0.0
  0
LINE
  5
15B
330
FA
100
AcDbEntity
  8
AM_9
100
AcDbLine
 10
1.72165
 20
-1.0704375
 30
0.0
 11
-1.721649999992265
 21
-1.0704375
 31
0.0
  0
ARC
  5
15C
330
FA
100
AcDbEntity
  8
AM_9
100
AcDbCircle
 10
-1.72165
 20
-1.1204375
 30
0.0
 40
0.05
100
AcDbArc
 50
90.0
 51
180.0
  0
ARC
  5
15D
330
FA
100
AcDbEntity
  8
AM_9
100
AcDbCircle
 10
1.72165
 20
-1.1204375
 30
0.0
 40
0.05
100
AcDbArc
 50
0.0
 51
90.0
  0
LINE
  5
15E
330
FA
100
AcDbEntity
  8
AM_9
100
AcDbLine
 10
1.72399375
 20
-1.594514348766068
 30
0.0
 11
-1.72399375
 21
-1.594514348766068
 31
0.0
  0
LINE
  5
15F
330
FA
100
AcDbEntity
  8
AM_9
100
AcDbLine
 10
-1.72399375
 20
-1.594514348766068
 30
0.0
 11
-1.77165
 21
-1.622028697532136
 31
0.0
  0
LINE
  5
160
330
FA
100
AcDbEntity
  8
AM_9
100
AcDbLine
 10
1.77165
 20
-1.622028697532136
 30
0.0
 11
1.72399375
 21
-1.594514348766068
 31
0.0
  0
LINE
  5
161
330
FA
100
AcDbEntity
  8
AM_9
100
AcDbLine
 10
1.77165
 20
-1.1204375
 30
0.0
 11
-1.77165
 21
-1.1204375
 31
0.0
  0
LINE
  5
162
330
FA
100
AcDbEntity
  8
AM_9
100
AcDbLine
 10
1.77165
 20
-1.511971302467864
 30
0.0
 11
-1.77165
 21
-1.511971302467864
 31
0.0
  0
LINE
  5
163
330
FA
100
AcDbEntity
  8
AM_9
100
AcDbLine
 10
-1.77165
 20
-1.1204375
 30
0.0
 11
-1.77165
 21
-1.511971302467864
 31
0.0
  0
LINE
  5
164
330
FA
100
AcDbEntity
  8
AM_9
100
AcDbLine
 10
1.77165
 20
-1.511971302467864
 30
0.0
 11
1.77165
 21
-1.1204375
 31
0.0
  0
LINE
  5
165
330
FA
100
AcDbEntity
  8
AM_9
100
AcDbLine
 10
1.77165
 20
-1.622028697532136
 30
0.0
 11
-1.77165
 21
-1.622028697532136
 31
0.0
  0
LINE
  5
166
330
FA
100
AcDbEntity
  8
AM_9
100
AcDbLine
 10
1.77165
 20
-2.0135625
 30
0.0
 11
-1.77165
 21
-2.0135625
 31
0.0
  0
LINE
  5
167
330
FA
100
AcDbEntity
  8
AM_9
100
AcDbLine
 10
-1.77165
 20
-1.622028697532136
 30
0.0
 11
-1.77165
 21
-2.0135625
 31
0.0
  0
LINE
  5
168
330
FA
100
AcDbEntity
  8
AM_9
100
AcDbLine
 10
1.77165
 20
-2.0135625
 30
0.0
 11
1.77165
 21
-1.622028697532136
 31
0.0
  0
LINE
  5
169
330
FA
100
AcDbEntity
  8
AM_5
100
AcDbLine
 10
0.095
 20
-2.497166666666666
 30
0.0
 11
0.0794273103968568
 21
-2.470193977063522
 31
0.0
  0
LINE
  5
16A
330
FA
100
AcDbEntity
  8
AM_5
100
AcDbLine
 10
0.0949999999999999
 20
-3.197166666666666
 30
0.0
 11
0.0949999999999999
 21
-2.497166666666654
 31
0.0
  0
LINE
  5
16B
330
FA
100
AcDbEntity
  8
AM_5
100
AcDbLine
 10
-0.0950000000000002
 20
-3.197166666666666
 30
0.0
 11
-0.0950000000000002
 21
-2.497166666666654
 31
0.0
  0
LINE
  5
16C
330
FA
100
AcDbEntity
  8
AM_5
100
AcDbLine
 10
-0.095
 20
-2.497166666666654
 30
0.0
 11
-0.0794273103968729
 21
-2.470193977063539
 31
0.0
  0
LINE
  5
16D
330
FA
100
AcDbEntity
  8
AM_4
100
AcDbLine
 10
-0.4567062602704181
 20
-3.43
 30
0.0
 11
-0.4567062602704181
 21
-3.267166666666666
 31
0.0
  0
LINE
  5
16E
330
FA
100
AcDbEntity
  8
AM_4
100
AcDbLine
 10
-0.3007707129705938
 20
-3.43
 30
0.0
 11
-0.3007707129705938
 21
-3.267166666666666
 31
0.0
  0
LINE
  5
16F
330
FA
100
AcDbEntity
  8
AM_4
100
AcDbLine
 10
-0.4763078241477382
 20
-3.267166666666666
 30
0.0
 11
-0.4763078241477383
 21
-3.43
 31
0.0
  0
LINE
  5
170
330
FA
100
AcDbEntity
  8
AM_4
100
AcDbLine
 10
-1.019736842105263
 20
-3.267166666666666
 30
0.0
 11
-1.019736842105263
 21
-3.43
 31
0.0
  0
LINE
  5
171
330
FA
100
AcDbEntity
  8
AM_4
100
AcDbLine
 10
1.019736842105263
 20
-3.43
 30
0.0
 11
1.019736842105263
 21
-3.267166666666666
 31
0.0
  0
LINE
  5
172
330
FA
100
AcDbEntity
  8
AM_4
100
AcDbLine
 10
1.019736842105263
 20
-3.43
 30
0.0
 11
-1.019736842105263
 21
-3.43
 31
0.0
  0
LINE
  5
173
330
FA
100
AcDbEntity
  8
AM_4
100
AcDbLine
 10
1.078337841309485
 20
-3.0
 30
0.0
 11
1.078337841309485
 21
-3.197166666666666
 31
0.0
  0
LINE
  5
174
330
FA
100
AcDbEntity
  8
AM_4
100
AcDbLine
 10
-1.078337841309485
 20
-3.0
 30
0.0
 11
-1.078337841309485
 21
-3.197166666666666
 31
0.0
  0
LINE
  5
175
330
FA
100
AcDbEntity
  8
AM_4
100
AcDbLine
 10
1.490909090909091
 20
-0.5499999999999998
 30
0.0
 11
-1.49090909090909
 21
-0.5499999999999998
 31
0.0
  0
LINE
  5
176
330
FA
100
AcDbEntity
  8
AM_4
100
AcDbLine
 10
-1.286641569010567
 20
-3.197166666666666
 30
0.0
 11
-1.640625000000001
 21
-3.197166666666666
 31
0.0
  0
LINE
  5
177
330
FA
100
AcDbEntity
  8
AM_4
100
AcDbLine
 10
-1.286641569010567
 20
-3.197166666666666
 30
0.0
 11
-1.289091567604643
 21
-3.000000001061595
 31
0.0
  0
LINE
  5
178
330
FA
100
AcDbEntity
  8
AM_4
100
AcDbLine
 10
-1.020390990753756
 20
-3.000000001061595
 30
0.0
 11
-1.017940992159678
 21
-3.197166666666666
 31
0.0
  0
LINE
  5
179
330
FA
100
AcDbEntity
  8
AM_4
100
AcDbLine
 10
1.017940992159679
 20
-3.197166666666666
 30
0.0
 11
-1.017940992159678
 21
-3.197166666666666
 31
0.0
  0
LINE
  5
17A
330
FA
100
AcDbEntity
  8
AM_4
100
AcDbLine
 10
1.017940992159679
 20
-3.197166666666666
 30
0.0
 11
1.020390990753756
 21
-3.000000001061595
 31
0.0
  0
LINE
  5
17B
330
FA
100
AcDbEntity
  8
AM_4
100
AcDbLine
 10
1.289091567604644
 20
-3.000000001061595
 30
0.0
 11
1.286641569010567
 21
-3.197166666666666
 31
0.0
  0
LINE
  5
17C
330
FA
100
AcDbEntity
  8
AM_4
100
AcDbLine
 10
1.640625000000001
 20
-3.197166666666666
 30
0.0
 11
1.644066556968348
 21
-3.0
 31
0.0
  0
LINE
  5
17D
330
FA
100
AcDbEntity
  8
AM_4
100
AcDbLine
 10
-1.644066556968348
 20
-3.0
 30
0.0
 11
-1.640625000000001
 21
-3.197166666666666
 31
0.0
  0
LINE
  5
17E
330
FA
100
AcDbEntity
  8
AM_4
100
AcDbLine
 10
1.640625000000001
 20
-3.197166666666666
 30
0.0
 11
1.286641569010567
 21
-3.197166666666666
 31
0.0
  0
ENDBLK
  5
FD
330
FA
100
AcDbEntity
  8
0
100
AcDbBlockEnd
  0
BLOCK
  5
181
330
17F
100
AcDbEntity
  8
0
100
AcDbBlockBegin
  2
6_405015E_Inch_0_in_071371_4
 70
     2
 10
0.0
 20
0.0
 30
0.0
  3
6_405015E_Inch_0_in_071371_4
  1

  0
ATTDEF
  5
183
330
17F
100
AcDbEntity
  8
AM_6
100
AcDbText
 10
5.21875
 20
-1.832409257229539
 30
0.0
 40
0.5
  1
405015E -Inch
100
AcDbAttributeDefinition
  3

  2
NN
 70
     8
280
     0
  0
ATTDEF
  5
184
330
17F
100
AcDbEntity
  8
AM_6
100
AcDbText
 10
5.21875
 20
-2.332409257229539
 30
0.0
 40
0.5
  1
Grease Fitting
100
AcDbAttributeDefinition
  3

  2
NT
 70
     8
280
     0
  0
ATTDEF
  5
185
330
17F
100
AcDbEntity
  8
AM_6
100
AcDbText
 10
5.21875
 20
-2.832409257229539
 30
0.0
 40
0.5
  1
405015E-Inch
100
AcDbAttributeDefinition
  3

  2
NB
 70
     8
280
     0
  0
ATTDEF
  5
186
330
17F
100
AcDbEntity
  8
AM_6
100
AcDbText
 10
5.21875
 20
-3.332409257229539
 30
0.0
 40
0.5
  1
$MN.-Inch
100
AcDbAttributeDefinition
  3

  2
NBSYN
 70
     8
280
     0
  0
ATTDEF
  5
187
330
17F
100
AcDbEntity
  8
AM_6
100
AcDbText
 10
5.21875
 20
-3.832409257229539
 30
0.0
 40
0.5
  1
405015E
100
AcDbAttributeDefinition
  3

  2
LINA
 70
     8
280
     0
  0
ATTDEF
  5
188
330
17F
100
AcDbEntity
  8
AM_6
100
AcDbText
 10
5.21875
 20
-4.332409257229539
 30
0.0
 40
0.5
  1
405015E
100
AcDbAttributeDefinition
  3

  2
MN
 70
     8
280
     0
  0
ATTDEF
  5
189
330
17F
100
AcDbEntity
  8
AM_6
100
AcDbText
 10
5.21875
 20
-4.832409257229539
 30
0.0
 40
0.5
  1
1/8 x 27PTF
100
AcDbAttributeDefinition
  3

  2
T
 70
     8
280
     0
  0
ATTDEF
  5
18A
330
17F
100
AcDbEntity
  8
AM_6
100
AcDbText
 10
5.21875
 20
-5.332409257229539
 30
0.0
 40
0.5
  1
baldor
100
AcDbAttributeDefinition
  3

  2
COMPANY
 70
     8
280
     0
  0
CIRCLE
  5
18B
330
17F
100
AcDbEntity
  8
AM_9
100
AcDbCircle
 10
0.0
 20
-2.085
 30
0.0
 40
0.161902872472269
  0
CIRCLE
  5
18C
330
17F
100
AcDbEntity
  8
AM_9
100
AcDbCircle
 10
0.0
 20
-2.085
 30
0.0
 40
0.1986176267812154
  0
CIRCLE
  5
18D
330
17F
100
AcDbEntity
  8
AM_9
100
AcDbCircle
 10
0.0
 20
-2.085
 30
0.0
 40
0.2057518972230696
  0
CIRCLE
  5
18E
330
17F
100
AcDbEntity
  8
AM_9
100
AcDbCircle
 10
0.0
 20
-2.085
 30
0.0
 40
0.1188200907348975
  0
CIRCLE
  5
18F
330
17F
100
AcDbEntity
  8
AM_9
100
AcDbCircle
 10
0.0
 20
-2.085
 30
0.0
 40
0.105
  0
LINE
  5
190
330
17F
100
AcDbEntity
  8
AM_4
100
AcDbLine
 10
0.0
 20
-2.337590742770461
 30
0.0
 11
0.21875
 21
-2.211295371385231
 31
0.0
  0
LINE
  5
191
330
17F
100
AcDbEntity
  8
AM_4
100
AcDbLine
 10
0.21875
 20
-2.211295371385231
 30
0.0
 11
0.21875
 21
-1.95870462861477
 31
0.0
  0
LINE
  5
192
330
17F
100
AcDbEntity
  8
AM_4
100
AcDbLine
 10
0.21875
 20
-1.95870462861477
 30
0.0
 11
0.0
 21
-1.832409257229539
 31
0.0
  0
LINE
  5
193
330
17F
100
AcDbEntity
  8
AM_4
100
AcDbLine
 10
-0.21875
 20
-2.21129537138523
 30
0.0
 11
0.0
 21
-2.337590742770461
 31
0.0
  0
LINE
  5
194
330
17F
100
AcDbEntity
  8
AM_4
100
AcDbLine
 10
0.0
 20
-1.832409257229539
 30
0.0
 11
-0.21875
 21
-1.958704628614769
 31
0.0
  0
LINE
  5
195
330
17F
100
AcDbEntity
  8
AM_4
100
AcDbLine
 10
-0.21875
 20
-1.958704628614769
 30
0.0
 11
-0.21875
 21
-2.21129537138523
 31
0.0
  0
CIRCLE
  5
196
330
17F
100
AcDbEntity
  8
AM_4
100
AcDbCircle
 10
0.0
 20
-2.085
 30
0.0
 40
0.21375
  0
CIRCLE
  5
197
330
17F
100
AcDbEntity
  8
AM_4
100
AcDbCircle
 10
0.0
 20
-2.085
 30
0.0
 40
0.1725340532830154
  0
CIRCLE
  5
198
330
17F
100
AcDbEntity
  8
AM_4
100
AcDbCircle
 10
0.0
 20
-2.085
 30
0.0
 40
0.135
  0
CIRCLE
  5
199
330
17F
100
AcDbEntity
  8
AM_4
100
AcDbCircle
 10
0.0
 20
-2.085
 30
0.0
 40
0.1026779019331875
  0
ARC
  5
19A
330
17F
100
AcDbEntity
  8
AM_5
100
AcDbCircle
 10
-0.0000000000000001
 20
-2.085
 30
0.0
 40
0.2025000050000001
100
AcDbArc
 50
74.99999999999996
 51
15.00000000000004
  0
CIRCLE
  5
19B
330
17F
100
AcDbEntity
  8
AM_4
100
AcDbCircle
 10
-0.0000000000000004
 20
-2.085
 30
0.0
 40
0.2187499999999996
  0
ENDBLK
  5
182
330
17F
100
AcDbEntity
  8
0
100
AcDbBlockEnd
  0
BLOCK
  5
19E
330
19C
100
AcDbEntity
  8
0
100
AcDbBlockBegin
  2
7_071320LH_0_in_071371_4
 70
     2
 10
0.0
 20
0.0
 30
0.0
  3
7_071320LH_0_in_071371_4
  1

  0
ATTDEF
  5
1A0
330
19C
100
AcDbEntity
  8
AM_6
100
AcDbText
 10
7.815
 20
0.1677000000292345
 30
0.0
 40
0.5
  1
EF4S-IP -(Labyrinth Seal)-Housing -Inch
100
AcDbAttributeDefinition
  3

  2
NN
 70
     8
280
     0
  0
ATTDEF
  5
1A1
330
19C
100
AcDbEntity
  8
AM_6
100
AcDbText
 10
7.815
 20
-0.3322999999707655
 30
0.0
 40
0.5
  1
Imperial 4 Bolt Square Flange Bearings
100
AcDbAttributeDefinition
  3

  2
NT
 70
     8
280
     0
  0
ATTDEF
  5
1A2
330
19C
100
AcDbEntity
  8
AM_6
100
AcDbText
 10
7.815
 20
-0.8322999999707655
 30
0.0
 40
0.5
  1
071320LH
100
AcDbAttributeDefinition
  3

  2
NB
 70
     8
280
     0
  0
ATTDEF
  5
1A3
330
19C
100
AcDbEntity
  8
AM_6
100
AcDbText
 10
7.815
 20
-1.332299999970766
 30
0.0
 40
0.5
  1
$PN.H
100
AcDbAttributeDefinition
  3

  2
NBSYN
 70
     8
280
     0
  0
ATTDEF
  5
1A4
330
19C
100
AcDbEntity
  8
AM_6
100
AcDbText
 10
7.815
 20
-1.832299999970766
 30
0.0
 40
0.5
  1
071320L
100
AcDbAttributeDefinition
  3

  2
LINA
 70
     8
280
     0
  0
ATTDEF
  5
1A5
330
19C
100
AcDbEntity
  8
AM_6
100
AcDbText
 10
7.815
 20
-2.332299999970766
 30
0.0
 40
0.5
  1
1-15/16
100
AcDbAttributeDefinition
  3

  2
SS
 70
     8
280
     0
  0
ATTDEF
  5
1A6
330
19C
100
AcDbEntity
  8
AM_6
100
AcDbText
 10
7.815
 20
-2.832299999970766
 30
0.0
 40
0.5
  1
1.9375
100
AcDbAttributeDefinition
  3

  2
SS1
 70
     8
280
     0
  0
ATTDEF
  5
1A7
330
19C
100
AcDbEntity
  8
AM_6
100
AcDbText
 10
7.815
 20
-3.332299999970766
 30
0.0
 40
0.5
  1
3.5433
100
AcDbAttributeDefinition
  3

  2
BORE
 70
     8
280
     0
  0
ATTDEF
  5
1A8
330
19C
100
AcDbEntity
  8
AM_6
100
AcDbText
 10
7.815
 20
-3.832299999970766
 30
0.0
 40
0.5
  1
Expansion
100
AcDbAttributeDefinition
  3

  2
TYPE
 70
     8
280
     0
  0
ATTDEF
  5
1A9
330
19C
100
AcDbEntity
  8
AM_6
100
AcDbText
 10
7.815
 20
-4.332299999970766
 30
0.0
 40
0.5
  1
EF4B-IP-115L
100
AcDbAttributeDefinition
  3

  2
DESCRIPTION
 70
     8
280
     0
  0
ATTDEF
  5
1AA
330
19C
100
AcDbEntity
  8
AM_6
100
AcDbText
 10
7.815
 20
-4.832299999970766
 30
0.0
 40
0.5
  1
Non-Expansion Type
100
AcDbAttributeDefinition
  3

  2
EF
 70
     8
280
     0
  0
ATTDEF
  5
1AB
330
19C
100
AcDbEntity
  8
AM_6
100
AcDbText
 10
7.815
 20
-5.332299999970766
 30
0.0
 40
0.5
  1
1
100
AcDbAttributeDefinition
  3

  2
EF1
 70
     8
280
     0
  0
ATTDEF
  5
1AC
330
19C
100
AcDbEntity
  8
AM_6
100
AcDbText
 10
7.815
 20
-5.832299999970766
 30
0.0
 40
0.5
  1
Labyrinth Seal
100
AcDbAttributeDefinition
  3

  2
ST
 70
     8
280
     0
  0
ATTDEF
  5
1AD
330
19C
100
AcDbEntity
  8
AM_6
100
AcDbText
 10
7.815
 20
-6.332299999970766
 30
0.0
 40
0.5
  1
2
100
AcDbAttributeDefinition
  3

  2
ST1
 70
     8
280
     0
  0
ATTDEF
  5
1AE
330
19C
100
AcDbEntity
  8
AM_6
100
AcDbText
 10
7.815
 20
-6.832299999970766
 30
0.0
 40
0.5
  1
2.86
100
AcDbAttributeDefinition
  3

  2
A
 70
     8
280
     0
  0
ATTDEF
  5
1AF
330
19C
100
AcDbEntity
  8
AM_6
100
AcDbText
 10
7.815
 20
-7.332299999970766
 30
0.0
 40
0.5
  1
2.860000
100
AcDbAttributeDefinition
  3

  2
A1
 70
     8
280
     0
  0
ATTDEF
  5
1B0
330
19C
100
AcDbEntity
  8
AM_6
100
AcDbText
 10
7.815
 20
-7.832299999970766
 30
0.0
 40
0.5
  1
5.63
100
AcDbAttributeDefinition
  3

  2
B
 70
     8
280
     0
  0
ATTDEF
  5
1B1
330
19C
100
AcDbEntity
  8
AM_6
100
AcDbText
 10
7.815
 20
-8.332299999970765
 30
0.0
 40
0.5
  1
5.630000
100
AcDbAttributeDefinition
  3

  2
B1
 70
     8
280
     0
  0
ATTDEF
  5
1B2
330
19C
100
AcDbEntity
  8
AM_6
100
AcDbText
 10
7.815
 20
-8.832299999970765
 30
0.0
 40
0.5
  1
3.64
100
AcDbAttributeDefinition
  3

  2
C
 70
     8
280
     0
  0
ATTDEF
  5
1B3
330
19C
100
AcDbEntity
  8
AM_6
100
AcDbText
 10
7.815
 20
-9.332299999970765
 30
0.0
 40
0.5
  1
3.640000
100
AcDbAttributeDefinition
  3

  2
C1
 70
     8
280
     0
  0
ATTDEF
  5
1B4
330
19C
100
AcDbEntity
  8
AM_6
100
AcDbText
 10
7.815
 20
-9.832299999970765
 30
0.0
 40
0.5
  1
4.38
100
AcDbAttributeDefinition
  3

  2
D
 70
     8
280
     0
  0
ATTDEF
  5
1B5
330
19C
100
AcDbEntity
  8
AM_6
100
AcDbText
 10
7.815
 20
-10.33229999997076
 30
0.0
 40
0.5
  1
4.380000
100
AcDbAttributeDefinition
  3

  2
D1
 70
     8
280
     0
  0
ATTDEF
  5
1B6
330
19C
100
AcDbEntity
  8
AM_6
100
AcDbText
 10
7.815
 20
-10.83229999997076
 30
0.0
 40
0.5
  1
1/2
100
AcDbAttributeDefinition
  3

  2
F
 70
     8
280
     0
  0
ATTDEF
  5
1B7
330
19C
100
AcDbEntity
  8
AM_6
100
AcDbText
 10
7.815
 20
-11.33229999997076
 30
0.0
 40
0.5
  1
0.500
100
AcDbAttributeDefinition
  3

  2
F1
 70
     8
280
     0
  0
ATTDEF
  5
1B8
330
19C
100
AcDbEntity
  8
AM_6
100
AcDbText
 10
7.815
 20
-11.83229999997076
 30
0.0
 40
0.5
  1
0.65
100
AcDbAttributeDefinition
  3

  2
G
 70
     8
280
     0
  0
ATTDEF
  5
1B9
330
19C
100
AcDbEntity
  8
AM_6
100
AcDbText
 10
7.815
 20
-12.33229999997076
 30
0.0
 40
0.5
  1
0.650000
100
AcDbAttributeDefinition
  3

  2
G1
 70
     8
280
     0
  0
ATTDEF
  5
1BA
330
19C
100
AcDbEntity
  8
AM_6
100
AcDbText
 10
7.815
 20
-12.83229999997076
 30
0.0
 40
0.5
  1
1.18
100
AcDbAttributeDefinition
  3

  2
H
 70
     8
280
     0
  0
ATTDEF
  5
1BB
330
19C
100
AcDbEntity
  8
AM_6
100
AcDbText
 10
7.815
 20
-13.33229999997076
 30
0.0
 40
0.5
  1
1.180000
100
AcDbAttributeDefinition
  3

  2
H1
 70
     8
280
     0
  0
ATTDEF
  5
1BC
330
19C
100
AcDbEntity
  8
AM_6
100
AcDbText
 10
7.815
 20
-13.83229999997076
 30
0.0
 40
0.5
  1
4.36
100
AcDbAttributeDefinition
  3

  2
J
 70
     8
280
     0
  0
ATTDEF
  5
1BD
330
19C
100
AcDbEntity
  8
AM_6
100
AcDbText
 10
7.815
 20
-14.33229999997076
 30
0.0
 40
0.5
  1
4.360000
100
AcDbAttributeDefinition
  3

  2
J1
 70
     8
280
     0
  0
ATTDEF
  5
1BE
330
19C
100
AcDbEntity
  8
AM_6
100
AcDbText
 10
7.815
 20
-14.83229999997076
 30
0.0
 40
0.5
  1
4.360000
100
AcDbAttributeDefinition
  3

  2
K
 70
     8
280
     0
  0
ATTDEF
  5
1BF
330
19C
100
AcDbEntity
  8
AM_6
100
AcDbText
 10
7.815
 20
-15.33229999997076
 30
0.0
 40
0.5
  1
6.000
100
AcDbAttributeDefinition
  3

  2
K1
 70
     8
280
     0
  0
ATTDEF
  5
1C0
330
19C
100
AcDbEntity
  8
AM_6
100
AcDbText
 10
7.815
 20
-15.83229999997076
 30
0.0
 40
0.5
  1
3.28
100
AcDbAttributeDefinition
  3

  2
L
 70
     8
280
     0
  0
ATTDEF
  5
1C1
330
19C
100
AcDbEntity
  8
AM_6
100
AcDbText
 10
7.815
 20
-16.33229999997076
 30
0.0
 40
0.5
  1
3.28000
100
AcDbAttributeDefinition
  3

  2
L1
 70
     8
280
     0
  0
ATTDEF
  5
1C2
330
19C
100
AcDbEntity
  8
AM_6
100
AcDbText
 10
7.815
 20
-16.83229999997076
 30
0.0
 40
0.5
  1
2.6
100
AcDbAttributeDefinition
  3

  2
N
 70
     8
280
     0
  0
ATTDEF
  5
1C3
330
19C
100
AcDbEntity
  8
AM_6
100
AcDbText
 10
7.815
 20
-17.33229999997076
 30
0.0
 40
0.5
  1
2.600000
100
AcDbAttributeDefinition
  3

  2
N1
 70
     8
280
     0
  0
ATTDEF
  5
1C4
330
19C
100
AcDbEntity
  8
AM_6
100
AcDbText
 10
7.815
 20
-17.83229999997076
 30
0.0
 40
0.5
  1
0.79
100
AcDbAttributeDefinition
  3

  2
P
 70
     8
280
     0
  0
ATTDEF
  5
1C5
330
19C
100
AcDbEntity
  8
AM_6
100
AcDbText
 10
7.815
 20
-18.33229999997076
 30
0.0
 40
0.5
  1
0.790000
100
AcDbAttributeDefinition
  3

  2
P1
 70
     8
280
     0
  0
ATTDEF
  5
1C6
330
19C
100
AcDbEntity
  8
AM_6
100
AcDbText
 10
7.815
 20
-18.83229999997076
 30
0.0
 40
0.5
  1
0.22
100
AcDbAttributeDefinition
  3

  2
X
 70
     8
280
     0
  0
ATTDEF
  5
1C7
330
19C
100
AcDbEntity
  8
AM_6
100
AcDbText
 10
7.815
 20
-19.33229999997076
 30
0.0
 40
0.5
  1
0.2200
100
AcDbAttributeDefinition
  3

  2
X1
 70
     8
280
     0
  0
ATTDEF
  5
1C8
330
19C
100
AcDbEntity
  8
AM_6
100
AcDbText
 10
7.815
 20
-19.83229999997076
 30
0.0
 40
0.5
  1
0.020
100
AcDbAttributeDefinition
  3

  2
Y
 70
     8
280
     0
  0
ATTDEF
  5
1C9
330
19C
100
AcDbEntity
  8
AM_6
100
AcDbText
 10
7.815
 20
-20.33229999997076
 30
0.0
 40
0.5
  1
2.3
100
AcDbAttributeDefinition
  3

  2
Z
 70
     8
280
     0
  0
ATTDEF
  5
1CA
330
19C
100
AcDbEntity
  8
AM_6
100
AcDbText
 10
7.815
 20
-20.83229999997076
 30
0.0
 40
0.5
  1
2.300000
100
AcDbAttributeDefinition
  3

  2
Z1
 70
     8
280
     0
  0
ATTDEF
  5
1CB
330
19C
100
AcDbEntity
  8
AM_6
100
AcDbText
 10
7.815
 20
-21.33229999997076
 30
0.0
 40
0.5
  1
071295L
100
AcDbAttributeDefinition
  3

  2
PN1
 70
     8
280
     0
  0
ATTDEF
  5
1CC
330
19C
100
AcDbEntity
  8
AM_6
100
AcDbText
 10
7.815
 20
-21.83229999997076
 30
0.0
 40
0.5
  1
071320L
100
AcDbAttributeDefinition
  3

  2
PN2
 70
     8
280
     0
  0
ATTDEF
  5
1CD
330
19C
100
AcDbEntity
  8
AM_6
100
AcDbText
 10
7.815
 20
-22.33229999997076
 30
0.0
 40
0.5
  1
baldor
100
AcDbAttributeDefinition
  3

  2
COMPANY
 70
     8
280
     0
  0
LINE
  5
1CE
330
19C
100
AcDbEntity
  8
AM_9
100
AcDbLine
 10
2.815
 20
-0.6742857142857142
 30
0.0
 11
1.490909090909091
 21
-0.6742857142857142
 31
0.0
  0
LINE
  5
1CF
330
19C
100
AcDbEntity
  8
AM_9
100
AcDbLine
 10
-1.490909090909091
 20
-0.6742857142857142
 30
0.0
 11
-2.815
 21
-0.6742857142857142
 31
0.0
  0
LINE
  5
1D0
330
19C
100
AcDbEntity
  8
AM_9
100
AcDbLine
 10
-1.77165
 20
-0.6742857142857142
 30
0.0
 11
-1.77165
 21
-3.0
 31
0.0
  0
LINE
  5
1D1
330
19C
100
AcDbEntity
  8
AM_9
100
AcDbLine
 10
1.77165
 20
-3.0
 30
0.0
 11
1.77165
 21
-0.6742857142857142
 31
0.0
  0
LINE
  5
1D2
330
19C
100
AcDbEntity
  8
AM_9
100
AcDbLine
 10
2.756799180998709
 20
-1.062
 30
0.0
 11
2.756799180998709
 21
-1.18
 31
0.0
  0
LINE
  5
1D3
330
19C
100
AcDbEntity
  8
AM_9
100
AcDbLine
 10
-2.756799180998709
 20
-1.062
 30
0.0
 11
-2.756799180998709
 21
-1.18
 31
0.0
  0
LINE
  5
1D4
330
19C
100
AcDbEntity
  8
AM_9
100
AcDbLine
 10
2.167812593654953
 20
-1.062
 30
0.0
 11
2.815
 21
-1.062
 31
0.0
  0
LINE
  5
1D5
330
19C
100
AcDbEntity
  8
AM_9
100
AcDbLine
 10
-2.815
 20
-1.062
 30
0.0
 11
-2.167812593654953
 21
-1.062
 31
0.0
  0
LINE
  5
1D6
330
19C
100
AcDbEntity
  8
AM_9
100
AcDbLine
 10
2.005999363124102
 20
-1.062
 30
0.0
 11
2.005999363124102
 21
-1.18
 31
0.0
  0
LINE
  5
1D7
330
19C
100
AcDbEntity
  8
AM_9
100
AcDbLine
 10
-2.005999363124102
 20
-1.18
 30
0.0
 11
-2.005999363124102
 21
-1.062
 31
0.0
  0
LINE
  5
1D8
330
19C
100
AcDbEntity
  8
AM_9
100
AcDbLine
 10
-2.18
 20
-1.062
 30
0.0
 11
-2.18
 21
-1.18
 31
0.0
  0
LINE
  5
1D9
330
19C
100
AcDbEntity
  8
AM_9
100
AcDbLine
 10
2.18
 20
-1.18
 30
0.0
 11
2.18
 21
-1.062
 31
0.0
  0
LINE
  5
1DA
330
19C
100
AcDbEntity
  8
AM_9
100
AcDbLine
 10
-1.94
 20
-1.18
 30
0.0
 11
-1.94
 21
0.0000000000000001
 31
0.0
  0
LINE
  5
1DB
330
19C
100
AcDbEntity
  8
AM_9
100
AcDbLine
 10
-2.44
 20
0.0000000000000001
 30
0.0
 11
-2.44
 21
-1.18
 31
0.0
  0
LINE
  5
1DC
330
19C
100
AcDbEntity
  8
AM_9
100
AcDbLine
 10
2.44
 20
-1.18
 30
0.0
 11
2.44
 21
0.0000000000000001
 31
0.0
  0
LINE
  5
1DD
330
19C
100
AcDbEntity
  8
AM_9
100
AcDbLine
 10
1.94
 20
0.0000000000000001
 30
0.0
 11
1.94
 21
-1.18
 31
0.0
  0
LINE
  5
1E0
330
19C
100
AcDbEntity
  8
AM_7
100
AcDbLine
 10
-0.4200000000000001
 20
-2.085
 30
0.0
 11
0.4200000000000001
 21
-2.085
 31
0.0
  0
LINE
  5
1E1
330
19C
100
AcDbEntity
  8
AM_7
100
AcDbLine
 10
0.0
 20
0.1677000000292345
 30
0.0
 11
0.0
 21
-3.574
 31
0.0
  0
LINE
  5
1E2
330
19C
100
AcDbEntity
  8
AM_7
100
AcDbLine
 10
-2.19
 20
0.0707999999999998
 30
0.0
 11
-2.19
 21
-1.4868
 31
0.0
  0
LINE
  5
1E3
330
19C
100
AcDbEntity
  8
AM_7
100
AcDbLine
 10
2.19
 20
0.0707999999999998
 30
0.0
 11
2.19
 21
-1.4868
 31
0.0
  0
LWPOLYLINE
  5
1E4
330
19C
100
AcDbEntity
  8
AM_4
100
AcDbPolyline
 90
        6
 70
     0
 43
0.0
 10
0.4865953144040784
 20
-1.970000000000017
 10
0.4942887728320838
 20
-2.009643453820171
 10
0.4987793240045951
 20
-2.050083156707411
 10
0.499955728764084
 20
-2.091653516060981
 10
0.4976439878789303
 20
-2.133481556575207
 10
0.4865953144040783
 20
-2.199999999999983
  0
LWPOLYLINE
  5
1E5
330
19C
100
AcDbEntity
  8
AM_4
100
AcDbPolyline
 90
        6
 70
     0
 43
0.0
 10
-0.4865953144040784
 20
-2.199999999999983
 10
-0.4942887728320838
 20
-2.160356546179829
 10
-0.4987793240045951
 20
-2.119916843292589
 10
-0.499955728764084
 20
-2.078346483939019
 10
-0.4976439878789303
 20
-2.036518443424792
 10
-0.4865953144040783
 20
-1.970000000000017
  0
LINE
  5
1E6
330
19C
100
AcDbEntity
  8
AM_4
100
AcDbLine
 10
-2.18
 20
-1.18
 30
0.0
 11
-2.18
 21
-2.934999999999999
 31
0.0
  0
LINE
  5
1E7
330
19C
100
AcDbEntity
  8
AM_4
100
AcDbLine
 10
2.18
 20
-2.934999999999999
 30
0.0
 11
2.18
 21
-1.18
 31
0.0
  0
LINE
  5
1E8
330
19C
100
AcDbEntity
  8
AM_4
100
AcDbLine
 10
2.180000000000001
 20
-2.934999999999999
 30
0.0
 11
-2.180000000000001
 21
-2.934999999999999
 31
0.0
  0
LINE
  5
1E9
330
19C
100
AcDbEntity
  8
AM_4
100
AcDbLine
 10
2.115
 20
-3.0
 30
0.0
 11
-2.114999999997309
 21
-3.0
 31
0.0
  0
ARC
  5
1EA
330
19C
100
AcDbEntity
  8
AM_4
100
AcDbCircle
 10
-2.115000000000001
 20
-2.935
 30
0.0
 40
0.0649999999999995
100
AcDbArc
 50
180.0
 51
270.0
  0
ARC
  5
1EB
330
19C
100
AcDbEntity
  8
AM_4
100
AcDbCircle
 10
2.115000000000001
 20
-2.935
 30
0.0
 40
0.0649999999999995
100
AcDbArc
 50
270.0
 51
0.0
  0
ARC
  5
1EC
330
19C
100
AcDbEntity
  8
AM_4
100
AcDbCircle
 10
0.0000000000000034
 20
-2.085
 30
0.0
 40
0.5000000000000032
100
AcDbArc
 50
166.7029282527931
 51
193.297071747207
  0
LWPOLYLINE
  5
1ED
330
19C
100
AcDbEntity
  8
AM_4
100
AcDbPolyline
 90
        3
 70
     0
 43
0.0
 10
-0.4865953144040953
 20
-2.200000000000019
 10
-0.4828889184463401
 20
-2.214671583722193
 10
-0.4824119874978602
 20
-2.216431075280714
  0
ARC
  5
1EE
330
19C
100
AcDbEntity
  8
AM_4
100
AcDbCircle
 10
0.0000000000000048
 20
-2.085
 30
0.0
 40
0.4999999999999951
100
AcDbArc
 50
346.7029282527929
 51
13.2970717472072
  0
LWPOLYLINE
  5
1EF
330
19C
100
AcDbEntity
  8
AM_4
100
AcDbPolyline
 90
       32
 70
     0
 43
0.0
 10
0.4865953144040783
 20
-1.970000000000017
 10
0.4702164300144298
 20
-1.915210061785296
 10
0.4471342802925249
 20
-1.862073810848756
 10
0.4277044648560562
 20
-1.827573239956713
 10
0.4052662302089091
 20
-1.794645049910335
 10
0.3794805541964125
 20
-1.763109409610853
 10
0.3507835700839307
 20
-1.733769042723538
 10
0.3216219161674918
 20
-1.708688321138672
 10
0.2902578609446672
 20
-1.685944185621059
 10
0.2564041025686262
 20
-1.665435531135589
 10
0.2207057556874303
 20
-1.647633998622395
 10
0.184039441513177
 20
-1.632871363419506
 10
0.1460656898130675
 20
-1.620898755876435
 10
0.1065323850636975
 20
-1.611665782883564
 10
0.0661475460073844
 20
-1.605370919073439
 10
0.0232615184906164
 20
-1.601961708905457
 10
-0.0200388068664005
 20
-1.60183832315802
 10
-0.0640577788593731
 20
-1.60512778966207
 10
-0.1079437540952482
 20
-1.611941829590015
 10
-0.1516514563023891
 20
-1.622462102443995
 10
-0.1945721736183221
 20
-1.63677362954079
 10
-0.2370140144477108
 20
-1.655317443009795
 10
-0.2778272273484225
 20
-1.677965135698808
 10
-0.3121423399154842
 20
-1.701391675003717
 10
-0.3444699021376493
 20
-1.727973697298175
 10
-0.3749726879173191
 20
-1.758142484574435
 10
-0.402767391000656
 20
-1.791328526193768
 10
-0.424889477995991
 20
-1.823092362316638
 10
-0.4444379909553337
 20
-1.856856315469003
 10
-0.4614725685001928
 20
-1.892941819055409
 10
-0.4755434208735519
 20
-1.930639422139979
 10
-0.4847683908244337
 20
-1.962530674590402
  0
LINE
  5
1F0
330
19C
100
AcDbEntity
  8
AM_4
100
AcDbLine
 10
-0.4847683908244337
 20
-1.962530674590402
 30
0.0
 11
-0.4865953144040783
 21
-1.970000000000017
 31
0.0
  0
LWPOLYLINE
  5
1F1
330
19C
100
AcDbEntity
  8
AM_4
100
AcDbPolyline
 90
       31
 70
     0
 43
0.0
 10
-0.4824119874978602
 20
-2.216431075280714
 10
-0.4707651703685983
 20
-2.253275565159536
 10
-0.4553495955181472
 20
-2.290955113738682
 10
-0.4363236715927451
 20
-2.32795553499257
 10
-0.413925179294299
 20
-2.363358365875474
 10
-0.3902688597059555
 20
-2.394383161102237
 10
-0.3638872346843394
 20
-2.423480301378477
 10
-0.3344543761506426
 20
-2.450791908585634
 10
-0.3025131954366095
 20
-2.475635957607484
 10
-0.2702083675789861
 20
-2.496661981399221
 10
-0.2360610154294221
 20
-2.515151740504618
 10
-0.1998064586922561
 20
-2.53118802917668
 10
-0.1621234780599127
 20
-2.544426729632502
 10
-0.122779389278336
 20
-2.554920187612624
 10
-0.082471581233618
 20
-2.562453116185309
 10
-0.0409365221331876
 20
-2.567033205190793
 10
0.0010883777690893
 20
-2.568515419413498
 10
0.0454182888180105
 20
-2.566689665532791
 10
0.089740946224704
 20
-2.56132449775623
 10
0.1343834327222721
 20
-2.552159471510279
 10
0.178362859031291
 20
-2.539123736051372
 10
0.2193392140576677
 20
-2.522977233364236
 10
0.2589883125565742
 20
-2.503130838135809
 10
0.2975659099829959
 20
-2.479103561059704
 10
0.3339470279183316
 20
-2.451222589496987
 10
0.3633307348525061
 20
-2.424042777840187
 10
0.390439140227316
 20
-2.394178307175433
 10
0.4153869677490668
 20
-2.361250895459419
 10
0.4374843665142666
 20
-2.325912556239397
 10
0.4662099442789766
 20
-2.265399654654689
 10
0.4865953144040801
 20
-2.199999999999981
  0
CIRCLE
  5
1F2
330
19C
100
AcDbEntity
  8
AM_4
100
AcDbCircle
 10
0.0
 20
-2.085
 30
0.0
 40
0.4000000000000001
  0
LINE
  5
1F3
330
19C
100
AcDbEntity
  8
AM_4
100
AcDbLine
 10
-0.8534439379043581
 20
-1.18
 30
0.0
 11
-2.815
 21
-1.18
 31
0.0
  0
LINE
  5
1F4
330
19C
100
AcDbEntity
  8
AM_4
100
AcDbLine
 10
-0.8534439379043581
 20
-1.062
 30
0.0
 11
-0.8534439379043581
 21
-1.18
 31
0.0
  0
LINE
  5
1F5
330
19C
100
AcDbEntity
  8
AM_4
100
AcDbLine
 10
2.815
 20
-1.18
 30
0.0
 11
0.8534439379043588
 21
-1.18
 31
0.0
  0
LINE
  5
1F6
330
19C
100
AcDbEntity
  8
AM_4
100
AcDbLine
 10
0.8534439379043588
 20
-1.18
 30
0.0
 11
0.8534439379043586
 21
-1.062
 31
0.0
  0
LINE
  5
1F7
330
19C
100
AcDbEntity
  8
AM_4
100
AcDbLine
 10
2.815
 20
0.0000000000000001
 30
0.0
 11
1.490909090909091
 21
0.0000000000000002
 31
0.0
  0
LINE
  5
1F8
330
19C
100
AcDbEntity
  8
AM_4
100
AcDbLine
 10
2.815
 20
-1.18
 30
0.0
 11
2.815
 21
0.0000000000000001
 31
0.0
  0
LINE
  5
1F9
330
19C
100
AcDbEntity
  8
AM_4
100
AcDbLine
 10
-1.490909090909091
 20
0.0000000000000002
 30
0.0
 11
-2.815
 21
0.0000000000000001
 31
0.0
  0
LINE
  5
1FA
330
19C
100
AcDbEntity
  8
AM_4
100
AcDbLine
 10
-2.815
 20
-1.18
 30
0.0
 11
-2.815
 21
0.0000000000000001
 31
0.0
  0
LINE
  5
1FB
330
19C
100
AcDbEntity
  8
AM_4
100
AcDbLine
 10
-1.490909090909091
 20
0.0000000000000002
 30
0.0
 11
-1.490909090909091
 21
-0.6742857142857142
 31
0.0
  0
LINE
  5
1FC
330
19C
100
AcDbEntity
  8
AM_4
100
AcDbLine
 10
1.490909090909091
 20
-0.6742857142857142
 30
0.0
 11
1.490909090909091
 21
0.0000000000000002
 31
0.0
  0
LINE
  5
1FD
330
19C
100
AcDbEntity
  8
AM_4
100
AcDbLine
 10
-2.19
 20
-1.18
 30
0.0
 11
-2.19
 21
0.0000000000000002
 31
0.0
  0
LINE
  5
1FE
330
19C
100
AcDbEntity
  8
AM_4
100
AcDbLine
 10
2.167812593654953
 20
-1.062
 30
0.0
 11
-2.167812593654953
 21
-1.062
 31
0.0
  0
LINE
  5
1FF
330
19C
100
AcDbEntity
  8
AM_4
100
AcDbLine
 10
2.19
 20
-1.18
 30
0.0
 11
2.19
 21
0.0000000000000002
 31
0.0
  0
LINE
  5
200
330
19C
100
AcDbEntity
  8
AM_4
100
AcDbLine
 10
-1.490909090909091
 20
-0.6742857142857142
 30
0.0
 11
1.490909090909091
 21
-0.6742857142857142
 31
0.0
  0
LINE
  5
201
330
19C
100
AcDbEntity
  8
AM_4
100
AcDbLine
 10
2.167812593654949
 20
-1.18
 30
0.0
 11
2.167812593654953
 21
-1.062
 31
0.0
  0
LINE
  5
202
330
19C
100
AcDbEntity
  8
AM_4
100
AcDbLine
 10
1.925697201264322
 20
-1.062
 30
0.0
 11
1.925697201264322
 21
-1.18
 31
0.0
  0
LINE
  5
203
330
19C
100
AcDbEntity
  8
AM_4
100
AcDbLine
 10
-2.167812593654953
 20
-1.062
 30
0.0
 11
-2.167812593654949
 21
-1.18
 31
0.0
  0
LINE
  5
204
330
19C
100
AcDbEntity
  8
AM_4
100
AcDbLine
 10
-1.925697201264321
 20
-1.062
 30
0.0
 11
-1.925697201264321
 21
-1.18
 31
0.0
  0
ENDBLK
  5
19F
330
19C
100
AcDbEntity
  8
0
100
AcDbBlockEnd
  0
ENDSEC
  0
SECTION
  2
ENTITIES
  0
INSERT
  5
6F
330
1F
100
AcDbEntity
  8
0
100
AcDbBlockReference
  2
1_071371_4
 10
0.0
 20
0.0
 30
0.0
  0
POINT
  5
206
330
1F
100
AcDbEntity
  8
ConnectionPoints
100
AcDbPoint
 10
0.0
 20
-3.267166666666666
 30
1.358506944444445
  0
POINT
  5
207
330
1F
100
AcDbEntity
  8
ConnectionPoints
100
AcDbPoint
 10
0.0
 20
-3.197166666666666
 30
0.0000000000000002
  0
POINT
  5
208
330
1F
100
AcDbEntity
  8
ConnectionPoints
100
AcDbPoint
 10
0.0
 20
-3.43
 30
0.0000000000000002
  0
POINT
  5
209
330
1F
100
AcDbEntity
  8
ConnectionPoints
100
AcDbPoint
 10
0.0
 20
-3.396166666666666
 30
0.0000000000000002
  0
POINT
  5
20A
330
1F
100
AcDbEntity
  8
ConnectionPoints
100
AcDbPoint
 10
0.0
 20
-3.197166666666666
 30
1.358506944444444
  0
POINT
  5
20B
330
1F
100
AcDbEntity
  8
ConnectionPoints
100
AcDbPoint
 10
0.0
 20
-3.197166666666666
 30
-1.358506944444444
  0
POINT
  5
20C
330
1F
100
AcDbEntity
  8
ConnectionPoints
100
AcDbPoint
 10
0.0
 20
-3.197166666666666
 30
0.0000000000000002
  0
POINT
  5
20D
330
1F
100
AcDbEntity
  8
ConnectionPoints
100
AcDbPoint
 10
0.0
 20
-2.085
 30
2.225
  0
POINT
  5
20E
330
1F
100
AcDbEntity
  8
ConnectionPoints
100
AcDbPoint
 10
0.0
 20
-2.085
 30
2.225
  0
POINT
  5
20F
330
1F
100
AcDbEntity
  8
ConnectionPoints
100
AcDbPoint
 10
0.0
 20
-3.43
 30
0.0000000000000002
  0
POINT
  5
210
330
1F
100
AcDbEntity
  8
ConnectionPoints
100
AcDbPoint
 10
0.0
 20
-3.65
 30
0.0000000000000002
  0
ENDSEC
  0
SECTION
  2
OBJECTS
  0
DICTIONARY
  5
C
330
0
100
AcDbDictionary
281
     1
  3
ACAD_DETAILVIEWSTYLE
350
218
  3
ACAD_GROUP
350
D
  3
ACAD_LAYOUT
350
1A
  3
ACAD_MATERIAL
350
43
  3
ACAD_MLEADERSTYLE
350
6B
  3
ACAD_MLINESTYLE
350
17
  3
ACAD_PLOTSETTINGS
350
19
  3
ACAD_PLOTSTYLENAME
350
E
  3
ACAD_SCALELIST
350
47
  3
ACAD_SECTIONVIEWSTYLE
350
219
  3
ACAD_TABLESTYLE
350
69
  3
ACAD_VISUALSTYLE
350
2A
  3
ACDB_RECOMPOSE_DATA
350
215
  3
AcDbVariableDictionary
350
211
  0
SUN
  5
6D
330
29
100
AcDbSun
 90
        1
290
     0
 63
     7
421
 16777215
 40
1.0
291
     1
 91
  2455826
 92
 54000000
292
     0
 70
     2
 71
   256
280
     1
  0
DICTIONARY
  5
218
102
{ACAD_REACTORS
330
C
102
}
330
C
100
AcDbDictionary
281
     1
  0
DICTIONARY
  5
D
102
{ACAD_REACTORS
330
C
102
}
330
C
100
AcDbDictionary
281
     1
  0
DICTIONARY
  5
1A
102
{ACAD_REACTORS
330
C
102
}
330
C
100
AcDbDictionary
281
     1
  3
Layout1
350
1E
  3
Layout2
350
26
  3
Model
350
22
  0
DICTIONARY
  5
43
102
{ACAD_REACTORS
330
C
102
}
330
C
100
AcDbDictionary
281
     1
  3
ByBlock
350
45
  3
ByLayer
350
44
  3
Global
350
46
  0
DICTIONARY
  5
6B
102
{ACAD_REACTORS
330
C
102
}
330
C
100
AcDbDictionary
281
     1
  3
Standard
350
6C
  0
DICTIONARY
  5
17
102
{ACAD_REACTORS
330
C
102
}
330
C
100
AcDbDictionary
281
     1
  3
Standard
350
18
  0
DICTIONARY
  5
19
102
{ACAD_REACTORS
330
C
102
}
330
C
100
AcDbDictionary
281
     1
  0
ACDBDICTIONARYWDFLT
  5
E
102
{ACAD_REACTORS
330
C
102
}
330
C
100
AcDbDictionary
281
     1
  3
Normal
350
F
100
AcDbDictionaryWithDefault
340
F
  0
DICTIONARY
  5
47
102
{ACAD_REACTORS
330
C
102
}
330
C
100
AcDbDictionary
281
     1
  3
A0
350
48
  3
A1
350
49
  3
A2
350
4A
  3
A3
350
4B
  3
A4
350
4C
  3
A5
350
4D
  3
A6
350
4E
  3
A7
350
4F
  3
A8
350
50
  3
A9
350
51
  3
B0
350
52
  3
B1
350
53
  3
B2
350
54
  3
B3
350
55
  3
B4
350
56
  3
B5
350
57
  3
B6
350
58
  3
B7
350
59
  3
B8
350
5A
  3
B9
350
5B
  3
C0
350
5C
  3
C1
350
5D
  3
C2
350
5E
  3
C3
350
5F
  3
C4
350
60
  3
C5
350
61
  3
C6
350
62
  3
C7
350
63
  3
C8
350
64
  3
C9
350
65
  3
D0
350
66
  3
D1
350
67
  3
D2
350
68
  0
DICTIONARY
  5
219
102
{ACAD_REACTORS
330
C
102
}
330
C
100
AcDbDictionary
281
     1
  0
DICTIONARY
  5
69
102
{ACAD_REACTORS
330
C
102
}
330
C
100
AcDbDictionary
281
     1
  3
Standard
350
6A
  0
DICTIONARY
  5
2A
102
{ACAD_REACTORS
330
C
102
}
330
C
100
AcDbDictionary
281
     1
  3
2dWireframe
350
2F
  3
Basic
350
32
  3
Brighten
350
36
  3
ColorChange
350
3A
  3
Conceptual
350
34
  3
Dim
350
35
  3
EdgeColorOff
350
3D
  3
Facepattern
350
39
  3
Flat
350
2B
  3
FlatWithEdges
350
2C
  3
Gouraud
350
2D
  3
GouraudWithEdges
350
2E
  3
Hidden
350
31
  3
JitterOff
350
3B
  3
Linepattern
350
38
  3
OverhangOff
350
3C
  3
Realistic
350
33
  3
Shaded
350
42
  3
Shaded with edges
350
41
  3
Shades of Gray
350
3E
  3
Sketchy
350
3F
  3
Thicken
350
37
  3
Wireframe
350
30
  3
X-Ray
350
40
  0
XRECORD
  5
215
102
{ACAD_REACTORS
330
C
102
}
330
C
100
AcDbXrecord
280
     1
 90
        1
330
6A
  0
DICTIONARY
  5
211
102
{ACAD_REACTORS
330
C
102
}
330
C
100
AcDbDictionary
281
     1
  3
CANNOSCALE
350
212
  3
CMLEADERSTYLE
350
217
  3
CTABLESTYLE
350
216
  0
LAYOUT
  5
1E
102
{ACAD_REACTORS
330
1A
102
}
330
1A
100
AcDbPlotSettings
  1

  2
none_device
  4

  6

 40
0.0
 41
0.0
 42
0.0
 43
0.0
 44
0.0
 45
0.0
 46
0.0
 47
0.0
 48
0.0
 49
0.0
140
0.0
141
0.0
142
1.0
143
1.0
 70
   688
 72
     0
 73
     0
 74
     5
  7

 75
    16
 76
     0
 77
     2
 78
   300
147
1.0
148
0.0
149
0.0
100
AcDbLayout
  1
Layout1
 70
     1
 71
     1
 10
0.0
 20
0.0
 11
12.0
 21
9.0
 12
0.0
 22
0.0
 32
0.0
 14
1.000000000000000E+20
 24
1.000000000000000E+20
 34
1.000000000000000E+20
 15
-1.000000000000000E+20
 25
-1.000000000000000E+20
 35
-1.000000000000000E+20
146
0.0
 13
0.0
 23
0.0
 33
0.0
 16
1.0
 26
0.0
 36
0.0
 17
0.0
 27
1.0
 37
0.0
 76
     0
330
1B
  0
LAYOUT
  5
26
102
{ACAD_REACTORS
330
1A
102
}
330
1A
100
AcDbPlotSettings
  1

  2
none_device
  4

  6

 40
0.0
 41
0.0
 42
0.0
 43
0.0
 44
0.0
 45
0.0
 46
0.0
 47
0.0
 48
0.0
 49
0.0
140
0.0
141
0.0
142
1.0
143
1.0
 70
   688
 72
     0
 73
     0
 74
     5
  7

 75
    16
 76
     0
 77
     2
 78
   300
147
1.0
148
0.0
149
0.0
100
AcDbLayout
  1
Layout2
 70
     1
 71
     2
 10
0.0
 20
0.0
 11
0.0
 21
0.0
 12
0.0
 22
0.0
 32
0.0
 14
0.0
 24
0.0
 34
0.0
 15
0.0
 25
0.0
 35
0.0
146
0.0
 13
0.0
 23
0.0
 33
0.0
 16
1.0
 26
0.0
 36
0.0
 17
0.0
 27
1.0
 37
0.0
 76
     0
330
23
  0
LAYOUT
  5
22
102
{ACAD_REACTORS
330
1A
102
}
330
1A
100
AcDbPlotSettings
  1

  2
none_device
  4
Letter_(8.50_x_11.00_Inches)
  6

 40
6.35
 41
6.35
 42
6.35000508
 43
6.35000508
 44
215.9
 45
279.4
 46
0.0
 47
0.0
 48
0.0
 49
0.0
140
0.0
141
0.0
142
1.0
143
1.0
 70
  1712
 72
     0
 73
     0
 74
     0
  7

 75
     0
 76
     0
 77
     2
 78
   300
147
1.0
148
0.0
149
0.0
100
AcDbLayout
  1
Model
 70
     1
 71
     0
 10
0.0
 20
0.0
 11
12.0
 21
9.0
 12
0.0
 22
0.0
 32
0.0
 14
1.000000000000000E+20
 24
1.000000000000000E+20
 34
1.000000000000000E+20
 15
-1.000000000000000E+20
 25
-1.000000000000000E+20
 35
-1.000000000000000E+20
146
0.0
 13
0.0
 23
0.0
 33
0.0
 16
1.0
 26
0.0
 36
0.0
 17
0.0
 27
1.0
 37
0.0
 76
     0
330
1F
331
29
  0
MATERIAL
  5
45
102
{ACAD_REACTORS
330
43
102
}
330
43
100
AcDbMaterial
  1
ByBlock
 72
     1
 94
      127
  0
MATERIAL
  5
44
102
{ACAD_REACTORS
330
43
102
}
330
43
100
AcDbMaterial
  1
ByLayer
 72
     1
 94
      127
  0
MATERIAL
  5
46
102
{ACAD_REACTORS
330
43
102
}
330
43
100
AcDbMaterial
  1
Global
 72
     1
 94
      127
  0
MLEADERSTYLE
  5
6C
102
{ACAD_REACTORS
330
6B
102
}
330
6B
100
AcDbMLeaderStyle
179
     2
170
     2
171
     1
172
     0
 90
        2
 40
0.0
 41
0.0
173
     1
 91
-1056964608
340
14
 92
       -2
290
     1
 42
0.09
291
     1
 43
0.36
  3
Standard
341
0
 44
0.18
300

342
11
174
     1
178
     6
175
     1
176
     0
 93
-1056964608
 45
0.18
292
     0
297
     0
 46
0.18
343
0
 94
-1056964608
 47
1.0
 49
1.0
140
1.0
293
     1
141
0.0
294
     1
177
     0
142
1.0
295
     0
296
     0
143
0.125
271
     0
272
     9
273
     9
298
     0
  0
MLINESTYLE
  5
18
102
{ACAD_REACTORS
330
17
102
}
330
17
100
AcDbMlineStyle
  2
Standard
 70
     0
  3

 62
   256
 51
90.0
 52
90.0
 71
     2
 49
0.5
 62
   256
  6
BYLAYER
 49
-0.5
 62
   256
  6
BYLAYER
  0
ACDBPLACEHOLDER
  5
F
102
{ACAD_REACTORS
330
E
102
}
330
E
  0
SCALE
  5
48
102
{ACAD_REACTORS
330
47
102
}
330
47
100
AcDbScale
 70
     0
300
1:1
140
1.0
141
1.0
290
     1
  0
SCALE
  5
49
102
{ACAD_REACTORS
330
47
102
}
330
47
100
AcDbScale
 70
     0
300
1:2
140
1.0
141
2.0
290
     0
  0
SCALE
  5
4A
102
{ACAD_REACTORS
330
47
102
}
330
47
100
AcDbScale
 70
     0
300
1:4
140
1.0
141
4.0
290
     0
  0
SCALE
  5
4B
102
{ACAD_REACTORS
330
47
102
}
330
47
100
AcDbScale
 70
     0
300
1:5
140
1.0
141
5.0
290
     0
  0
SCALE
  5
4C
102
{ACAD_REACTORS
330
47
102
}
330
47
100
AcDbScale
 70
     0
300
1:8
140
1.0
141
8.0
290
     0
  0
SCALE
  5
4D
102
{ACAD_REACTORS
330
47
102
}
330
47
100
AcDbScale
 70
     0
300
1:10
140
1.0
141
10.0
290
     0
  0
SCALE
  5
4E
102
{ACAD_REACTORS
330
47
102
}
330
47
100
AcDbScale
 70
     0
300
1:16
140
1.0
141
16.0
290
     0
  0
SCALE
  5
4F
102
{ACAD_REACTORS
330
47
102
}
330
47
100
AcDbScale
 70
     0
300
1:20
140
1.0
141
20.0
290
     0
  0
SCALE
  5
50
102
{ACAD_REACTORS
330
47
102
}
330
47
100
AcDbScale
 70
     0
300
1:30
140
1.0
141
30.0
290
     0
  0
SCALE
  5
51
102
{ACAD_REACTORS
330
47
102
}
330
47
100
AcDbScale
 70
     0
300
1:40
140
1.0
141
40.0
290
     0
  0
SCALE
  5
52
102
{ACAD_REACTORS
330
47
102
}
330
47
100
AcDbScale
 70
     0
300
1:50
140
1.0
141
50.0
290
     0
  0
SCALE
  5
53
102
{ACAD_REACTORS
330
47
102
}
330
47
100
AcDbScale
 70
     0
300
1:100
140
1.0
141
100.0
290
     0
  0
SCALE
  5
54
102
{ACAD_REACTORS
330
47
102
}
330
47
100
AcDbScale
 70
     0
300
2:1
140
2.0
141
1.0
290
     0
  0
SCALE
  5
55
102
{ACAD_REACTORS
330
47
102
}
330
47
100
AcDbScale
 70
     0
300
4:1
140
4.0
141
1.0
290
     0
  0
SCALE
  5
56
102
{ACAD_REACTORS
330
47
102
}
330
47
100
AcDbScale
 70
     0
300
8:1
140
8.0
141
1.0
290
     0
  0
SCALE
  5
57
102
{ACAD_REACTORS
330
47
102
}
330
47
100
AcDbScale
 70
     0
300
10:1
140
10.0
141
1.0
290
     0
  0
SCALE
  5
58
102
{ACAD_REACTORS
330
47
102
}
330
47
100
AcDbScale
 70
     0
300
100:1
140
100.0
141
1.0
290
     0
  0
SCALE
  5
59
102
{ACAD_REACTORS
330
47
102
}
330
47
100
AcDbScale
 70
     0
300
1/128" = 1'-0"
140
0.0078125
141
12.0
290
     0
  0
SCALE
  5
5A
102
{ACAD_REACTORS
330
47
102
}
330
47
100
AcDbScale
 70
     0
300
1/64" = 1'-0"
140
0.015625
141
12.0
290
     0
  0
SCALE
  5
5B
102
{ACAD_REACTORS
330
47
102
}
330
47
100
AcDbScale
 70
     0
300
1/32" = 1'-0"
140
0.03125
141
12.0
290
     0
  0
SCALE
  5
5C
102
{ACAD_REACTORS
330
47
102
}
330
47
100
AcDbScale
 70
     0
300
1/16" = 1'-0"
140
0.0625
141
12.0
290
     0
  0
SCALE
  5
5D
102
{ACAD_REACTORS
330
47
102
}
330
47
100
AcDbScale
 70
     0
300
3/32" = 1'-0"
140
0.09375
141
12.0
290
     0
  0
SCALE
  5
5E
102
{ACAD_REACTORS
330
47
102
}
330
47
100
AcDbScale
 70
     0
300
1/8" = 1'-0"
140
0.125
141
12.0
290
     0
  0
SCALE
  5
5F
102
{ACAD_REACTORS
330
47
102
}
330
47
100
AcDbScale
 70
     0
300
3/16" = 1'-0"
140
0.1875
141
12.0
290
     0
  0
SCALE
  5
60
102
{ACAD_REACTORS
330
47
102
}
330
47
100
AcDbScale
 70
     0
300
1/4" = 1'-0"
140
0.25
141
12.0
290
     0
  0
SCALE
  5
61
102
{ACAD_REACTORS
330
47
102
}
330
47
100
AcDbScale
 70
     0
300
3/8" = 1'-0"
140
0.375
141
12.0
290
     0
  0
SCALE
  5
62
102
{ACAD_REACTORS
330
47
102
}
330
47
100
AcDbScale
 70
     0
300
1/2" = 1'-0"
140
0.5
141
12.0
290
     0
  0
SCALE
  5
63
102
{ACAD_REACTORS
330
47
102
}
330
47
100
AcDbScale
 70
     0
300
3/4" = 1'-0"
140
0.75
141
12.0
290
     0
  0
SCALE
  5
64
102
{ACAD_REACTORS
330
47
102
}
330
47
100
AcDbScale
 70
     0
300
1" = 1'-0"
140
1.0
141
12.0
290
     0
  0
SCALE
  5
65
102
{ACAD_REACTORS
330
47
102
}
330
47
100
AcDbScale
 70
     0
300
1-1/2" = 1'-0"
140
1.5
141
12.0
290
     0
  0
SCALE
  5
66
102
{ACAD_REACTORS
330
47
102
}
330
47
100
AcDbScale
 70
     0
300
3" = 1'-0"
140
3.0
141
12.0
290
     0
  0
SCALE
  5
67
102
{ACAD_REACTORS
330
47
102
}
330
47
100
AcDbScale
 70
     0
300
6" = 1'-0"
140
6.0
141
12.0
290
     0
  0
SCALE
  5
68
102
{ACAD_REACTORS
330
47
102
}
330
47
100
AcDbScale
 70
     0
300
1'-0" = 1'-0"
140
12.0
141
12.0
290
     0
  0
TABLESTYLE
  5
6A
102
{ACAD_REACTORS
330
69
102
}
102
{ACAD_XDICTIONARY
360
213
102
}
330
69
100
AcDbTableStyle
  3
Standard
 70
     0
 71
     0
 40
0.06
 41
0.06
280
     0
281
     0
  7
Standard
140
0.18
170
     2
 62
     0
 63
   257
283
     0
 90
        4
 91
        0
  1

274
    -2
284
     1
 64
     0
275
    -2
285
     1
 65
     0
276
    -2
286
     1
 66
     0
277
    -2
287
     1
 67
     0
278
    -2
288
     1
 68
     0
279
    -2
289
     1
 69
     0
  7
Standard
140
0.25
170
     5
 62
     0
 63
   257
283
     0
 90
        4
 91
        0
  1

274
    -2
284
     1
 64
     0
275
    -2
285
     1
 65
     0
276
    -2
286
     1
 66
     0
277
    -2
287
     1
 67
     0
278
    -2
288
     1
 68
     0
279
    -2
289
     1
 69
     0
  7
Standard
140
0.18
170
     5
 62
     0
 63
   257
283
     0
 90
        4
 91
        0
  1

274
    -2
284
     1
 64
     0
275
    -2
285
     1
 65
     0
276
    -2
286
     1
 66
     0
277
    -2
287
     1
 67
     0
278
    -2
288
     1
 68
     0
279
    -2
289
     1
 69
     0
  0
VISUALSTYLE
  5
2F
102
{ACAD_REACTORS
330
2A
102
}
330
2A
100
AcDbVisualStyle
  2
2dWireframe
 70
     4
177
     3
291
     0
 70
    58
 90
        0
176
     1
 90
        2
176
     1
 90
        0
176
     1
 90
        0
176
     1
 40
0.6
176
     1
 40
30.0
176
     1
 62
     7
420
 16777215
176
     1
 90
        1
176
     1
 90
        4
176
     1
 62
     7
176
     1
 62
   257
176
     1
 90
        1
176
     1
 90
        1
176
     1
 40
1.0
176
     1
 90
        0
176
     1
 62
   257
176
     1
 40
1.0
176
     1
 90
        1
176
     1
 90
        6
176
     1
 90
        2
176
     1
 62
     7
176
     1
 90
        5
176
     1
 90
        0
176
     1
 90
        0
176
     1
290
     0
176
     1
 90
        1
176
     1
 40
0.0
176
     1
 90
        0
176
     1
290
     1
176
     1
290
     1
176
     1
290
     0
176
     1
290
     0
176
     1
290
     0
176
     1
290
     0
176
     1
290
     0
176
     1
290
     0
176
     1
290
     0
176
     1
 90
       50
176
     1
 40
0.0
176
     1
 40
1.0
176
     1
 90
        0
176
     1
 62
    18
420
        0
176
     1
 90
       50
176
     1
 90
        3
176
     1
 62
     5
420
      255
176
     1
290
     0
176
     1
 90
       50
176
     1
 90
       50
176
     1
 90
       50
176
     1
290
     0
176
     1
 90
       50
176
     1
 62
   256
176
     0
 40
1.0
176
     0
 90
        2
176
     1
  1
strokes_ogs.tif
176
     1
290
     0
176
     1
 40
1.0
176
     1
 40
1.0
176
     1
  0
VISUALSTYLE
  5
32
102
{ACAD_REACTORS
330
2A
102
}
330
2A
100
AcDbVisualStyle
  2
Basic
 70
     7
177
     3
291
     1
 70
    58
 90
        1
176
     1
 90
        0
176
     1
 90
        1
176
     1
 90
        0
176
     1
 40
0.6
176
     1
 40
30.0
176
     1
 62
     7
420
 16777215
176
     1
 90
        0
176
     1
 90
        4
176
     1
 62
     7
176
     1
 62
   257
176
     1
 90
        1
176
     1
 90
        1
176
     1
 40
1.0
176
     1
 90
        8
176
     1
 62
     7
176
     1
 40
1.0
176
     1
 90
        1
176
     1
 90
        6
176
     1
 90
        2
176
     1
 62
     7
176
     1
 90
        5
176
     1
 90
        0
176
     1
 90
        0
176
     1
290
     0
176
     1
 90
        1
176
     1
 40
0.0
176
     1
 90
        0
176
     1
290
     0
176
     1
290
     1
176
     1
290
     1
176
     1
290
     0
176
     1
290
     0
176
     1
290
     0
176
     1
290
     0
176
     1
290
     0
176
     1
290
     0
176
     1
 90
       50
176
     1
 40
0.0
176
     1
 40
1.0
176
     1
 90
        0
176
     1
 62
    18
420
        0
176
     1
 90
       50
176
     1
 90
        3
176
     1
 62
     5
420
      255
176
     1
290
     0
176
     1
 90
       50
176
     1
 90
       50
176
     1
 90
       50
176
     1
290
     0
176
     1
 90
       50
176
     1
 62
   256
176
     0
 40
1.0
176
     0
 90
        2
176
     1
  1
strokes_ogs.tif
176
     1
290
     0
176
     1
 40
1.0
176
     1
 40
1.0
176
     1
  0
VISUALSTYLE
  5
36
102
{ACAD_REACTORS
330
2A
102
}
330
2A
100
AcDbVisualStyle
  2
Brighten
 70
    12
177
     3
291
     1
 70
    58
 90
        2
176
     1
 90
        2
176
     1
 90
        0
176
     1
 90
        0
176
     1
 40
0.6
176
     1
 40
30.0
176
     1
 62
     7
420
 16777215
176
     1
 90
        1
176
     1
 90
        4
176
     1
 62
     7
176
     1
 62
   257
176
     1
 90
        1
176
     1
 90
        1
176
     1
 40
1.0
176
     1
 90
        8
176
     1
 62
     7
176
     1
 40
1.0
176
     1
 90
        1
176
     1
 90
        6
176
     1
 90
        2
176
     1
 62
     7
176
     1
 90
        5
176
     1
 90
        0
176
     1
 90
        0
176
     1
290
     0
176
     1
 90
        1
176
     1
 40
50.0
176
     1
 90
        0
176
     1
290
     0
176
     1
290
     1
176
     1
290
     1
176
     1
290
     0
176
     1
290
     0
176
     1
290
     0
176
     1
290
     0
176
     1
290
     0
176
     1
290
     0
176
     1
 90
       50
176
     1
 40
0.0
176
     1
 40
1.0
176
     1
 90
        0
176
     1
 62
    18
420
        0
176
     1
 90
       50
176
     1
 90
        3
176
     1
 62
     5
420
      255
176
     1
290
     0
176
     1
 90
       50
176
     1
 90
       50
176
     1
 90
       50
176
     1
290
     0
176
     1
 90
       50
176
     1
 62
   256
176
     0
 40
1.0
176
     0
 90
        2
176
     1
  1
strokes_ogs.tif
176
     1
290
     0
176
     1
 40
1.0
176
     1
 40
1.0
176
     1
  0
VISUALSTYLE
  5
3A
102
{ACAD_REACTORS
330
2A
102
}
330
2A
100
AcDbVisualStyle
  2
ColorChange
 70
    16
177
     3
291
     1
 70
    58
 90
        2
176
     1
 90
        2
176
     1
 90
        3
176
     1
 90
        0
176
     1
 40
0.6
176
     1
 40
30.0
176
     1
 62
     8
420
  8421504
176
     1
 90
        1
176
     1
 90
        4
176
     1
 62
     7
176
     1
 62
   257
176
     1
 90
        1
176
     1
 90
        1
176
     1
 40
1.0
176
     1
 90
        8
176
     1
 62
     8
420
  8421504
176
     1
 40
1.0
176
     1
 90
        1
176
     1
 90
        6
176
     1
 90
        2
176
     1
 62
     7
176
     1
 90
        5
176
     1
 90
        0
176
     1
 90
        0
176
     1
290
     0
176
     1
 90
        1
176
     1
 40
0.0
176
     1
 90
        0
176
     1
290
     0
176
     1
290
     1
176
     1
290
     1
176
     1
290
     0
176
     1
290
     0
176
     1
290
     0
176
     1
290
     0
176
     1
290
     0
176
     1
290
     0
176
     1
 90
       50
176
     1
 40
0.0
176
     1
 40
1.0
176
     1
 90
        0
176
     1
 62
    18
420
        0
176
     1
 90
       50
176
     1
 90
        3
176
     1
 62
     5
420
      255
176
     1
290
     0
176
     1
 90
       50
176
     1
 90
       50
176
     1
 90
       50
176
     1
290
     0
176
     1
 90
       50
176
     1
 62
   256
176
     0
 40
1.0
176
     0
 90
        2
176
     1
  1
strokes_ogs.tif
176
     1
290
     0
176
     1
 40
1.0
176
     1
 40
1.0
176
     1
  0
VISUALSTYLE
  5
34
102
{ACAD_REACTORS
330
2A
102
}
330
2A
100
AcDbVisualStyle
  2
Conceptual
 70
     9
177
     3
291
     0
 70
    58
 90
        3
176
     1
 90
        2
176
     1
 90
        0
176
     1
 90
        0
176
     1
 40
0.6
176
     1
 40
30.0
176
     1
 62
     7
420
 16777215
176
     1
 90
        2
176
     1
 90
        2
176
     1
 62
     7
176
     1
 62
   257
176
     1
 90
        1
176
     1
 90
        1
176
     1
 40
179.0
176
     1
 90
        8
176
     1
 62
     7
176
     1
 40
1.0
176
     1
 90
        1
176
     1
 90
        6
176
     1
 90
        2
176
     1
 62
     7
176
     1
 90
        3
176
     1
 90
        0
176
     1
 90
        0
176
     1
290
     0
176
     1
 90
        1
176
     1
 40
0.0
176
     1
 90
        0
176
     1
290
     0
176
     1
290
     1
176
     1
290
     1
176
     1
290
     0
176
     1
290
     0
176
     1
290
     0
176
     1
290
     0
176
     1
290
     0
176
     1
290
     0
176
     1
 90
       50
176
     1
 40
0.0
176
     1
 40
1.0
176
     1
 90
        0
176
     1
 62
    18
420
        0
176
     1
 90
       50
176
     1
 90
        3
176
     1
 62
     5
420
      255
176
     1
290
     0
176
     1
 90
       50
176
     1
 90
       50
176
     1
 90
       50
176
     1
290
     0
176
     1
 90
       50
176
     1
 62
   256
176
     0
 40
1.0
176
     0
 90
        2
176
     1
  1
strokes_ogs.tif
176
     1
290
     0
176
     1
 40
1.0
176
     1
 40
1.0
176
     1
  0
VISUALSTYLE
  5
35
102
{ACAD_REACTORS
330
2A
102
}
330
2A
100
AcDbVisualStyle
  2
Dim
 70
    11
177
     3
291
     1
 70
    58
 90
        2
176
     1
 90
        2
176
     1
 90
        0
176
     1
 90
        0
176
     1
 40
0.6
176
     1
 40
30.0
176
     1
 62
     7
420
 16777215
176
     1
 90
        1
176
     1
 90
        4
176
     1
 62
     7
176
     1
 62
   257
176
     1
 90
        1
176
     1
 90
        1
176
     1
 40
1.0
176
     1
 90
        8
176
     1
 62
     7
176
     1
 40
1.0
176
     1
 90
        1
176
     1
 90
        6
176
     1
 90
        2
176
     1
 62
     7
176
     1
 90
        5
176
     1
 90
        0
176
     1
 90
        0
176
     1
290
     0
176
     1
 90
        1
176
     1
 40
-50.0
176
     1
 90
        0
176
     1
290
     0
176
     1
290
     1
176
     1
290
     1
176
     1
290
     0
176
     1
290
     0
176
     1
290
     0
176
     1
290
     0
176
     1
290
     0
176
     1
290
     0
176
     1
 90
       50
176
     1
 40
0.0
176
     1
 40
1.0
176
     1
 90
        0
176
     1
 62
    18
420
        0
176
     1
 90
       50
176
     1
 90
        3
176
     1
 62
     5
420
      255
176
     1
290
     0
176
     1
 90
       50
176
     1
 90
       50
176
     1
 90
       50
176
     1
290
     0
176
     1
 90
       50
176
     1
 62
   256
176
     0
 40
1.0
176
     0
 90
        2
176
     1
  1
strokes_ogs.tif
176
     1
290
     0
176
     1
 40
1.0
176
     1
 40
1.0
176
     1
  0
VISUALSTYLE
  5
3D
102
{ACAD_REACTORS
330
2A
102
}
330
2A
100
AcDbVisualStyle
  2
EdgeColorOff
 70
    22
177
     3
291
     1
 70
    58
 90
        2
176
     0
 90
        2
176
     0
 90
        0
176
     0
 90
        0
176
     0
 40
0.6
176
     0
 40
30.0
176
     0
 62
     7
420
 16777215
176
     0
 90
        1
176
     0
 90
        4
176
     0
 62
     7
176
     0
 62
   257
176
     0
 90
        1
176
     0
 90
        1
176
     0
 40
1.0
176
     0
 90
        8
176
     2
 62
     7
176
     0
 40
1.0
176
     0
 90
        1
176
     0
 90
        6
176
     0
 90
        2
176
     0
 62
     7
176
     0
 90
        5
176
     0
 90
        0
176
     0
 90
        0
176
     0
290
     0
176
     0
 90
        1
176
     0
 40
0.0
176
     0
 90
        0
176
     0
290
     0
176
     0
290
     1
176
     0
290
     1
176
     0
290
     0
176
     0
290
     0
176
     0
290
     0
176
     0
290
     0
176
     0
290
     0
176
     0
290
     0
176
     0
 90
       50
176
     0
 40
0.0
176
     0
 40
1.0
176
     0
 90
        0
176
     0
 62
    18
420
        0
176
     0
 90
       50
176
     0
 90
        3
176
     0
 62
     5
420
      255
176
     0
290
     0
176
     0
 90
       50
176
     0
 90
       50
176
     0
 90
       50
176
     0
290
     0
176
     0
 90
       50
176
     0
 62
   256
176
     0
 40
1.0
176
     0
 90
        2
176
     0
  1
strokes_ogs.tif
176
     0
290
     0
176
     0
 40
1.0
176
     0
 40
1.0
176
     0
  0
VISUALSTYLE
  5
39
102
{ACAD_REACTORS
330
2A
102
}
330
2A
100
AcDbVisualStyle
  2
Facepattern
 70
    15
177
     3
291
     1
 70
    58
 90
        2
176
     1
 90
        2
176
     1
 90
        0
176
     1
 90
        0
176
     1
 40
0.6
176
     1
 40
30.0
176
     1
 62
     7
420
 16777215
176
     1
 90
        1
176
     1
 90
        4
176
     1
 62
     7
176
     1
 62
   257
176
     1
 90
        1
176
     1
 90
        1
176
     1
 40
1.0
176
     1
 90
        8
176
     1
 62
     7
176
     1
 40
1.0
176
     1
 90
        1
176
     1
 90
        6
176
     1
 90
        2
176
     1
 62
     7
176
     1
 90
        5
176
     1
 90
        0
176
     1
 90
        0
176
     1
290
     0
176
     1
 90
        1
176
     1
 40
0.0
176
     1
 90
        0
176
     1
290
     0
176
     1
290
     1
176
     1
290
     1
176
     1
290
     0
176
     1
290
     0
176
     1
290
     0
176
     1
290
     0
176
     1
290
     0
176
     1
290
     0
176
     1
 90
       50
176
     1
 40
0.0
176
     1
 40
1.0
176
     1
 90
        0
176
     1
 62
    18
420
        0
176
     1
 90
       50
176
     1
 90
        3
176
     1
 62
     5
420
      255
176
     1
290
     0
176
     1
 90
       50
176
     1
 90
       50
176
     1
 90
       50
176
     1
290
     0
176
     1
 90
       50
176
     1
 62
   256
176
     0
 40
1.0
176
     0
 90
        2
176
     1
  1
strokes_ogs.tif
176
     1
290
     0
176
     1
 40
1.0
176
     1
 40
1.0
176
     1
  0
VISUALSTYLE
  5
2B
102
{ACAD_REACTORS
330
2A
102
}
330
2A
100
AcDbVisualStyle
  2
Flat
 70
     0
177
     3
291
     1
 70
    58
 90
        2
176
     1
 90
        1
176
     1
 90
        1
176
     1
 90
        2
176
     1
 40
0.6
176
     1
 40
30.0
176
     1
 62
     7
420
 16777215
176
     1
 90
        0
176
     1
 90
        0
176
     1
 62
     7
176
     1
 62
   257
176
     1
 90
        1
176
     1
 90
        1
176
     1
 40
1.0
176
     1
 90
        8
176
     1
 62
     7
176
     1
 40
1.0
176
     1
 90
        1
176
     1
 90
        6
176
     1
 90
        2
176
     1
 62
     7
176
     1
 90
        5
176
     1
 90
        0
176
     1
 90
        0
176
     1
290
     0
176
     1
 90
       13
176
     1
 40
0.0
176
     1
 90
        0
176
     1
290
     0
176
     1
290
     1
176
     1
290
     1
176
     1
290
     0
176
     1
290
     0
176
     1
290
     0
176
     1
290
     0
176
     1
290
     0
176
     1
290
     0
176
     1
 90
       50
176
     1
 40
0.0
176
     1
 40
1.0
176
     1
 90
        0
176
     1
 62
    18
420
        0
176
     1
 90
       50
176
     1
 90
        3
176
     1
 62
     5
420
      255
176
     1
290
     0
176
     1
 90
       50
176
     1
 90
       50
176
     1
 90
       50
176
     1
290
     0
176
     1
 90
       50
176
     1
 62
   256
176
     0
 40
1.0
176
     0
 90
        2
176
     1
  1
strokes_ogs.tif
176
     1
290
     0
176
     1
 40
1.0
176
     1
 40
1.0
176
     1
  0
VISUALSTYLE
  5
2C
102
{ACAD_REACTORS
330
2A
102
}
330
2A
100
AcDbVisualStyle
  2
FlatWithEdges
 70
     1
177
     3
291
     1
 70
    58
 90
        2
176
     1
 90
        1
176
     1
 90
        1
176
     1
 90
        2
176
     1
 40
0.6
176
     1
 40
30.0
176
     1
 62
     7
420
 16777215
176
     1
 90
        1
176
     1
 90
        0
176
     1
 62
     7
176
     1
 62
   257
176
     1
 90
        1
176
     1
 90
        1
176
     1
 40
1.0
176
     1
 90
        0
176
     1
 62
   257
176
     1
 40
1.0
176
     1
 90
        1
176
     1
 90
        6
176
     1
 90
        2
176
     1
 62
     7
176
     1
 90
        5
176
     1
 90
        0
176
     1
 90
        0
176
     1
290
     0
176
     1
 90
       13
176
     1
 40
0.0
176
     1
 90
        0
176
     1
290
     0
176
     1
290
     1
176
     1
290
     1
176
     1
290
     0
176
     1
290
     0
176
     1
290
     0
176
     1
290
     0
176
     1
290
     0
176
     1
290
     0
176
     1
 90
       50
176
     1
 40
0.0
176
     1
 40
1.0
176
     1
 90
        0
176
     1
 62
    18
420
        0
176
     1
 90
       50
176
     1
 90
        3
176
     1
 62
     5
420
      255
176
     1
290
     0
176
     1
 90
       50
176
     1
 90
       50
176
     1
 90
       50
176
     1
290
     0
176
     1
 90
       50
176
     1
 62
   256
176
     0
 40
1.0
176
     0
 90
        2
176
     1
  1
strokes_ogs.tif
176
     1
290
     0
176
     1
 40
1.0
176
     1
 40
1.0
176
     1
  0
VISUALSTYLE
  5
2D
102
{ACAD_REACTORS
330
2A
102
}
330
2A
100
AcDbVisualStyle
  2
Gouraud
 70
     2
177
     3
291
     1
 70
    58
 90
        2
176
     1
 90
        2
176
     1
 90
        1
176
     1
 90
        2
176
     1
 40
0.6
176
     1
 40
30.0
176
     1
 62
     7
420
 16777215
176
     1
 90
        0
176
     1
 90
        0
176
     1
 62
     7
176
     1
 62
   257
176
     1
 90
        1
176
     1
 90
        1
176
     1
 40
1.0
176
     1
 90
        0
176
     1
 62
     7
176
     1
 40
1.0
176
     1
 90
        1
176
     1
 90
        6
176
     1
 90
        2
176
     1
 62
     7
176
     1
 90
        5
176
     1
 90
        0
176
     1
 90
        0
176
     1
290
     0
176
     1
 90
       13
176
     1
 40
0.0
176
     1
 90
        0
176
     1
290
     0
176
     1
290
     1
176
     1
290
     1
176
     1
290
     0
176
     1
290
     0
176
     1
290
     0
176
     1
290
     0
176
     1
290
     0
176
     1
290
     0
176
     1
 90
       50
176
     1
 40
0.0
176
     1
 40
1.0
176
     1
 90
        0
176
     1
 62
    18
420
        0
176
     1
 90
       50
176
     1
 90
        3
176
     1
 62
     5
420
      255
176
     1
290
     0
176
     1
 90
       50
176
     1
 90
       50
176
     1
 90
       50
176
     1
290
     0
176
     1
 90
       50
176
     1
 62
   256
176
     0
 40
1.0
176
     0
 90
        2
176
     1
  1
strokes_ogs.tif
176
     1
290
     0
176
     1
 40
1.0
176
     1
 40
1.0
176
     1
  0
VISUALSTYLE
  5
2E
102
{ACAD_REACTORS
330
2A
102
}
330
2A
100
AcDbVisualStyle
  2
GouraudWithEdges
 70
     3
177
     3
291
     1
 70
    58
 90
        2
176
     1
 90
        2
176
     1
 90
        1
176
     1
 90
        2
176
     1
 40
0.6
176
     1
 40
30.0
176
     1
 62
     7
420
 16777215
176
     1
 90
        1
176
     1
 90
        0
176
     1
 62
     7
176
     1
 62
   257
176
     1
 90
        1
176
     1
 90
        1
176
     1
 40
1.0
176
     1
 90
        0
176
     1
 62
   257
176
     1
 40
1.0
176
     1
 90
        1
176
     1
 90
        6
176
     1
 90
        2
176
     1
 62
     7
176
     1
 90
        5
176
     1
 90
        0
176
     1
 90
        0
176
     1
290
     0
176
     1
 90
       13
176
     1
 40
0.0
176
     1
 90
        0
176
     1
290
     0
176
     1
290
     1
176
     1
290
     1
176
     1
290
     0
176
     1
290
     0
176
     1
290
     0
176
     1
290
     0
176
     1
290
     0
176
     1
290
     0
176
     1
 90
       50
176
     1
 40
0.0
176
     1
 40
1.0
176
     1
 90
        0
176
     1
 62
    18
420
        0
176
     1
 90
       50
176
     1
 90
        3
176
     1
 62
     5
420
      255
176
     1
290
     0
176
     1
 90
       50
176
     1
 90
       50
176
     1
 90
       50
176
     1
290
     0
176
     1
 90
       50
176
     1
 62
   256
176
     0
 40
1.0
176
     0
 90
        2
176
     1
  1
strokes_ogs.tif
176
     1
290
     0
176
     1
 40
1.0
176
     1
 40
1.0
176
     1
  0
VISUALSTYLE
  5
31
102
{ACAD_REACTORS
330
2A
102
}
330
2A
100
AcDbVisualStyle
  2
Hidden
 70
     6
177
     3
291
     0
 70
    58
 90
        1
176
     1
 90
        2
176
     1
 90
        2
176
     1
 90
        0
176
     1
 40
0.6
176
     1
 40
30.0
176
     1
 62
     7
420
 16777215
176
     1
 90
        2
176
     1
 90
        2
176
     1
 62
     7
176
     1
 62
   257
176
     1
 90
        2
176
     1
 90
        1
176
     1
 40
40.0
176
     1
 90
        0
176
     1
 62
   257
176
     1
 40
1.0
176
     1
 90
        1
176
     1
 90
        6
176
     1
 90
        2
176
     1
 62
     7
176
     1
 90
        3
176
     1
 90
        0
176
     1
 90
        0
176
     1
290
     0
176
     1
 90
        1
176
     1
 40
0.0
176
     1
 90
        0
176
     1
290
     0
176
     1
290
     1
176
     1
290
     1
176
     1
290
     0
176
     1
290
     0
176
     1
290
     0
176
     1
290
     0
176
     1
290
     0
176
     1
290
     0
176
     1
 90
       50
176
     1
 40
0.0
176
     1
 40
1.0
176
     1
 90
        0
176
     1
 62
    18
420
        0
176
     1
 90
       50
176
     1
 90
        3
176
     1
 62
     5
420
      255
176
     1
290
     0
176
     1
 90
       50
176
     1
 90
       50
176
     1
 90
       50
176
     1
290
     0
176
     1
 90
       50
176
     1
 62
   256
176
     0
 40
1.0
176
     0
 90
        2
176
     1
  1
strokes_ogs.tif
176
     1
290
     0
176
     1
 40
1.0
176
     1
 40
1.0
176
     1
  0
VISUALSTYLE
  5
3B
102
{ACAD_REACTORS
330
2A
102
}
330
2A
100
AcDbVisualStyle
  2
JitterOff
 70
    20
177
     3
291
     1
 70
    58
 90
        2
176
     0
 90
        2
176
     0
 90
        0
176
     0
 90
        0
176
     0
 40
0.6
176
     0
 40
30.0
176
     0
 62
     7
420
 16777215
176
     0
 90
        1
176
     0
 90
        4
176
     0
 62
     7
176
     0
 62
   257
176
     0
 90
        1
176
     0
 90
        1
176
     0
 40
1.0
176
     0
 90
       10
176
     2
 62
     7
176
     0
 40
1.0
176
     0
 90
        1
176
     0
 90
        6
176
     0
 90
        2
176
     0
 62
     7
176
     0
 90
        5
176
     0
 90
        0
176
     0
 90
        0
176
     0
290
     0
176
     0
 90
        1
176
     0
 40
0.0
176
     0
 90
        0
176
     0
290
     0
176
     0
290
     1
176
     0
290
     1
176
     0
290
     0
176
     0
290
     0
176
     0
290
     0
176
     0
290
     0
176
     0
290
     0
176
     0
290
     0
176
     0
 90
       50
176
     0
 40
0.0
176
     0
 40
1.0
176
     0
 90
        0
176
     0
 62
    18
420
        0
176
     0
 90
       50
176
     0
 90
        3
176
     0
 62
     5
420
      255
176
     0
290
     0
176
     0
 90
       50
176
     0
 90
       50
176
     0
 90
       50
176
     0
290
     0
176
     0
 90
       50
176
     0
 62
   256
176
     0
 40
1.0
176
     0
 90
        2
176
     0
  1
strokes_ogs.tif
176
     0
290
     0
176
     0
 40
1.0
176
     0
 40
1.0
176
     0
  0
VISUALSTYLE
  5
38
102
{ACAD_REACTORS
330
2A
102
}
330
2A
100
AcDbVisualStyle
  2
Linepattern
 70
    14
177
     3
291
     1
 70
    58
 90
        2
176
     1
 90
        2
176
     1
 90
        0
176
     1
 90
        0
176
     1
 40
0.6
176
     1
 40
30.0
176
     1
 62
     7
420
 16777215
176
     1
 90
        1
176
     1
 90
        4
176
     1
 62
     7
176
     1
 62
   257
176
     1
 90
        7
176
     1
 90
        7
176
     1
 40
1.0
176
     1
 90
        8
176
     1
 62
     7
176
     1
 40
1.0
176
     1
 90
        1
176
     1
 90
        6
176
     1
 90
        2
176
     1
 62
     7
176
     1
 90
        5
176
     1
 90
        0
176
     1
 90
        0
176
     1
290
     0
176
     1
 90
        1
176
     1
 40
0.0
176
     1
 90
        0
176
     1
290
     0
176
     1
290
     1
176
     1
290
     1
176
     1
290
     0
176
     1
290
     0
176
     1
290
     0
176
     1
290
     0
176
     1
290
     0
176
     1
290
     0
176
     1
 90
       50
176
     1
 40
0.0
176
     1
 40
1.0
176
     1
 90
        0
176
     1
 62
    18
420
        0
176
     1
 90
       50
176
     1
 90
        3
176
     1
 62
     5
420
      255
176
     1
290
     0
176
     1
 90
       50
176
     1
 90
       50
176
     1
 90
       50
176
     1
290
     0
176
     1
 90
       50
176
     1
 62
   256
176
     0
 40
1.0
176
     0
 90
        2
176
     1
  1
strokes_ogs.tif
176
     1
290
     0
176
     1
 40
1.0
176
     1
 40
1.0
176
     1
  0
VISUALSTYLE
  5
3C
102
{ACAD_REACTORS
330
2A
102
}
330
2A
100
AcDbVisualStyle
  2
OverhangOff
 70
    21
177
     3
291
     1
 70
    58
 90
        2
176
     0
 90
        2
176
     0
 90
        0
176
     0
 90
        0
176
     0
 40
0.6
176
     0
 40
30.0
176
     0
 62
     7
420
 16777215
176
     0
 90
        1
176
     0
 90
        4
176
     0
 62
     7
176
     0
 62
   257
176
     0
 90
        1
176
     0
 90
        1
176
     0
 40
1.0
176
     0
 90
        9
176
     2
 62
     7
176
     0
 40
1.0
176
     0
 90
        1
176
     0
 90
        6
176
     0
 90
        2
176
     0
 62
     7
176
     0
 90
        5
176
     0
 90
        0
176
     0
 90
        0
176
     0
290
     0
176
     0
 90
        1
176
     0
 40
0.0
176
     0
 90
        0
176
     0
290
     0
176
     0
290
     1
176
     0
290
     1
176
     0
290
     0
176
     0
290
     0
176
     0
290
     0
176
     0
290
     0
176
     0
290
     0
176
     0
290
     0
176
     0
 90
       50
176
     0
 40
0.0
176
     0
 40
1.0
176
     0
 90
        0
176
     0
 62
    18
420
        0
176
     0
 90
       50
176
     0
 90
        3
176
     0
 62
     5
420
      255
176
     0
290
     0
176
     0
 90
       50
176
     0
 90
       50
176
     0
 90
       50
176
     0
290
     0
176
     0
 90
       50
176
     0
 62
   256
176
     0
 40
1.0
176
     0
 90
        2
176
     0
  1
strokes_ogs.tif
176
     0
290
     0
176
     0
 40
1.0
176
     0
 40
1.0
176
     0
  0
VISUALSTYLE
  5
33
102
{ACAD_REACTORS
330
2A
102
}
330
2A
100
AcDbVisualStyle
  2
Realistic
 70
     8
177
     3
291
     0
 70
    58
 90
        2
176
     1
 90
        3
176
     1
 90
        0
176
     1
 90
        2
176
     1
 40
0.6
176
     1
 40
30.0
176
     1
 62
     7
420
 16777215
176
     1
 90
        0
176
     1
 90
        0
176
     1
 62
     7
176
     1
 62
   257
176
     1
 90
        1
176
     1
 90
        1
176
     1
 40
1.0
176
     1
 90
        8
176
     1
 62
   257
176
     1
 40
1.0
176
     1
 90
        1
176
     1
 90
        6
176
     1
 90
        2
176
     1
 62
     7
176
     1
 90
        3
176
     1
 90
        0
176
     1
 90
        0
176
     1
290
     0
176
     1
 90
       13
176
     1
 40
0.0
176
     1
 90
        0
176
     1
290
     0
176
     1
290
     1
176
     1
290
     1
176
     1
290
     0
176
     1
290
     0
176
     1
290
     0
176
     1
290
     0
176
     1
290
     0
176
     1
290
     0
176
     1
 90
       50
176
     1
 40
0.0
176
     1
 40
1.0
176
     1
 90
        0
176
     1
 62
    18
420
        0
176
     1
 90
       50
176
     1
 90
        3
176
     1
 62
     5
420
      255
176
     1
290
     0
176
     1
 90
       50
176
     1
 90
       50
176
     1
 90
       50
176
     1
290
     0
176
     1
 90
       50
176
     1
 62
   256
176
     0
 40
1.0
176
     0
 90
        2
176
     1
  1
strokes_ogs.tif
176
     1
290
     0
176
     1
 40
1.0
176
     1
 40
1.0
176
     1
  0
VISUALSTYLE
  5
42
102
{ACAD_REACTORS
330
2A
102
}
330
2A
100
AcDbVisualStyle
  2
Shaded
 70
    27
177
     3
291
     0
 70
    58
 90
        2
176
     1
 90
        2
176
     1
 90
        1
176
     1
 90
        2
176
     1
 40
0.6
176
     1
 40
30.0
176
     1
 62
     7
420
 16777215
176
     1
 90
        0
176
     1
 90
        4
176
     1
 62
     7
176
     1
 62
   257
176
     1
 90
        1
176
     1
 90
        1
176
     1
 40
1.0
176
     1
 90
        8
176
     1
 62
   257
176
     1
 40
1.0
176
     1
 90
        1
176
     1
 90
        6
176
     1
 90
        2
176
     1
 62
     8
420
  7895160
176
     1
 90
        3
176
     1
 90
        0
176
     1
 90
        0
176
     1
290
     0
176
     1
 90
        5
176
     1
 40
0.0
176
     1
 90
        0
176
     1
290
     0
176
     1
290
     1
176
     1
290
     1
176
     1
290
     0
176
     1
290
     0
176
     1
290
     0
176
     1
290
     0
176
     1
290
     0
176
     1
290
     0
176
     1
 90
       50
176
     1
 40
0.0
176
     1
 40
1.0
176
     1
 90
        0
176
     1
 62
    18
420
        0
176
     1
 90
       50
176
     1
 90
        3
176
     1
 62
     5
420
      255
176
     1
290
     0
176
     1
 90
       50
176
     1
 90
       50
176
     1
 90
       50
176
     1
290
     0
176
     1
 90
       50
176
     1
 62
   256
176
     0
 40
1.0
176
     0
 90
        2
176
     1
  1
strokes_ogs.tif
176
     1
290
     0
176
     1
 40
1.0
176
     1
 40
1.0
176
     1
  0
VISUALSTYLE
  5
41
102
{ACAD_REACTORS
330
2A
102
}
330
2A
100
AcDbVisualStyle
  2
Shaded with edges
 70
    26
177
     3
291
     0
 70
    58
 90
        2
176
     1
 90
        2
176
     1
 90
        1
176
     1
 90
        2
176
     1
 40
0.6
176
     1
 40
30.0
176
     1
 62
     7
420
 16777215
176
     1
 90
        1
176
     1
 90
       10
176
     1
 62
     7
176
     1
 62
   257
176
     1
 90
        2
176
     1
 90
        1
176
     1
 40
1.0
176
     1
 90
        8
176
     1
 62
   257
176
     1
 40
1.0
176
     1
 90
        1
176
     1
 90
        6
176
     1
 90
        2
176
     1
 62
     7
176
     1
 90
        3
176
     1
 90
        0
176
     1
 90
        0
176
     1
290
     0
176
     1
 90
        5
176
     1
 40
0.0
176
     1
 90
        0
176
     1
290
     0
176
     1
290
     1
176
     1
290
     1
176
     1
290
     0
176
     1
290
     0
176
     1
290
     0
176
     1
290
     0
176
     1
290
     0
176
     1
290
     0
176
     1
 90
       50
176
     1
 40
0.0
176
     1
 40
1.0
176
     1
 90
        0
176
     1
 62
    18
420
        0
176
     1
 90
       50
176
     1
 90
        3
176
     1
 62
     5
420
      255
176
     1
290
     0
176
     1
 90
       50
176
     1
 90
       50
176
     1
 90
       50
176
     1
290
     0
176
     1
 90
       50
176
     1
 62
   256
176
     0
 40
1.0
176
     0
 90
        2
176
     1
  1
strokes_ogs.tif
176
     1
290
     0
176
     1
 40
1.0
176
     1
 40
1.0
176
     1
  0
VISUALSTYLE
  5
3E
102
{ACAD_REACTORS
330
2A
102
}
330
2A
100
AcDbVisualStyle
  2
Shades of Gray
 70
    23
177
     3
291
     0
 70
    58
 90
        2
176
     1
 90
        2
176
     1
 90
        3
176
     1
 90
        0
176
     1
 40
0.6
176
     1
 40
30.0
176
     1
 62
     7
420
 16777215
176
     1
 90
        2
176
     1
 90
        2
176
     1
 62
     7
176
     1
 62
     7
176
     1
 90
        1
176
     1
 90
        1
176
     1
 40
40.0
176
     1
 90
        8
176
     1
 62
     7
176
     1
 40
1.0
176
     1
 90
        1
176
     1
 90
        6
176
     1
 90
        2
176
     1
 62
     7
176
     1
 90
        3
176
     1
 90
        0
176
     1
 90
        0
176
     1
290
     0
176
     1
 90
        1
176
     1
 40
0.0
176
     1
 90
        0
176
     1
290
     0
176
     1
290
     1
176
     1
290
     1
176
     1
290
     0
176
     1
290
     0
176
     1
290
     0
176
     1
290
     0
176
     1
290
     0
176
     1
290
     0
176
     1
 90
       50
176
     1
 40
0.0
176
     1
 40
1.0
176
     1
 90
        0
176
     1
 62
    18
420
        0
176
     1
 90
       50
176
     1
 90
        3
176
     1
 62
     5
420
      255
176
     1
290
     0
176
     1
 90
       50
176
     1
 90
       50
176
     1
 90
       50
176
     1
290
     0
176
     1
 90
       50
176
     1
 62
   256
176
     0
 40
1.0
176
     0
 90
        2
176
     1
  1
strokes_ogs.tif
176
     1
290
     0
176
     1
 40
1.0
176
     1
 40
1.0
176
     1
  0
VISUALSTYLE
  5
3F
102
{ACAD_REACTORS
330
2A
102
}
330
2A
100
AcDbVisualStyle
  2
Sketchy
 70
    24
177
     3
291
     0
 70
    58
 90
        1
176
     1
 90
        2
176
     1
 90
        2
176
     1
 90
        0
176
     1
 40
0.6
176
     1
 40
30.0
176
     1
 62
     7
420
 16777215
176
     1
 90
        2
176
     1
 90
        2
176
     1
 62
     7
176
     1
 62
     7
176
     1
 90
        1
176
     1
 90
        1
176
     1
 40
40.0
176
     1
 90
       11
176
     1
 62
     7
176
     1
 40
1.0
176
     1
 90
        1
176
     1
 90
        6
176
     1
 90
        2
176
     1
 62
     7
176
     1
 90
        6
176
     1
 90
        0
176
     1
 90
        0
176
     1
290
     0
176
     1
 90
        1
176
     1
 40
0.0
176
     1
 90
        0
176
     1
290
     0
176
     1
290
     1
176
     1
290
     1
176
     1
290
     0
176
     1
290
     0
176
     1
290
     0
176
     1
290
     0
176
     1
290
     0
176
     1
290
     0
176
     1
 90
       50
176
     1
 40
0.0
176
     1
 40
1.0
176
     1
 90
        0
176
     1
 62
    18
420
        0
176
     1
 90
       50
176
     1
 90
        3
176
     1
 62
     5
420
      255
176
     1
290
     0
176
     1
 90
       50
176
     1
 90
       50
176
     1
 90
       50
176
     1
290
     0
176
     1
 90
       50
176
     1
 62
   256
176
     0
 40
1.0
176
     0
 90
        2
176
     1
  1
strokes_ogs.tif
176
     1
290
     0
176
     1
 40
1.0
176
     1
 40
1.0
176
     1
  0
VISUALSTYLE
  5
37
102
{ACAD_REACTORS
330
2A
102
}
330
2A
100
AcDbVisualStyle
  2
Thicken
 70
    13
177
     3
291
     1
 70
    58
 90
        2
176
     1
 90
        2
176
     1
 90
        0
176
     1
 90
        0
176
     1
 40
0.6
176
     1
 40
30.0
176
     1
 62
     7
420
 16777215
176
     1
 90
        1
176
     1
 90
        4
176
     1
 62
     7
176
     1
 62
   257
176
     1
 90
        1
176
     1
 90
        1
176
     1
 40
1.0
176
     1
 90
       12
176
     1
 62
     7
176
     1
 40
1.0
176
     1
 90
        1
176
     1
 90
        6
176
     1
 90
        2
176
     1
 62
     7
176
     1
 90
        5
176
     1
 90
        0
176
     1
 90
        0
176
     1
290
     0
176
     1
 90
        1
176
     1
 40
0.0
176
     1
 90
        0
176
     1
290
     0
176
     1
290
     1
176
     1
290
     1
176
     1
290
     0
176
     1
290
     0
176
     1
290
     0
176
     1
290
     0
176
     1
290
     0
176
     1
290
     0
176
     1
 90
       50
176
     1
 40
0.0
176
     1
 40
1.0
176
     1
 90
        0
176
     1
 62
    18
420
        0
176
     1
 90
       50
176
     1
 90
        3
176
     1
 62
     5
420
      255
176
     1
290
     0
176
     1
 90
       50
176
     1
 90
       50
176
     1
 90
       50
176
     1
290
     0
176
     1
 90
       50
176
     1
 62
   256
176
     0
 40
1.0
176
     0
 90
        2
176
     1
  1
strokes_ogs.tif
176
     1
290
     0
176
     1
 40
1.0
176
     1
 40
1.0
176
     1
  0
VISUALSTYLE
  5
30
102
{ACAD_REACTORS
330
2A
102
}
330
2A
100
AcDbVisualStyle
  2
Wireframe
 70
     5
177
     3
291
     0
 70
    58
 90
        0
176
     1
 90
        2
176
     1
 90
        0
176
     1
 90
        0
176
     1
 40
0.6
176
     1
 40
30.0
176
     1
 62
     7
420
 16777215
176
     1
 90
        1
176
     1
 90
        4
176
     1
 62
     7
176
     1
 62
   257
176
     1
 90
        1
176
     1
 90
        1
176
     1
 40
1.0
176
     1
 90
        0
176
     1
 62
   257
176
     1
 40
1.0
176
     1
 90
        1
176
     1
 90
        6
176
     1
 90
        2
176
     1
 62
     7
176
     1
 90
        3
176
     1
 90
        0
176
     1
 90
        0
176
     1
290
     0
176
     1
 90
        1
176
     1
 40
0.0
176
     1
 90
        0
176
     1
290
     0
176
     1
290
     1
176
     1
290
     1
176
     1
290
     0
176
     1
290
     0
176
     1
290
     0
176
     1
290
     0
176
     1
290
     0
176
     1
290
     0
176
     1
 90
       50
176
     1
 40
0.0
176
     1
 40
1.0
176
     1
 90
        0
176
     1
 62
    18
420
        0
176
     1
 90
       50
176
     1
 90
        3
176
     1
 62
     5
420
      255
176
     1
290
     0
176
     1
 90
       50
176
     1
 90
       50
176
     1
 90
       50
176
     1
290
     0
176
     1
 90
       50
176
     1
 62
   256
176
     0
 40
1.0
176
     0
 90
        2
176
     1
  1
strokes_ogs.tif
176
     1
290
     0
176
     1
 40
1.0
176
     1
 40
1.0
176
     1
  0
VISUALSTYLE
  5
40
102
{ACAD_REACTORS
330
2A
102
}
330
2A
100
AcDbVisualStyle
  2
X-Ray
 70
    25
177
     3
291
     0
 70
    58
 90
        2
176
     1
 90
        2
176
     1
 90
        1
176
     1
 90
        1
176
     1
 40
0.5
176
     1
 40
30.0
176
     1
 62
     7
420
 16777215
176
     1
 90
        1
176
     1
 90
        0
176
     1
 62
     7
176
     1
 62
   257
176
     1
 90
        1
176
     1
 90
        1
176
     1
 40
1.0
176
     1
 90
        8
176
     1
 62
     7
176
     1
 40
1.0
176
     1
 90
        1
176
     1
 90
        6
176
     1
 90
        2
176
     1
 62
     7
176
     1
 90
        3
176
     1
 90
        0
176
     1
 90
        0
176
     1
290
     0
176
     1
 90
       13
176
     1
 40
0.0
176
     1
 90
        0
176
     1
290
     0
176
     1
290
     1
176
     1
290
     1
176
     1
290
     0
176
     1
290
     0
176
     1
290
     0
176
     1
290
     0
176
     1
290
     0
176
     1
290
     0
176
     1
 90
       50
176
     1
 40
0.0
176
     1
 40
1.0
176
     1
 90
        0
176
     1
 62
    18
420
        0
176
     1
 90
       50
176
     1
 90
        3
176
     1
 62
     5
420
      255
176
     1
290
     0
176
     1
 90
       50
176
     1
 90
       50
176
     1
 90
       50
176
     1
290
     0
176
     1
 90
       50
176
     1
 62
   256
176
     0
 40
1.0
176
     0
 90
        2
176
     1
  1
strokes_ogs.tif
176
     1
290
     0
176
     1
 40
1.0
176
     1
 40
1.0
176
     1
  0
DICTIONARYVAR
  5
212
102
{ACAD_REACTORS
330
211
102
}
330
211
100
DictionaryVariables
280
     0
  1
1:1
  0
DICTIONARYVAR
  5
217
102
{ACAD_REACTORS
330
211
102
}
330
211
100
DictionaryVariables
280
     0
  1
Standard
  0
DICTIONARYVAR
  5
216
102
{ACAD_REACTORS
330
211
102
}
330
211
100
DictionaryVariables
280
     0
  1
Standard
  0
DICTIONARY
  5
213
330
6A
100
AcDbDictionary
280
     1
281
     1
  3
ACAD_ROUNDTRIP_2008_TABLESTYLE_CELLSTYLEMAP
360
214
  0
CELLSTYLEMAP
  5
214
102
{ACAD_REACTORS
330
213
102
}
330
213
100
AcDbCellStyleMap
 90
        3
300
CELLSTYLE
  1
TABLEFORMAT_BEGIN
 90
        5
170
     1
 91
        0
 92
    32768
 62
   257
 93
        1
300
CONTENTFORMAT
  1
CONTENTFORMAT_BEGIN
 90
        0
 91
        0
 92
        4
 93
        0
300

 40
0.0
140
1.0
 94
        5
 62
     0
340
11
144
0.25
309
CONTENTFORMAT_END
171
     1
301
MARGIN
  1
CELLMARGIN_BEGIN
 40
0.06
 40
0.06
 40
0.06
 40
0.06
 40
0.06
 40
0.06
309
CELLMARGIN_END
 94
        6
 95
        1
302
GRIDFORMAT
  1
GRIDFORMAT_BEGIN
 90
        0
 91
        1
 62
     0
 92
       -2
340
14
 93
        0
 40
0.045
309
GRIDFORMAT_END
 95
        2
302
GRIDFORMAT
  1
GRIDFORMAT_BEGIN
 90
        0
 91
        1
 62
     0
 92
       -2
340
14
 93
        0
 40
0.045
309
GRIDFORMAT_END
 95
        4
302
GRIDFORMAT
  1
GRIDFORMAT_BEGIN
 90
        0
 91
        1
 62
     0
 92
       -2
340
14
 93
        0
 40
0.045
309
GRIDFORMAT_END
 95
        8
302
GRIDFORMAT
  1
GRIDFORMAT_BEGIN
 90
        0
 91
        1
 62
     0
 92
       -2
340
14
 93
        0
 40
0.045
309
GRIDFORMAT_END
 95
       16
302
GRIDFORMAT
  1
GRIDFORMAT_BEGIN
 90
        0
 91
        1
 62
     0
 92
       -2
340
14
 93
        0
 40
0.045
309
GRIDFORMAT_END
 95
       32
302
GRIDFORMAT
  1
GRIDFORMAT_BEGIN
 90
        0
 91
        1
 62
     0
 92
       -2
340
14
 93
        0
 40
0.045
309
GRIDFORMAT_END
309
TABLEFORMAT_END
  1
CELLSTYLE_BEGIN
 90
        1
 91
        1
300
_TITLE
309
CELLSTYLE_END
300
CELLSTYLE
  1
TABLEFORMAT_BEGIN
 90
        5
170
     1
 91
        0
 92
        0
 62
   257
 93
        1
300
CONTENTFORMAT
  1
CONTENTFORMAT_BEGIN
 90
        0
 91
        0
 92
        4
 93
        0
300

 40
0.0
140
1.0
 94
        5
 62
     0
340
11
144
0.18
309
CONTENTFORMAT_END
171
     1
301
MARGIN
  1
CELLMARGIN_BEGIN
 40
0.06
 40
0.06
 40
0.06
 40
0.06
 40
0.06
 40
0.06
309
CELLMARGIN_END
 94
        6
 95
        1
302
GRIDFORMAT
  1
GRIDFORMAT_BEGIN
 90
        0
 91
        1
 62
     0
 92
       -2
340
14
 93
        0
 40
0.045
309
GRIDFORMAT_END
 95
        2
302
GRIDFORMAT
  1
GRIDFORMAT_BEGIN
 90
        0
 91
        1
 62
     0
 92
       -2
340
14
 93
        0
 40
0.045
309
GRIDFORMAT_END
 95
        4
302
GRIDFORMAT
  1
GRIDFORMAT_BEGIN
 90
        0
 91
        1
 62
     0
 92
       -2
340
14
 93
        0
 40
0.045
309
GRIDFORMAT_END
 95
        8
302
GRIDFORMAT
  1
GRIDFORMAT_BEGIN
 90
        0
 91
        1
 62
     0
 92
       -2
340
14
 93
        0
 40
0.045
309
GRIDFORMAT_END
 95
       16
302
GRIDFORMAT
  1
GRIDFORMAT_BEGIN
 90
        0
 91
        1
 62
     0
 92
       -2
340
14
 93
        0
 40
0.045
309
GRIDFORMAT_END
 95
       32
302
GRIDFORMAT
  1
GRIDFORMAT_BEGIN
 90
        0
 91
        1
 62
     0
 92
       -2
340
14
 93
        0
 40
0.045
309
GRIDFORMAT_END
309
TABLEFORMAT_END
  1
CELLSTYLE_BEGIN
 90
        2
 91
        1
300
_HEADER
309
CELLSTYLE_END
300
CELLSTYLE
  1
TABLEFORMAT_BEGIN
 90
        5
170
     1
 91
        0
 92
        0
 62
   257
 93
        1
300
CONTENTFORMAT
  1
CONTENTFORMAT_BEGIN
 90
        0
 91
        0
 92
        4
 93
        0
300

 40
0.0
140
1.0
 94
        2
 62
     0
340
11
144
0.18
309
CONTENTFORMAT_END
171
     1
301
MARGIN
  1
CELLMARGIN_BEGIN
 40
0.06
 40
0.06
 40
0.06
 40
0.06
 40
0.06
 40
0.06
309
CELLMARGIN_END
 94
        6
 95
        1
302
GRIDFORMAT
  1
GRIDFORMAT_BEGIN
 90
        0
 91
        1
 62
     0
 92
       -2
340
14
 93
        0
 40
0.045
309
GRIDFORMAT_END
 95
        2
302
GRIDFORMAT
  1
GRIDFORMAT_BEGIN
 90
        0
 91
        1
 62
     0
 92
       -2
340
14
 93
        0
 40
0.045
309
GRIDFORMAT_END
 95
        4
302
GRIDFORMAT
  1
GRIDFORMAT_BEGIN
 90
        0
 91
        1
 62
     0
 92
       -2
340
14
 93
        0
 40
0.045
309
GRIDFORMAT_END
 95
        8
302
GRIDFORMAT
  1
GRIDFORMAT_BEGIN
 90
        0
 91
        1
 62
     0
 92
       -2
340
14
 93
        0
 40
0.045
309
GRIDFORMAT_END
 95
       16
302
GRIDFORMAT
  1
GRIDFORMAT_BEGIN
 90
        0
 91
        1
 62
     0
 92
       -2
340
14
 93
        0
 40
0.045
309
GRIDFORMAT_END
 95
       32
302
GRIDFORMAT
  1
GRIDFORMAT_BEGIN
 90
        0
 91
        1
 62
     0
 92
       -2
340
14
 93
        0
 40
0.045
309
GRIDFORMAT_END
309
TABLEFORMAT_END
  1
CELLSTYLE_BEGIN
 90
        3
 91
        2
300
_DATA
309
CELLSTYLE_END
  0
ENDSEC
  0
EOF