0
SECTION
  2
HEADER
  9
$ACADVER
  1
AC1027
  9
$ACADMAINTVER
 70
     8
  9
$DWGCODEPAGE
  3
ANSI_1252
  9
$REQUIREDVERSIONS
160
                 0
  9
$COMMENTS
  1
File was created by Cadenas
  9
$CUSTOMPROPERTYTAG
  1
NN
  9
$CUSTOMPROPERTY
  1
Imperial - IP Flange - Square with Type E Dimensions 1-3/8 thru 2-3/16 inch Labyrinth Seal Expansion
  9
$CUSTOMPROPERTYTAG
  1
NT
  9
$CUSTOMPROPERTY
  1
Imperial/E 4 Bolt Square Flange Bearings
  9
$CUSTOMPROPERTYTAG
  1
NB
  9
$CUSTOMPROPERTY
  1
071340
  9
$CUSTOMPROPERTYTAG
  1
NBSYN
  9
$CUSTOMPROPERTY
  1
$PN.
  9
$CUSTOMPROPERTYTAG
  1
LINA
  9
$CUSTOMPROPERTY
  1
071340
  9
$CUSTOMPROPERTYTAG
  1
SS
  9
$CUSTOMPROPERTY
  1
1-1/2
  9
$CUSTOMPROPERTYTAG
  1
TYPE
  9
$CUSTOMPROPERTY
  1
Non-Expansion
  9
$CUSTOMPROPERTYTAG
  1
PN
  9
$CUSTOMPROPERTY
  1
071340
  9
$CUSTOMPROPERTYTAG
  1
DESCRIPTION
  9
$CUSTOMPROPERTY
  1
EF4B-IP-108L
  9
$CUSTOMPROPERTYTAG
  1
ST
  9
$CUSTOMPROPERTY
  1
Labyrinth Seal
  9
$CUSTOMPROPERTYTAG
  1
A
  9
$CUSTOMPROPERTY
  1
2.81
  9
$CUSTOMPROPERTYTAG
  1
B
  9
$CUSTOMPROPERTY
  1
5.38
  9
$CUSTOMPROPERTYTAG
  1
C
  9
$CUSTOMPROPERTY
  1
3.64
  9
$CUSTOMPROPERTYTAG
  1
D
  9
$CUSTOMPROPERTY
  1
4.13
  9
$CUSTOMPROPERTYTAG
  1
F
  9
$CUSTOMPROPERTY
  1
1/2
  9
$CUSTOMPROPERTYTAG
  1
G
  9
$CUSTOMPROPERTY
  1
0.67
  9
$CUSTOMPROPERTYTAG
  1
H
  9
$CUSTOMPROPERTY
  1
1.19
  9
$CUSTOMPROPERTYTAG
  1
J
  9
$CUSTOMPROPERTY
  1
4.18
  9
$CUSTOMPROPERTYTAG
  1
L
  9
$CUSTOMPROPERTY
  1
3
  9
$CUSTOMPROPERTYTAG
  1
N
  9
$CUSTOMPROPERTY
  1
2.5
  9
$CUSTOMPROPERTYTAG
  1
P
  9
$CUSTOMPROPERTY
  1
0.83
  9
$CUSTOMPROPERTYTAG
  1
X
  9
$CUSTOMPROPERTY
  1
0.19
  9
$CUSTOMPROPERTYTAG
  1
Y
  9
$CUSTOMPROPERTY
  1
0.020
  9
$CUSTOMPROPERTYTAG
  1
Z
  9
$CUSTOMPROPERTY
  1
2.08
  9
$CUSTOMPROPERTYTAG
  1
COMPANY
  9
$CUSTOMPROPERTY
  1
baldor
  9
$INSBASE
 10
0.0
 20
0.0
 30
0.0
  9
$EXTMIN
 10
1.000000000000000E+20
 20
1.000000000000000E+20
 30
1.000000000000000E+20
  9
$EXTMAX
 10
-1.000000000000000E+20
 20
-1.000000000000000E+20
 30
-1.000000000000000E+20
  9
$LIMMIN
 10
0.0
 20
0.0
  9
$LIMMAX
 10
12.0
 20
9.0
  9
$ORTHOMODE
 70
     0
  9
$REGENMODE
 70
     1
  9
$FILLMODE
 70
     1
  9
$QTEXTMODE
 70
     0
  9
$MIRRTEXT
 70
     1
  9
$LTSCALE
 40
1.0
  9
$ATTMODE
 70
     1
  9
$TEXTSIZE
 40
0.2
  9
$TRACEWID
 40
0.05
  9
$TEXTSTYLE
  7
Standard
  9
$CLAYER
  8
0
  9
$CELTYPE
  6
ByLayer
  9
$CECOLOR
 62
   256
  9
$CELTSCALE
 40
1.0
  9
$DISPSILH
 70
     0
  9
$DIMSCALE
 40
1.0
  9
$DIMASZ
 40
0.18
  9
$DIMEXO
 40
0.0625
  9
$DIMDLI
 40
0.38
  9
$DIMRND
 40
0.0
  9
$DIMDLE
 40
0.0
  9
$DIMEXE
 40
0.18
  9
$DIMTP
 40
0.0
  9
$DIMTM
 40
0.0
  9
$DIMTXT
 40
0.18
  9
$DIMCEN
 40
0.09
  9
$DIMTSZ
 40
0.0
  9
$DIMTOL
 70
     0
  9
$DIMLIM
 70
     0
  9
$DIMTIH
 70
     1
  9
$DIMTOH
 70
     1
  9
$DIMSE1
 70
     0
  9
$DIMSE2
 70
     0
  9
$DIMTAD
 70
     0
  9
$DIMZIN
 70
     0
  9
$DIMBLK
  1

  9
$DIMASO
 70
     1
  9
$DIMSHO
 70
     1
  9
$DIMPOST
  1

  9
$DIMAPOST
  1

  9
$DIMALT
 70
     0
  9
$DIMALTD
 70
     2
  9
$DIMALTF
 40
25.4
  9
$DIMLFAC
 40
1.0
  9
$DIMTOFL
 70
     0
  9
$DIMTVP
 40
0.0
  9
$DIMTIX
 70
     0
  9
$DIMSOXD
 70
     0
  9
$DIMSAH
 70
     0
  9
$DIMBLK1
  1

  9
$DIMBLK2
  1

  9
$DIMSTYLE
  2
Standard
  9
$DIMCLRD
 70
     0
  9
$DIMCLRE
 70
     0
  9
$DIMCLRT
 70
     0
  9
$DIMTFAC
 40
1.0
  9
$DIMGAP
 40
0.09
  9
$DIMJUST
 70
     0
  9
$DIMSD1
 70
     0
  9
$DIMSD2
 70
     0
  9
$DIMTOLJ
 70
     1
  9
$DIMTZIN
 70
     0
  9
$DIMALTZ
 70
     0
  9
$DIMALTTZ
 70
     0
  9
$DIMUPT
 70
     0
  9
$DIMDEC
 70
     4
  9
$DIMTDEC
 70
     4
  9
$DIMALTU
 70
     2
  9
$DIMALTTD
 70
     2
  9
$DIMTXSTY
  7
Standard
  9
$DIMAUNIT
 70
     0
  9
$DIMADEC
 70
     0
  9
$DIMALTRND
 40
0.0
  9
$DIMAZIN
 70
     0
  9
$DIMDSEP
 70
    46
  9
$DIMATFIT
 70
     3
  9
$DIMFRAC
 70
     0
  9
$DIMLDRBLK
  1

  9
$DIMLUNIT
 70
     2
  9
$DIMLWD
 70
    -2
  9
$DIMLWE
 70
    -2
  9
$DIMTMOVE
 70
     0
  9
$DIMFXL
 40
1.0
  9
$DIMFXLON
 70
     0
  9
$DIMJOGANG
 40
0.7853981633974483
  9
$DIMTFILL
 70
     0
  9
$DIMTFILLCLR
 70
     0
  9
$DIMARCSYM
 70
     0
  9
$DIMLTYPE
  6

  9
$DIMLTEX1
  6

  9
$DIMLTEX2
  6

  9
$DIMTXTDIRECTION
 70
     0
  9
$LUNITS
 70
     2
  9
$LUPREC
 70
     4
  9
$SKETCHINC
 40
0.1
  9
$FILLETRAD
 40
0.5
  9
$AUNITS
 70
     0
  9
$AUPREC
 70
     0
  9
$MENU
  1
.
  9
$ELEVATION
 40
0.0
  9
$PELEVATION
 40
0.0
  9
$THICKNESS
 40
0.0
  9
$LIMCHECK
 70
     0
  9
$CHAMFERA
 40
0.0
  9
$CHAMFERB
 40
0.0
  9
$CHAMFERC
 40
0.0
  9
$CHAMFERD
 40
0.0
  9
$SKPOLY
 70
     0
  9
$TDCREATE
 40
2458168.976273935
  9
$TDUCREATE
 40
2458168.934607268
  9
$TDUPDATE
 40
2458168.976274109
  9
$TDUUPDATE
 40
2458168.934607442
  9
$TDINDWG
 40
0.0000000116
  9
$TDUSRTIMER
 40
0.0000000116
  9
$USRTIMER
 70
     1
  9
$ANGBASE
 50
0.0
  9
$ANGDIR
 70
     0
  9
$PDMODE
 70
     0
  9
$PDSIZE
 40
0.0
  9
$PLINEWID
 40
0.0
  9
$SPLFRAME
 70
     0
  9
$SPLINETYPE
 70
     6
  9
$SPLINESEGS
 70
     8
  9
$HANDSEED
  5
255
  9
$SURFTAB1
 70
     6
  9
$SURFTAB2
 70
     6
  9
$SURFTYPE
 70
     6
  9
$SURFU
 70
     6
  9
$SURFV
 70
     6
  9
$UCSBASE
  2

  9
$UCSNAME
  2

  9
$UCSORG
 10
0.0
 20
0.0
 30
0.0
  9
$UCSXDIR
 10
1.0
 20
0.0
 30
0.0
  9
$UCSYDIR
 10
0.0
 20
1.0
 30
0.0
  9
$UCSORTHOREF
  2

  9
$UCSORTHOVIEW
 70
     0
  9
$UCSORGTOP
 10
0.0
 20
0.0
 30
0.0
  9
$UCSORGBOTTOM
 10
0.0
 20
0.0
 30
0.0
  9
$UCSORGLEFT
 10
0.0
 20
0.0
 30
0.0
  9
$UCSORGRIGHT
 10
0.0
 20
0.0
 30
0.0
  9
$UCSORGFRONT
 10
0.0
 20
0.0
 30
0.0
  9
$UCSORGBACK
 10
0.0
 20
0.0
 30
0.0
  9
$PUCSBASE
  2

  9
$PUCSNAME
  2

  9
$PUCSORG
 10
0.0
 20
0.0
 30
0.0
  9
$PUCSXDIR
 10
1.0
 20
0.0
 30
0.0
  9
$PUCSYDIR
 10
0.0
 20
1.0
 30
0.0
  9
$PUCSORTHOREF
  2

  9
$PUCSORTHOVIEW
 70
     0
  9
$PUCSORGTOP
 10
0.0
 20
0.0
 30
0.0
  9
$PUCSORGBOTTOM
 10
0.0
 20
0.0
 30
0.0
  9
$PUCSORGLEFT
 10
0.0
 20
0.0
 30
0.0
  9
$PUCSORGRIGHT
 10
0.0
 20
0.0
 30
0.0
  9
$PUCSORGFRONT
 10
0.0
 20
0.0
 30
0.0
  9
$PUCSORGBACK
 10
0.0
 20
0.0
 30
0.0
  9
$USERI1
 70
     0
  9
$USERI2
 70
     0
  9
$USERI3
 70
     0
  9
$USERI4
 70
     0
  9
$USERI5
 70
     0
  9
$USERR1
 40
0.0
  9
$USERR2
 40
0.0
  9
$USERR3
 40
0.0
  9
$USERR4
 40
0.0
  9
$USERR5
 40
0.0
  9
$WORLDVIEW
 70
     1
  9
$SHADEDGE
 70
     3
  9
$SHADEDIF
 70
    70
  9
$TILEMODE
 70
     1
  9
$MAXACTVP
 70
    64
  9
$PINSBASE
 10
0.0
 20
0.0
 30
0.0
  9
$PLIMCHECK
 70
     0
  9
$PEXTMIN
 10
1.000000000000000E+20
 20
1.000000000000000E+20
 30
1.000000000000000E+20
  9
$PEXTMAX
 10
-1.000000000000000E+20
 20
-1.000000000000000E+20
 30
-1.000000000000000E+20
  9
$PLIMMIN
 10
0.0
 20
0.0
  9
$PLIMMAX
 10
12.0
 20
9.0
  9
$UNITMODE
 70
     0
  9
$VISRETAIN
 70
     1
  9
$PLINEGEN
 70
     0
  9
$PSLTSCALE
 70
     1
  9
$TREEDEPTH
 70
  3020
  9
$CMLSTYLE
  2
Standard
  9
$CMLJUST
 70
     0
  9
$CMLSCALE
 40
1.0
  9
$PROXYGRAPHICS
 70
     1
  9
$MEASUREMENT
 70
     0
  9
$CELWEIGHT
370
    -1
  9
$ENDCAPS
280
     0
  9
$JOINSTYLE
280
     0
  9
$LWDISPLAY
290
     0
  9
$INSUNITS
 70
     1
  9
$HYPERLINKBASE
  1

  9
$STYLESHEET
  1

  9
$XEDIT
290
     1
  9
$CEPSNTYPE
380
     0
  9
$PSTYLEMODE
290
     1
  9
$FINGERPRINTGUID
  2
{A44B2FD4-FBEF-4F78-88E2-84A57257B129}
  9
$VERSIONGUID
  2
{FAEB1C32-E019-11D5-929B-00C0DF256EC4}
  9
$EXTNAMES
290
     1
  9
$PSVPSCALE
 40
0.0
  9
$OLESTARTUP
290
     0
  9
$SORTENTS
280
   127
  9
$INDEXCTL
280
     0
  9
$HIDETEXT
280
     1
  9
$XCLIPFRAME
280
     2
  9
$HALOGAP
280
     0
  9
$OBSCOLOR
 70
   257
  9
$OBSLTYPE
280
     0
  9
$INTERSECTIONDISPLAY
280
     0
  9
$INTERSECTIONCOLOR
 70
   257
  9
$DIMASSOC
280
     2
  9
$PROJECTNAME
  1

  9
$CAMERADISPLAY
290
     0
  9
$LENSLENGTH
 40
50.0
  9
$CAMERAHEIGHT
 40
0.0
  9
$STEPSPERSEC
 40
2.0
  9
$STEPSIZE
 40
6.0
  9
$3DDWFPREC
 40
2.0
  9
$PSOLWIDTH
 40
0.25
  9
$PSOLHEIGHT
 40
4.0
  9
$LOFTANG1
 40
1.570796326794897
  9
$LOFTANG2
 40
1.570796326794897
  9
$LOFTMAG1
 40
0.0
  9
$LOFTMAG2
 40
0.0
  9
$LOFTPARAM
 70
     7
  9
$LOFTNORMALS
280
     1
  9
$LATITUDE
 40
37.795
  9
$LONGITUDE
 40
-122.394
  9
$NORTHDIRECTION
 40
0.0
  9
$TIMEZONE
 70
 -8000
  9
$LIGHTGLYPHDISPLAY
280
     1
  9
$TILEMODELIGHTSYNCH
280
     1
  9
$CMATERIAL
347
44
  9
$SOLIDHIST
280
     0
  9
$SHOWHIST
280
     1
  9
$DWFFRAME
280
     2
  9
$DGNFRAME
280
     2
  9
$REALWORLDSCALE
290
     1
  9
$INTERFERECOLOR
 62
   256
  9
$CSHADOW
280
     0
  9
$SHADOWPLANELOCATION
 40
0.0
  0
ENDSEC
  0
SECTION
  2
CLASSES
  0
CLASS
  1
ACDBDICTIONARYWDFLT
  2
AcDbDictionaryWithDefault
  3
ObjectDBX Classes
 90
        0
 91
        4
280
     0
281
     0
  0
CLASS
  1
VISUALSTYLE
  2
AcDbVisualStyle
  3
ObjectDBX Classes
 90
     4095
 91
        4
280
     0
281
     0
  0
CLASS
  1
MATERIAL
  2
AcDbMaterial
  3
ObjectDBX Classes
 90
     1153
 91
        4
280
     0
281
     0
  0
CLASS
  1
SCALE
  2
AcDbScale
  3
ObjectDBX Classes
 90
     1153
 91
        4
280
     0
281
     0
  0
CLASS
  1
TABLESTYLE
  2
AcDbTableStyle
  3
ObjectDBX Classes
 90
     4095
 91
        4
280
     0
281
     0
  0
CLASS
  1
MLEADERSTYLE
  2
AcDbMLeaderStyle
  3
ACDB_MLEADERSTYLE_CLASS
 90
     4095
 91
        4
280
     0
281
     0
  0
CLASS
  1
SUN
  2
AcDbSun
  3
SCENEOE
 90
     1153
 91
        4
280
     0
281
     0
  0
CLASS
  1
DICTIONARYVAR
  2
AcDbDictionaryVar
  3
ObjectDBX Classes
 90
        0
 91
        4
280
     0
281
     0
  0
CLASS
  1
CELLSTYLEMAP
  2
AcDbCellStyleMap
  3
ObjectDBX Classes
 90
     1152
 91
        4
280
     0
281
     0
  0
ENDSEC
  0
SECTION
  2
TABLES
  0
TABLE
  2
VPORT
  5
8
330
0
100
AcDbSymbolTable
 70
     1
  0
VPORT
  5
29
330
8
100
AcDbSymbolTableRecord
100
AcDbViewportTableRecord
  2
*Active
 70
     0
 10
0.0
 20
0.0
 11
1.0
 21
1.0
 12
-1.807399999985384
 22
0.0
 13
0.0
 23
0.0
 14
0.5
 24
0.5
 15
0.5
 25
0.5
 16
0.0
 26
0.0
 36
1.0
 17
0.0
 27
0.0
 37
0.0
 40
5.487599999999999
 41
0.7338661710091516
 42
50.0
 43
0.0
 44
0.0
 50
0.0
 51
0.0
 71
     0
 72
   100
 73
     1
 74
     3
 75
     0
 76
     0
 77
     0
 78
     0
281
     0
 65
     1
110
0.0
120
0.0
130
0.0
111
1.0
121
0.0
131
0.0
112
0.0
122
1.0
132
0.0
 79
     0
146
0.0
348
2F
 60
     3
 61
     5
292
     1
282
     1
141
0.0
142
0.0
 63
   250
361
6D
  0
ENDTAB
  0
TABLE
  2
LTYPE
  5
5
330
0
100
AcDbSymbolTable
 70
     3
  0
LTYPE
  5
14
330
5
100
AcDbSymbolTableRecord
100
AcDbLinetypeTableRecord
  2
ByBlock
 70
     0
  3

 72
    65
 73
     0
 40
0.0
  0
LTYPE
  5
15
330
5
100
AcDbSymbolTableRecord
100
AcDbLinetypeTableRecord
  2
ByLayer
 70
     0
  3

 72
    65
 73
     0
 40
0.0
  0
LTYPE
  5
16
330
5
100
AcDbSymbolTableRecord
100
AcDbLinetypeTableRecord
  2
Continuous
 70
     0
  3
Solid line
 72
    65
 73
     0
 40
0.0
  0
LTYPE
  5
9C
330
5
100
AcDbSymbolTableRecord
100
AcDbLinetypeTableRecord
  2
Dashed
 70
     0
  3

 72
    65
 73
     2
 40
2.0
 49
1.0
 74
     0
 49
-1.0
 74
     0
  0
LTYPE
  5
18D
330
5
100
AcDbSymbolTableRecord
100
AcDbLinetypeTableRecord
  2
Center
 70
     0
  3

 72
    65
 73
     4
 40
1.5
 49
0.45
 74
     0
 49
-0.5
 74
     0
 49
0.05
 74
     0
 49
-0.5
 74
     0
  0
ENDTAB
  0
TABLE
  2
LAYER
  5
2
330
0
100
AcDbSymbolTable
 70
     7
  0
LAYER
  5
10
330
2
100
AcDbSymbolTableRecord
100
AcDbLayerTableRecord
  2
0
 70
     0
 62
     7
  6
Continuous
370
    -3
390
F
347
46
348
0
  0
LAYER
  5
72
330
2
100
AcDbSymbolTableRecord
100
AcDbLayerTableRecord
  2
AM_6
 70
     0
 62
    -2
  6
Continuous
370
    35
390
F
347
46
348
0
  0
LAYER
  5
9D
330
2
100
AcDbSymbolTableRecord
100
AcDbLayerTableRecord
  2
AM_9
 70
     0
 62
     6
  6
Dashed
370
    25
390
F
347
46
348
0
  0
LAYER
  5
A9
330
2
100
AcDbSymbolTableRecord
100
AcDbLayerTableRecord
  2
AM_5
 70
     0
 62
     3
  6
Continuous
370
    25
390
F
347
46
348
0
  0
LAYER
  5
AD
330
2
100
AcDbSymbolTableRecord
100
AcDbLayerTableRecord
  2
AM_4
 70
     0
 62
     7
  6
Continuous
370
    50
390
F
347
46
348
0
  0
LAYER
  5
18E
330
2
100
AcDbSymbolTableRecord
100
AcDbLayerTableRecord
  2
AM_7
 70
     0
 62
     7
  6
Center
370
    25
390
F
347
46
348
0
  0
LAYER
  5
240
330
2
100
AcDbSymbolTableRecord
100
AcDbLayerTableRecord
  2
ConnectionPoints
 70
     0
 62
     7
  6
Continuous
370
    50
390
F
347
46
348
0
  0
ENDTAB
  0
TABLE
  2
STYLE
  5
3
330
0
100
AcDbSymbolTable
 70
     1
  0
STYLE
  5
11
330
3
100
AcDbSymbolTableRecord
100
AcDbTextStyleTableRecord
  2
Standard
 70
     0
 40
0.0
 41
1.0
 50
0.0
 71
     0
 42
0.2
  3
txt
  4

  0
ENDTAB
  0
TABLE
  2
VIEW
  5
6
330
0
100
AcDbSymbolTable
 70
     0
  0
ENDTAB
  0
TABLE
  2
UCS
  5
7
330
0
100
AcDbSymbolTable
 70
     0
  0
ENDTAB
  0
TABLE
  2
APPID
  5
9
330
0
100
AcDbSymbolTable
 70
     1
  0
APPID
  5
12
330
9
100
AcDbSymbolTableRecord
100
AcDbRegAppTableRecord
  2
ACAD
 70
     0
  0
ENDTAB
  0
TABLE
  2
DIMSTYLE
  5
A
330
0
100
AcDbSymbolTable
 70
     1
100
AcDbDimStyleTable
  0
DIMSTYLE
105
27
330
A
100
AcDbSymbolTableRecord
100
AcDbDimStyleTableRecord
  2
Standard
 70
     0
178
     0
340
11
  0
ENDTAB
  0
TABLE
  2
BLOCK_RECORD
  5
1
330
0
100
AcDbSymbolTable
 70
     8
  0
BLOCK_RECORD
  5
1F
330
1
100
AcDbSymbolTableRecord
100
AcDbBlockTableRecord
  2
*Model_Space
340
22
 70
     0
280
     1
281
     0
  0
BLOCK_RECORD
  5
1B
330
1
100
AcDbSymbolTableRecord
100
AcDbBlockTableRecord
  2
*Paper_Space
340
1E
 70
     0
280
     1
281
     0
  0
BLOCK_RECORD
  5
23
330
1
100
AcDbSymbolTableRecord
100
AcDbBlockTableRecord
  2
*Paper_Space0
340
26
 70
     0
280
     1
281
     0
  0
BLOCK_RECORD
  5
6E
330
1
100
AcDbSymbolTableRecord
100
AcDbBlockTableRecord
  2
1_071340_2
340
0
102
{BLKREFS
331
6F
102
}
 70
     0
280
     1
281
     0
  0
BLOCK_RECORD
  5
8C
330
1
100
AcDbSymbolTableRecord
100
AcDbBlockTableRecord
  2
2_ASME_B18_3_10_1_0_in_071340_2
340
0
102
{BLKREFS
331
8D
102
}
 70
     0
280
     1
281
     0
  0
BLOCK_RECORD
  5
B4
330
1
100
AcDbSymbolTableRecord
100
AcDbBlockTableRecord
  2
3_ASME_B18_3_10_2_0_in_071340_2
340
0
102
{BLKREFS
331
B5
102
}
 70
     0
280
     1
281
     0
  0
BLOCK_RECORD
  5
D7
330
1
100
AcDbSymbolTableRecord
100
AcDbBlockTableRecord
  2
4_070885LWE_0_in_071340_2
340
0
102
{BLKREFS
331
D8
102
}
 70
     0
280
     1
281
     0
  0
BLOCK_RECORD
  5
110
330
1
100
AcDbSymbolTableRecord
100
AcDbBlockTableRecord
  2
5_070885EL_0_in_071340_2
340
0
102
{BLKREFS
331
111
102
}
 70
     0
280
     1
281
     0
  0
BLOCK_RECORD
  5
19F
330
1
100
AcDbSymbolTableRecord
100
AcDbBlockTableRecord
  2
6_405015E_Inch_0_in_071340_2
340
0
102
{BLKREFS
331
1A0
102
}
 70
     0
280
     1
281
     0
  0
BLOCK_RECORD
  5
1DE
330
1
100
AcDbSymbolTableRecord
100
AcDbBlockTableRecord
  2
7_071290LH_0_in_071340_2
340
0
102
{BLKREFS
331
1DF
102
}
 70
     0
280
     1
281
     0
  0
ENDTAB
  0
ENDSEC
  0
SECTION
  2
BLOCKS
  0
BLOCK
  5
20
330
1F
100
AcDbEntity
  8
0
100
AcDbBlockBegin
  2
*Model_Space
 70
     0
 10
0.0
 20
0.0
 30
0.0
  3
*Model_Space
  1

  0
ENDBLK
  5
21
330
1F
100
AcDbEntity
  8
0
100
AcDbBlockEnd
  0
BLOCK
  5
1C
330
1B
100
AcDbEntity
 67
     1
  8
0
100
AcDbBlockBegin
  2
*Paper_Space
 70
     0
 10
0.0
 20
0.0
 30
0.0
  3
*Paper_Space
  1

  0
ENDBLK
  5
1D
330
1B
100
AcDbEntity
 67
     1
  8
0
100
AcDbBlockEnd
  0
BLOCK
  5
24
330
23
100
AcDbEntity
  8
0
100
AcDbBlockBegin
  2
*Paper_Space0
 70
     0
 10
0.0
 20
0.0
 30
0.0
  3
*Paper_Space0
  1

  0
ENDBLK
  5
25
330
23
100
AcDbEntity
  8
0
100
AcDbBlockEnd
  0
BLOCK
  5
70
330
6E
100
AcDbEntity
  8
0
100
AcDbBlockBegin
  2
1_071340_2
 70
     2
 10
0.0
 20
0.0
 30
0.0
  3
1_071340_2
  1

  0
ATTDEF
  5
73
330
6E
100
AcDbEntity
  8
AM_6
100
AcDbText
 10
5.166700000029234
 20
2.69
 30
0.0
 40
0.5
  1
Imperial - IP Flange - Square with Type E Dimensions 1-3/8 thru 2-3/16 inch Labyrinth Seal Expansion
100
AcDbAttributeDefinition
  3

  2
NN
 70
     8
280
     0
  0
ATTDEF
  5
74
330
6E
100
AcDbEntity
  8
AM_6
100
AcDbText
 10
5.166700000029234
 20
2.19
 30
0.0
 40
0.5
  1
Imperial/E 4 Bolt Square Flange Bearings
100
AcDbAttributeDefinition
  3

  2
NT
 70
     8
280
     0
  0
ATTDEF
  5
75
330
6E
100
AcDbEntity
  8
AM_6
100
AcDbText
 10
5.166700000029234
 20
1.69
 30
0.0
 40
0.5
  1
071340
100
AcDbAttributeDefinition
  3

  2
NB
 70
     8
280
     0
  0
ATTDEF
  5
76
330
6E
100
AcDbEntity
  8
AM_6
100
AcDbText
 10
5.166700000029234
 20
1.19
 30
0.0
 40
0.5
  1
$PN.
100
AcDbAttributeDefinition
  3

  2
NBSYN
 70
     8
280
     0
  0
ATTDEF
  5
77
330
6E
100
AcDbEntity
  8
AM_6
100
AcDbText
 10
5.166700000029234
 20
0.69
 30
0.0
 40
0.5
  1
071340
100
AcDbAttributeDefinition
  3

  2
LINA
 70
     8
280
     0
  0
ATTDEF
  5
78
330
6E
100
AcDbEntity
  8
AM_6
100
AcDbText
 10
5.166700000029234
 20
0.1899999999999999
 30
0.0
 40
0.5
  1
1-1/2
100
AcDbAttributeDefinition
  3

  2
SS
 70
     8
280
     0
  0
ATTDEF
  5
79
330
6E
100
AcDbEntity
  8
AM_6
100
AcDbText
 10
5.166700000029234
 20
-0.3100000000000001
 30
0.0
 40
0.5
  1
Non-Expansion
100
AcDbAttributeDefinition
  3

  2
TYPE
 70
     8
280
     0
  0
ATTDEF
  5
7A
330
6E
100
AcDbEntity
  8
AM_6
100
AcDbText
 10
5.166700000029234
 20
-0.81
 30
0.0
 40
0.5
  1
071340
100
AcDbAttributeDefinition
  3

  2
PN
 70
     8
280
     0
  0
ATTDEF
  5
7B
330
6E
100
AcDbEntity
  8
AM_6
100
AcDbText
 10
5.166700000029234
 20
-1.31
 30
0.0
 40
0.5
  1
EF4B-IP-108L
100
AcDbAttributeDefinition
  3

  2
DESCRIPTION
 70
     8
280
     0
  0
ATTDEF
  5
7C
330
6E
100
AcDbEntity
  8
AM_6
100
AcDbText
 10
5.166700000029234
 20
-1.81
 30
0.0
 40
0.5
  1
Labyrinth Seal
100
AcDbAttributeDefinition
  3

  2
ST
 70
     8
280
     0
  0
ATTDEF
  5
7D
330
6E
100
AcDbEntity
  8
AM_6
100
AcDbText
 10
5.166700000029234
 20
-2.31
 30
0.0
 40
0.5
  1
2.81
100
AcDbAttributeDefinition
  3

  2
A
 70
     8
280
     0
  0
ATTDEF
  5
7E
330
6E
100
AcDbEntity
  8
AM_6
100
AcDbText
 10
5.166700000029234
 20
-2.81
 30
0.0
 40
0.5
  1
5.38
100
AcDbAttributeDefinition
  3

  2
B
 70
     8
280
     0
  0
ATTDEF
  5
7F
330
6E
100
AcDbEntity
  8
AM_6
100
AcDbText
 10
5.166700000029234
 20
-3.31
 30
0.0
 40
0.5
  1
3.64
100
AcDbAttributeDefinition
  3

  2
C
 70
     8
280
     0
  0
ATTDEF
  5
80
330
6E
100
AcDbEntity
  8
AM_6
100
AcDbText
 10
5.166700000029234
 20
-3.81
 30
0.0
 40
0.5
  1
4.13
100
AcDbAttributeDefinition
  3

  2
D
 70
     8
280
     0
  0
ATTDEF
  5
81
330
6E
100
AcDbEntity
  8
AM_6
100
AcDbText
 10
5.166700000029234
 20
-4.31
 30
0.0
 40
0.5
  1
1/2
100
AcDbAttributeDefinition
  3

  2
F
 70
     8
280
     0
  0
ATTDEF
  5
82
330
6E
100
AcDbEntity
  8
AM_6
100
AcDbText
 10
5.166700000029234
 20
-4.81
 30
0.0
 40
0.5
  1
0.67
100
AcDbAttributeDefinition
  3

  2
G
 70
     8
280
     0
  0
ATTDEF
  5
83
330
6E
100
AcDbEntity
  8
AM_6
100
AcDbText
 10
5.166700000029234
 20
-5.31
 30
0.0
 40
0.5
  1
1.19
100
AcDbAttributeDefinition
  3

  2
H
 70
     8
280
     0
  0
ATTDEF
  5
84
330
6E
100
AcDbEntity
  8
AM_6
100
AcDbText
 10
5.166700000029234
 20
-5.81
 30
0.0
 40
0.5
  1
4.18
100
AcDbAttributeDefinition
  3

  2
J
 70
     8
280
     0
  0
ATTDEF
  5
85
330
6E
100
AcDbEntity
  8
AM_6
100
AcDbText
 10
5.166700000029234
 20
-6.31
 30
0.0
 40
0.5
  1
3
100
AcDbAttributeDefinition
  3

  2
L
 70
     8
280
     0
  0
ATTDEF
  5
86
330
6E
100
AcDbEntity
  8
AM_6
100
AcDbText
 10
5.166700000029234
 20
-6.81
 30
0.0
 40
0.5
  1
2.5
100
AcDbAttributeDefinition
  3

  2
N
 70
     8
280
     0
  0
ATTDEF
  5
87
330
6E
100
AcDbEntity
  8
AM_6
100
AcDbText
 10
5.166700000029234
 20
-7.31
 30
0.0
 40
0.5
  1
0.83
100
AcDbAttributeDefinition
  3

  2
P
 70
     8
280
     0
  0
ATTDEF
  5
88
330
6E
100
AcDbEntity
  8
AM_6
100
AcDbText
 10
5.166700000029234
 20
-7.81
 30
0.0
 40
0.5
  1
0.19
100
AcDbAttributeDefinition
  3

  2
X
 70
     8
280
     0
  0
ATTDEF
  5
89
330
6E
100
AcDbEntity
  8
AM_6
100
AcDbText
 10
5.166700000029234
 20
-8.31
 30
0.0
 40
0.5
  1
0.020
100
AcDbAttributeDefinition
  3

  2
Y
 70
     8
280
     0
  0
ATTDEF
  5
8A
330
6E
100
AcDbEntity
  8
AM_6
100
AcDbText
 10
5.166700000029234
 20
-8.81
 30
0.0
 40
0.5
  1
2.08
100
AcDbAttributeDefinition
  3

  2
Z
 70
     8
280
     0
  0
ATTDEF
  5
8B
330
6E
100
AcDbEntity
  8
AM_6
100
AcDbText
 10
5.166700000029234
 20
-9.31
 30
0.0
 40
0.5
  1
baldor
100
AcDbAttributeDefinition
  3

  2
COMPANY
 70
     8
280
     0
  0
INSERT
  5
8D
330
6E
100
AcDbEntity
  8
0
100
AcDbBlockReference
  2
2_ASME_B18_3_10_1_0_in_071340_2
 10
0.0
 20
0.0
 30
0.0
  0
INSERT
  5
B5
330
6E
100
AcDbEntity
  8
0
100
AcDbBlockReference
  2
3_ASME_B18_3_10_2_0_in_071340_2
 10
0.0
 20
0.0
 30
0.0
  0
INSERT
  5
D8
330
6E
100
AcDbEntity
  8
0
100
AcDbBlockReference
  2
4_070885LWE_0_in_071340_2
 10
0.0
 20
0.0
 30
0.0
  0
INSERT
  5
111
330
6E
100
AcDbEntity
  8
0
100
AcDbBlockReference
  2
5_070885EL_0_in_071340_2
 10
0.0
 20
0.0
 30
0.0
  0
INSERT
  5
1A0
330
6E
100
AcDbEntity
  8
0
100
AcDbBlockReference
  2
6_405015E_Inch_0_in_071340_2
 10
0.0
 20
0.0
 30
0.0
  0
INSERT
  5
1DF
330
6E
100
AcDbEntity
  8
0
100
AcDbBlockReference
  2
7_071290LH_0_in_071340_2
 10
0.0
 20
0.0
 30
0.0
  0
ENDBLK
  5
71
330
6E
100
AcDbEntity
  8
0
100
AcDbBlockEnd
  0
BLOCK
  5
8E
330
8C
100
AcDbEntity
  8
0
100
AcDbBlockBegin
  2
2_ASME_B18_3_10_1_0_in_071340_2
 70
     2
 10
0.0
 20
0.0
 30
0.0
  3
2_ASME_B18_3_10_1_0_in_071340_2
  1

  0
ATTDEF
  5
90
330
8C
100
AcDbEntity
  8
AM_6
100
AcDbText
 10
2.321666666666667
 20
-0.9158541666666666
 30
0.0
 40
0.5
  1
ANSI/ASME B18.3-1998
100
AcDbAttributeDefinition
  3

  2
NN
 70
     8
280
     0
  0
ATTDEF
  5
91
330
8C
100
AcDbEntity
  8
AM_6
100
AcDbText
 10
2.321666666666667
 20
-1.415854166666667
 30
0.0
 40
0.5
  1
Socket Button Head Cap Screws
100
AcDbAttributeDefinition
  3

  2
NT
 70
     8
280
     0
  0
ATTDEF
  5
92
330
8C
100
AcDbEntity
  8
AM_6
100
AcDbText
 10
2.321666666666667
 20
-1.915854166666667
 30
0.0
 40
0.5
  1
ASME B18.3-10
100
AcDbAttributeDefinition
  3

  2
NB
 70
     8
280
     0
  0
ATTDEF
  5
93
330
8C
100
AcDbEntity
  8
AM_6
100
AcDbText
 10
2.321666666666667
 20
-2.415854166666667
 30
0.0
 40
0.5
  1
ASME B18.3-$NS.
100
AcDbAttributeDefinition
  3

  2
NBSYN
 70
     8
280
     0
  0
ATTDEF
  5
94
330
8C
100
AcDbEntity
  8
AM_6
100
AcDbText
 10
2.321666666666667
 20
-2.915854166666667
 30
0.0
 40
0.5
  1
ASME B18.3-10
100
AcDbAttributeDefinition
  3

  2
LINA
 70
     8
280
     0
  0
ATTDEF
  5
95
330
8C
100
AcDbEntity
  8
AM_6
100
AcDbText
 10
2.321666666666667
 20
-3.415854166666667
 30
0.0
 40
0.5
  1
10
100
AcDbAttributeDefinition
  3

  2
NS
 70
     8
280
     0
  0
ATTDEF
  5
96
330
8C
100
AcDbEntity
  8
AM_6
100
AcDbText
 10
2.321666666666667
 20
-3.915854166666667
 30
0.0
 40
0.5
  1
0.361
100
AcDbAttributeDefinition
  3

  2
A
 70
     8
280
     0
  0
ATTDEF
  5
97
330
8C
100
AcDbEntity
  8
AM_6
100
AcDbText
 10
2.321666666666667
 20
-4.415854166666667
 30
0.0
 40
0.5
  1
0.101
100
AcDbAttributeDefinition
  3

  2
H
 70
     8
280
     0
  0
ATTDEF
  5
98
330
8C
100
AcDbEntity
  8
AM_6
100
AcDbText
 10
2.321666666666667
 20
-4.915854166666667
 30
0.0
 40
0.5
  1
0.800
100
AcDbAttributeDefinition
  3

  2
L
 70
     8
280
     0
  0
ATTDEF
  5
99
330
8C
100
AcDbEntity
  8
AM_6
100
AcDbText
 10
2.321666666666667
 20
-5.415854166666667
 30
0.0
 40
0.5
  1
0.020
100
AcDbAttributeDefinition
  3

  2
S
 70
     8
280
     0
  0
ATTDEF
  5
9A
330
8C
100
AcDbEntity
  8
AM_6
100
AcDbText
 10
2.321666666666667
 20
-5.915854166666667
 30
0.0
 40
0.5
  1
0.125000
100
AcDbAttributeDefinition
  3

  2
J
 70
     8
280
     0
  0
ATTDEF
  5
9B
330
8C
100
AcDbEntity
  8
AM_6
100
AcDbText
 10
2.321666666666667
 20
-6.415854166666667
 30
0.0
 40
0.5
  1
baldor
100
AcDbAttributeDefinition
  3

  2
COMPANY
 70
     8
280
     0
  0
LINE
  5
9E
330
8C
100
AcDbEntity
  8
AM_9
100
AcDbLine
 10
-3.518333333333333
 20
-1.024185383017963
 30
0.0
 11
-3.579333333333333
 21
-1.024185383017963
 31
0.0
  0
LINE
  5
9F
330
8C
100
AcDbEntity
  8
AM_9
100
AcDbLine
 10
-3.518333333333333
 20
-1.16852295031537
 30
0.0
 11
-3.579333333333333
 21
-1.16852295031537
 31
0.0
  0
LINE
  5
A0
330
8C
100
AcDbEntity
  8
AM_9
100
AcDbLine
 10
-3.518333333333333
 20
-1.024185383017963
 30
0.0
 11
-3.518333333333333
 21
-1.16852295031537
 31
0.0
  0
LINE
  5
A1
330
8C
100
AcDbEntity
  8
AM_9
100
AcDbLine
 10
-3.518333333333333
 20
-1.060269774842315
 30
0.0
 11
-3.579333333333333
 21
-1.060269774842315
 31
0.0
  0
LINE
  5
A2
330
8C
100
AcDbEntity
  8
AM_9
100
AcDbLine
 10
-3.518333333333333
 20
-1.132438558491018
 30
0.0
 11
-3.579333333333333
 21
-1.132438558491018
 31
0.0
  0
LINE
  5
A3
330
8C
100
AcDbEntity
  8
AM_9
100
AcDbLine
 10
-2.678333333333333
 20
-1.019954166666666
 30
0.0
 11
-2.678333333333333
 21
-1.172754166666667
 31
0.0
  0
LINE
  5
A4
330
8C
100
AcDbEntity
  8
AM_9
100
AcDbLine
 10
-2.678333333333333
 20
-1.019954166666666
 30
0.0
 11
-2.696933333333333
 21
-1.001354166666667
 31
0.0
  0
LINE
  5
A5
330
8C
100
AcDbEntity
  8
AM_9
100
AcDbLine
 10
-2.696933333333333
 20
-1.191354166666666
 30
0.0
 11
-2.678333333333333
 21
-1.172754166666667
 31
0.0
  0
LINE
  5
A6
330
8C
100
AcDbEntity
  8
AM_9
100
AcDbLine
 10
-2.696933333333333
 20
-1.001354166666667
 30
0.0
 11
-2.696933333333333
 21
-1.191354166666666
 31
0.0
  0
LINE
  5
A7
330
8C
100
AcDbEntity
  8
AM_9
100
AcDbLine
 10
-3.478333333333333
 20
-1.191354166666666
 30
0.0
 11
-2.696933333333333
 21
-1.191354166666666
 31
0.0
  0
LINE
  5
A8
330
8C
100
AcDbEntity
  8
AM_9
100
AcDbLine
 10
-2.696933333333333
 20
-1.001354166666667
 30
0.0
 11
-3.478333333333333
 21
-1.001354166666667
 31
0.0
  0
LINE
  5
AA
330
8C
100
AcDbEntity
  8
AM_5
100
AcDbLine
 10
-3.398333333333333
 20
-1.172754166666667
 30
0.0
 11
-3.430549478354115
 21
-1.191354166666666
 31
0.0
  0
LINE
  5
AB
330
8C
100
AcDbEntity
  8
AM_5
100
AcDbLine
 10
-3.398333333333333
 20
-1.001354166666667
 30
0.0
 11
-3.398333333333333
 21
-1.191354166666653
 31
0.0
  0
LINE
  5
AC
330
8C
100
AcDbEntity
  8
AM_5
100
AcDbLine
 10
-3.398333333333333
 20
-1.019954166666666
 30
0.0
 11
-3.430549478354115
 21
-1.001354166666666
 31
0.0
  0
LINE
  5
AE
330
8C
100
AcDbEntity
  8
AM_4
100
AcDbLine
 10
-3.579333333333333
 20
-0.9968541666666666
 30
0.0
 11
-3.579333333333333
 21
-1.195854166666667
 31
0.0
  0
ARC
  5
AF
330
8C
100
AcDbEntity
  8
AM_4
100
AcDbCircle
 10
-3.498333333333332
 20
-1.195854166666665
 30
0.0
 40
0.0810000000000013
100
AcDbArc
 50
180.0
 51
270.0
  0
ARC
  5
B0
330
8C
100
AcDbEntity
  8
AM_4
100
AcDbCircle
 10
-3.498333333333334
 20
-0.9968541666666666
 30
0.0
 40
0.081
100
AcDbArc
 50
90.0
 51
180.0
  0
LINE
  5
B1
330
8C
100
AcDbEntity
  8
AM_4
100
AcDbLine
 10
-3.498333333333333
 20
-0.9158541666666666
 30
0.0
 11
-3.498333333333333
 21
-1.276854166666666
 31
0.0
  0
LINE
  5
B2
330
8C
100
AcDbEntity
  8
AM_4
100
AcDbLine
 10
-3.498333333333333
 20
-1.276854166666666
 30
0.0
 11
-3.478333333333333
 21
-1.276854166666666
 31
0.0
  0
LINE
  5
B3
330
8C
100
AcDbEntity
  8
AM_4
100
AcDbLine
 10
-3.478333333333333
 20
-0.9158541666666666
 30
0.0
 11
-3.498333333333333
 21
-0.9158541666666666
 31
0.0
  0
ENDBLK
  5
8F
330
8C
100
AcDbEntity
  8
0
100
AcDbBlockEnd
  0
BLOCK
  5
B6
330
B4
100
AcDbEntity
  8
0
100
AcDbBlockBegin
  2
3_ASME_B18_3_10_2_0_in_071340_2
 70
     2
 10
0.0
 20
0.0
 30
0.0
  3
3_ASME_B18_3_10_2_0_in_071340_2
  1

  0
ATTDEF
  5
B8
330
B4
100
AcDbEntity
  8
AM_6
100
AcDbText
 10
2.321666666666667
 20
1.276854166666666
 30
0.0
 40
0.5
  1
ANSI/ASME B18.3-1998
100
AcDbAttributeDefinition
  3

  2
NN
 70
     8
280
     0
  0
ATTDEF
  5
B9
330
B4
100
AcDbEntity
  8
AM_6
100
AcDbText
 10
2.321666666666667
 20
0.7768541666666664
 30
0.0
 40
0.5
  1
Socket Button Head Cap Screws
100
AcDbAttributeDefinition
  3

  2
NT
 70
     8
280
     0
  0
ATTDEF
  5
BA
330
B4
100
AcDbEntity
  8
AM_6
100
AcDbText
 10
2.321666666666667
 20
0.2768541666666664
 30
0.0
 40
0.5
  1
ASME B18.3-10
100
AcDbAttributeDefinition
  3

  2
NB
 70
     8
280
     0
  0
ATTDEF
  5
BB
330
B4
100
AcDbEntity
  8
AM_6
100
AcDbText
 10
2.321666666666667
 20
-0.2231458333333336
 30
0.0
 40
0.5
  1
ASME B18.3-$NS.
100
AcDbAttributeDefinition
  3

  2
NBSYN
 70
     8
280
     0
  0
ATTDEF
  5
BC
330
B4
100
AcDbEntity
  8
AM_6
100
AcDbText
 10
2.321666666666667
 20
-0.7231458333333336
 30
0.0
 40
0.5
  1
ASME B18.3-10
100
AcDbAttributeDefinition
  3

  2
LINA
 70
     8
280
     0
  0
ATTDEF
  5
BD
330
B4
100
AcDbEntity
  8
AM_6
100
AcDbText
 10
2.321666666666667
 20
-1.223145833333334
 30
0.0
 40
0.5
  1
10
100
AcDbAttributeDefinition
  3

  2
NS
 70
     8
280
     0
  0
ATTDEF
  5
BE
330
B4
100
AcDbEntity
  8
AM_6
100
AcDbText
 10
2.321666666666667
 20
-1.723145833333334
 30
0.0
 40
0.5
  1
0.361
100
AcDbAttributeDefinition
  3

  2
A
 70
     8
280
     0
  0
ATTDEF
  5
BF
330
B4
100
AcDbEntity
  8
AM_6
100
AcDbText
 10
2.321666666666667
 20
-2.223145833333334
 30
0.0
 40
0.5
  1
0.101
100
AcDbAttributeDefinition
  3

  2
H
 70
     8
280
     0
  0
ATTDEF
  5
C0
330
B4
100
AcDbEntity
  8
AM_6
100
AcDbText
 10
2.321666666666667
 20
-2.723145833333334
 30
0.0
 40
0.5
  1
0.800
100
AcDbAttributeDefinition
  3

  2
L
 70
     8
280
     0
  0
ATTDEF
  5
C1
330
B4
100
AcDbEntity
  8
AM_6
100
AcDbText
 10
2.321666666666667
 20
-3.223145833333334
 30
0.0
 40
0.5
  1
0.020
100
AcDbAttributeDefinition
  3

  2
S
 70
     8
280
     0
  0
ATTDEF
  5
C2
330
B4
100
AcDbEntity
  8
AM_6
100
AcDbText
 10
2.321666666666667
 20
-3.723145833333334
 30
0.0
 40
0.5
  1
0.125000
100
AcDbAttributeDefinition
  3

  2
J
 70
     8
280
     0
  0
ATTDEF
  5
C3
330
B4
100
AcDbEntity
  8
AM_6
100
AcDbText
 10
2.321666666666667
 20
-4.223145833333334
 30
0.0
 40
0.5
  1
baldor
100
AcDbAttributeDefinition
  3

  2
COMPANY
 70
     8
280
     0
  0
LINE
  5
C4
330
B4
100
AcDbEntity
  8
AM_9
100
AcDbLine
 10
-3.518333333333333
 20
1.16852295031537
 30
0.0
 11
-3.579333333333333
 21
1.16852295031537
 31
0.0
  0
LINE
  5
C5
330
B4
100
AcDbEntity
  8
AM_9
100
AcDbLine
 10
-3.518333333333333
 20
1.024185383017963
 30
0.0
 11
-3.579333333333333
 21
1.024185383017963
 31
0.0
  0
LINE
  5
C6
330
B4
100
AcDbEntity
  8
AM_9
100
AcDbLine
 10
-3.518333333333333
 20
1.132438558491018
 30
0.0
 11
-3.579333333333333
 21
1.132438558491018
 31
0.0
  0
LINE
  5
C7
330
B4
100
AcDbEntity
  8
AM_9
100
AcDbLine
 10
-3.518333333333333
 20
1.16852295031537
 30
0.0
 11
-3.518333333333333
 21
1.024185383017963
 31
0.0
  0
LINE
  5
C8
330
B4
100
AcDbEntity
  8
AM_9
100
AcDbLine
 10
-3.518333333333333
 20
1.060269774842315
 30
0.0
 11
-3.579333333333333
 21
1.060269774842315
 31
0.0
  0
LINE
  5
C9
330
B4
100
AcDbEntity
  8
AM_9
100
AcDbLine
 10
-2.678333333333333
 20
1.172754166666667
 30
0.0
 11
-2.678333333333333
 21
1.019954166666666
 31
0.0
  0
LINE
  5
CA
330
B4
100
AcDbEntity
  8
AM_9
100
AcDbLine
 10
-2.678333333333333
 20
1.172754166666667
 30
0.0
 11
-2.696933333333333
 21
1.191354166666666
 31
0.0
  0
LINE
  5
CB
330
B4
100
AcDbEntity
  8
AM_9
100
AcDbLine
 10
-2.696933333333333
 20
1.001354166666667
 30
0.0
 11
-2.678333333333333
 21
1.019954166666666
 31
0.0
  0
LINE
  5
CC
330
B4
100
AcDbEntity
  8
AM_9
100
AcDbLine
 10
-2.696933333333333
 20
1.191354166666666
 30
0.0
 11
-2.696933333333333
 21
1.001354166666667
 31
0.0
  0
LINE
  5
CD
330
B4
100
AcDbEntity
  8
AM_9
100
AcDbLine
 10
-3.478333333333333
 20
1.001354166666667
 30
0.0
 11
-2.696933333333333
 21
1.001354166666667
 31
0.0
  0
LINE
  5
CE
330
B4
100
AcDbEntity
  8
AM_9
100
AcDbLine
 10
-2.696933333333333
 20
1.191354166666666
 30
0.0
 11
-3.478333333333333
 21
1.191354166666666
 31
0.0
  0
LINE
  5
CF
330
B4
100
AcDbEntity
  8
AM_5
100
AcDbLine
 10
-3.398333333333333
 20
1.019954166666666
 30
0.0
 11
-3.430549478354115
 21
1.001354166666666
 31
0.0
  0
LINE
  5
D0
330
B4
100
AcDbEntity
  8
AM_5
100
AcDbLine
 10
-3.398333333333333
 20
1.191354166666654
 30
0.0
 11
-3.398333333333333
 21
1.001354166666667
 31
0.0
  0
LINE
  5
D1
330
B4
100
AcDbEntity
  8
AM_4
100
AcDbLine
 10
-3.579333333333333
 20
1.195854166666667
 30
0.0
 11
-3.579333333333333
 21
0.9968541666666666
 31
0.0
  0
ARC
  5
D2
330
B4
100
AcDbEntity
  8
AM_4
100
AcDbCircle
 10
-3.498333333333333
 20
0.996854166666667
 30
0.0
 40
0.0810000000000004
100
AcDbArc
 50
180.0
 51
270.0
  0
ARC
  5
D3
330
B4
100
AcDbEntity
  8
AM_4
100
AcDbCircle
 10
-3.498333333333332
 20
1.195854166666665
 30
0.0
 40
0.0810000000000011
100
AcDbArc
 50
90.0
 51
180.0
  0
LINE
  5
D4
330
B4
100
AcDbEntity
  8
AM_4
100
AcDbLine
 10
-3.498333333333333
 20
1.276854166666666
 30
0.0
 11
-3.498333333333333
 21
0.9158541666666666
 31
0.0
  0
LINE
  5
D5
330
B4
100
AcDbEntity
  8
AM_4
100
AcDbLine
 10
-3.498333333333333
 20
0.9158541666666666
 30
0.0
 11
-3.478333333333333
 21
0.9158541666666666
 31
0.0
  0
LINE
  5
D6
330
B4
100
AcDbEntity
  8
AM_4
100
AcDbLine
 10
-3.478333333333333
 20
1.276854166666666
 30
0.0
 11
-3.498333333333333
 21
1.276854166666666
 31
0.0
  0
ENDBLK
  5
B7
330
B4
100
AcDbEntity
  8
0
100
AcDbBlockEnd
  0
BLOCK
  5
D9
330
D7
100
AcDbEntity
  8
0
100
AcDbBlockBegin
  2
4_070885LWE_0_in_071340_2
 70
     2
 10
0.0
 20
0.0
 30
0.0
  3
4_070885LWE_0_in_071340_2
  1

  0
ATTDEF
  5
DB
330
D7
100
AcDbEntity
  8
AM_6
100
AcDbText
 10
1.961666666666667
 20
1.359375
 30
0.0
 40
0.5
  1
Imperial/E Insert Lockwasher -Inch
100
AcDbAttributeDefinition
  3

  2
NN
 70
     8
280
     0
  0
ATTDEF
  5
DC
330
D7
100
AcDbEntity
  8
AM_6
100
AcDbText
 10
1.961666666666667
 20
0.8593750000000002
 30
0.0
 40
0.5
  1
Imperial/E Bearings
100
AcDbAttributeDefinition
  3

  2
NT
 70
     8
280
     0
  0
ATTDEF
  5
DD
330
D7
100
AcDbEntity
  8
AM_6
100
AcDbText
 10
1.961666666666667
 20
0.3593750000000002
 30
0.0
 40
0.5
  1
070885LWE
100
AcDbAttributeDefinition
  3

  2
NB
 70
     8
280
     0
  0
ATTDEF
  5
DE
330
D7
100
AcDbEntity
  8
AM_6
100
AcDbText
 10
1.961666666666667
 20
-0.1406249999999998
 30
0.0
 40
0.5
  1
$PN.LWE
100
AcDbAttributeDefinition
  3

  2
NBSYN
 70
     8
280
     0
  0
ATTDEF
  5
DF
330
D7
100
AcDbEntity
  8
AM_6
100
AcDbText
 10
1.961666666666667
 20
-0.6406249999999998
 30
0.0
 40
0.5
  1
070885
100
AcDbAttributeDefinition
  3

  2
LINA
 70
     8
280
     0
  0
ATTDEF
  5
E0
330
D7
100
AcDbEntity
  8
AM_6
100
AcDbText
 10
1.961666666666667
 20
-1.140625
 30
0.0
 40
0.5
  1
1-1/2
100
AcDbAttributeDefinition
  3

  2
SS
 70
     8
280
     0
  0
ATTDEF
  5
E1
330
D7
100
AcDbEntity
  8
AM_6
100
AcDbText
 10
1.961666666666667
 20
-1.640625
 30
0.0
 40
0.5
  1
2.718750
100
AcDbAttributeDefinition
  3

  2
E1
 70
     8
280
     0
  0
ATTDEF
  5
E2
330
D7
100
AcDbEntity
  8
AM_6
100
AcDbText
 10
1.961666666666667
 20
-2.140625
 30
0.0
 40
0.5
  1
1.500000
100
AcDbAttributeDefinition
  3

  2
SS1
 70
     8
280
     0
  0
ATTDEF
  5
E3
330
D7
100
AcDbEntity
  8
AM_6
100
AcDbText
 10
1.961666666666667
 20
-2.640625
 30
0.0
 40
0.5
  1
070885
100
AcDbAttributeDefinition
  3

  2
PN
 70
     8
280
     0
  0
ATTDEF
  5
E4
330
D7
100
AcDbEntity
  8
AM_6
100
AcDbText
 10
1.961666666666667
 20
-3.140625
 30
0.0
 40
0.5
  1
INS-IP-108R
100
AcDbAttributeDefinition
  3

  2
DESCRIPTION
 70
     8
280
     0
  0
ATTDEF
  5
E5
330
D7
100
AcDbEntity
  8
AM_6
100
AcDbText
 10
1.961666666666667
 20
-3.640625
 30
0.0
 40
0.5
  1
3.1496
100
AcDbAttributeDefinition
  3

  2
A
 70
     8
280
     0
  0
ATTDEF
  5
E6
330
D7
100
AcDbEntity
  8
AM_6
100
AcDbText
 10
1.961666666666667
 20
-4.140625
 30
0.0
 40
0.5
  1
61/64
100
AcDbAttributeDefinition
  3

  2
B
 70
     8
280
     0
  0
ATTDEF
  5
E7
330
D7
100
AcDbEntity
  8
AM_6
100
AcDbText
 10
1.961666666666667
 20
-4.640625
 30
0.0
 40
0.5
  1
0.953125
100
AcDbAttributeDefinition
  3

  2
B1
 70
     8
280
     0
  0
ATTDEF
  5
E8
330
D7
100
AcDbEntity
  8
AM_6
100
AcDbText
 10
1.961666666666667
 20
-5.140625
 30
0.0
 40
0.5
  1
2-5/8
100
AcDbAttributeDefinition
  3

  2
C
 70
     8
280
     0
  0
ATTDEF
  5
E9
330
D7
100
AcDbEntity
  8
AM_6
100
AcDbText
 10
1.961666666666667
 20
-5.640625
 30
0.0
 40
0.5
  1
2.625000
100
AcDbAttributeDefinition
  3

  2
C1
 70
     8
280
     0
  0
ATTDEF
  5
EA
330
D7
100
AcDbEntity
  8
AM_6
100
AcDbText
 10
1.961666666666667
 20
-6.140625
 30
0.0
 40
0.5
  1
0.970
100
AcDbAttributeDefinition
  3

  2
D
 70
     8
280
     0
  0
ATTDEF
  5
EB
330
D7
100
AcDbEntity
  8
AM_6
100
AcDbText
 10
1.961666666666667
 20
-6.640625
 30
0.0
 40
0.5
  1
2-23/32
100
AcDbAttributeDefinition
  3

  2
E
 70
     8
280
     0
  0
ATTDEF
  5
EC
330
D7
100
AcDbEntity
  8
AM_6
100
AcDbText
 10
1.961666666666667
 20
-7.140625
 30
0.0
 40
0.5
  1
0.1900
100
AcDbAttributeDefinition
  3

  2
NDM
 70
     8
280
     0
  0
ATTDEF
  5
ED
330
D7
100
AcDbEntity
  8
AM_6
100
AcDbText
 10
1.961666666666667
 20
-7.640625
 30
0.0
 40
0.5
  1
0.1450
100
AcDbAttributeDefinition
  3

  2
KDM
 70
     8
280
     0
  0
ATTDEF
  5
EE
330
D7
100
AcDbEntity
  8
AM_6
100
AcDbText
 10
1.961666666666667
 20
-8.140625
 30
0.0
 40
0.5
  1
2.22
100
AcDbAttributeDefinition
  3

  2
AL
 70
     8
280
     0
  0
ATTDEF
  5
EF
330
D7
100
AcDbEntity
  8
AM_6
100
AcDbText
 10
1.961666666666667
 20
-8.640625
 30
0.0
 40
0.5
  1
0.38
100
AcDbAttributeDefinition
  3

  2
BL
 70
     8
280
     0
  0
ATTDEF
  5
F0
330
D7
100
AcDbEntity
  8
AM_6
100
AcDbText
 10
1.961666666666667
 20
-9.140625
 30
0.0
 40
0.5
  1
0.07
100
AcDbAttributeDefinition
  3

  2
CL
 70
     8
280
     0
  0
ATTDEF
  5
F1
330
D7
100
AcDbEntity
  8
AM_6
100
AcDbText
 10
1.961666666666667
 20
-9.640625
 30
0.0
 40
0.5
  1
0.44
100
AcDbAttributeDefinition
  3

  2
DL
 70
     8
280
     0
  0
ATTDEF
  5
F2
330
D7
100
AcDbEntity
  8
AM_6
100
AcDbText
 10
1.961666666666667
 20
-10.140625
 30
0.0
 40
0.5
  1
baldor
100
AcDbAttributeDefinition
  3

  2
COMPANY
 70
     8
280
     0
  0
LINE
  5
F3
330
D7
100
AcDbEntity
  8
AM_9
100
AcDbLine
 10
-3.408333333333333
 20
0.7075770434422117
 30
0.0
 11
-3.478333333333333
 21
0.7075770434422117
 31
0.0
  0
LINE
  5
F4
330
D7
100
AcDbEntity
  8
AM_9
100
AcDbLine
 10
-3.038333333333333
 20
0.6877236546957105
 30
0.0
 11
-3.408333333333333
 21
0.6877236546957104
 31
0.0
  0
LINE
  5
F5
330
D7
100
AcDbEntity
  8
AM_9
100
AcDbLine
 10
-3.038333333333333
 20
0.6509735709764807
 30
0.0
 11
-3.478333333333333
 21
0.6509735709764807
 31
0.0
  0
LINE
  5
F6
330
D7
100
AcDbEntity
  8
AM_9
100
AcDbLine
 10
-3.408333333333333
 20
0.7604335068450774
 30
0.0
 11
-3.038333333333333
 21
0.7604335068450774
 31
0.0
  0
LINE
  5
F7
330
D7
100
AcDbEntity
  8
AM_9
100
AcDbLine
 10
-3.038333333333333
 20
0.7236834231258478
 30
0.0
 11
-3.478333333333333
 21
0.7236834231258478
 31
0.0
  0
LINE
  5
F8
330
D7
100
AcDbEntity
  8
AM_9
100
AcDbLine
 10
-3.038333333333333
 20
0.6509735709764807
 30
0.0
 11
-3.038333333333333
 21
0.7604335068450774
 31
0.0
  0
LINE
  5
F9
330
D7
100
AcDbEntity
  8
AM_9
100
AcDbLine
 10
-3.408333333333333
 20
0.7802868955915787
 30
0.0
 11
-3.478333333333333
 21
0.7802868955915787
 31
0.0
  0
LINE
  5
FA
330
D7
100
AcDbEntity
  8
AM_9
100
AcDbLine
 10
-3.408333333333333
 20
1.096354166666666
 30
0.0
 11
-3.478333333333333
 21
1.096354166666667
 31
0.0
  0
LINE
  5
FB
330
D7
100
AcDbEntity
  8
AM_9
100
AcDbLine
 10
-3.408333333333333
 20
1.187319953131503
 30
0.0
 11
-3.478333333333333
 21
1.187319953131503
 31
0.0
  0
LINE
  5
FC
330
D7
100
AcDbEntity
  8
AM_9
100
AcDbLine
 10
-3.408333333333333
 20
-1.096354166666667
 30
0.0
 11
-3.478333333333333
 21
-1.096354166666667
 31
0.0
  0
LINE
  5
FD
330
D7
100
AcDbEntity
  8
AM_9
100
AcDbLine
 10
-3.478333333333333
 20
-1.191443622710965
 30
0.0
 11
-3.408333333333333
 21
-1.191443622710965
 31
0.0
  0
LINE
  5
FE
330
D7
100
AcDbEntity
  8
AM_9
100
AcDbLine
 10
-3.408333333333333
 20
0.8052261613532466
 30
0.0
 11
-3.478333333333333
 21
0.8052261613532463
 31
0.0
  0
LINE
  5
FF
330
D7
100
AcDbEntity
  8
AM_9
100
AcDbLine
 10
-3.408333333333333
 20
-0.8052261613532464
 30
0.0
 11
-3.478333333333333
 21
-0.8052261613532464
 31
0.0
  0
LINE
  5
100
330
D7
100
AcDbEntity
  8
AM_9
100
AcDbLine
 10
-3.408333333333333
 20
-0.6365560232944155
 30
0.0
 11
-3.478333333333333
 21
-0.6365560232944155
 31
0.0
  0
LINE
  5
101
330
D7
100
AcDbEntity
  8
AM_9
100
AcDbLine
 10
-3.408333333333333
 20
0.6365560232944156
 30
0.0
 11
-3.478333333333333
 21
0.6365560232944159
 31
0.0
  0
LINE
  5
102
330
D7
100
AcDbEntity
  8
AM_9
100
AcDbLine
 10
-3.408333333333333
 20
0.5022057348689716
 30
0.0
 11
-3.478333333333333
 21
0.5022057348689716
 31
0.0
  0
LINE
  5
103
330
D7
100
AcDbEntity
  8
AM_9
100
AcDbLine
 10
-3.408333333333333
 20
-0.5022057348689715
 30
0.0
 11
-3.478333333333333
 21
-0.5022057348689715
 31
0.0
  0
LINE
  5
104
330
D7
100
AcDbEntity
  8
AM_9
100
AcDbLine
 10
-3.408333333333333
 20
0.8424146100448483
 30
0.0
 11
-3.478333333333333
 21
0.8424146100448483
 31
0.0
  0
LINE
  5
105
330
D7
100
AcDbEntity
  8
AM_9
100
AcDbLine
 10
-3.408333333333333
 20
0.7080643216194044
 30
0.0
 11
-3.478333333333333
 21
0.7080643216194044
 31
0.0
  0
LINE
  5
106
330
D7
100
AcDbEntity
  8
AM_9
100
AcDbLine
 10
-3.408333333333333
 20
0.8703027331320835
 30
0.0
 11
-3.478333333333333
 21
0.8703027331320835
 31
0.0
  0
LINE
  5
107
330
D7
100
AcDbEntity
  8
AM_9
100
AcDbLine
 10
-3.408333333333333
 20
-0.7080643216194041
 30
0.0
 11
-3.478333333333333
 21
-0.7080643216194041
 31
0.0
  0
LINE
  5
108
330
D7
100
AcDbEntity
  8
AM_9
100
AcDbLine
 10
-3.408333333333333
 20
-0.8424146100448396
 30
0.0
 11
-3.478333333333333
 21
-0.8424146100448396
 31
0.0
  0
LINE
  5
109
330
D7
100
AcDbEntity
  8
AM_9
100
AcDbLine
 10
-3.478333333333333
 20
-0.8703027331320835
 30
0.0
 11
-3.408333333333333
 21
-0.8703027331320835
 31
0.0
  0
LINE
  5
10A
330
D7
100
AcDbEntity
  8
AM_9
100
AcDbLine
 10
-3.408333333333333
 20
0.0950000000000002
 30
0.0
 11
-3.478333333333333
 21
0.0950000000000002
 31
0.0
  0
LINE
  5
10B
330
D7
100
AcDbEntity
  8
AM_9
100
AcDbLine
 10
-3.408333333333333
 20
-0.0949999999999999
 30
0.0
 11
-3.478333333333333
 21
-0.0949999999999999
 31
0.0
  0
LINE
  5
10C
330
D7
100
AcDbEntity
  8
AM_4
100
AcDbLine
 10
-3.408333333333333
 20
1.359375
 30
0.0
 11
-3.478333333333333
 21
1.359375
 31
0.0
  0
LINE
  5
10D
330
D7
100
AcDbEntity
  8
AM_4
100
AcDbLine
 10
-3.478333333333333
 20
-1.359375
 30
0.0
 11
-3.408333333333333
 21
-1.359375
 31
0.0
  0
LINE
  5
10E
330
D7
100
AcDbEntity
  8
AM_4
100
AcDbLine
 10
-3.478333333333333
 20
1.359375
 30
0.0
 11
-3.478333333333333
 21
-1.359375
 31
0.0
  0
LINE
  5
10F
330
D7
100
AcDbEntity
  8
AM_4
100
AcDbLine
 10
-3.408333333333333
 20
1.359375
 30
0.0
 11
-3.408333333333333
 21
-1.359375
 31
0.0
  0
ENDBLK
  5
DA
330
D7
100
AcDbEntity
  8
0
100
AcDbBlockEnd
  0
BLOCK
  5
112
330
110
100
AcDbEntity
  8
0
100
AcDbBlockBegin
  2
5_070885EL_0_in_071340_2
 70
     2
 10
0.0
 20
0.0
 30
0.0
  3
5_070885EL_0_in_071340_2
  1

  0
ATTDEF
  5
114
330
110
100
AcDbEntity
  8
AM_6
100
AcDbText
 10
4.19
 20
1.5748
 30
0.0
 40
0.5
  1
Imperial/E Insert -Inch
100
AcDbAttributeDefinition
  3

  2
NN
 70
     8
280
     0
  0
ATTDEF
  5
115
330
110
100
AcDbEntity
  8
AM_6
100
AcDbText
 10
4.19
 20
1.0748
 30
0.0
 40
0.5
  1
Imperial Bearings
100
AcDbAttributeDefinition
  3

  2
NT
 70
     8
280
     0
  0
ATTDEF
  5
116
330
110
100
AcDbEntity
  8
AM_6
100
AcDbText
 10
4.19
 20
0.5747999999999998
 30
0.0
 40
0.5
  1
070885EL
100
AcDbAttributeDefinition
  3

  2
NB
 70
     8
280
     0
  0
ATTDEF
  5
117
330
110
100
AcDbEntity
  8
AM_6
100
AcDbText
 10
4.19
 20
0.0747999999999998
 30
0.0
 40
0.5
  1
$PN.
100
AcDbAttributeDefinition
  3

  2
NBSYN
 70
     8
280
     0
  0
ATTDEF
  5
118
330
110
100
AcDbEntity
  8
AM_6
100
AcDbText
 10
4.19
 20
-0.4252000000000002
 30
0.0
 40
0.5
  1
070885EL
100
AcDbAttributeDefinition
  3

  2
LINA
 70
     8
280
     0
  0
ATTDEF
  5
119
330
110
100
AcDbEntity
  8
AM_6
100
AcDbText
 10
4.19
 20
-0.9252000000000002
 30
0.0
 40
0.5
  1
1-1/2
100
AcDbAttributeDefinition
  3

  2
SS
 70
     8
280
     0
  0
ATTDEF
  5
11A
330
110
100
AcDbEntity
  8
AM_6
100
AcDbText
 10
4.19
 20
-1.4252
 30
0.0
 40
0.5
  1
1.500000
100
AcDbAttributeDefinition
  3

  2
SS1
 70
     8
280
     0
  0
ATTDEF
  5
11B
330
110
100
AcDbEntity
  8
AM_6
100
AcDbText
 10
4.19
 20
-1.9252
 30
0.0
 40
0.5
  1
070885EL
100
AcDbAttributeDefinition
  3

  2
PN
 70
     8
280
     0
  0
ATTDEF
  5
11C
330
110
100
AcDbEntity
  8
AM_6
100
AcDbText
 10
4.19
 20
-2.4252
 30
0.0
 40
0.5
  1
INS-IP-108R
100
AcDbAttributeDefinition
  3

  2
DESCRIPTION
 70
     8
280
     0
  0
ATTDEF
  5
11D
330
110
100
AcDbEntity
  8
AM_6
100
AcDbText
 10
4.19
 20
-2.9252
 30
0.0
 40
0.5
  1
Labyrinth Seal
100
AcDbAttributeDefinition
  3

  2
ST
 70
     8
280
     0
  0
ATTDEF
  5
11E
330
110
100
AcDbEntity
  8
AM_6
100
AcDbText
 10
4.19
 20
-3.4252
 30
0.0
 40
0.5
  1
1
100
AcDbAttributeDefinition
  3

  2
ST1
 70
     8
280
     0
  0
ATTDEF
  5
11F
330
110
100
AcDbEntity
  8
AM_6
100
AcDbText
 10
4.19
 20
-3.9252
 30
0.0
 40
0.5
  1
3.1496
100
AcDbAttributeDefinition
  3

  2
A
 70
     8
280
     0
  0
ATTDEF
  5
120
330
110
100
AcDbEntity
  8
AM_6
100
AcDbText
 10
4.19
 20
-4.4252
 30
0.0
 40
0.5
  1
61/64
100
AcDbAttributeDefinition
  3

  2
B
 70
     8
280
     0
  0
ATTDEF
  5
121
330
110
100
AcDbEntity
  8
AM_6
100
AcDbText
 10
4.19
 20
-4.9252
 30
0.0
 40
0.5
  1
0.953125
100
AcDbAttributeDefinition
  3

  2
B1
 70
     8
280
     0
  0
ATTDEF
  5
122
330
110
100
AcDbEntity
  8
AM_6
100
AcDbText
 10
4.19
 20
-5.4252
 30
0.0
 40
0.5
  1
2-5/8
100
AcDbAttributeDefinition
  3

  2
C
 70
     8
280
     0
  0
ATTDEF
  5
123
330
110
100
AcDbEntity
  8
AM_6
100
AcDbText
 10
4.19
 20
-5.9252
 30
0.0
 40
0.5
  1
2.810000
100
AcDbAttributeDefinition
  3

  2
C1
 70
     8
280
     0
  0
ATTDEF
  5
124
330
110
100
AcDbEntity
  8
AM_6
100
AcDbText
 10
4.19
 20
-6.4252
 30
0.0
 40
0.5
  1
3.64000
100
AcDbAttributeDefinition
  3

  2
CR
 70
     8
280
     0
  0
ATTDEF
  5
125
330
110
100
AcDbEntity
  8
AM_6
100
AcDbText
 10
4.19
 20
-6.9252
 30
0.0
 40
0.5
  1
0.970
100
AcDbAttributeDefinition
  3

  2
D
 70
     8
280
     0
  0
ATTDEF
  5
126
330
110
100
AcDbEntity
  8
AM_6
100
AcDbText
 10
4.19
 20
-7.4252
 30
0.0
 40
0.5
  1
2-23/32
100
AcDbAttributeDefinition
  3

  2
E
 70
     8
280
     0
  0
ATTDEF
  5
127
330
110
100
AcDbEntity
  8
AM_6
100
AcDbText
 10
4.19
 20
-7.9252
 30
0.0
 40
0.5
  1
2.718750
100
AcDbAttributeDefinition
  3

  2
E1
 70
     8
280
     0
  0
ATTDEF
  5
128
330
110
100
AcDbEntity
  8
AM_6
100
AcDbText
 10
4.19
 20
-8.4252
 30
0.0
 40
0.5
  1
0.1900
100
AcDbAttributeDefinition
  3

  2
NDM
 70
     8
280
     0
  0
ATTDEF
  5
129
330
110
100
AcDbEntity
  8
AM_6
100
AcDbText
 10
4.19
 20
-8.9252
 30
0.0
 40
0.5
  1
0.1450
100
AcDbAttributeDefinition
  3

  2
KDM
 70
     8
280
     0
  0
ATTDEF
  5
12A
330
110
100
AcDbEntity
  8
AM_6
100
AcDbText
 10
4.19
 20
-9.4252
 30
0.0
 40
0.5
  1
2.22
100
AcDbAttributeDefinition
  3

  2
AL
 70
     8
280
     0
  0
ATTDEF
  5
12B
330
110
100
AcDbEntity
  8
AM_6
100
AcDbText
 10
4.19
 20
-9.9252
 30
0.0
 40
0.5
  1
0.38
100
AcDbAttributeDefinition
  3

  2
BL
 70
     8
280
     0
  0
ATTDEF
  5
12C
330
110
100
AcDbEntity
  8
AM_6
100
AcDbText
 10
4.19
 20
-10.4252
 30
0.0
 40
0.5
  1
0.07
100
AcDbAttributeDefinition
  3

  2
CL
 70
     8
280
     0
  0
ATTDEF
  5
12D
330
110
100
AcDbEntity
  8
AM_6
100
AcDbText
 10
4.19
 20
-10.9252
 30
0.0
 40
0.5
  1
0.44
100
AcDbAttributeDefinition
  3

  2
DL
 70
     8
280
     0
  0
ATTDEF
  5
12E
330
110
100
AcDbEntity
  8
AM_6
100
AcDbText
 10
4.19
 20
-11.4252
 30
0.0
 40
0.5
  1
0.8000
100
AcDbAttributeDefinition
  3

  2
LL
 70
     8
280
     0
  0
ATTDEF
  5
12F
330
110
100
AcDbEntity
  8
AM_6
100
AcDbText
 10
4.19
 20
-11.9252
 30
0.0
 40
0.5
  1
0.020
100
AcDbAttributeDefinition
  3

  2
Y
 70
     8
280
     0
  0
ATTDEF
  5
130
330
110
100
AcDbEntity
  8
AM_6
100
AcDbText
 10
4.19
 20
-12.4252
 30
0.0
 40
0.5
  1
0.020000
100
AcDbAttributeDefinition
  3

  2
Y1
 70
     8
280
     0
  0
ATTDEF
  5
131
330
110
100
AcDbEntity
  8
AM_6
100
AcDbText
 10
4.19
 20
-12.9252
 30
0.0
 40
0.5
  1
1-51/64
100
AcDbAttributeDefinition
  3

  2
Z
 70
     8
280
     0
  0
ATTDEF
  5
132
330
110
100
AcDbEntity
  8
AM_6
100
AcDbText
 10
4.19
 20
-13.4252
 30
0.0
 40
0.5
  1
1.796875
100
AcDbAttributeDefinition
  3

  2
Z1
 70
     8
280
     0
  0
ATTDEF
  5
133
330
110
100
AcDbEntity
  8
AM_6
100
AcDbText
 10
4.19
 20
-13.9252
 30
0.0
 40
0.5
  1
0.83000
100
AcDbAttributeDefinition
  3

  2
P1
 70
     8
280
     0
  0
ATTDEF
  5
134
330
110
100
AcDbEntity
  8
AM_6
100
AcDbText
 10
4.19
 20
-14.4252
 30
0.0
 40
0.5
  1
1.19000
100
AcDbAttributeDefinition
  3

  2
H1
 70
     8
280
     0
  0
ATTDEF
  5
135
330
110
100
AcDbEntity
  8
AM_6
100
AcDbText
 10
4.19
 20
-14.9252
 30
0.0
 40
0.5
  1
0.67000
100
AcDbAttributeDefinition
  3

  2
G1
 70
     8
280
     0
  0
ATTDEF
  5
136
330
110
100
AcDbEntity
  8
AM_6
100
AcDbText
 10
4.19
 20
-15.4252
 30
0.0
 40
0.5
  1
0.10100
100
AcDbAttributeDefinition
  3

  2
CW
 70
     8
280
     0
  0
ATTDEF
  5
137
330
110
100
AcDbEntity
  8
AM_6
100
AcDbText
 10
4.19
 20
-15.9252
 30
0.0
 40
0.5
  1
3.00000
100
AcDbAttributeDefinition
  3

  2
L1
 70
     8
280
     0
  0
ATTDEF
  5
138
330
110
100
AcDbEntity
  8
AM_6
100
AcDbText
 10
4.19
 20
-16.4252
 30
0.0
 40
0.5
  1
baldor
100
AcDbAttributeDefinition
  3

  2
COMPANY
 70
     8
280
     0
  0
LINE
  5
139
330
110
100
AcDbEntity
  8
AM_9
100
AcDbLine
 10
-1.3234375
 20
0.7623720376271025
 30
0.0
 11
-3.408333333333333
 21
0.7623720376271025
 31
0.0
  0
LINE
  5
13A
330
110
100
AcDbEntity
  8
AM_9
100
AcDbLine
 10
-1.3234375
 20
0.6896621854777354
 30
0.0
 11
-3.408333333333333
 21
0.6896621854777354
 31
0.0
  0
LINE
  5
13B
330
110
100
AcDbEntity
  8
AM_9
100
AcDbLine
 10
-2.568333333333333
 20
1.096354166666667
 30
0.0
 11
-2.610162360336121
 21
1.168804166666666
 31
0.0
  0
LINE
  5
13C
330
110
100
AcDbEntity
  8
AM_9
100
AcDbLine
 10
-2.610162360336121
 20
1.023904166666667
 30
0.0
 11
-2.568333333333333
 21
1.096354166666667
 31
0.0
  0
LINE
  5
13D
330
110
100
AcDbEntity
  8
AM_9
100
AcDbLine
 10
-2.568333333333328
 20
-1.096354166666667
 30
0.0
 11
-2.610162360336123
 21
-1.023904166666667
 31
0.0
  0
LINE
  5
13E
330
110
100
AcDbEntity
  8
AM_9
100
AcDbLine
 10
-2.610162360336123
 20
-1.168804166666666
 30
0.0
 11
-2.568333333333328
 21
-1.096354166666667
 31
0.0
  0
LINE
  5
13F
330
110
100
AcDbEntity
  8
AM_9
100
AcDbLine
 10
-3.38578333333333
 20
-1.168804166666666
 30
0.0
 11
-2.610162360336123
 21
-1.168804166666666
 31
0.0
  0
LINE
  5
140
330
110
100
AcDbEntity
  8
AM_9
100
AcDbLine
 10
-2.610162360336123
 20
-1.023904166666667
 30
0.0
 11
-3.38578333333333
 21
-1.023904166666667
 31
0.0
  0
LINE
  5
141
330
110
100
AcDbEntity
  8
AM_9
100
AcDbLine
 10
-2.610162360336123
 20
-1.023904166666667
 30
0.0
 11
-2.610162360336123
 21
-1.168804166666666
 31
0.0
  0
LINE
  5
142
330
110
100
AcDbEntity
  8
AM_9
100
AcDbLine
 10
-2.610162360336121
 20
1.023904166666667
 30
0.0
 11
-2.610162360336121
 21
1.168804166666666
 31
0.0
  0
LINE
  5
143
330
110
100
AcDbEntity
  8
AM_9
100
AcDbLine
 10
-2.610162360336121
 20
1.168804166666666
 30
0.0
 11
-3.385783333333333
 21
1.168804166666666
 31
0.0
  0
LINE
  5
144
330
110
100
AcDbEntity
  8
AM_9
100
AcDbLine
 10
-3.385783333333333
 20
1.023904166666667
 30
0.0
 11
-2.610162360336121
 21
1.023904166666667
 31
0.0
  0
LINE
  5
145
330
110
100
AcDbEntity
  8
AM_9
100
AcDbLine
 10
-3.385783333333333
 20
1.023904166666667
 30
0.0
 11
-3.385783333333333
 21
1.168804166666666
 31
0.0
  0
LINE
  5
146
330
110
100
AcDbEntity
  8
AM_9
100
AcDbLine
 10
-3.385783333333333
 20
1.168804166666666
 30
0.0
 11
-3.408333333333333
 21
1.191354166666666
 31
0.0
  0
LINE
  5
147
330
110
100
AcDbEntity
  8
AM_9
100
AcDbLine
 10
-3.408333333333333
 20
1.001354166666667
 30
0.0
 11
-3.385783333333333
 21
1.023904166666667
 31
0.0
  0
LINE
  5
148
330
110
100
AcDbEntity
  8
AM_9
100
AcDbLine
 10
-3.38578333333333
 20
-1.023904166666667
 30
0.0
 11
-3.408333333333335
 21
-1.001354166666667
 31
0.0
  0
LINE
  5
149
330
110
100
AcDbEntity
  8
AM_9
100
AcDbLine
 10
-3.408333333333335
 20
-1.191354166666666
 30
0.0
 11
-3.38578333333333
 21
-1.168804166666666
 31
0.0
  0
LINE
  5
14A
330
110
100
AcDbEntity
  8
AM_9
100
AcDbLine
 10
-3.38578333333333
 20
-1.023904166666667
 30
0.0
 11
-3.38578333333333
 21
-1.168804166666666
 31
0.0
  0
LINE
  5
14B
330
110
100
AcDbEntity
  8
AM_9
100
AcDbLine
 10
-1.3234375
 20
0.7236834231258473
 30
0.0
 11
-3.64
 21
0.7236834231258475
 31
0.0
  0
LINE
  5
14C
330
110
100
AcDbEntity
  8
AM_9
100
AcDbLine
 10
-3.408333333333333
 20
0.6509735709764803
 30
0.0
 11
-1.3234375
 21
0.6509735709764803
 31
0.0
  0
LINE
  5
14D
330
110
100
AcDbEntity
  8
AM_9
100
AcDbLine
 10
-3.64
 20
0.6509735709764806
 30
0.0
 11
-2.968333333333333
 21
0.6505382386916234
 31
0.0
  0
LINE
  5
14E
330
110
100
AcDbEntity
  8
AM_9
100
AcDbLine
 10
-1.3234375
 20
0.7499999999999997
 30
0.0
 11
-3.639999999999999
 21
0.7499999999999997
 31
0.0
  0
LINE
  5
14F
330
110
100
AcDbEntity
  8
AM_9
100
AcDbLine
 10
-3.639999999999999
 20
-0.7499999999999997
 30
0.0
 11
-1.3234375
 21
-0.7499999999999997
 31
0.0
  0
LINE
  5
150
330
110
100
AcDbEntity
  8
AM_9
100
AcDbLine
 10
-0.8300000000000002
 20
0.7894736842105261
 30
0.0
 11
-1.3234375
 21
0.7894736842105261
 31
0.0
  0
LINE
  5
151
330
110
100
AcDbEntity
  8
AM_9
100
AcDbLine
 10
-1.3234375
 20
-0.7894736842105261
 30
0.0
 11
-0.8300000000000002
 21
-0.7894736842105261
 31
0.0
  0
LINE
  5
152
330
110
100
AcDbEntity
  8
AM_9
100
AcDbLine
 10
-3.64
 20
0.7604335068450774
 30
0.0
 11
-3.408333333333333
 21
0.7604335068450776
 31
0.0
  0
LINE
  5
153
330
110
100
AcDbEntity
  8
AM_9
100
AcDbLine
 10
-3.408333333333333
 20
0.6877236546957105
 30
0.0
 11
-3.64
 21
0.6877236546957105
 31
0.0
  0
LINE
  5
154
330
110
100
AcDbEntity
  8
AM_9
100
AcDbLine
 10
-3.408333333333333
 20
0.7894736842105263
 30
0.0
 11
-3.478333333333333
 21
0.7894736842105263
 31
0.0
  0
LINE
  5
155
330
110
100
AcDbEntity
  8
AM_9
100
AcDbLine
 10
-3.478333333333333
 20
-0.7894736842105263
 30
0.0
 11
-3.408333333333333
 21
-0.7894736842105263
 31
0.0
  0
LINE
  5
156
330
110
100
AcDbEntity
  8
AM_9
100
AcDbLine
 10
-0.8300000000000002
 20
-0.8984375000000001
 30
0.0
 11
-0.8300000000000002
 21
0.8984375000000001
 31
0.0
  0
LINE
  5
157
330
110
100
AcDbEntity
  8
AM_9
100
AcDbLine
 10
-0.8099999999999998
 20
0.8984375000000001
 30
0.0
 11
-0.8300000000000002
 21
0.8984375000000001
 31
0.0
  0
LINE
  5
158
330
110
100
AcDbEntity
  8
AM_9
100
AcDbLine
 10
-0.8300000000000002
 20
-0.8984375000000001
 30
0.0
 11
-0.8099999999999998
 21
-0.8984375000000001
 31
0.0
  0
LINE
  5
159
330
110
100
AcDbEntity
  8
AM_9
100
AcDbLine
 10
-2.968333333333333
 20
-0.6505382386916239
 30
0.0
 11
-3.408333333333333
 21
-0.6505382386916239
 31
0.0
  0
LINE
  5
15A
330
110
100
AcDbEntity
  8
AM_9
100
AcDbLine
 10
-2.968333333333333
 20
-0.9192388155425117
 30
0.0
 11
-2.97
 21
-0.9192388155425117
 31
0.0
  0
LINE
  5
15B
330
110
100
AcDbEntity
  8
AM_9
100
AcDbLine
 10
-2.968333333333333
 20
0.9192388155425117
 30
0.0
 11
-2.97
 21
0.9192388155425117
 31
0.0
  0
LINE
  5
15C
330
110
100
AcDbEntity
  8
AM_9
100
AcDbLine
 10
-2.968333333333333
 20
-0.6505382386916239
 30
0.0
 11
-2.968333333333333
 21
-1.091622453997034
 31
0.0
  0
LINE
  5
15D
330
110
100
AcDbEntity
  8
AM_9
100
AcDbLine
 10
-2.968333333333333
 20
1.091622453997034
 30
0.0
 11
-2.968333333333333
 21
0.6505382386916234
 31
0.0
  0
LINE
  5
15E
330
110
100
AcDbEntity
  8
AM_9
100
AcDbLine
 10
-0.8099999999999998
 20
-1.197916666666667
 30
0.0
 11
-0.8099999999999998
 21
1.197916666666667
 31
0.0
  0
LINE
  5
15F
330
110
100
AcDbEntity
  8
AM_9
100
AcDbLine
 10
-0.8099999999999998
 20
1.197916666666667
 30
0.0
 11
-1.1328125
 21
1.197916666666667
 31
0.0
  0
LINE
  5
160
330
110
100
AcDbEntity
  8
AM_9
100
AcDbLine
 10
-1.1328125
 20
-1.197916666666667
 30
0.0
 11
-0.8099999999999998
 21
-1.197916666666667
 31
0.0
  0
LINE
  5
161
330
110
100
AcDbEntity
  8
AM_9
100
AcDbLine
 10
-1.1328125
 20
-1.207007578016766
 30
0.0
 11
-1.1328125
 21
1.207007578016766
 31
0.0
  0
ARC
  5
162
330
110
100
AcDbEntity
  8
AM_9
100
AcDbCircle
 10
-1.232812499999999
 20
1.207007578016765
 30
0.0
 40
0.0999999999999994
100
AcDbArc
 50
0.0
 51
60.00000000000023
  0
ARC
  5
163
330
110
100
AcDbEntity
  8
AM_9
100
AcDbCircle
 10
-1.232812499999999
 20
-1.207007578016765
 30
0.0
 40
0.0999999999999995
100
AcDbArc
 50
299.9999999999998
 51
0.0
  0
LINE
  5
164
330
110
100
AcDbEntity
  8
AM_9
100
AcDbLine
 10
-1.1828125
 20
-1.293610118395209
 30
0.0
 11
-1.1828125
 21
1.293610118395209
 31
0.0
  0
LINE
  5
165
330
110
100
AcDbEntity
  8
AM_9
100
AcDbLine
 10
-1.1828125
 20
1.293610118395209
 30
0.0
 11
-1.3234375
 21
1.3748
 31
0.0
  0
LINE
  5
166
330
110
100
AcDbEntity
  8
AM_9
100
AcDbLine
 10
-1.3234375
 20
-1.3748
 30
0.0
 11
-1.1828125
 21
-1.293610118395209
 31
0.0
  0
LINE
  5
167
330
110
100
AcDbEntity
  8
AM_9
100
AcDbLine
 10
-2.970000000028698
 20
-0.8229011045417555
 30
0.0
 11
-2.968333333333333
 21
-0.8229218771461463
 31
0.0
  0
LINE
  5
168
330
110
100
AcDbEntity
  8
AM_9
100
AcDbLine
 10
-2.968333333333333
 20
-1.091622453997034
 30
0.0
 11
-2.970000000028698
 21
-1.091601681392644
 31
0.0
  0
LINE
  5
169
330
110
100
AcDbEntity
  8
AM_9
100
AcDbLine
 10
-2.970000000028698
 20
1.091601681392643
 30
0.0
 11
-2.968333333333333
 21
1.091622453997034
 31
0.0
  0
LINE
  5
16A
330
110
100
AcDbEntity
  8
AM_9
100
AcDbLine
 10
-2.968333333333333
 20
0.8229218771461455
 30
0.0
 11
-2.970000000028698
 21
0.8229011045417551
 31
0.0
  0
LINE
  5
16B
330
110
100
AcDbEntity
  8
AM_9
100
AcDbLine
 10
-2.97
 20
-1.367026136793535
 30
0.0
 11
-2.325689879678136
 21
-1.378272611777662
 31
0.0
  0
LINE
  5
16C
330
110
100
AcDbEntity
  8
AM_9
100
AcDbLine
 10
-2.325689879678136
 20
1.378272611777662
 30
0.0
 11
-2.97
 21
1.367026136793535
 31
0.0
  0
LINE
  5
16D
330
110
100
AcDbEntity
  8
AM_9
100
AcDbLine
 10
-2.325689879678136
 20
-1.378272611777662
 30
0.0
 11
-2.325689879678136
 21
1.378272611777662
 31
0.0
  0
ARC
  5
16E
330
110
100
AcDbEntity
  8
AM_9
100
AcDbCircle
 10
-2.326562499999999
 20
1.428264996535481
 30
0.0
 40
0.0499999999999994
100
AcDbArc
 50
270.9999999999991
 51
0.0
  0
ARC
  5
16F
330
110
100
AcDbEntity
  8
AM_9
100
AcDbCircle
 10
-2.326562499999999
 20
-1.428264996535481
 30
0.0
 40
0.0499999999999994
100
AcDbArc
 50
0.0
 51
89.00000000000085
  0
LINE
  5
170
330
110
100
AcDbEntity
  8
AM_9
100
AcDbLine
 10
-1.792485651233932
 20
1.52714375
 30
0.0
 11
-1.847514348766068
 21
1.52714375
 31
0.0
  0
LINE
  5
171
330
110
100
AcDbEntity
  8
AM_9
100
AcDbLine
 10
-1.847514348766068
 20
-1.52714375
 30
0.0
 11
-1.792485651233932
 21
-1.52714375
 31
0.0
  0
LINE
  5
172
330
110
100
AcDbEntity
  8
AM_9
100
AcDbLine
 10
-1.875028697532136
 20
1.5748
 30
0.0
 11
-2.2665625
 21
1.5748
 31
0.0
  0
LINE
  5
173
330
110
100
AcDbEntity
  8
AM_9
100
AcDbLine
 10
-2.2665625
 20
-1.5748
 30
0.0
 11
-1.875028697532136
 21
-1.5748
 31
0.0
  0
LINE
  5
174
330
110
100
AcDbEntity
  8
AM_9
100
AcDbLine
 10
-1.3734375
 20
1.5748
 30
0.0
 11
-1.764971302467864
 21
1.5748
 31
0.0
  0
LINE
  5
175
330
110
100
AcDbEntity
  8
AM_9
100
AcDbLine
 10
-1.764971302467864
 20
-1.5748
 30
0.0
 11
-1.3734375
 21
-1.5748
 31
0.0
  0
LINE
  5
176
330
110
100
AcDbEntity
  8
AM_9
100
AcDbLine
 10
-2.2665625
 20
-1.5748
 30
0.0
 11
-2.2665625
 21
1.5748
 31
0.0
  0
LINE
  5
177
330
110
100
AcDbEntity
  8
AM_9
100
AcDbLine
 10
-2.2765625
 20
-1.5648
 30
0.0
 11
-2.2765625
 21
1.5648
 31
0.0
  0
ARC
  5
178
330
110
100
AcDbEntity
  8
AM_9
100
AcDbCircle
 10
-2.266562500000002
 20
1.564800000000002
 30
0.0
 40
0.0099999999999978
100
AcDbArc
 50
90.0
 51
180.0
  0
ARC
  5
179
330
110
100
AcDbEntity
  8
AM_9
100
AcDbCircle
 10
-2.266562500000002
 20
-1.564800000000002
 30
0.0
 40
0.0099999999999976
100
AcDbArc
 50
180.0
 51
270.0
  0
LINE
  5
17A
330
110
100
AcDbEntity
  8
AM_9
100
AcDbLine
 10
-1.764971302467864
 20
-1.5748
 30
0.0
 11
-1.764971302467864
 21
1.5748
 31
0.0
  0
LINE
  5
17B
330
110
100
AcDbEntity
  8
AM_9
100
AcDbLine
 10
-1.792485651233932
 20
-1.52714375
 30
0.0
 11
-1.792485651233932
 21
1.52714375
 31
0.0
  0
LINE
  5
17C
330
110
100
AcDbEntity
  8
AM_9
100
AcDbLine
 10
-1.792485651233932
 20
-1.52714375
 30
0.0
 11
-1.764971302467864
 21
-1.5748
 31
0.0
  0
LINE
  5
17D
330
110
100
AcDbEntity
  8
AM_9
100
AcDbLine
 10
-1.764971302467864
 20
1.5748
 30
0.0
 11
-1.792485651233932
 21
1.52714375
 31
0.0
  0
LINE
  5
17E
330
110
100
AcDbEntity
  8
AM_9
100
AcDbLine
 10
-1.847514348766068
 20
-1.52714375
 30
0.0
 11
-1.847514348766068
 21
1.52714375
 31
0.0
  0
LINE
  5
17F
330
110
100
AcDbEntity
  8
AM_9
100
AcDbLine
 10
-1.875028697532136
 20
-1.5748
 30
0.0
 11
-1.875028697532136
 21
1.5748
 31
0.0
  0
LINE
  5
180
330
110
100
AcDbEntity
  8
AM_9
100
AcDbLine
 10
-1.847514348766068
 20
1.52714375
 30
0.0
 11
-1.875028697532136
 21
1.5748
 31
0.0
  0
LINE
  5
181
330
110
100
AcDbEntity
  8
AM_9
100
AcDbLine
 10
-1.875028697532136
 20
-1.5748
 30
0.0
 11
-1.847514348766068
 21
-1.52714375
 31
0.0
  0
LINE
  5
182
330
110
100
AcDbEntity
  8
AM_9
100
AcDbLine
 10
-1.3234375
 20
-1.5248
 30
0.0
 11
-1.3234375
 21
1.5248
 31
0.0
  0
LINE
  5
183
330
110
100
AcDbEntity
  8
AM_9
100
AcDbLine
 10
-1.3734375
 20
-1.5748
 30
0.0
 11
-1.3734375
 21
1.5748
 31
0.0
  0
ARC
  5
184
330
110
100
AcDbEntity
  8
AM_9
100
AcDbCircle
 10
-1.3734375
 20
1.5248
 30
0.0
 40
0.0499999999999996
100
AcDbArc
 50
0.0
 51
90.0
  0
ARC
  5
185
330
110
100
AcDbEntity
  8
AM_9
100
AcDbCircle
 10
-1.3734375
 20
-1.5248
 30
0.0
 40
0.0499999999999996
100
AcDbArc
 50
270.0
 51
0.0
  0
LINE
  5
186
330
110
100
AcDbEntity
  8
AM_5
100
AcDbLine
 10
-2.708333333333334
 20
1.191354166666666
 30
0.0
 11
-2.681360643730189
 21
1.175781477063523
 31
0.0
  0
LINE
  5
187
330
110
100
AcDbEntity
  8
AM_5
100
AcDbLine
 10
-3.408333333333334
 20
1.001354166666667
 30
0.0
 11
-2.708333333333333
 21
1.001354166666667
 31
0.0
  0
LINE
  5
188
330
110
100
AcDbEntity
  8
AM_5
100
AcDbLine
 10
-2.708333333333333
 20
1.001354166666667
 30
0.0
 11
-2.68136064373019
 21
1.01692685626981
 31
0.0
  0
LINE
  5
189
330
110
100
AcDbEntity
  8
AM_5
100
AcDbLine
 10
-3.408333333333333
 20
-1.191354166666666
 30
0.0
 11
-2.708333333333329
 21
-1.191354166666666
 31
0.0
  0
LINE
  5
18A
330
110
100
AcDbEntity
  8
AM_5
100
AcDbLine
 10
-2.708333333333329
 20
-1.191354166666666
 30
0.0
 11
-2.681360643730196
 21
-1.17578147706353
 31
0.0
  0
LINE
  5
18B
330
110
100
AcDbEntity
  8
AM_5
100
AcDbLine
 10
-3.408333333333333
 20
-1.001354166666667
 30
0.0
 11
-2.708333333333329
 21
-1.001354166666667
 31
0.0
  0
LINE
  5
18C
330
110
100
AcDbEntity
  8
AM_5
100
AcDbLine
 10
-2.708333333333329
 20
-1.001354166666667
 30
0.0
 11
-2.681360643730196
 21
-1.016926856269803
 31
0.0
  0
LINE
  5
18F
330
110
100
AcDbEntity
  8
AM_7
100
AcDbLine
 10
-2.526333333333334
 20
1.096354166666667
 30
0.0
 11
-3.624383333333333
 21
1.096354166666667
 31
0.0
  0
LINE
  5
190
330
110
100
AcDbEntity
  8
AM_7
100
AcDbLine
 10
-2.526333333333328
 20
-1.096354166666667
 30
0.0
 11
-3.624383333333333
 21
-1.096354166666667
 31
0.0
  0
LINE
  5
191
330
110
100
AcDbEntity
  8
AM_4
100
AcDbLine
 10
-3.478333333333333
 20
0.7894736842105263
 30
0.0
 11
-3.64
 21
0.7894736842105263
 31
0.0
  0
LINE
  5
192
330
110
100
AcDbEntity
  8
AM_4
100
AcDbLine
 10
-3.64
 20
-0.7894736842105263
 30
0.0
 11
-3.478333333333333
 21
-0.7894736842105263
 31
0.0
  0
LINE
  5
193
330
110
100
AcDbEntity
  8
AM_4
100
AcDbLine
 10
-3.64
 20
-0.7894736842105263
 30
0.0
 11
-3.64
 21
0.7894736842105263
 31
0.0
  0
LINE
  5
194
330
110
100
AcDbEntity
  8
AM_4
100
AcDbLine
 10
-2.97
 20
-0.9192388155425117
 30
0.0
 11
-3.408333333333333
 21
-0.9192388155425117
 31
0.0
  0
LINE
  5
195
330
110
100
AcDbEntity
  8
AM_4
100
AcDbLine
 10
-2.97
 20
0.9192388155425117
 30
0.0
 11
-3.408333333333333
 21
0.9192388155425117
 31
0.0
  0
LINE
  5
196
330
110
100
AcDbEntity
  8
AM_4
100
AcDbLine
 10
-3.408333333333333
 20
-0.817437605652065
 30
0.0
 11
-3.408333333333333
 21
0.8174376056520642
 31
0.0
  0
LINE
  5
197
330
110
100
AcDbEntity
  8
AM_4
100
AcDbLine
 10
-3.408333333333333
 20
-0.817437605652065
 30
0.0
 11
-2.970000000028698
 21
-0.8229011045417555
 31
0.0
  0
LINE
  5
198
330
110
100
AcDbEntity
  8
AM_4
100
AcDbLine
 10
-2.970000000028698
 20
-1.091601681392644
 30
0.0
 11
-3.408333333333333
 21
-1.086138182502953
 31
0.0
  0
LINE
  5
199
330
110
100
AcDbEntity
  8
AM_4
100
AcDbLine
 10
-3.408333333333333
 20
1.086138182502953
 30
0.0
 11
-3.408333333333333
 21
1.359375
 31
0.0
  0
LINE
  5
19A
330
110
100
AcDbEntity
  8
AM_4
100
AcDbLine
 10
-3.408333333333333
 20
1.086138182502953
 30
0.0
 11
-2.970000000028698
 21
1.091601681392643
 31
0.0
  0
LINE
  5
19B
330
110
100
AcDbEntity
  8
AM_4
100
AcDbLine
 10
-2.970000000028698
 20
0.8229011045417551
 30
0.0
 11
-3.408333333333333
 21
0.8174376056520642
 31
0.0
  0
LINE
  5
19C
330
110
100
AcDbEntity
  8
AM_4
100
AcDbLine
 10
-3.408333333333333
 20
-1.359375
 30
0.0
 11
-2.97
 21
-1.367026136793535
 31
0.0
  0
LINE
  5
19D
330
110
100
AcDbEntity
  8
AM_4
100
AcDbLine
 10
-2.97
 20
1.367026136793535
 30
0.0
 11
-3.408333333333333
 21
1.359375
 31
0.0
  0
LINE
  5
19E
330
110
100
AcDbEntity
  8
AM_4
100
AcDbLine
 10
-3.408333333333333
 20
-1.359375
 30
0.0
 11
-3.408333333333333
 21
-1.086138182502953
 31
0.0
  0
ENDBLK
  5
113
330
110
100
AcDbEntity
  8
0
100
AcDbBlockEnd
  0
BLOCK
  5
1A1
330
19F
100
AcDbEntity
  8
0
100
AcDbBlockBegin
  2
6_405015E_Inch_0_in_071340_2
 70
     2
 10
0.0
 20
0.0
 30
0.0
  3
6_405015E_Inch_0_in_071340_2
  1

  0
ATTDEF
  5
1A3
330
19F
100
AcDbEntity
  8
AM_6
100
AcDbText
 10
3.172590742770462
 20
2.532
 30
0.0
 40
0.5
  1
405015E -Inch
100
AcDbAttributeDefinition
  3

  2
NN
 70
     8
280
     0
  0
ATTDEF
  5
1A4
330
19F
100
AcDbEntity
  8
AM_6
100
AcDbText
 10
3.172590742770462
 20
2.032
 30
0.0
 40
0.5
  1
Grease Fitting
100
AcDbAttributeDefinition
  3

  2
NT
 70
     8
280
     0
  0
ATTDEF
  5
1A5
330
19F
100
AcDbEntity
  8
AM_6
100
AcDbText
 10
3.172590742770462
 20
1.532
 30
0.0
 40
0.5
  1
405015E-Inch
100
AcDbAttributeDefinition
  3

  2
NB
 70
     8
280
     0
  0
ATTDEF
  5
1A6
330
19F
100
AcDbEntity
  8
AM_6
100
AcDbText
 10
3.172590742770462
 20
1.032
 30
0.0
 40
0.5
  1
$MN.-Inch
100
AcDbAttributeDefinition
  3

  2
NBSYN
 70
     8
280
     0
  0
ATTDEF
  5
1A7
330
19F
100
AcDbEntity
  8
AM_6
100
AcDbText
 10
3.172590742770462
 20
0.5319999999999996
 30
0.0
 40
0.5
  1
405015E
100
AcDbAttributeDefinition
  3

  2
LINA
 70
     8
280
     0
  0
ATTDEF
  5
1A8
330
19F
100
AcDbEntity
  8
AM_6
100
AcDbText
 10
3.172590742770462
 20
0.0319999999999996
 30
0.0
 40
0.5
  1
405015E
100
AcDbAttributeDefinition
  3

  2
MN
 70
     8
280
     0
  0
ATTDEF
  5
1A9
330
19F
100
AcDbEntity
  8
AM_6
100
AcDbText
 10
3.172590742770462
 20
-0.4680000000000004
 30
0.0
 40
0.5
  1
1/8 x 27PTF
100
AcDbAttributeDefinition
  3

  2
T
 70
     8
280
     0
  0
ATTDEF
  5
1AA
330
19F
100
AcDbEntity
  8
AM_6
100
AcDbText
 10
3.172590742770462
 20
-0.9680000000000004
 30
0.0
 40
0.5
  1
baldor
100
AcDbAttributeDefinition
  3

  2
COMPANY
 70
     8
280
     0
  0
LINE
  5
1AB
330
19F
100
AcDbEntity
  8
AM_9
100
AcDbLine
 10
-2.241902872472269
 20
1.86
 30
0.0
 11
-1.918097127527731
 21
1.86
 31
0.0
  0
LINE
  5
1AC
330
19F
100
AcDbEntity
  8
AM_9
100
AcDbLine
 10
-1.918097127527731
 20
1.86
 30
0.0
 11
-1.881382373218785
 21
1.896714754308946
 31
0.0
  0
LINE
  5
1AD
330
19F
100
AcDbEntity
  8
AM_9
100
AcDbLine
 10
-2.278617626781215
 20
1.896714754308946
 30
0.0
 11
-2.241902872472269
 21
1.86
 31
0.0
  0
LINE
  5
1AE
330
19F
100
AcDbEntity
  8
AM_9
100
AcDbLine
 10
-2.278617626781215
 20
1.896714754308946
 30
0.0
 11
-1.881382373218785
 21
1.896714754308946
 31
0.0
  0
LINE
  5
1AF
330
19F
100
AcDbEntity
  8
AM_9
100
AcDbLine
 10
-1.881382373218785
 20
1.896714754308946
 30
0.0
 11
-1.87424810277693
 21
2.125
 31
0.0
  0
LINE
  5
1B0
330
19F
100
AcDbEntity
  8
AM_9
100
AcDbLine
 10
-2.285751897223069
 20
2.125
 30
0.0
 11
-2.278617626781215
 21
1.896714754308946
 31
0.0
  0
LINE
  5
1B1
330
19F
100
AcDbEntity
  8
AM_5
100
AcDbLine
 10
-1.911850875147652
 20
2.059870087748463
 30
0.0
 11
-1.918097127527731
 21
1.86
 31
0.0
  0
LINE
  5
1B2
330
19F
100
AcDbEntity
  8
AM_5
100
AcDbLine
 10
-1.87424810277693
 20
2.125
 30
0.0
 11
-1.911850875147652
 21
2.059870087748463
 31
0.0
  0
LINE
  5
1B3
330
19F
100
AcDbEntity
  8
AM_5
100
AcDbLine
 10
-2.283716485751556
 20
2.059870087748463
 30
0.0
 11
-1.876283514248443
 21
2.059870087748463
 31
0.0
  0
LINE
  5
1B4
330
19F
100
AcDbEntity
  8
AM_5
100
AcDbLine
 10
-2.248149124852348
 20
2.059870087748463
 30
0.0
 11
-2.241902872472269
 21
1.86
 31
0.0
  0
LINE
  5
1B5
330
19F
100
AcDbEntity
  8
AM_5
100
AcDbLine
 10
-2.285751897223069
 20
2.125
 30
0.0
 11
-2.248149124852348
 21
2.059870087748463
 31
0.0
  0
LINE
  5
1B6
330
19F
100
AcDbEntity
  8
AM_7
100
AcDbLine
 10
-2.08
 20
2.532
 30
0.0
 11
-2.08
 21
1.828
 31
0.0
  0
LINE
  5
1B7
330
19F
100
AcDbEntity
  8
AM_4
100
AcDbLine
 10
-1.975
 20
2.33
 30
0.0
 11
-1.975
 21
2.36
 31
0.0
  0
LINE
  5
1B8
330
19F
100
AcDbEntity
  8
AM_4
100
AcDbLine
 10
-2.185
 20
2.36
 30
0.0
 11
-2.185
 21
2.33
 31
0.0
  0
LINE
  5
1B9
330
19F
100
AcDbEntity
  8
AM_4
100
AcDbLine
 10
-2.29875
 20
2.225
 30
0.0
 11
-1.86125
 21
2.225
 31
0.0
  0
LINE
  5
1BA
330
19F
100
AcDbEntity
  8
AM_4
100
AcDbLine
 10
-1.827409257229539
 20
2.215932400303386
 30
0.0
 11
-1.86125
 21
2.225
 31
0.0
  0
LINE
  5
1BB
330
19F
100
AcDbEntity
  8
AM_4
100
AcDbLine
 10
-2.29875
 20
2.225
 30
0.0
 11
-2.332590742770461
 21
2.215932400303386
 31
0.0
  0
LINE
  5
1BC
330
19F
100
AcDbEntity
  8
AM_4
100
AcDbLine
 10
-1.86125
 20
2.125
 30
0.0
 11
-1.827409257229539
 21
2.134067599696615
 31
0.0
  0
LINE
  5
1BD
330
19F
100
AcDbEntity
  8
AM_4
100
AcDbLine
 10
-2.332590742770461
 20
2.134067599696615
 30
0.0
 11
-2.29875
 21
2.125
 31
0.0
  0
LINE
  5
1BE
330
19F
100
AcDbEntity
  8
AM_4
100
AcDbLine
 10
-2.185
 20
2.33
 30
0.0
 11
-1.975
 21
2.33
 31
0.0
  0
LINE
  5
1BF
330
19F
100
AcDbEntity
  8
AM_4
100
AcDbLine
 10
-2.185
 20
2.33
 30
0.0
 11
-2.198820090734897
 21
2.297753121618572
 31
0.0
  0
LINE
  5
1C0
330
19F
100
AcDbEntity
  8
AM_4
100
AcDbLine
 10
-1.961179909265103
 20
2.297753121618572
 30
0.0
 11
-1.975
 21
2.33
 31
0.0
  0
LINE
  5
1C1
330
19F
100
AcDbEntity
  8
AM_4
100
AcDbLine
 10
-2.182677901933187
 20
2.5
 30
0.0
 11
-1.977322098066812
 21
2.5
 31
0.0
  0
LINE
  5
1C2
330
19F
100
AcDbEntity
  8
AM_4
100
AcDbLine
 10
-2.182677901933187
 20
2.5
 30
0.0
 11
-2.215
 21
2.42
 31
0.0
  0
LINE
  5
1C3
330
19F
100
AcDbEntity
  8
AM_4
100
AcDbLine
 10
-1.945
 20
2.42
 30
0.0
 11
-1.977322098066812
 21
2.5
 31
0.0
  0
LINE
  5
1C4
330
19F
100
AcDbEntity
  8
AM_4
100
AcDbLine
 10
-2.215
 20
2.42
 30
0.0
 11
-1.945
 21
2.42
 31
0.0
  0
LINE
  5
1C5
330
19F
100
AcDbEntity
  8
AM_4
100
AcDbLine
 10
-2.185
 20
2.36
 30
0.0
 11
-1.975
 21
2.36
 31
0.0
  0
LINE
  5
1C6
330
19F
100
AcDbEntity
  8
AM_4
100
AcDbLine
 10
-1.975
 20
2.36
 30
0.0
 11
-1.945
 21
2.42
 31
0.0
  0
LINE
  5
1C7
330
19F
100
AcDbEntity
  8
AM_4
100
AcDbLine
 10
-2.215
 20
2.42
 30
0.0
 11
-2.185
 21
2.36
 31
0.0
  0
LINE
  5
1C8
330
19F
100
AcDbEntity
  8
AM_4
100
AcDbLine
 10
-2.198820090734897
 20
2.297753121618572
 30
0.0
 11
-1.961179909265102
 21
2.297753121618572
 31
0.0
  0
LINE
  5
1C9
330
19F
100
AcDbEntity
  8
AM_4
100
AcDbLine
 10
-2.198820090734898
 20
2.297753121618572
 30
0.0
 11
-2.252534053283015
 21
2.243318198540882
 31
0.0
  0
LINE
  5
1CA
330
19F
100
AcDbEntity
  8
AM_4
100
AcDbLine
 10
-1.907465946716985
 20
2.243318198540882
 30
0.0
 11
-1.961179909265102
 21
2.297753121618572
 31
0.0
  0
LINE
  5
1CB
330
19F
100
AcDbEntity
  8
AM_4
100
AcDbLine
 10
-2.252534053283015
 20
2.243318198540882
 30
0.0
 11
-1.907465946716985
 21
2.243318198540882
 31
0.0
  0
LINE
  5
1CC
330
19F
100
AcDbEntity
  8
AM_4
100
AcDbLine
 10
-2.252534053283015
 20
2.243318198540882
 30
0.0
 11
-2.29375
 21
2.225
 31
0.0
  0
LINE
  5
1CD
330
19F
100
AcDbEntity
  8
AM_4
100
AcDbLine
 10
-1.86625
 20
2.225
 30
0.0
 11
-1.907465946716985
 21
2.243318198540882
 31
0.0
  0
LINE
  5
1CE
330
19F
100
AcDbEntity
  8
AM_4
100
AcDbLine
 10
-1.827409257229539
 20
2.215932400303386
 30
0.0
 11
-1.827409257229539
 21
2.134067599696615
 31
0.0
  0
LWPOLYLINE
  5
1CF
330
19F
100
AcDbEntity
  8
AM_4
100
AcDbPolyline
 90
        4
 70
     0
 43
0.0
 10
-1.890556942922154
 20
2.225
 10
-1.874770021499
 20
2.224392585996001
 10
-1.858959346759922
 20
2.222603087498925
 10
-1.827409257229539
 20
2.215932400303386
  0
LWPOLYLINE
  5
1D0
330
19F
100
AcDbEntity
  8
AM_4
100
AcDbPolyline
 90
        4
 70
     0
 43
0.0
 10
-1.827409257229539
 20
2.134067599696615
 10
-1.850968087283173
 20
2.128721412808832
 10
-1.874676924397847
 20
2.125614561814227
 10
-1.890556942922154
 20
2.125
  0
LWPOLYLINE
  5
1D1
330
19F
100
AcDbEntity
  8
AM_4
100
AcDbPolyline
 90
        4
 70
     0
 43
0.0
 10
-1.890556942922154
 20
2.125
 10
-1.906343864345308
 20
2.125607414003999
 10
-1.922149788954207
 20
2.127396206041015
 10
-1.953704628614769
 20
2.134067599696615
  0
LWPOLYLINE
  5
1D2
330
19F
100
AcDbEntity
  8
AM_4
100
AcDbPolyline
 90
        4
 70
     0
 43
0.0
 10
-2.332590742770461
 20
2.215932400303386
 10
-2.309031912716827
 20
2.221278587191168
 10
-2.285323075602153
 20
2.224385438185772
 10
-2.269443057077846
 20
2.225
  0
LINE
  5
1D3
330
19F
100
AcDbEntity
  8
AM_4
100
AcDbLine
 10
-2.332590742770461
 20
2.215932400303386
 30
0.0
 11
-2.332590742770461
 21
2.134067599696615
 31
0.0
  0
LWPOLYLINE
  5
1D4
330
19F
100
AcDbEntity
  8
AM_4
100
AcDbPolyline
 90
        4
 70
     0
 43
0.0
 10
-2.269443057077846
 20
2.125
 10
-2.285229978501
 20
2.125607414003999
 10
-2.301035903109899
 20
2.127396206041015
 10
-2.332590742770461
 20
2.134067599696615
  0
LWPOLYLINE
  5
1D5
330
19F
100
AcDbEntity
  8
AM_4
100
AcDbPolyline
 90
        4
 70
     0
 43
0.0
 10
-2.20629537138523
 20
2.134067599696615
 10
-2.229854201438865
 20
2.128721412808832
 10
-2.253563038553539
 20
2.125614561814227
 10
-2.269443057077846
 20
2.125
  0
LWPOLYLINE
  5
1D6
330
19F
100
AcDbEntity
  8
AM_4
100
AcDbPolyline
 90
        4
 70
     0
 43
0.0
 10
-1.953704628614769
 20
2.215932400303386
 10
-1.938011580060584
 20
2.219720878191892
 10
-1.906436961446461
 20
2.224385438185772
 10
-1.890556942922154
 20
2.225
  0
LWPOLYLINE
  5
1D7
330
19F
100
AcDbEntity
  8
AM_4
100
AcDbPolyline
 90
        4
 70
     0
 43
0.0
 10
-2.269443057077846
 20
2.225
 10
-2.253656135654692
 20
2.224392585996001
 10
-2.237850211045793
 20
2.222603793958984
 10
-2.20629537138523
 20
2.215932400303386
  0
LINE
  5
1D8
330
19F
100
AcDbEntity
  8
AM_4
100
AcDbLine
 10
-1.953704628614769
 20
2.215932400303386
 30
0.0
 11
-1.953704628614769
 21
2.134067599696615
 31
0.0
  0
LWPOLYLINE
  5
1D9
330
19F
100
AcDbEntity
  8
AM_4
100
AcDbPolyline
 90
        4
 70
     0
 43
0.0
 10
-2.08
 20
2.225
 10
-2.031600183944101
 20
2.223582439282862
 10
-1.983200367888202
 20
2.219517587482156
 10
-1.953704628614769
 20
2.215932400303386
  0
LWPOLYLINE
  5
1DA
330
19F
100
AcDbEntity
  8
AM_4
100
AcDbPolyline
 90
        5
 70
     0
 43
0.0
 10
-2.20629537138523
 20
2.215932400303386
 10
-2.174925154415046
 20
2.219719184458392
 10
-2.143431614691437
 20
2.22258547505038
 10
-2.111760037048614
 20
2.224385438185772
 10
-2.08
 20
2.225
  0
LINE
  5
1DB
330
19F
100
AcDbEntity
  8
AM_4
100
AcDbLine
 10
-2.20629537138523
 20
2.215932400303386
 30
0.0
 11
-2.20629537138523
 21
2.134067599696615
 31
0.0
  0
LWPOLYLINE
  5
1DC
330
19F
100
AcDbEntity
  8
AM_4
100
AcDbPolyline
 90
        5
 70
     0
 43
0.0
 10
-2.08
 20
2.125
 10
-2.111573842846308
 20
2.125607414003999
 10
-2.143147685692615
 20
2.127393380785034
 10
-2.174756284056983
 20
2.130262816495164
 10
-2.20629537138523
 20
2.134067599696615
  0
LWPOLYLINE
  5
1DD
330
19F
100
AcDbEntity
  8
AM_4
100
AcDbPolyline
 90
        4
 70
     0
 43
0.0
 10
-1.953704628614769
 20
2.134067599696615
 10
-1.983200367888202
 20
2.130482412517844
 10
-2.031457558752245
 20
2.126425828243072
 10
-2.08
 20
2.125
  0
ENDBLK
  5
1A2
330
19F
100
AcDbEntity
  8
0
100
AcDbBlockEnd
  0
BLOCK
  5
1E0
330
1DE
100
AcDbEntity
  8
0
100
AcDbBlockBegin
  2
7_071290LH_0_in_071340_2
 70
     2
 10
0.0
 20
0.0
 30
0.0
  3
7_071290LH_0_in_071340_2
  1

  0
ATTDEF
  5
1E2
330
1DE
100
AcDbEntity
  8
AM_6
100
AcDbText
 10
5.166700000029234
 20
2.69
 30
0.0
 40
0.5
  1
EF4S-IP -(Labyrinth Seal)-Housing -Inch
100
AcDbAttributeDefinition
  3

  2
NN
 70
     8
280
     0
  0
ATTDEF
  5
1E3
330
1DE
100
AcDbEntity
  8
AM_6
100
AcDbText
 10
5.166700000029234
 20
2.19
 30
0.0
 40
0.5
  1
Imperial 4 Bolt Square Flange Bearings
100
AcDbAttributeDefinition
  3

  2
NT
 70
     8
280
     0
  0
ATTDEF
  5
1E4
330
1DE
100
AcDbEntity
  8
AM_6
100
AcDbText
 10
5.166700000029234
 20
1.69
 30
0.0
 40
0.5
  1
071290LH
100
AcDbAttributeDefinition
  3

  2
NB
 70
     8
280
     0
  0
ATTDEF
  5
1E5
330
1DE
100
AcDbEntity
  8
AM_6
100
AcDbText
 10
5.166700000029234
 20
1.19
 30
0.0
 40
0.5
  1
$PN.H
100
AcDbAttributeDefinition
  3

  2
NBSYN
 70
     8
280
     0
  0
ATTDEF
  5
1E6
330
1DE
100
AcDbEntity
  8
AM_6
100
AcDbText
 10
5.166700000029234
 20
0.69
 30
0.0
 40
0.5
  1
071290L
100
AcDbAttributeDefinition
  3

  2
LINA
 70
     8
280
     0
  0
ATTDEF
  5
1E7
330
1DE
100
AcDbEntity
  8
AM_6
100
AcDbText
 10
5.166700000029234
 20
0.1899999999999999
 30
0.0
 40
0.5
  1
1-1/2
100
AcDbAttributeDefinition
  3

  2
SS
 70
     8
280
     0
  0
ATTDEF
  5
1E8
330
1DE
100
AcDbEntity
  8
AM_6
100
AcDbText
 10
5.166700000029234
 20
-0.3100000000000001
 30
0.0
 40
0.5
  1
1.5000
100
AcDbAttributeDefinition
  3

  2
SS1
 70
     8
280
     0
  0
ATTDEF
  5
1E9
330
1DE
100
AcDbEntity
  8
AM_6
100
AcDbText
 10
5.166700000029234
 20
-0.81
 30
0.0
 40
0.5
  1
3.1496
100
AcDbAttributeDefinition
  3

  2
BORE
 70
     8
280
     0
  0
ATTDEF
  5
1EA
330
1DE
100
AcDbEntity
  8
AM_6
100
AcDbText
 10
5.166700000029234
 20
-1.31
 30
0.0
 40
0.5
  1
Non-Expansion
100
AcDbAttributeDefinition
  3

  2
TYPE
 70
     8
280
     0
  0
ATTDEF
  5
1EB
330
1DE
100
AcDbEntity
  8
AM_6
100
AcDbText
 10
5.166700000029234
 20
-1.81
 30
0.0
 40
0.5
  1
EF4B-IP-108L
100
AcDbAttributeDefinition
  3

  2
DESCRIPTION
 70
     8
280
     0
  0
ATTDEF
  5
1EC
330
1DE
100
AcDbEntity
  8
AM_6
100
AcDbText
 10
5.166700000029234
 20
-2.31
 30
0.0
 40
0.5
  1
Non-Expansion Type
100
AcDbAttributeDefinition
  3

  2
EF
 70
     8
280
     0
  0
ATTDEF
  5
1ED
330
1DE
100
AcDbEntity
  8
AM_6
100
AcDbText
 10
5.166700000029234
 20
-2.81
 30
0.0
 40
0.5
  1
1
100
AcDbAttributeDefinition
  3

  2
EF1
 70
     8
280
     0
  0
ATTDEF
  5
1EE
330
1DE
100
AcDbEntity
  8
AM_6
100
AcDbText
 10
5.166700000029234
 20
-3.31
 30
0.0
 40
0.5
  1
Labyrinth Seal
100
AcDbAttributeDefinition
  3

  2
ST
 70
     8
280
     0
  0
ATTDEF
  5
1EF
330
1DE
100
AcDbEntity
  8
AM_6
100
AcDbText
 10
5.166700000029234
 20
-3.81
 30
0.0
 40
0.5
  1
2
100
AcDbAttributeDefinition
  3

  2
ST1
 70
     8
280
     0
  0
ATTDEF
  5
1F0
330
1DE
100
AcDbEntity
  8
AM_6
100
AcDbText
 10
5.166700000029234
 20
-4.31
 30
0.0
 40
0.5
  1
2.81
100
AcDbAttributeDefinition
  3

  2
A
 70
     8
280
     0
  0
ATTDEF
  5
1F1
330
1DE
100
AcDbEntity
  8
AM_6
100
AcDbText
 10
5.166700000029234
 20
-4.81
 30
0.0
 40
0.5
  1
2.810000
100
AcDbAttributeDefinition
  3

  2
A1
 70
     8
280
     0
  0
ATTDEF
  5
1F2
330
1DE
100
AcDbEntity
  8
AM_6
100
AcDbText
 10
5.166700000029234
 20
-5.31
 30
0.0
 40
0.5
  1
5.38
100
AcDbAttributeDefinition
  3

  2
B
 70
     8
280
     0
  0
ATTDEF
  5
1F3
330
1DE
100
AcDbEntity
  8
AM_6
100
AcDbText
 10
5.166700000029234
 20
-5.81
 30
0.0
 40
0.5
  1
5.380000
100
AcDbAttributeDefinition
  3

  2
B1
 70
     8
280
     0
  0
ATTDEF
  5
1F4
330
1DE
100
AcDbEntity
  8
AM_6
100
AcDbText
 10
5.166700000029234
 20
-6.31
 30
0.0
 40
0.5
  1
3.64
100
AcDbAttributeDefinition
  3

  2
C
 70
     8
280
     0
  0
ATTDEF
  5
1F5
330
1DE
100
AcDbEntity
  8
AM_6
100
AcDbText
 10
5.166700000029234
 20
-6.81
 30
0.0
 40
0.5
  1
3.640000
100
AcDbAttributeDefinition
  3

  2
C1
 70
     8
280
     0
  0
ATTDEF
  5
1F6
330
1DE
100
AcDbEntity
  8
AM_6
100
AcDbText
 10
5.166700000029234
 20
-7.31
 30
0.0
 40
0.5
  1
4.13
100
AcDbAttributeDefinition
  3

  2
D
 70
     8
280
     0
  0
ATTDEF
  5
1F7
330
1DE
100
AcDbEntity
  8
AM_6
100
AcDbText
 10
5.166700000029234
 20
-7.81
 30
0.0
 40
0.5
  1
4.130000
100
AcDbAttributeDefinition
  3

  2
D1
 70
     8
280
     0
  0
ATTDEF
  5
1F8
330
1DE
100
AcDbEntity
  8
AM_6
100
AcDbText
 10
5.166700000029234
 20
-8.31
 30
0.0
 40
0.5
  1
1/2
100
AcDbAttributeDefinition
  3

  2
F
 70
     8
280
     0
  0
ATTDEF
  5
1F9
330
1DE
100
AcDbEntity
  8
AM_6
100
AcDbText
 10
5.166700000029234
 20
-8.81
 30
0.0
 40
0.5
  1
0.500
100
AcDbAttributeDefinition
  3

  2
F1
 70
     8
280
     0
  0
ATTDEF
  5
1FA
330
1DE
100
AcDbEntity
  8
AM_6
100
AcDbText
 10
5.166700000029234
 20
-9.31
 30
0.0
 40
0.5
  1
0.67
100
AcDbAttributeDefinition
  3

  2
G
 70
     8
280
     0
  0
ATTDEF
  5
1FB
330
1DE
100
AcDbEntity
  8
AM_6
100
AcDbText
 10
5.166700000029234
 20
-9.81
 30
0.0
 40
0.5
  1
0.670000
100
AcDbAttributeDefinition
  3

  2
G1
 70
     8
280
     0
  0
ATTDEF
  5
1FC
330
1DE
100
AcDbEntity
  8
AM_6
100
AcDbText
 10
5.166700000029234
 20
-10.31
 30
0.0
 40
0.5
  1
1.19
100
AcDbAttributeDefinition
  3

  2
H
 70
     8
280
     0
  0
ATTDEF
  5
1FD
330
1DE
100
AcDbEntity
  8
AM_6
100
AcDbText
 10
5.166700000029234
 20
-10.81
 30
0.0
 40
0.5
  1
1.190000
100
AcDbAttributeDefinition
  3

  2
H1
 70
     8
280
     0
  0
ATTDEF
  5
1FE
330
1DE
100
AcDbEntity
  8
AM_6
100
AcDbText
 10
5.166700000029234
 20
-11.31
 30
0.0
 40
0.5
  1
4.18
100
AcDbAttributeDefinition
  3

  2
J
 70
     8
280
     0
  0
ATTDEF
  5
1FF
330
1DE
100
AcDbEntity
  8
AM_6
100
AcDbText
 10
5.166700000029234
 20
-11.81
 30
0.0
 40
0.5
  1
4.180000
100
AcDbAttributeDefinition
  3

  2
J1
 70
     8
280
     0
  0
ATTDEF
  5
200
330
1DE
100
AcDbEntity
  8
AM_6
100
AcDbText
 10
5.166700000029234
 20
-12.31
 30
0.0
 40
0.5
  1
4.180000
100
AcDbAttributeDefinition
  3

  2
K
 70
     8
280
     0
  0
ATTDEF
  5
201
330
1DE
100
AcDbEntity
  8
AM_6
100
AcDbText
 10
5.166700000029234
 20
-12.81
 30
0.0
 40
0.5
  1
6.000
100
AcDbAttributeDefinition
  3

  2
K1
 70
     8
280
     0
  0
ATTDEF
  5
202
330
1DE
100
AcDbEntity
  8
AM_6
100
AcDbText
 10
5.166700000029234
 20
-13.31
 30
0.0
 40
0.5
  1
3
100
AcDbAttributeDefinition
  3

  2
L
 70
     8
280
     0
  0
ATTDEF
  5
203
330
1DE
100
AcDbEntity
  8
AM_6
100
AcDbText
 10
5.166700000029234
 20
-13.81
 30
0.0
 40
0.5
  1
3.00000
100
AcDbAttributeDefinition
  3

  2
L1
 70
     8
280
     0
  0
ATTDEF
  5
204
330
1DE
100
AcDbEntity
  8
AM_6
100
AcDbText
 10
5.166700000029234
 20
-14.31
 30
0.0
 40
0.5
  1
2.5
100
AcDbAttributeDefinition
  3

  2
N
 70
     8
280
     0
  0
ATTDEF
  5
205
330
1DE
100
AcDbEntity
  8
AM_6
100
AcDbText
 10
5.166700000029234
 20
-14.81
 30
0.0
 40
0.5
  1
2.500000
100
AcDbAttributeDefinition
  3

  2
N1
 70
     8
280
     0
  0
ATTDEF
  5
206
330
1DE
100
AcDbEntity
  8
AM_6
100
AcDbText
 10
5.166700000029234
 20
-15.31
 30
0.0
 40
0.5
  1
0.83
100
AcDbAttributeDefinition
  3

  2
P
 70
     8
280
     0
  0
ATTDEF
  5
207
330
1DE
100
AcDbEntity
  8
AM_6
100
AcDbText
 10
5.166700000029234
 20
-15.81
 30
0.0
 40
0.5
  1
0.830000
100
AcDbAttributeDefinition
  3

  2
P1
 70
     8
280
     0
  0
ATTDEF
  5
208
330
1DE
100
AcDbEntity
  8
AM_6
100
AcDbText
 10
5.166700000029234
 20
-16.31
 30
0.0
 40
0.5
  1
0.19
100
AcDbAttributeDefinition
  3

  2
X
 70
     8
280
     0
  0
ATTDEF
  5
209
330
1DE
100
AcDbEntity
  8
AM_6
100
AcDbText
 10
5.166700000029234
 20
-16.81
 30
0.0
 40
0.5
  1
0.1900
100
AcDbAttributeDefinition
  3

  2
X1
 70
     8
280
     0
  0
ATTDEF
  5
20A
330
1DE
100
AcDbEntity
  8
AM_6
100
AcDbText
 10
5.166700000029234
 20
-17.31
 30
0.0
 40
0.5
  1
0.020
100
AcDbAttributeDefinition
  3

  2
Y
 70
     8
280
     0
  0
ATTDEF
  5
20B
330
1DE
100
AcDbEntity
  8
AM_6
100
AcDbText
 10
5.166700000029234
 20
-17.81
 30
0.0
 40
0.5
  1
2.08
100
AcDbAttributeDefinition
  3

  2
Z
 70
     8
280
     0
  0
ATTDEF
  5
20C
330
1DE
100
AcDbEntity
  8
AM_6
100
AcDbText
 10
5.166700000029234
 20
-18.31
 30
0.0
 40
0.5
  1
2.080000
100
AcDbAttributeDefinition
  3

  2
Z1
 70
     8
280
     0
  0
ATTDEF
  5
20D
330
1DE
100
AcDbEntity
  8
AM_6
100
AcDbText
 10
5.166700000029234
 20
-18.81
 30
0.0
 40
0.5
  1
071290L
100
AcDbAttributeDefinition
  3

  2
PN1
 70
     8
280
     0
  0
ATTDEF
  5
20E
330
1DE
100
AcDbEntity
  8
AM_6
100
AcDbText
 10
5.166700000029234
 20
-19.31
 30
0.0
 40
0.5
  1
071315L
100
AcDbAttributeDefinition
  3

  2
PN2
 70
     8
280
     0
  0
ATTDEF
  5
20F
330
1DE
100
AcDbEntity
  8
AM_6
100
AcDbText
 10
5.166700000029234
 20
-19.81
 30
0.0
 40
0.5
  1
baldor
100
AcDbAttributeDefinition
  3

  2
COMPANY
 70
     8
280
     0
  0
LINE
  5
210
330
1DE
100
AcDbEntity
  8
AM_9
100
AcDbLine
 10
-0.6799999999999998
 20
2.69
 30
0.0
 11
-0.6799999999999998
 21
1.363636363636364
 31
0.0
  0
LINE
  5
211
330
1DE
100
AcDbEntity
  8
AM_9
100
AcDbLine
 10
-0.6799999999999998
 20
-1.363636363636364
 30
0.0
 11
-0.6799999999999998
 21
-2.69
 31
0.0
  0
LINE
  5
212
330
1DE
100
AcDbEntity
  8
AM_9
100
AcDbLine
 10
-0.6799999999999998
 20
1.5748
 30
0.0
 11
-2.97
 21
1.5748
 31
0.0
  0
LINE
  5
213
330
1DE
100
AcDbEntity
  8
AM_9
100
AcDbLine
 10
-2.97
 20
-1.5748
 30
0.0
 11
-0.6799999999999998
 21
-1.5748
 31
0.0
  0
LINE
  5
214
330
1DE
100
AcDbEntity
  8
AM_9
100
AcDbLine
 10
-1.071
 20
-2.631799180998708
 30
0.0
 11
-1.19
 21
-2.631799180998708
 31
0.0
  0
LINE
  5
215
330
1DE
100
AcDbEntity
  8
AM_9
100
AcDbLine
 10
-1.071
 20
2.631799180998709
 30
0.0
 11
-1.19
 21
2.631799180998709
 31
0.0
  0
LINE
  5
216
330
1DE
100
AcDbEntity
  8
AM_9
100
AcDbLine
 10
-1.071
 20
2.69
 30
0.0
 11
-1.071
 21
2.042812593654967
 31
0.0
  0
LINE
  5
217
330
1DE
100
AcDbEntity
  8
AM_9
100
AcDbLine
 10
-1.071
 20
-2.04281259365496
 30
0.0
 11
-1.071
 21
-2.69
 31
0.0
  0
LINE
  5
218
330
1DE
100
AcDbEntity
  8
AM_9
100
AcDbLine
 10
-1.19
 20
1.930930915988151
 30
0.0
 11
-1.071
 21
1.930930915988151
 31
0.0
  0
LINE
  5
219
330
1DE
100
AcDbEntity
  8
AM_9
100
AcDbLine
 10
-1.071
 20
-1.930930915988151
 30
0.0
 11
-1.19
 21
-1.930930915988151
 31
0.0
  0
LINE
  5
21A
330
1DE
100
AcDbEntity
  8
AM_9
100
AcDbLine
 10
-1.071
 20
2.09
 30
0.0
 11
-1.19
 21
2.09
 31
0.0
  0
LINE
  5
21B
330
1DE
100
AcDbEntity
  8
AM_9
100
AcDbLine
 10
-1.19
 20
-2.09
 30
0.0
 11
-1.071
 21
-2.09
 31
0.0
  0
LINE
  5
21C
330
1DE
100
AcDbEntity
  8
AM_9
100
AcDbLine
 10
-1.19
 20
-2.315
 30
0.0
 11
0.0000000000000001
 21
-2.315
 31
0.0
  0
LINE
  5
21D
330
1DE
100
AcDbEntity
  8
AM_9
100
AcDbLine
 10
0.0000000000000001
 20
-1.815
 30
0.0
 11
-1.19
 21
-1.815
 31
0.0
  0
LINE
  5
21E
330
1DE
100
AcDbEntity
  8
AM_9
100
AcDbLine
 10
-1.19
 20
1.815
 30
0.0
 11
0.0000000000000001
 21
1.815
 31
0.0
  0
LINE
  5
21F
330
1DE
100
AcDbEntity
  8
AM_9
100
AcDbLine
 10
0.0000000000000001
 20
2.315
 30
0.0
 11
-1.19
 21
2.315
 31
0.0
  0
LINE
  5
220
330
1DE
100
AcDbEntity
  8
AM_7
100
AcDbLine
 10
0.1667000000292345
 20
0.0
 30
0.0
 11
-3.7815
 21
0.0
 31
0.0
  0
LINE
  5
221
330
1DE
100
AcDbEntity
  8
AM_7
100
AcDbLine
 10
0.0713999999999999
 20
2.065
 30
0.0
 11
-1.4994
 21
2.065
 31
0.0
  0
LINE
  5
222
330
1DE
100
AcDbEntity
  8
AM_7
100
AcDbLine
 10
0.0714000000000001
 20
-2.065
 30
0.0
 11
-1.4994
 21
-2.065
 31
0.0
  0
LINE
  5
223
330
1DE
100
AcDbEntity
  8
AM_4
100
AcDbLine
 10
-1.68
 20
2.125
 30
0.0
 11
-2.479999999927048
 21
2.125
 31
0.0
  0
ARC
  5
224
330
1DE
100
AcDbEntity
  8
AM_4
100
AcDbCircle
 10
-2.480000000000001
 20
2.025000000000001
 30
0.0
 40
0.0999999999999992
100
AcDbArc
 50
90.0
 51
139.3728026212723
  0
ARC
  5
225
330
1DE
100
AcDbEntity
  8
AM_4
100
AcDbCircle
 10
-1.68
 20
2.024999999999999
 30
0.0
 40
0.1000000000000014
100
AcDbArc
 50
40.5746279049506
 51
90.0
  0
LINE
  5
226
330
1DE
100
AcDbEntity
  8
AM_4
100
AcDbLine
 10
-1.19
 20
2.09
 30
0.0
 11
-1.604091359619575
 21
2.09
 31
0.0
  0
LINE
  5
227
330
1DE
100
AcDbEntity
  8
AM_4
100
AcDbLine
 10
-2.555648134472405
 20
2.09
 30
0.0
 11
-2.902999999999999
 21
2.09
 31
0.0
  0
LINE
  5
228
330
1DE
100
AcDbEntity
  8
AM_4
100
AcDbLine
 10
-2.902999999999999
 20
-2.09
 30
0.0
 11
-1.19
 21
-2.09
 31
0.0
  0
LWPOLYLINE
  5
229
330
1DE
100
AcDbEntity
  8
AM_4
100
AcDbPolyline
 90
       39
 70
     0
 43
0.0
 10
-2.555993420767719
 20
2.089999999999962
 10
-2.555213668487282
 20
2.089778445758061
 10
-2.551329141667467
 20
2.088691754396955
 10
-2.543524480395453
 20
2.086549163764406
 10
-2.531874196904746
 20
2.083459008750562
 10
-2.515690039431937
 20
2.079358009915303
 10
-2.495277365941225
 20
2.074484378996083
 10
-2.473501551579346
 20
2.069623684277096
 10
-2.448464354838005
 20
2.064438346618085
 10
-2.419207151774377
 20
2.058895223119456
 10
-2.386827758736742
 20
2.053371763955766
 10
-2.356482587960009
 20
2.048755798816051
 10
-2.324223947340044
 20
2.044418041937337
 10
-2.289243388618274
 20
2.040360929317492
 10
-2.252752296394269
 20
2.036822066171543
 10
-2.216538106359657
 20
2.033999101889496
 10
-2.179435329775155
 20
2.031801891923672
 10
-2.140652006499407
 20
2.03025152271643
 10
-2.101459496500241
 20
2.029448071739156
 10
-2.061992840400674
 20
2.029415292700008
 10
-2.02264792929257
 20
2.030153223076816
 10
-1.982586335715617
 20
2.031703608039001
 10
-1.943229822026003
 20
2.034014013388693
 10
-1.905705412168676
 20
2.036958602409149
 10
-1.869415154690755
 20
2.040503266549866
 10
-1.833593222295095
 20
2.044694492527181
 10
-1.799665602373381
 20
2.049311760213039
 10
-1.76969786124853
 20
2.053935094691709
 10
-1.741864245557981
 20
2.05870143921351
 10
-1.715638036376096
 20
2.063628570567938
 10
-1.692029740079416
 20
2.068441724043851
 10
-1.671887162489669
 20
2.072847661362137
 10
-1.654356517257463
 20
2.076919762254229
 10
-1.63913439361691
 20
2.080646013619379
 10
-1.626692793079462
 20
2.083832740282515
 10
-1.616670674464629
 20
2.086496898435755
 10
-1.609581009683879
 20
2.088439007238175
 10
-1.605310473039902
 20
2.089630991117955
 10
-1.604006579232184
 20
2.089999999999989
  0
LINE
  5
22A
330
1DE
100
AcDbEntity
  8
AM_4
100
AcDbLine
 10
-2.902999999999999
 20
-2.09
 30
0.0
 11
-2.902999999999999
 21
2.09
 31
0.0
  0
LINE
  5
22B
330
1DE
100
AcDbEntity
  8
AM_4
100
AcDbLine
 10
-2.97
 20
-2.023
 30
0.0
 11
-2.97
 21
2.023
 31
0.0
  0
ARC
  5
22C
330
1DE
100
AcDbEntity
  8
AM_4
100
AcDbCircle
 10
-2.902999999999999
 20
2.022999999999999
 30
0.0
 40
0.0670000000000011
100
AcDbArc
 50
90.0
 51
180.0
  0
ARC
  5
22D
330
1DE
100
AcDbEntity
  8
AM_4
100
AcDbCircle
 10
-2.902999999999999
 20
-2.023
 30
0.0
 40
0.0670000000000006
100
AcDbArc
 50
180.0
 51
270.0
  0
LINE
  5
22E
330
1DE
100
AcDbEntity
  8
AM_4
100
AcDbLine
 10
-1.19
 20
0.7997535856006892
 30
0.0
 11
-1.19
 21
2.69
 31
0.0
  0
LINE
  5
22F
330
1DE
100
AcDbEntity
  8
AM_4
100
AcDbLine
 10
-1.071
 20
0.799753585600689
 30
0.0
 11
-1.19
 21
0.7997535856006892
 31
0.0
  0
LINE
  5
230
330
1DE
100
AcDbEntity
  8
AM_4
100
AcDbLine
 10
-1.19
 20
-2.69
 30
0.0
 11
-1.19
 21
-0.7997535856006904
 31
0.0
  0
LINE
  5
231
330
1DE
100
AcDbEntity
  8
AM_4
100
AcDbLine
 10
-1.19
 20
-0.7997535856006904
 30
0.0
 11
-1.071
 21
-0.7997535856006903
 31
0.0
  0
LINE
  5
232
330
1DE
100
AcDbEntity
  8
AM_4
100
AcDbLine
 10
0.0000000000000002
 20
1.363636363636364
 30
0.0
 11
0.0000000000000001
 21
2.69
 31
0.0
  0
LINE
  5
233
330
1DE
100
AcDbEntity
  8
AM_4
100
AcDbLine
 10
-1.19
 20
2.69
 30
0.0
 11
0.0000000000000001
 21
2.69
 31
0.0
  0
LINE
  5
234
330
1DE
100
AcDbEntity
  8
AM_4
100
AcDbLine
 10
0.0000000000000001
 20
-2.69
 30
0.0
 11
0.0000000000000002
 21
-1.363636363636364
 31
0.0
  0
LINE
  5
235
330
1DE
100
AcDbEntity
  8
AM_4
100
AcDbLine
 10
-1.19
 20
-2.69
 30
0.0
 11
0.0000000000000001
 21
-2.69
 31
0.0
  0
LINE
  5
236
330
1DE
100
AcDbEntity
  8
AM_4
100
AcDbLine
 10
-0.6799999999999998
 20
1.363636363636364
 30
0.0
 11
-0.6799999999999998
 21
-1.363636363636364
 31
0.0
  0
LINE
  5
237
330
1DE
100
AcDbEntity
  8
AM_4
100
AcDbLine
 10
0.0000000000000002
 20
1.363636363636364
 30
0.0
 11
-0.6799999999999998
 21
1.363636363636364
 31
0.0
  0
LINE
  5
238
330
1DE
100
AcDbEntity
  8
AM_4
100
AcDbLine
 10
-0.6799999999999998
 20
-1.363636363636364
 30
0.0
 11
0.0000000000000002
 21
-1.363636363636364
 31
0.0
  0
LINE
  5
239
330
1DE
100
AcDbEntity
  8
AM_4
100
AcDbLine
 10
-1.071
 20
-2.04281259365496
 30
0.0
 11
-1.071
 21
2.042812593654967
 31
0.0
  0
LINE
  5
23A
330
1DE
100
AcDbEntity
  8
AM_4
100
AcDbLine
 10
-1.19
 20
2.065
 30
0.0
 11
0.0000000000000002
 21
2.065
 31
0.0
  0
LINE
  5
23B
330
1DE
100
AcDbEntity
  8
AM_4
100
AcDbLine
 10
-1.19
 20
-2.064999999999999
 30
0.0
 11
0.0000000000000002
 21
-2.064999999999999
 31
0.0
  0
LINE
  5
23C
330
1DE
100
AcDbEntity
  8
AM_4
100
AcDbLine
 10
-1.071
 20
2.042812593654967
 30
0.0
 11
-1.19
 21
2.042812593654967
 31
0.0
  0
LINE
  5
23D
330
1DE
100
AcDbEntity
  8
AM_4
100
AcDbLine
 10
-1.071
 20
1.800697201264321
 30
0.0
 11
-1.19
 21
1.800697201264321
 31
0.0
  0
LINE
  5
23E
330
1DE
100
AcDbEntity
  8
AM_4
100
AcDbLine
 10
-1.19
 20
-2.04281259365496
 30
0.0
 11
-1.071
 21
-2.04281259365496
 31
0.0
  0
LINE
  5
23F
330
1DE
100
AcDbEntity
  8
AM_4
100
AcDbLine
 10
-1.071
 20
-1.800697201264327
 30
0.0
 11
-1.19
 21
-1.800697201264327
 31
0.0
  0
ENDBLK
  5
1E1
330
1DE
100
AcDbEntity
  8
0
100
AcDbBlockEnd
  0
ENDSEC
  0
SECTION
  2
ENTITIES
  0
INSERT
  5
6F
330
1F
100
AcDbEntity
  8
0
100
AcDbBlockReference
  2
1_071340_2
 10
0.0
 20
0.0
 30
0.0
  0
POINT
  5
241
330
1F
100
AcDbEntity
  8
ConnectionPoints
100
AcDbPoint
 10
-3.478333333333333
 20
1.096354166666667
 30
0.0000000000000002
  0
POINT
  5
242
330
1F
100
AcDbEntity
  8
ConnectionPoints
100
AcDbPoint
 10
-3.408333333333333
 20
0.0
 30
0.0000000000000002
  0
POINT
  5
243
330
1F
100
AcDbEntity
  8
ConnectionPoints
100
AcDbPoint
 10
-3.64
 20
0.0
 30
0.0000000000000002
  0
POINT
  5
244
330
1F
100
AcDbEntity
  8
ConnectionPoints
100
AcDbPoint
 10
-3.607333333333334
 20
0.0
 30
0.0000000000000002
  0
POINT
  5
245
330
1F
100
AcDbEntity
  8
ConnectionPoints
100
AcDbPoint
 10
-3.408333333333333
 20
1.096354166666667
 30
0.0000000000000002
  0
POINT
  5
246
330
1F
100
AcDbEntity
  8
ConnectionPoints
100
AcDbPoint
 10
-3.408333333333333
 20
-1.096354166666667
 30
0.0000000000000002
  0
POINT
  5
247
330
1F
100
AcDbEntity
  8
ConnectionPoints
100
AcDbPoint
 10
-3.408333333333333
 20
0.0
 30
0.0000000000000002
  0
POINT
  5
248
330
1F
100
AcDbEntity
  8
ConnectionPoints
100
AcDbPoint
 10
-2.08
 20
2.125
 30
0.0000000000000001
  0
POINT
  5
249
330
1F
100
AcDbEntity
  8
ConnectionPoints
100
AcDbPoint
 10
-2.08
 20
2.125
 30
0.0000000000000001
  0
POINT
  5
24A
330
1F
100
AcDbEntity
  8
ConnectionPoints
100
AcDbPoint
 10
-3.45
 20
0.0
 30
0.0000000000000002
  0
POINT
  5
24B
330
1F
100
AcDbEntity
  8
ConnectionPoints
100
AcDbPoint
 10
-3.64
 20
0.0
 30
0.0000000000000002
  0
ENDSEC
  0
SECTION
  2
OBJECTS
  0
DICTIONARY
  5
C
330
0
100
AcDbDictionary
281
     1
  3
ACAD_DETAILVIEWSTYLE
350
253
  3
ACAD_GROUP
350
D
  3
ACAD_LAYOUT
350
1A
  3
ACAD_MATERIAL
350
43
  3
ACAD_MLEADERSTYLE
350
6B
  3
ACAD_MLINESTYLE
350
17
  3
ACAD_PLOTSETTINGS
350
19
  3
ACAD_PLOTSTYLENAME
350
E
  3
ACAD_SCALELIST
350
47
  3
ACAD_SECTIONVIEWSTYLE
350
254
  3
ACAD_TABLESTYLE
350
69
  3
ACAD_VISUALSTYLE
350
2A
  3
ACDB_RECOMPOSE_DATA
350
250
  3
AcDbVariableDictionary
350
24C
  0
SUN
  5
6D
330
29
100
AcDbSun
 90
        1
290
     0
 63
     7
421
 16777215
 40
1.0
291
     1
 91
  2455826
 92
 54000000
292
     0
 70
     2
 71
   256
280
     1
  0
DICTIONARY
  5
253
102
{ACAD_REACTORS
330
C
102
}
330
C
100
AcDbDictionary
281
     1
  0
DICTIONARY
  5
D
102
{ACAD_REACTORS
330
C
102
}
330
C
100
AcDbDictionary
281
     1
  0
DICTIONARY
  5
1A
102
{ACAD_REACTORS
330
C
102
}
330
C
100
AcDbDictionary
281
     1
  3
Layout1
350
1E
  3
Layout2
350
26
  3
Model
350
22
  0
DICTIONARY
  5
43
102
{ACAD_REACTORS
330
C
102
}
330
C
100
AcDbDictionary
281
     1
  3
ByBlock
350
45
  3
ByLayer
350
44
  3
Global
350
46
  0
DICTIONARY
  5
6B
102
{ACAD_REACTORS
330
C
102
}
330
C
100
AcDbDictionary
281
     1
  3
Standard
350
6C
  0
DICTIONARY
  5
17
102
{ACAD_REACTORS
330
C
102
}
330
C
100
AcDbDictionary
281
     1
  3
Standard
350
18
  0
DICTIONARY
  5
19
102
{ACAD_REACTORS
330
C
102
}
330
C
100
AcDbDictionary
281
     1
  0
ACDBDICTIONARYWDFLT
  5
E
102
{ACAD_REACTORS
330
C
102
}
330
C
100
AcDbDictionary
281
     1
  3
Normal
350
F
100
AcDbDictionaryWithDefault
340
F
  0
DICTIONARY
  5
47
102
{ACAD_REACTORS
330
C
102
}
330
C
100
AcDbDictionary
281
     1
  3
A0
350
48
  3
A1
350
49
  3
A2
350
4A
  3
A3
350
4B
  3
A4
350
4C
  3
A5
350
4D
  3
A6
350
4E
  3
A7
350
4F
  3
A8
350
50
  3
A9
350
51
  3
B0
350
52
  3
B1
350
53
  3
B2
350
54
  3
B3
350
55
  3
B4
350
56
  3
B5
350
57
  3
B6
350
58
  3
B7
350
59
  3
B8
350
5A
  3
B9
350
5B
  3
C0
350
5C
  3
C1
350
5D
  3
C2
350
5E
  3
C3
350
5F
  3
C4
350
60
  3
C5
350
61
  3
C6
350
62
  3
C7
350
63
  3
C8
350
64
  3
C9
350
65
  3
D0
350
66
  3
D1
350
67
  3
D2
350
68
  0
DICTIONARY
  5
254
102
{ACAD_REACTORS
330
C
102
}
330
C
100
AcDbDictionary
281
     1
  0
DICTIONARY
  5
69
102
{ACAD_REACTORS
330
C
102
}
330
C
100
AcDbDictionary
281
     1
  3
Standard
350
6A
  0
DICTIONARY
  5
2A
102
{ACAD_REACTORS
330
C
102
}
330
C
100
AcDbDictionary
281
     1
  3
2dWireframe
350
2F
  3
Basic
350
32
  3
Brighten
350
36
  3
ColorChange
350
3A
  3
Conceptual
350
34
  3
Dim
350
35
  3
EdgeColorOff
350
3D
  3
Facepattern
350
39
  3
Flat
350
2B
  3
FlatWithEdges
350
2C
  3
Gouraud
350
2D
  3
GouraudWithEdges
350
2E
  3
Hidden
350
31
  3
JitterOff
350
3B
  3
Linepattern
350
38
  3
OverhangOff
350
3C
  3
Realistic
350
33
  3
Shaded
350
42
  3
Shaded with edges
350
41
  3
Shades of Gray
350
3E
  3
Sketchy
350
3F
  3
Thicken
350
37
  3
Wireframe
350
30
  3
X-Ray
350
40
  0
XRECORD
  5
250
102
{ACAD_REACTORS
330
C
102
}
330
C
100
AcDbXrecord
280
     1
 90
        1
330
6A
  0
DICTIONARY
  5
24C
102
{ACAD_REACTORS
330
C
102
}
330
C
100
AcDbDictionary
281
     1
  3
CANNOSCALE
350
24D
  3
CMLEADERSTYLE
350
252
  3
CTABLESTYLE
350
251
  0
LAYOUT
  5
1E
102
{ACAD_REACTORS
330
1A
102
}
330
1A
100
AcDbPlotSettings
  1

  2
none_device
  4

  6

 40
0.0
 41
0.0
 42
0.0
 43
0.0
 44
0.0
 45
0.0
 46
0.0
 47
0.0
 48
0.0
 49
0.0
140
0.0
141
0.0
142
1.0
143
1.0
 70
   688
 72
     0
 73
     0
 74
     5
  7

 75
    16
 76
     0
 77
     2
 78
   300
147
1.0
148
0.0
149
0.0
100
AcDbLayout
  1
Layout1
 70
     1
 71
     1
 10
0.0
 20
0.0
 11
12.0
 21
9.0
 12
0.0
 22
0.0
 32
0.0
 14
1.000000000000000E+20
 24
1.000000000000000E+20
 34
1.000000000000000E+20
 15
-1.000000000000000E+20
 25
-1.000000000000000E+20
 35
-1.000000000000000E+20
146
0.0
 13
0.0
 23
0.0
 33
0.0
 16
1.0
 26
0.0
 36
0.0
 17
0.0
 27
1.0
 37
0.0
 76
     0
330
1B
  0
LAYOUT
  5
26
102
{ACAD_REACTORS
330
1A
102
}
330
1A
100
AcDbPlotSettings
  1

  2
none_device
  4

  6

 40
0.0
 41
0.0
 42
0.0
 43
0.0
 44
0.0
 45
0.0
 46
0.0
 47
0.0
 48
0.0
 49
0.0
140
0.0
141
0.0
142
1.0
143
1.0
 70
   688
 72
     0
 73
     0
 74
     5
  7

 75
    16
 76
     0
 77
     2
 78
   300
147
1.0
148
0.0
149
0.0
100
AcDbLayout
  1
Layout2
 70
     1
 71
     2
 10
0.0
 20
0.0
 11
0.0
 21
0.0
 12
0.0
 22
0.0
 32
0.0
 14
0.0
 24
0.0
 34
0.0
 15
0.0
 25
0.0
 35
0.0
146
0.0
 13
0.0
 23
0.0
 33
0.0
 16
1.0
 26
0.0
 36
0.0
 17
0.0
 27
1.0
 37
0.0
 76
     0
330
23
  0
LAYOUT
  5
22
102
{ACAD_REACTORS
330
1A
102
}
330
1A
100
AcDbPlotSettings
  1

  2
none_device
  4
Letter_(8.50_x_11.00_Inches)
  6

 40
6.35
 41
6.35
 42
6.35000508
 43
6.35000508
 44
215.9
 45
279.4
 46
0.0
 47
0.0
 48
0.0
 49
0.0
140
0.0
141
0.0
142
1.0
143
1.0
 70
  1712
 72
     0
 73
     0
 74
     0
  7

 75
     0
 76
     0
 77
     2
 78
   300
147
1.0
148
0.0
149
0.0
100
AcDbLayout
  1
Model
 70
     1
 71
     0
 10
0.0
 20
0.0
 11
12.0
 21
9.0
 12
0.0
 22
0.0
 32
0.0
 14
1.000000000000000E+20
 24
1.000000000000000E+20
 34
1.000000000000000E+20
 15
-1.000000000000000E+20
 25
-1.000000000000000E+20
 35
-1.000000000000000E+20
146
0.0
 13
0.0
 23
0.0
 33
0.0
 16
1.0
 26
0.0
 36
0.0
 17
0.0
 27
1.0
 37
0.0
 76
     0
330
1F
331
29
  0
MATERIAL
  5
45
102
{ACAD_REACTORS
330
43
102
}
330
43
100
AcDbMaterial
  1
ByBlock
 72
     1
 94
      127
  0
MATERIAL
  5
44
102
{ACAD_REACTORS
330
43
102
}
330
43
100
AcDbMaterial
  1
ByLayer
 72
     1
 94
      127
  0
MATERIAL
  5
46
102
{ACAD_REACTORS
330
43
102
}
330
43
100
AcDbMaterial
  1
Global
 72
     1
 94
      127
  0
MLEADERSTYLE
  5
6C
102
{ACAD_REACTORS
330
6B
102
}
330
6B
100
AcDbMLeaderStyle
179
     2
170
     2
171
     1
172
     0
 90
        2
 40
0.0
 41
0.0
173
     1
 91
-1056964608
340
14
 92
       -2
290
     1
 42
0.09
291
     1
 43
0.36
  3
Standard
341
0
 44
0.18
300

342
11
174
     1
178
     6
175
     1
176
     0
 93
-1056964608
 45
0.18
292
     0
297
     0
 46
0.18
343
0
 94
-1056964608
 47
1.0
 49
1.0
140
1.0
293
     1
141
0.0
294
     1
177
     0
142
1.0
295
     0
296
     0
143
0.125
271
     0
272
     9
273
     9
298
     0
  0
MLINESTYLE
  5
18
102
{ACAD_REACTORS
330
17
102
}
330
17
100
AcDbMlineStyle
  2
Standard
 70
     0
  3

 62
   256
 51
90.0
 52
90.0
 71
     2
 49
0.5
 62
   256
  6
BYLAYER
 49
-0.5
 62
   256
  6
BYLAYER
  0
ACDBPLACEHOLDER
  5
F
102
{ACAD_REACTORS
330
E
102
}
330
E
  0
SCALE
  5
48
102
{ACAD_REACTORS
330
47
102
}
330
47
100
AcDbScale
 70
     0
300
1:1
140
1.0
141
1.0
290
     1
  0
SCALE
  5
49
102
{ACAD_REACTORS
330
47
102
}
330
47
100
AcDbScale
 70
     0
300
1:2
140
1.0
141
2.0
290
     0
  0
SCALE
  5
4A
102
{ACAD_REACTORS
330
47
102
}
330
47
100
AcDbScale
 70
     0
300
1:4
140
1.0
141
4.0
290
     0
  0
SCALE
  5
4B
102
{ACAD_REACTORS
330
47
102
}
330
47
100
AcDbScale
 70
     0
300
1:5
140
1.0
141
5.0
290
     0
  0
SCALE
  5
4C
102
{ACAD_REACTORS
330
47
102
}
330
47
100
AcDbScale
 70
     0
300
1:8
140
1.0
141
8.0
290
     0
  0
SCALE
  5
4D
102
{ACAD_REACTORS
330
47
102
}
330
47
100
AcDbScale
 70
     0
300
1:10
140
1.0
141
10.0
290
     0
  0
SCALE
  5
4E
102
{ACAD_REACTORS
330
47
102
}
330
47
100
AcDbScale
 70
     0
300
1:16
140
1.0
141
16.0
290
     0
  0
SCALE
  5
4F
102
{ACAD_REACTORS
330
47
102
}
330
47
100
AcDbScale
 70
     0
300
1:20
140
1.0
141
20.0
290
     0
  0
SCALE
  5
50
102
{ACAD_REACTORS
330
47
102
}
330
47
100
AcDbScale
 70
     0
300
1:30
140
1.0
141
30.0
290
     0
  0
SCALE
  5
51
102
{ACAD_REACTORS
330
47
102
}
330
47
100
AcDbScale
 70
     0
300
1:40
140
1.0
141
40.0
290
     0
  0
SCALE
  5
52
102
{ACAD_REACTORS
330
47
102
}
330
47
100
AcDbScale
 70
     0
300
1:50
140
1.0
141
50.0
290
     0
  0
SCALE
  5
53
102
{ACAD_REACTORS
330
47
102
}
330
47
100
AcDbScale
 70
     0
300
1:100
140
1.0
141
100.0
290
     0
  0
SCALE
  5
54
102
{ACAD_REACTORS
330
47
102
}
330
47
100
AcDbScale
 70
     0
300
2:1
140
2.0
141
1.0
290
     0
  0
SCALE
  5
55
102
{ACAD_REACTORS
330
47
102
}
330
47
100
AcDbScale
 70
     0
300
4:1
140
4.0
141
1.0
290
     0
  0
SCALE
  5
56
102
{ACAD_REACTORS
330
47
102
}
330
47
100
AcDbScale
 70
     0
300
8:1
140
8.0
141
1.0
290
     0
  0
SCALE
  5
57
102
{ACAD_REACTORS
330
47
102
}
330
47
100
AcDbScale
 70
     0
300
10:1
140
10.0
141
1.0
290
     0
  0
SCALE
  5
58
102
{ACAD_REACTORS
330
47
102
}
330
47
100
AcDbScale
 70
     0
300
100:1
140
100.0
141
1.0
290
     0
  0
SCALE
  5
59
102
{ACAD_REACTORS
330
47
102
}
330
47
100
AcDbScale
 70
     0
300
1/128" = 1'-0"
140
0.0078125
141
12.0
290
     0
  0
SCALE
  5
5A
102
{ACAD_REACTORS
330
47
102
}
330
47
100
AcDbScale
 70
     0
300
1/64" = 1'-0"
140
0.015625
141
12.0
290
     0
  0
SCALE
  5
5B
102
{ACAD_REACTORS
330
47
102
}
330
47
100
AcDbScale
 70
     0
300
1/32" = 1'-0"
140
0.03125
141
12.0
290
     0
  0
SCALE
  5
5C
102
{ACAD_REACTORS
330
47
102
}
330
47
100
AcDbScale
 70
     0
300
1/16" = 1'-0"
140
0.0625
141
12.0
290
     0
  0
SCALE
  5
5D
102
{ACAD_REACTORS
330
47
102
}
330
47
100
AcDbScale
 70
     0
300
3/32" = 1'-0"
140
0.09375
141
12.0
290
     0
  0
SCALE
  5
5E
102
{ACAD_REACTORS
330
47
102
}
330
47
100
AcDbScale
 70
     0
300
1/8" = 1'-0"
140
0.125
141
12.0
290
     0
  0
SCALE
  5
5F
102
{ACAD_REACTORS
330
47
102
}
330
47
100
AcDbScale
 70
     0
300
3/16" = 1'-0"
140
0.1875
141
12.0
290
     0
  0
SCALE
  5
60
102
{ACAD_REACTORS
330
47
102
}
330
47
100
AcDbScale
 70
     0
300
1/4" = 1'-0"
140
0.25
141
12.0
290
     0
  0
SCALE
  5
61
102
{ACAD_REACTORS
330
47
102
}
330
47
100
AcDbScale
 70
     0
300
3/8" = 1'-0"
140
0.375
141
12.0
290
     0
  0
SCALE
  5
62
102
{ACAD_REACTORS
330
47
102
}
330
47
100
AcDbScale
 70
     0
300
1/2" = 1'-0"
140
0.5
141
12.0
290
     0
  0
SCALE
  5
63
102
{ACAD_REACTORS
330
47
102
}
330
47
100
AcDbScale
 70
     0
300
3/4" = 1'-0"
140
0.75
141
12.0
290
     0
  0
SCALE
  5
64
102
{ACAD_REACTORS
330
47
102
}
330
47
100
AcDbScale
 70
     0
300
1" = 1'-0"
140
1.0
141
12.0
290
     0
  0
SCALE
  5
65
102
{ACAD_REACTORS
330
47
102
}
330
47
100
AcDbScale
 70
     0
300
1-1/2" = 1'-0"
140
1.5
141
12.0
290
     0
  0
SCALE
  5
66
102
{ACAD_REACTORS
330
47
102
}
330
47
100
AcDbScale
 70
     0
300
3" = 1'-0"
140
3.0
141
12.0
290
     0
  0
SCALE
  5
67
102
{ACAD_REACTORS
330
47
102
}
330
47
100
AcDbScale
 70
     0
300
6" = 1'-0"
140
6.0
141
12.0
290
     0
  0
SCALE
  5
68
102
{ACAD_REACTORS
330
47
102
}
330
47
100
AcDbScale
 70
     0
300
1'-0" = 1'-0"
140
12.0
141
12.0
290
     0
  0
TABLESTYLE
  5
6A
102
{ACAD_REACTORS
330
69
102
}
102
{ACAD_XDICTIONARY
360
24E
102
}
330
69
100
AcDbTableStyle
  3
Standard
 70
     0
 71
     0
 40
0.06
 41
0.06
280
     0
281
     0
  7
Standard
140
0.18
170
     2
 62
     0
 63
   257
283
     0
 90
        4
 91
        0
  1

274
    -2
284
     1
 64
     0
275
    -2
285
     1
 65
     0
276
    -2
286
     1
 66
     0
277
    -2
287
     1
 67
     0
278
    -2
288
     1
 68
     0
279
    -2
289
     1
 69
     0
  7
Standard
140
0.25
170
     5
 62
     0
 63
   257
283
     0
 90
        4
 91
        0
  1

274
    -2
284
     1
 64
     0
275
    -2
285
     1
 65
     0
276
    -2
286
     1
 66
     0
277
    -2
287
     1
 67
     0
278
    -2
288
     1
 68
     0
279
    -2
289
     1
 69
     0
  7
Standard
140
0.18
170
     5
 62
     0
 63
   257
283
     0
 90
        4
 91
        0
  1

274
    -2
284
     1
 64
     0
275
    -2
285
     1
 65
     0
276
    -2
286
     1
 66
     0
277
    -2
287
     1
 67
     0
278
    -2
288
     1
 68
     0
279
    -2
289
     1
 69
     0
  0
VISUALSTYLE
  5
2F
102
{ACAD_REACTORS
330
2A
102
}
330
2A
100
AcDbVisualStyle
  2
2dWireframe
 70
     4
177
     3
291
     0
 70
    58
 90
        0
176
     1
 90
        2
176
     1
 90
        0
176
     1
 90
        0
176
     1
 40
0.6
176
     1
 40
30.0
176
     1
 62
     7
420
 16777215
176
     1
 90
        1
176
     1
 90
        4
176
     1
 62
     7
176
     1
 62
   257
176
     1
 90
        1
176
     1
 90
        1
176
     1
 40
1.0
176
     1
 90
        0
176
     1
 62
   257
176
     1
 40
1.0
176
     1
 90
        1
176
     1
 90
        6
176
     1
 90
        2
176
     1
 62
     7
176
     1
 90
        5
176
     1
 90
        0
176
     1
 90
        0
176
     1
290
     0
176
     1
 90
        1
176
     1
 40
0.0
176
     1
 90
        0
176
     1
290
     1
176
     1
290
     1
176
     1
290
     0
176
     1
290
     0
176
     1
290
     0
176
     1
290
     0
176
     1
290
     0
176
     1
290
     0
176
     1
290
     0
176
     1
 90
       50
176
     1
 40
0.0
176
     1
 40
1.0
176
     1
 90
        0
176
     1
 62
    18
420
        0
176
     1
 90
       50
176
     1
 90
        3
176
     1
 62
     5
420
      255
176
     1
290
     0
176
     1
 90
       50
176
     1
 90
       50
176
     1
 90
       50
176
     1
290
     0
176
     1
 90
       50
176
     1
 62
   256
176
     0
 40
1.0
176
     0
 90
        2
176
     1
  1
strokes_ogs.tif
176
     1
290
     0
176
     1
 40
1.0
176
     1
 40
1.0
176
     1
  0
VISUALSTYLE
  5
32
102
{ACAD_REACTORS
330
2A
102
}
330
2A
100
AcDbVisualStyle
  2
Basic
 70
     7
177
     3
291
     1
 70
    58
 90
        1
176
     1
 90
        0
176
     1
 90
        1
176
     1
 90
        0
176
     1
 40
0.6
176
     1
 40
30.0
176
     1
 62
     7
420
 16777215
176
     1
 90
        0
176
     1
 90
        4
176
     1
 62
     7
176
     1
 62
   257
176
     1
 90
        1
176
     1
 90
        1
176
     1
 40
1.0
176
     1
 90
        8
176
     1
 62
     7
176
     1
 40
1.0
176
     1
 90
        1
176
     1
 90
        6
176
     1
 90
        2
176
     1
 62
     7
176
     1
 90
        5
176
     1
 90
        0
176
     1
 90
        0
176
     1
290
     0
176
     1
 90
        1
176
     1
 40
0.0
176
     1
 90
        0
176
     1
290
     0
176
     1
290
     1
176
     1
290
     1
176
     1
290
     0
176
     1
290
     0
176
     1
290
     0
176
     1
290
     0
176
     1
290
     0
176
     1
290
     0
176
     1
 90
       50
176
     1
 40
0.0
176
     1
 40
1.0
176
     1
 90
        0
176
     1
 62
    18
420
        0
176
     1
 90
       50
176
     1
 90
        3
176
     1
 62
     5
420
      255
176
     1
290
     0
176
     1
 90
       50
176
     1
 90
       50
176
     1
 90
       50
176
     1
290
     0
176
     1
 90
       50
176
     1
 62
   256
176
     0
 40
1.0
176
     0
 90
        2
176
     1
  1
strokes_ogs.tif
176
     1
290
     0
176
     1
 40
1.0
176
     1
 40
1.0
176
     1
  0
VISUALSTYLE
  5
36
102
{ACAD_REACTORS
330
2A
102
}
330
2A
100
AcDbVisualStyle
  2
Brighten
 70
    12
177
     3
291
     1
 70
    58
 90
        2
176
     1
 90
        2
176
     1
 90
        0
176
     1
 90
        0
176
     1
 40
0.6
176
     1
 40
30.0
176
     1
 62
     7
420
 16777215
176
     1
 90
        1
176
     1
 90
        4
176
     1
 62
     7
176
     1
 62
   257
176
     1
 90
        1
176
     1
 90
        1
176
     1
 40
1.0
176
     1
 90
        8
176
     1
 62
     7
176
     1
 40
1.0
176
     1
 90
        1
176
     1
 90
        6
176
     1
 90
        2
176
     1
 62
     7
176
     1
 90
        5
176
     1
 90
        0
176
     1
 90
        0
176
     1
290
     0
176
     1
 90
        1
176
     1
 40
50.0
176
     1
 90
        0
176
     1
290
     0
176
     1
290
     1
176
     1
290
     1
176
     1
290
     0
176
     1
290
     0
176
     1
290
     0
176
     1
290
     0
176
     1
290
     0
176
     1
290
     0
176
     1
 90
       50
176
     1
 40
0.0
176
     1
 40
1.0
176
     1
 90
        0
176
     1
 62
    18
420
        0
176
     1
 90
       50
176
     1
 90
        3
176
     1
 62
     5
420
      255
176
     1
290
     0
176
     1
 90
       50
176
     1
 90
       50
176
     1
 90
       50
176
     1
290
     0
176
     1
 90
       50
176
     1
 62
   256
176
     0
 40
1.0
176
     0
 90
        2
176
     1
  1
strokes_ogs.tif
176
     1
290
     0
176
     1
 40
1.0
176
     1
 40
1.0
176
     1
  0
VISUALSTYLE
  5
3A
102
{ACAD_REACTORS
330
2A
102
}
330
2A
100
AcDbVisualStyle
  2
ColorChange
 70
    16
177
     3
291
     1
 70
    58
 90
        2
176
     1
 90
        2
176
     1
 90
        3
176
     1
 90
        0
176
     1
 40
0.6
176
     1
 40
30.0
176
     1
 62
     8
420
  8421504
176
     1
 90
        1
176
     1
 90
        4
176
     1
 62
     7
176
     1
 62
   257
176
     1
 90
        1
176
     1
 90
        1
176
     1
 40
1.0
176
     1
 90
        8
176
     1
 62
     8
420
  8421504
176
     1
 40
1.0
176
     1
 90
        1
176
     1
 90
        6
176
     1
 90
        2
176
     1
 62
     7
176
     1
 90
        5
176
     1
 90
        0
176
     1
 90
        0
176
     1
290
     0
176
     1
 90
        1
176
     1
 40
0.0
176
     1
 90
        0
176
     1
290
     0
176
     1
290
     1
176
     1
290
     1
176
     1
290
     0
176
     1
290
     0
176
     1
290
     0
176
     1
290
     0
176
     1
290
     0
176
     1
290
     0
176
     1
 90
       50
176
     1
 40
0.0
176
     1
 40
1.0
176
     1
 90
        0
176
     1
 62
    18
420
        0
176
     1
 90
       50
176
     1
 90
        3
176
     1
 62
     5
420
      255
176
     1
290
     0
176
     1
 90
       50
176
     1
 90
       50
176
     1
 90
       50
176
     1
290
     0
176
     1
 90
       50
176
     1
 62
   256
176
     0
 40
1.0
176
     0
 90
        2
176
     1
  1
strokes_ogs.tif
176
     1
290
     0
176
     1
 40
1.0
176
     1
 40
1.0
176
     1
  0
VISUALSTYLE
  5
34
102
{ACAD_REACTORS
330
2A
102
}
330
2A
100
AcDbVisualStyle
  2
Conceptual
 70
     9
177
     3
291
     0
 70
    58
 90
        3
176
     1
 90
        2
176
     1
 90
        0
176
     1
 90
        0
176
     1
 40
0.6
176
     1
 40
30.0
176
     1
 62
     7
420
 16777215
176
     1
 90
        2
176
     1
 90
        2
176
     1
 62
     7
176
     1
 62
   257
176
     1
 90
        1
176
     1
 90
        1
176
     1
 40
179.0
176
     1
 90
        8
176
     1
 62
     7
176
     1
 40
1.0
176
     1
 90
        1
176
     1
 90
        6
176
     1
 90
        2
176
     1
 62
     7
176
     1
 90
        3
176
     1
 90
        0
176
     1
 90
        0
176
     1
290
     0
176
     1
 90
        1
176
     1
 40
0.0
176
     1
 90
        0
176
     1
290
     0
176
     1
290
     1
176
     1
290
     1
176
     1
290
     0
176
     1
290
     0
176
     1
290
     0
176
     1
290
     0
176
     1
290
     0
176
     1
290
     0
176
     1
 90
       50
176
     1
 40
0.0
176
     1
 40
1.0
176
     1
 90
        0
176
     1
 62
    18
420
        0
176
     1
 90
       50
176
     1
 90
        3
176
     1
 62
     5
420
      255
176
     1
290
     0
176
     1
 90
       50
176
     1
 90
       50
176
     1
 90
       50
176
     1
290
     0
176
     1
 90
       50
176
     1
 62
   256
176
     0
 40
1.0
176
     0
 90
        2
176
     1
  1
strokes_ogs.tif
176
     1
290
     0
176
     1
 40
1.0
176
     1
 40
1.0
176
     1
  0
VISUALSTYLE
  5
35
102
{ACAD_REACTORS
330
2A
102
}
330
2A
100
AcDbVisualStyle
  2
Dim
 70
    11
177
     3
291
     1
 70
    58
 90
        2
176
     1
 90
        2
176
     1
 90
        0
176
     1
 90
        0
176
     1
 40
0.6
176
     1
 40
30.0
176
     1
 62
     7
420
 16777215
176
     1
 90
        1
176
     1
 90
        4
176
     1
 62
     7
176
     1
 62
   257
176
     1
 90
        1
176
     1
 90
        1
176
     1
 40
1.0
176
     1
 90
        8
176
     1
 62
     7
176
     1
 40
1.0
176
     1
 90
        1
176
     1
 90
        6
176
     1
 90
        2
176
     1
 62
     7
176
     1
 90
        5
176
     1
 90
        0
176
     1
 90
        0
176
     1
290
     0
176
     1
 90
        1
176
     1
 40
-50.0
176
     1
 90
        0
176
     1
290
     0
176
     1
290
     1
176
     1
290
     1
176
     1
290
     0
176
     1
290
     0
176
     1
290
     0
176
     1
290
     0
176
     1
290
     0
176
     1
290
     0
176
     1
 90
       50
176
     1
 40
0.0
176
     1
 40
1.0
176
     1
 90
        0
176
     1
 62
    18
420
        0
176
     1
 90
       50
176
     1
 90
        3
176
     1
 62
     5
420
      255
176
     1
290
     0
176
     1
 90
       50
176
     1
 90
       50
176
     1
 90
       50
176
     1
290
     0
176
     1
 90
       50
176
     1
 62
   256
176
     0
 40
1.0
176
     0
 90
        2
176
     1
  1
strokes_ogs.tif
176
     1
290
     0
176
     1
 40
1.0
176
     1
 40
1.0
176
     1
  0
VISUALSTYLE
  5
3D
102
{ACAD_REACTORS
330
2A
102
}
330
2A
100
AcDbVisualStyle
  2
EdgeColorOff
 70
    22
177
     3
291
     1
 70
    58
 90
        2
176
     0
 90
        2
176
     0
 90
        0
176
     0
 90
        0
176
     0
 40
0.6
176
     0
 40
30.0
176
     0
 62
     7
420
 16777215
176
     0
 90
        1
176
     0
 90
        4
176
     0
 62
     7
176
     0
 62
   257
176
     0
 90
        1
176
     0
 90
        1
176
     0
 40
1.0
176
     0
 90
        8
176
     2
 62
     7
176
     0
 40
1.0
176
     0
 90
        1
176
     0
 90
        6
176
     0
 90
        2
176
     0
 62
     7
176
     0
 90
        5
176
     0
 90
        0
176
     0
 90
        0
176
     0
290
     0
176
     0
 90
        1
176
     0
 40
0.0
176
     0
 90
        0
176
     0
290
     0
176
     0
290
     1
176
     0
290
     1
176
     0
290
     0
176
     0
290
     0
176
     0
290
     0
176
     0
290
     0
176
     0
290
     0
176
     0
290
     0
176
     0
 90
       50
176
     0
 40
0.0
176
     0
 40
1.0
176
     0
 90
        0
176
     0
 62
    18
420
        0
176
     0
 90
       50
176
     0
 90
        3
176
     0
 62
     5
420
      255
176
     0
290
     0
176
     0
 90
       50
176
     0
 90
       50
176
     0
 90
       50
176
     0
290
     0
176
     0
 90
       50
176
     0
 62
   256
176
     0
 40
1.0
176
     0
 90
        2
176
     0
  1
strokes_ogs.tif
176
     0
290
     0
176
     0
 40
1.0
176
     0
 40
1.0
176
     0
  0
VISUALSTYLE
  5
39
102
{ACAD_REACTORS
330
2A
102
}
330
2A
100
AcDbVisualStyle
  2
Facepattern
 70
    15
177
     3
291
     1
 70
    58
 90
        2
176
     1
 90
        2
176
     1
 90
        0
176
     1
 90
        0
176
     1
 40
0.6
176
     1
 40
30.0
176
     1
 62
     7
420
 16777215
176
     1
 90
        1
176
     1
 90
        4
176
     1
 62
     7
176
     1
 62
   257
176
     1
 90
        1
176
     1
 90
        1
176
     1
 40
1.0
176
     1
 90
        8
176
     1
 62
     7
176
     1
 40
1.0
176
     1
 90
        1
176
     1
 90
        6
176
     1
 90
        2
176
     1
 62
     7
176
     1
 90
        5
176
     1
 90
        0
176
     1
 90
        0
176
     1
290
     0
176
     1
 90
        1
176
     1
 40
0.0
176
     1
 90
        0
176
     1
290
     0
176
     1
290
     1
176
     1
290
     1
176
     1
290
     0
176
     1
290
     0
176
     1
290
     0
176
     1
290
     0
176
     1
290
     0
176
     1
290
     0
176
     1
 90
       50
176
     1
 40
0.0
176
     1
 40
1.0
176
     1
 90
        0
176
     1
 62
    18
420
        0
176
     1
 90
       50
176
     1
 90
        3
176
     1
 62
     5
420
      255
176
     1
290
     0
176
     1
 90
       50
176
     1
 90
       50
176
     1
 90
       50
176
     1
290
     0
176
     1
 90
       50
176
     1
 62
   256
176
     0
 40
1.0
176
     0
 90
        2
176
     1
  1
strokes_ogs.tif
176
     1
290
     0
176
     1
 40
1.0
176
     1
 40
1.0
176
     1
  0
VISUALSTYLE
  5
2B
102
{ACAD_REACTORS
330
2A
102
}
330
2A
100
AcDbVisualStyle
  2
Flat
 70
     0
177
     3
291
     1
 70
    58
 90
        2
176
     1
 90
        1
176
     1
 90
        1
176
     1
 90
        2
176
     1
 40
0.6
176
     1
 40
30.0
176
     1
 62
     7
420
 16777215
176
     1
 90
        0
176
     1
 90
        0
176
     1
 62
     7
176
     1
 62
   257
176
     1
 90
        1
176
     1
 90
        1
176
     1
 40
1.0
176
     1
 90
        8
176
     1
 62
     7
176
     1
 40
1.0
176
     1
 90
        1
176
     1
 90
        6
176
     1
 90
        2
176
     1
 62
     7
176
     1
 90
        5
176
     1
 90
        0
176
     1
 90
        0
176
     1
290
     0
176
     1
 90
       13
176
     1
 40
0.0
176
     1
 90
        0
176
     1
290
     0
176
     1
290
     1
176
     1
290
     1
176
     1
290
     0
176
     1
290
     0
176
     1
290
     0
176
     1
290
     0
176
     1
290
     0
176
     1
290
     0
176
     1
 90
       50
176
     1
 40
0.0
176
     1
 40
1.0
176
     1
 90
        0
176
     1
 62
    18
420
        0
176
     1
 90
       50
176
     1
 90
        3
176
     1
 62
     5
420
      255
176
     1
290
     0
176
     1
 90
       50
176
     1
 90
       50
176
     1
 90
       50
176
     1
290
     0
176
     1
 90
       50
176
     1
 62
   256
176
     0
 40
1.0
176
     0
 90
        2
176
     1
  1
strokes_ogs.tif
176
     1
290
     0
176
     1
 40
1.0
176
     1
 40
1.0
176
     1
  0
VISUALSTYLE
  5
2C
102
{ACAD_REACTORS
330
2A
102
}
330
2A
100
AcDbVisualStyle
  2
FlatWithEdges
 70
     1
177
     3
291
     1
 70
    58
 90
        2
176
     1
 90
        1
176
     1
 90
        1
176
     1
 90
        2
176
     1
 40
0.6
176
     1
 40
30.0
176
     1
 62
     7
420
 16777215
176
     1
 90
        1
176
     1
 90
        0
176
     1
 62
     7
176
     1
 62
   257
176
     1
 90
        1
176
     1
 90
        1
176
     1
 40
1.0
176
     1
 90
        0
176
     1
 62
   257
176
     1
 40
1.0
176
     1
 90
        1
176
     1
 90
        6
176
     1
 90
        2
176
     1
 62
     7
176
     1
 90
        5
176
     1
 90
        0
176
     1
 90
        0
176
     1
290
     0
176
     1
 90
       13
176
     1
 40
0.0
176
     1
 90
        0
176
     1
290
     0
176
     1
290
     1
176
     1
290
     1
176
     1
290
     0
176
     1
290
     0
176
     1
290
     0
176
     1
290
     0
176
     1
290
     0
176
     1
290
     0
176
     1
 90
       50
176
     1
 40
0.0
176
     1
 40
1.0
176
     1
 90
        0
176
     1
 62
    18
420
        0
176
     1
 90
       50
176
     1
 90
        3
176
     1
 62
     5
420
      255
176
     1
290
     0
176
     1
 90
       50
176
     1
 90
       50
176
     1
 90
       50
176
     1
290
     0
176
     1
 90
       50
176
     1
 62
   256
176
     0
 40
1.0
176
     0
 90
        2
176
     1
  1
strokes_ogs.tif
176
     1
290
     0
176
     1
 40
1.0
176
     1
 40
1.0
176
     1
  0
VISUALSTYLE
  5
2D
102
{ACAD_REACTORS
330
2A
102
}
330
2A
100
AcDbVisualStyle
  2
Gouraud
 70
     2
177
     3
291
     1
 70
    58
 90
        2
176
     1
 90
        2
176
     1
 90
        1
176
     1
 90
        2
176
     1
 40
0.6
176
     1
 40
30.0
176
     1
 62
     7
420
 16777215
176
     1
 90
        0
176
     1
 90
        0
176
     1
 62
     7
176
     1
 62
   257
176
     1
 90
        1
176
     1
 90
        1
176
     1
 40
1.0
176
     1
 90
        0
176
     1
 62
     7
176
     1
 40
1.0
176
     1
 90
        1
176
     1
 90
        6
176
     1
 90
        2
176
     1
 62
     7
176
     1
 90
        5
176
     1
 90
        0
176
     1
 90
        0
176
     1
290
     0
176
     1
 90
       13
176
     1
 40
0.0
176
     1
 90
        0
176
     1
290
     0
176
     1
290
     1
176
     1
290
     1
176
     1
290
     0
176
     1
290
     0
176
     1
290
     0
176
     1
290
     0
176
     1
290
     0
176
     1
290
     0
176
     1
 90
       50
176
     1
 40
0.0
176
     1
 40
1.0
176
     1
 90
        0
176
     1
 62
    18
420
        0
176
     1
 90
       50
176
     1
 90
        3
176
     1
 62
     5
420
      255
176
     1
290
     0
176
     1
 90
       50
176
     1
 90
       50
176
     1
 90
       50
176
     1
290
     0
176
     1
 90
       50
176
     1
 62
   256
176
     0
 40
1.0
176
     0
 90
        2
176
     1
  1
strokes_ogs.tif
176
     1
290
     0
176
     1
 40
1.0
176
     1
 40
1.0
176
     1
  0
VISUALSTYLE
  5
2E
102
{ACAD_REACTORS
330
2A
102
}
330
2A
100
AcDbVisualStyle
  2
GouraudWithEdges
 70
     3
177
     3
291
     1
 70
    58
 90
        2
176
     1
 90
        2
176
     1
 90
        1
176
     1
 90
        2
176
     1
 40
0.6
176
     1
 40
30.0
176
     1
 62
     7
420
 16777215
176
     1
 90
        1
176
     1
 90
        0
176
     1
 62
     7
176
     1
 62
   257
176
     1
 90
        1
176
     1
 90
        1
176
     1
 40
1.0
176
     1
 90
        0
176
     1
 62
   257
176
     1
 40
1.0
176
     1
 90
        1
176
     1
 90
        6
176
     1
 90
        2
176
     1
 62
     7
176
     1
 90
        5
176
     1
 90
        0
176
     1
 90
        0
176
     1
290
     0
176
     1
 90
       13
176
     1
 40
0.0
176
     1
 90
        0
176
     1
290
     0
176
     1
290
     1
176
     1
290
     1
176
     1
290
     0
176
     1
290
     0
176
     1
290
     0
176
     1
290
     0
176
     1
290
     0
176
     1
290
     0
176
     1
 90
       50
176
     1
 40
0.0
176
     1
 40
1.0
176
     1
 90
        0
176
     1
 62
    18
420
        0
176
     1
 90
       50
176
     1
 90
        3
176
     1
 62
     5
420
      255
176
     1
290
     0
176
     1
 90
       50
176
     1
 90
       50
176
     1
 90
       50
176
     1
290
     0
176
     1
 90
       50
176
     1
 62
   256
176
     0
 40
1.0
176
     0
 90
        2
176
     1
  1
strokes_ogs.tif
176
     1
290
     0
176
     1
 40
1.0
176
     1
 40
1.0
176
     1
  0
VISUALSTYLE
  5
31
102
{ACAD_REACTORS
330
2A
102
}
330
2A
100
AcDbVisualStyle
  2
Hidden
 70
     6
177
     3
291
     0
 70
    58
 90
        1
176
     1
 90
        2
176
     1
 90
        2
176
     1
 90
        0
176
     1
 40
0.6
176
     1
 40
30.0
176
     1
 62
     7
420
 16777215
176
     1
 90
        2
176
     1
 90
        2
176
     1
 62
     7
176
     1
 62
   257
176
     1
 90
        2
176
     1
 90
        1
176
     1
 40
40.0
176
     1
 90
        0
176
     1
 62
   257
176
     1
 40
1.0
176
     1
 90
        1
176
     1
 90
        6
176
     1
 90
        2
176
     1
 62
     7
176
     1
 90
        3
176
     1
 90
        0
176
     1
 90
        0
176
     1
290
     0
176
     1
 90
        1
176
     1
 40
0.0
176
     1
 90
        0
176
     1
290
     0
176
     1
290
     1
176
     1
290
     1
176
     1
290
     0
176
     1
290
     0
176
     1
290
     0
176
     1
290
     0
176
     1
290
     0
176
     1
290
     0
176
     1
 90
       50
176
     1
 40
0.0
176
     1
 40
1.0
176
     1
 90
        0
176
     1
 62
    18
420
        0
176
     1
 90
       50
176
     1
 90
        3
176
     1
 62
     5
420
      255
176
     1
290
     0
176
     1
 90
       50
176
     1
 90
       50
176
     1
 90
       50
176
     1
290
     0
176
     1
 90
       50
176
     1
 62
   256
176
     0
 40
1.0
176
     0
 90
        2
176
     1
  1
strokes_ogs.tif
176
     1
290
     0
176
     1
 40
1.0
176
     1
 40
1.0
176
     1
  0
VISUALSTYLE
  5
3B
102
{ACAD_REACTORS
330
2A
102
}
330
2A
100
AcDbVisualStyle
  2
JitterOff
 70
    20
177
     3
291
     1
 70
    58
 90
        2
176
     0
 90
        2
176
     0
 90
        0
176
     0
 90
        0
176
     0
 40
0.6
176
     0
 40
30.0
176
     0
 62
     7
420
 16777215
176
     0
 90
        1
176
     0
 90
        4
176
     0
 62
     7
176
     0
 62
   257
176
     0
 90
        1
176
     0
 90
        1
176
     0
 40
1.0
176
     0
 90
       10
176
     2
 62
     7
176
     0
 40
1.0
176
     0
 90
        1
176
     0
 90
        6
176
     0
 90
        2
176
     0
 62
     7
176
     0
 90
        5
176
     0
 90
        0
176
     0
 90
        0
176
     0
290
     0
176
     0
 90
        1
176
     0
 40
0.0
176
     0
 90
        0
176
     0
290
     0
176
     0
290
     1
176
     0
290
     1
176
     0
290
     0
176
     0
290
     0
176
     0
290
     0
176
     0
290
     0
176
     0
290
     0
176
     0
290
     0
176
     0
 90
       50
176
     0
 40
0.0
176
     0
 40
1.0
176
     0
 90
        0
176
     0
 62
    18
420
        0
176
     0
 90
       50
176
     0
 90
        3
176
     0
 62
     5
420
      255
176
     0
290
     0
176
     0
 90
       50
176
     0
 90
       50
176
     0
 90
       50
176
     0
290
     0
176
     0
 90
       50
176
     0
 62
   256
176
     0
 40
1.0
176
     0
 90
        2
176
     0
  1
strokes_ogs.tif
176
     0
290
     0
176
     0
 40
1.0
176
     0
 40
1.0
176
     0
  0
VISUALSTYLE
  5
38
102
{ACAD_REACTORS
330
2A
102
}
330
2A
100
AcDbVisualStyle
  2
Linepattern
 70
    14
177
     3
291
     1
 70
    58
 90
        2
176
     1
 90
        2
176
     1
 90
        0
176
     1
 90
        0
176
     1
 40
0.6
176
     1
 40
30.0
176
     1
 62
     7
420
 16777215
176
     1
 90
        1
176
     1
 90
        4
176
     1
 62
     7
176
     1
 62
   257
176
     1
 90
        7
176
     1
 90
        7
176
     1
 40
1.0
176
     1
 90
        8
176
     1
 62
     7
176
     1
 40
1.0
176
     1
 90
        1
176
     1
 90
        6
176
     1
 90
        2
176
     1
 62
     7
176
     1
 90
        5
176
     1
 90
        0
176
     1
 90
        0
176
     1
290
     0
176
     1
 90
        1
176
     1
 40
0.0
176
     1
 90
        0
176
     1
290
     0
176
     1
290
     1
176
     1
290
     1
176
     1
290
     0
176
     1
290
     0
176
     1
290
     0
176
     1
290
     0
176
     1
290
     0
176
     1
290
     0
176
     1
 90
       50
176
     1
 40
0.0
176
     1
 40
1.0
176
     1
 90
        0
176
     1
 62
    18
420
        0
176
     1
 90
       50
176
     1
 90
        3
176
     1
 62
     5
420
      255
176
     1
290
     0
176
     1
 90
       50
176
     1
 90
       50
176
     1
 90
       50
176
     1
290
     0
176
     1
 90
       50
176
     1
 62
   256
176
     0
 40
1.0
176
     0
 90
        2
176
     1
  1
strokes_ogs.tif
176
     1
290
     0
176
     1
 40
1.0
176
     1
 40
1.0
176
     1
  0
VISUALSTYLE
  5
3C
102
{ACAD_REACTORS
330
2A
102
}
330
2A
100
AcDbVisualStyle
  2
OverhangOff
 70
    21
177
     3
291
     1
 70
    58
 90
        2
176
     0
 90
        2
176
     0
 90
        0
176
     0
 90
        0
176
     0
 40
0.6
176
     0
 40
30.0
176
     0
 62
     7
420
 16777215
176
     0
 90
        1
176
     0
 90
        4
176
     0
 62
     7
176
     0
 62
   257
176
     0
 90
        1
176
     0
 90
        1
176
     0
 40
1.0
176
     0
 90
        9
176
     2
 62
     7
176
     0
 40
1.0
176
     0
 90
        1
176
     0
 90
        6
176
     0
 90
        2
176
     0
 62
     7
176
     0
 90
        5
176
     0
 90
        0
176
     0
 90
        0
176
     0
290
     0
176
     0
 90
        1
176
     0
 40
0.0
176
     0
 90
        0
176
     0
290
     0
176
     0
290
     1
176
     0
290
     1
176
     0
290
     0
176
     0
290
     0
176
     0
290
     0
176
     0
290
     0
176
     0
290
     0
176
     0
290
     0
176
     0
 90
       50
176
     0
 40
0.0
176
     0
 40
1.0
176
     0
 90
        0
176
     0
 62
    18
420
        0
176
     0
 90
       50
176
     0
 90
        3
176
     0
 62
     5
420
      255
176
     0
290
     0
176
     0
 90
       50
176
     0
 90
       50
176
     0
 90
       50
176
     0
290
     0
176
     0
 90
       50
176
     0
 62
   256
176
     0
 40
1.0
176
     0
 90
        2
176
     0
  1
strokes_ogs.tif
176
     0
290
     0
176
     0
 40
1.0
176
     0
 40
1.0
176
     0
  0
VISUALSTYLE
  5
33
102
{ACAD_REACTORS
330
2A
102
}
330
2A
100
AcDbVisualStyle
  2
Realistic
 70
     8
177
     3
291
     0
 70
    58
 90
        2
176
     1
 90
        3
176
     1
 90
        0
176
     1
 90
        2
176
     1
 40
0.6
176
     1
 40
30.0
176
     1
 62
     7
420
 16777215
176
     1
 90
        0
176
     1
 90
        0
176
     1
 62
     7
176
     1
 62
   257
176
     1
 90
        1
176
     1
 90
        1
176
     1
 40
1.0
176
     1
 90
        8
176
     1
 62
   257
176
     1
 40
1.0
176
     1
 90
        1
176
     1
 90
        6
176
     1
 90
        2
176
     1
 62
     7
176
     1
 90
        3
176
     1
 90
        0
176
     1
 90
        0
176
     1
290
     0
176
     1
 90
       13
176
     1
 40
0.0
176
     1
 90
        0
176
     1
290
     0
176
     1
290
     1
176
     1
290
     1
176
     1
290
     0
176
     1
290
     0
176
     1
290
     0
176
     1
290
     0
176
     1
290
     0
176
     1
290
     0
176
     1
 90
       50
176
     1
 40
0.0
176
     1
 40
1.0
176
     1
 90
        0
176
     1
 62
    18
420
        0
176
     1
 90
       50
176
     1
 90
        3
176
     1
 62
     5
420
      255
176
     1
290
     0
176
     1
 90
       50
176
     1
 90
       50
176
     1
 90
       50
176
     1
290
     0
176
     1
 90
       50
176
     1
 62
   256
176
     0
 40
1.0
176
     0
 90
        2
176
     1
  1
strokes_ogs.tif
176
     1
290
     0
176
     1
 40
1.0
176
     1
 40
1.0
176
     1
  0
VISUALSTYLE
  5
42
102
{ACAD_REACTORS
330
2A
102
}
330
2A
100
AcDbVisualStyle
  2
Shaded
 70
    27
177
     3
291
     0
 70
    58
 90
        2
176
     1
 90
        2
176
     1
 90
        1
176
     1
 90
        2
176
     1
 40
0.6
176
     1
 40
30.0
176
     1
 62
     7
420
 16777215
176
     1
 90
        0
176
     1
 90
        4
176
     1
 62
     7
176
     1
 62
   257
176
     1
 90
        1
176
     1
 90
        1
176
     1
 40
1.0
176
     1
 90
        8
176
     1
 62
   257
176
     1
 40
1.0
176
     1
 90
        1
176
     1
 90
        6
176
     1
 90
        2
176
     1
 62
     8
420
  7895160
176
     1
 90
        3
176
     1
 90
        0
176
     1
 90
        0
176
     1
290
     0
176
     1
 90
        5
176
     1
 40
0.0
176
     1
 90
        0
176
     1
290
     0
176
     1
290
     1
176
     1
290
     1
176
     1
290
     0
176
     1
290
     0
176
     1
290
     0
176
     1
290
     0
176
     1
290
     0
176
     1
290
     0
176
     1
 90
       50
176
     1
 40
0.0
176
     1
 40
1.0
176
     1
 90
        0
176
     1
 62
    18
420
        0
176
     1
 90
       50
176
     1
 90
        3
176
     1
 62
     5
420
      255
176
     1
290
     0
176
     1
 90
       50
176
     1
 90
       50
176
     1
 90
       50
176
     1
290
     0
176
     1
 90
       50
176
     1
 62
   256
176
     0
 40
1.0
176
     0
 90
        2
176
     1
  1
strokes_ogs.tif
176
     1
290
     0
176
     1
 40
1.0
176
     1
 40
1.0
176
     1
  0
VISUALSTYLE
  5
41
102
{ACAD_REACTORS
330
2A
102
}
330
2A
100
AcDbVisualStyle
  2
Shaded with edges
 70
    26
177
     3
291
     0
 70
    58
 90
        2
176
     1
 90
        2
176
     1
 90
        1
176
     1
 90
        2
176
     1
 40
0.6
176
     1
 40
30.0
176
     1
 62
     7
420
 16777215
176
     1
 90
        1
176
     1
 90
       10
176
     1
 62
     7
176
     1
 62
   257
176
     1
 90
        2
176
     1
 90
        1
176
     1
 40
1.0
176
     1
 90
        8
176
     1
 62
   257
176
     1
 40
1.0
176
     1
 90
        1
176
     1
 90
        6
176
     1
 90
        2
176
     1
 62
     7
176
     1
 90
        3
176
     1
 90
        0
176
     1
 90
        0
176
     1
290
     0
176
     1
 90
        5
176
     1
 40
0.0
176
     1
 90
        0
176
     1
290
     0
176
     1
290
     1
176
     1
290
     1
176
     1
290
     0
176
     1
290
     0
176
     1
290
     0
176
     1
290
     0
176
     1
290
     0
176
     1
290
     0
176
     1
 90
       50
176
     1
 40
0.0
176
     1
 40
1.0
176
     1
 90
        0
176
     1
 62
    18
420
        0
176
     1
 90
       50
176
     1
 90
        3
176
     1
 62
     5
420
      255
176
     1
290
     0
176
     1
 90
       50
176
     1
 90
       50
176
     1
 90
       50
176
     1
290
     0
176
     1
 90
       50
176
     1
 62
   256
176
     0
 40
1.0
176
     0
 90
        2
176
     1
  1
strokes_ogs.tif
176
     1
290
     0
176
     1
 40
1.0
176
     1
 40
1.0
176
     1
  0
VISUALSTYLE
  5
3E
102
{ACAD_REACTORS
330
2A
102
}
330
2A
100
AcDbVisualStyle
  2
Shades of Gray
 70
    23
177
     3
291
     0
 70
    58
 90
        2
176
     1
 90
        2
176
     1
 90
        3
176
     1
 90
        0
176
     1
 40
0.6
176
     1
 40
30.0
176
     1
 62
     7
420
 16777215
176
     1
 90
        2
176
     1
 90
        2
176
     1
 62
     7
176
     1
 62
     7
176
     1
 90
        1
176
     1
 90
        1
176
     1
 40
40.0
176
     1
 90
        8
176
     1
 62
     7
176
     1
 40
1.0
176
     1
 90
        1
176
     1
 90
        6
176
     1
 90
        2
176
     1
 62
     7
176
     1
 90
        3
176
     1
 90
        0
176
     1
 90
        0
176
     1
290
     0
176
     1
 90
        1
176
     1
 40
0.0
176
     1
 90
        0
176
     1
290
     0
176
     1
290
     1
176
     1
290
     1
176
     1
290
     0
176
     1
290
     0
176
     1
290
     0
176
     1
290
     0
176
     1
290
     0
176
     1
290
     0
176
     1
 90
       50
176
     1
 40
0.0
176
     1
 40
1.0
176
     1
 90
        0
176
     1
 62
    18
420
        0
176
     1
 90
       50
176
     1
 90
        3
176
     1
 62
     5
420
      255
176
     1
290
     0
176
     1
 90
       50
176
     1
 90
       50
176
     1
 90
       50
176
     1
290
     0
176
     1
 90
       50
176
     1
 62
   256
176
     0
 40
1.0
176
     0
 90
        2
176
     1
  1
strokes_ogs.tif
176
     1
290
     0
176
     1
 40
1.0
176
     1
 40
1.0
176
     1
  0
VISUALSTYLE
  5
3F
102
{ACAD_REACTORS
330
2A
102
}
330
2A
100
AcDbVisualStyle
  2
Sketchy
 70
    24
177
     3
291
     0
 70
    58
 90
        1
176
     1
 90
        2
176
     1
 90
        2
176
     1
 90
        0
176
     1
 40
0.6
176
     1
 40
30.0
176
     1
 62
     7
420
 16777215
176
     1
 90
        2
176
     1
 90
        2
176
     1
 62
     7
176
     1
 62
     7
176
     1
 90
        1
176
     1
 90
        1
176
     1
 40
40.0
176
     1
 90
       11
176
     1
 62
     7
176
     1
 40
1.0
176
     1
 90
        1
176
     1
 90
        6
176
     1
 90
        2
176
     1
 62
     7
176
     1
 90
        6
176
     1
 90
        0
176
     1
 90
        0
176
     1
290
     0
176
     1
 90
        1
176
     1
 40
0.0
176
     1
 90
        0
176
     1
290
     0
176
     1
290
     1
176
     1
290
     1
176
     1
290
     0
176
     1
290
     0
176
     1
290
     0
176
     1
290
     0
176
     1
290
     0
176
     1
290
     0
176
     1
 90
       50
176
     1
 40
0.0
176
     1
 40
1.0
176
     1
 90
        0
176
     1
 62
    18
420
        0
176
     1
 90
       50
176
     1
 90
        3
176
     1
 62
     5
420
      255
176
     1
290
     0
176
     1
 90
       50
176
     1
 90
       50
176
     1
 90
       50
176
     1
290
     0
176
     1
 90
       50
176
     1
 62
   256
176
     0
 40
1.0
176
     0
 90
        2
176
     1
  1
strokes_ogs.tif
176
     1
290
     0
176
     1
 40
1.0
176
     1
 40
1.0
176
     1
  0
VISUALSTYLE
  5
37
102
{ACAD_REACTORS
330
2A
102
}
330
2A
100
AcDbVisualStyle
  2
Thicken
 70
    13
177
     3
291
     1
 70
    58
 90
        2
176
     1
 90
        2
176
     1
 90
        0
176
     1
 90
        0
176
     1
 40
0.6
176
     1
 40
30.0
176
     1
 62
     7
420
 16777215
176
     1
 90
        1
176
     1
 90
        4
176
     1
 62
     7
176
     1
 62
   257
176
     1
 90
        1
176
     1
 90
        1
176
     1
 40
1.0
176
     1
 90
       12
176
     1
 62
     7
176
     1
 40
1.0
176
     1
 90
        1
176
     1
 90
        6
176
     1
 90
        2
176
     1
 62
     7
176
     1
 90
        5
176
     1
 90
        0
176
     1
 90
        0
176
     1
290
     0
176
     1
 90
        1
176
     1
 40
0.0
176
     1
 90
        0
176
     1
290
     0
176
     1
290
     1
176
     1
290
     1
176
     1
290
     0
176
     1
290
     0
176
     1
290
     0
176
     1
290
     0
176
     1
290
     0
176
     1
290
     0
176
     1
 90
       50
176
     1
 40
0.0
176
     1
 40
1.0
176
     1
 90
        0
176
     1
 62
    18
420
        0
176
     1
 90
       50
176
     1
 90
        3
176
     1
 62
     5
420
      255
176
     1
290
     0
176
     1
 90
       50
176
     1
 90
       50
176
     1
 90
       50
176
     1
290
     0
176
     1
 90
       50
176
     1
 62
   256
176
     0
 40
1.0
176
     0
 90
        2
176
     1
  1
strokes_ogs.tif
176
     1
290
     0
176
     1
 40
1.0
176
     1
 40
1.0
176
     1
  0
VISUALSTYLE
  5
30
102
{ACAD_REACTORS
330
2A
102
}
330
2A
100
AcDbVisualStyle
  2
Wireframe
 70
     5
177
     3
291
     0
 70
    58
 90
        0
176
     1
 90
        2
176
     1
 90
        0
176
     1
 90
        0
176
     1
 40
0.6
176
     1
 40
30.0
176
     1
 62
     7
420
 16777215
176
     1
 90
        1
176
     1
 90
        4
176
     1
 62
     7
176
     1
 62
   257
176
     1
 90
        1
176
     1
 90
        1
176
     1
 40
1.0
176
     1
 90
        0
176
     1
 62
   257
176
     1
 40
1.0
176
     1
 90
        1
176
     1
 90
        6
176
     1
 90
        2
176
     1
 62
     7
176
     1
 90
        3
176
     1
 90
        0
176
     1
 90
        0
176
     1
290
     0
176
     1
 90
        1
176
     1
 40
0.0
176
     1
 90
        0
176
     1
290
     0
176
     1
290
     1
176
     1
290
     1
176
     1
290
     0
176
     1
290
     0
176
     1
290
     0
176
     1
290
     0
176
     1
290
     0
176
     1
290
     0
176
     1
 90
       50
176
     1
 40
0.0
176
     1
 40
1.0
176
     1
 90
        0
176
     1
 62
    18
420
        0
176
     1
 90
       50
176
     1
 90
        3
176
     1
 62
     5
420
      255
176
     1
290
     0
176
     1
 90
       50
176
     1
 90
       50
176
     1
 90
       50
176
     1
290
     0
176
     1
 90
       50
176
     1
 62
   256
176
     0
 40
1.0
176
     0
 90
        2
176
     1
  1
strokes_ogs.tif
176
     1
290
     0
176
     1
 40
1.0
176
     1
 40
1.0
176
     1
  0
VISUALSTYLE
  5
40
102
{ACAD_REACTORS
330
2A
102
}
330
2A
100
AcDbVisualStyle
  2
X-Ray
 70
    25
177
     3
291
     0
 70
    58
 90
        2
176
     1
 90
        2
176
     1
 90
        1
176
     1
 90
        1
176
     1
 40
0.5
176
     1
 40
30.0
176
     1
 62
     7
420
 16777215
176
     1
 90
        1
176
     1
 90
        0
176
     1
 62
     7
176
     1
 62
   257
176
     1
 90
        1
176
     1
 90
        1
176
     1
 40
1.0
176
     1
 90
        8
176
     1
 62
     7
176
     1
 40
1.0
176
     1
 90
        1
176
     1
 90
        6
176
     1
 90
        2
176
     1
 62
     7
176
     1
 90
        3
176
     1
 90
        0
176
     1
 90
        0
176
     1
290
     0
176
     1
 90
       13
176
     1
 40
0.0
176
     1
 90
        0
176
     1
290
     0
176
     1
290
     1
176
     1
290
     1
176
     1
290
     0
176
     1
290
     0
176
     1
290
     0
176
     1
290
     0
176
     1
290
     0
176
     1
290
     0
176
     1
 90
       50
176
     1
 40
0.0
176
     1
 40
1.0
176
     1
 90
        0
176
     1
 62
    18
420
        0
176
     1
 90
       50
176
     1
 90
        3
176
     1
 62
     5
420
      255
176
     1
290
     0
176
     1
 90
       50
176
     1
 90
       50
176
     1
 90
       50
176
     1
290
     0
176
     1
 90
       50
176
     1
 62
   256
176
     0
 40
1.0
176
     0
 90
        2
176
     1
  1
strokes_ogs.tif
176
     1
290
     0
176
     1
 40
1.0
176
     1
 40
1.0
176
     1
  0
DICTIONARYVAR
  5
24D
102
{ACAD_REACTORS
330
24C
102
}
330
24C
100
DictionaryVariables
280
     0
  1
1:1
  0
DICTIONARYVAR
  5
252
102
{ACAD_REACTORS
330
24C
102
}
330
24C
100
DictionaryVariables
280
     0
  1
Standard
  0
DICTIONARYVAR
  5
251
102
{ACAD_REACTORS
330
24C
102
}
330
24C
100
DictionaryVariables
280
     0
  1
Standard
  0
DICTIONARY
  5
24E
330
6A
100
AcDbDictionary
280
     1
281
     1
  3
ACAD_ROUNDTRIP_2008_TABLESTYLE_CELLSTYLEMAP
360
24F
  0
CELLSTYLEMAP
  5
24F
102
{ACAD_REACTORS
330
24E
102
}
330
24E
100
AcDbCellStyleMap
 90
        3
300
CELLSTYLE
  1
TABLEFORMAT_BEGIN
 90
        5
170
     1
 91
        0
 92
    32768
 62
   257
 93
        1
300
CONTENTFORMAT
  1
CONTENTFORMAT_BEGIN
 90
        0
 91
        0
 92
        4
 93
        0
300

 40
0.0
140
1.0
 94
        5
 62
     0
340
11
144
0.25
309
CONTENTFORMAT_END
171
     1
301
MARGIN
  1
CELLMARGIN_BEGIN
 40
0.06
 40
0.06
 40
0.06
 40
0.06
 40
0.06
 40
0.06
309
CELLMARGIN_END
 94
        6
 95
        1
302
GRIDFORMAT
  1
GRIDFORMAT_BEGIN
 90
        0
 91
        1
 62
     0
 92
       -2
340
14
 93
        0
 40
0.045
309
GRIDFORMAT_END
 95
        2
302
GRIDFORMAT
  1
GRIDFORMAT_BEGIN
 90
        0
 91
        1
 62
     0
 92
       -2
340
14
 93
        0
 40
0.045
309
GRIDFORMAT_END
 95
        4
302
GRIDFORMAT
  1
GRIDFORMAT_BEGIN
 90
        0
 91
        1
 62
     0
 92
       -2
340
14
 93
        0
 40
0.045
309
GRIDFORMAT_END
 95
        8
302
GRIDFORMAT
  1
GRIDFORMAT_BEGIN
 90
        0
 91
        1
 62
     0
 92
       -2
340
14
 93
        0
 40
0.045
309
GRIDFORMAT_END
 95
       16
302
GRIDFORMAT
  1
GRIDFORMAT_BEGIN
 90
        0
 91
        1
 62
     0
 92
       -2
340
14
 93
        0
 40
0.045
309
GRIDFORMAT_END
 95
       32
302
GRIDFORMAT
  1
GRIDFORMAT_BEGIN
 90
        0
 91
        1
 62
     0
 92
       -2
340
14
 93
        0
 40
0.045
309
GRIDFORMAT_END
309
TABLEFORMAT_END
  1
CELLSTYLE_BEGIN
 90
        1
 91
        1
300
_TITLE
309
CELLSTYLE_END
300
CELLSTYLE
  1
TABLEFORMAT_BEGIN
 90
        5
170
     1
 91
        0
 92
        0
 62
   257
 93
        1
300
CONTENTFORMAT
  1
CONTENTFORMAT_BEGIN
 90
        0
 91
        0
 92
        4
 93
        0
300

 40
0.0
140
1.0
 94
        5
 62
     0
340
11
144
0.18
309
CONTENTFORMAT_END
171
     1
301
MARGIN
  1
CELLMARGIN_BEGIN
 40
0.06
 40
0.06
 40
0.06
 40
0.06
 40
0.06
 40
0.06
309
CELLMARGIN_END
 94
        6
 95
        1
302
GRIDFORMAT
  1
GRIDFORMAT_BEGIN
 90
        0
 91
        1
 62
     0
 92
       -2
340
14
 93
        0
 40
0.045
309
GRIDFORMAT_END
 95
        2
302
GRIDFORMAT
  1
GRIDFORMAT_BEGIN
 90
        0
 91
        1
 62
     0
 92
       -2
340
14
 93
        0
 40
0.045
309
GRIDFORMAT_END
 95
        4
302
GRIDFORMAT
  1
GRIDFORMAT_BEGIN
 90
        0
 91
        1
 62
     0
 92
       -2
340
14
 93
        0
 40
0.045
309
GRIDFORMAT_END
 95
        8
302
GRIDFORMAT
  1
GRIDFORMAT_BEGIN
 90
        0
 91
        1
 62
     0
 92
       -2
340
14
 93
        0
 40
0.045
309
GRIDFORMAT_END
 95
       16
302
GRIDFORMAT
  1
GRIDFORMAT_BEGIN
 90
        0
 91
        1
 62
     0
 92
       -2
340
14
 93
        0
 40
0.045
309
GRIDFORMAT_END
 95
       32
302
GRIDFORMAT
  1
GRIDFORMAT_BEGIN
 90
        0
 91
        1
 62
     0
 92
       -2
340
14
 93
        0
 40
0.045
309
GRIDFORMAT_END
309
TABLEFORMAT_END
  1
CELLSTYLE_BEGIN
 90
        2
 91
        1
300
_HEADER
309
CELLSTYLE_END
300
CELLSTYLE
  1
TABLEFORMAT_BEGIN
 90
        5
170
     1
 91
        0
 92
        0
 62
   257
 93
        1
300
CONTENTFORMAT
  1
CONTENTFORMAT_BEGIN
 90
        0
 91
        0
 92
        4
 93
        0
300

 40
0.0
140
1.0
 94
        2
 62
     0
340
11
144
0.18
309
CONTENTFORMAT_END
171
     1
301
MARGIN
  1
CELLMARGIN_BEGIN
 40
0.06
 40
0.06
 40
0.06
 40
0.06
 40
0.06
 40
0.06
309
CELLMARGIN_END
 94
        6
 95
        1
302
GRIDFORMAT
  1
GRIDFORMAT_BEGIN
 90
        0
 91
        1
 62
     0
 92
       -2
340
14
 93
        0
 40
0.045
309
GRIDFORMAT_END
 95
        2
302
GRIDFORMAT
  1
GRIDFORMAT_BEGIN
 90
        0
 91
        1
 62
     0
 92
       -2
340
14
 93
        0
 40
0.045
309
GRIDFORMAT_END
 95
        4
302
GRIDFORMAT
  1
GRIDFORMAT_BEGIN
 90
        0
 91
        1
 62
     0
 92
       -2
340
14
 93
        0
 40
0.045
309
GRIDFORMAT_END
 95
        8
302
GRIDFORMAT
  1
GRIDFORMAT_BEGIN
 90
        0
 91
        1
 62
     0
 92
       -2
340
14
 93
        0
 40
0.045
309
GRIDFORMAT_END
 95
       16
302
GRIDFORMAT
  1
GRIDFORMAT_BEGIN
 90
        0
 91
        1
 62
     0
 92
       -2
340
14
 93
        0
 40
0.045
309
GRIDFORMAT_END
 95
       32
302
GRIDFORMAT
  1
GRIDFORMAT_BEGIN
 90
        0
 91
        1
 62
     0
 92
       -2
340
14
 93
        0
 40
0.045
309
GRIDFORMAT_END
309
TABLEFORMAT_END
  1
CELLSTYLE_BEGIN
 90
        3
 91
        2
300
_DATA
309
CELLSTYLE_END
  0
ENDSEC
  0
EOF