0
SECTION
  2
HEADER
  9
$ACADVER
  1
AC1027
  9
$ACADMAINTVER
 70
     8
  9
$DWGCODEPAGE
  3
ANSI_1252
  9
$REQUIREDVERSIONS
160
                 0
  9
$COMMENTS
  1
File was created by Cadenas
  9
$CUSTOMPROPERTYTAG
  1
NN
  9
$CUSTOMPROPERTY
  1
Imperial - IP Flange - Square with Type E Dimensions 1-3/8 thru 2-3/16 inch Labyrinth Seal Expansion
  9
$CUSTOMPROPERTYTAG
  1
NT
  9
$CUSTOMPROPERTY
  1
Imperial/E 4 Bolt Square Flange Bearings
  9
$CUSTOMPROPERTYTAG
  1
NB
  9
$CUSTOMPROPERTY
  1
071340
  9
$CUSTOMPROPERTYTAG
  1
NBSYN
  9
$CUSTOMPROPERTY
  1
$PN.
  9
$CUSTOMPROPERTYTAG
  1
LINA
  9
$CUSTOMPROPERTY
  1
071340
  9
$CUSTOMPROPERTYTAG
  1
SS
  9
$CUSTOMPROPERTY
  1
1-1/2
  9
$CUSTOMPROPERTYTAG
  1
TYPE
  9
$CUSTOMPROPERTY
  1
Non-Expansion
  9
$CUSTOMPROPERTYTAG
  1
PN
  9
$CUSTOMPROPERTY
  1
071340
  9
$CUSTOMPROPERTYTAG
  1
DESCRIPTION
  9
$CUSTOMPROPERTY
  1
EF4B-IP-108L
  9
$CUSTOMPROPERTYTAG
  1
ST
  9
$CUSTOMPROPERTY
  1
Labyrinth Seal
  9
$CUSTOMPROPERTYTAG
  1
A
  9
$CUSTOMPROPERTY
  1
2.81
  9
$CUSTOMPROPERTYTAG
  1
B
  9
$CUSTOMPROPERTY
  1
5.38
  9
$CUSTOMPROPERTYTAG
  1
C
  9
$CUSTOMPROPERTY
  1
3.64
  9
$CUSTOMPROPERTYTAG
  1
D
  9
$CUSTOMPROPERTY
  1
4.13
  9
$CUSTOMPROPERTYTAG
  1
F
  9
$CUSTOMPROPERTY
  1
1/2
  9
$CUSTOMPROPERTYTAG
  1
G
  9
$CUSTOMPROPERTY
  1
0.67
  9
$CUSTOMPROPERTYTAG
  1
H
  9
$CUSTOMPROPERTY
  1
1.19
  9
$CUSTOMPROPERTYTAG
  1
J
  9
$CUSTOMPROPERTY
  1
4.18
  9
$CUSTOMPROPERTYTAG
  1
L
  9
$CUSTOMPROPERTY
  1
3
  9
$CUSTOMPROPERTYTAG
  1
N
  9
$CUSTOMPROPERTY
  1
2.5
  9
$CUSTOMPROPERTYTAG
  1
P
  9
$CUSTOMPROPERTY
  1
0.83
  9
$CUSTOMPROPERTYTAG
  1
X
  9
$CUSTOMPROPERTY
  1
0.19
  9
$CUSTOMPROPERTYTAG
  1
Y
  9
$CUSTOMPROPERTY
  1
0.020
  9
$CUSTOMPROPERTYTAG
  1
Z
  9
$CUSTOMPROPERTY
  1
2.08
  9
$CUSTOMPROPERTYTAG
  1
COMPANY
  9
$CUSTOMPROPERTY
  1
baldor
  9
$INSBASE
 10
0.0
 20
0.0
 30
0.0
  9
$EXTMIN
 10
1.000000000000000E+20
 20
1.000000000000000E+20
 30
1.000000000000000E+20
  9
$EXTMAX
 10
-1.000000000000000E+20
 20
-1.000000000000000E+20
 30
-1.000000000000000E+20
  9
$LIMMIN
 10
0.0
 20
0.0
  9
$LIMMAX
 10
12.0
 20
9.0
  9
$ORTHOMODE
 70
     0
  9
$REGENMODE
 70
     1
  9
$FILLMODE
 70
     1
  9
$QTEXTMODE
 70
     0
  9
$MIRRTEXT
 70
     1
  9
$LTSCALE
 40
1.0
  9
$ATTMODE
 70
     1
  9
$TEXTSIZE
 40
0.2
  9
$TRACEWID
 40
0.05
  9
$TEXTSTYLE
  7
Standard
  9
$CLAYER
  8
0
  9
$CELTYPE
  6
ByLayer
  9
$CECOLOR
 62
   256
  9
$CELTSCALE
 40
1.0
  9
$DISPSILH
 70
     0
  9
$DIMSCALE
 40
1.0
  9
$DIMASZ
 40
0.18
  9
$DIMEXO
 40
0.0625
  9
$DIMDLI
 40
0.38
  9
$DIMRND
 40
0.0
  9
$DIMDLE
 40
0.0
  9
$DIMEXE
 40
0.18
  9
$DIMTP
 40
0.0
  9
$DIMTM
 40
0.0
  9
$DIMTXT
 40
0.18
  9
$DIMCEN
 40
0.09
  9
$DIMTSZ
 40
0.0
  9
$DIMTOL
 70
     0
  9
$DIMLIM
 70
     0
  9
$DIMTIH
 70
     1
  9
$DIMTOH
 70
     1
  9
$DIMSE1
 70
     0
  9
$DIMSE2
 70
     0
  9
$DIMTAD
 70
     0
  9
$DIMZIN
 70
     0
  9
$DIMBLK
  1

  9
$DIMASO
 70
     1
  9
$DIMSHO
 70
     1
  9
$DIMPOST
  1

  9
$DIMAPOST
  1

  9
$DIMALT
 70
     0
  9
$DIMALTD
 70
     2
  9
$DIMALTF
 40
25.4
  9
$DIMLFAC
 40
1.0
  9
$DIMTOFL
 70
     0
  9
$DIMTVP
 40
0.0
  9
$DIMTIX
 70
     0
  9
$DIMSOXD
 70
     0
  9
$DIMSAH
 70
     0
  9
$DIMBLK1
  1

  9
$DIMBLK2
  1

  9
$DIMSTYLE
  2
Standard
  9
$DIMCLRD
 70
     0
  9
$DIMCLRE
 70
     0
  9
$DIMCLRT
 70
     0
  9
$DIMTFAC
 40
1.0
  9
$DIMGAP
 40
0.09
  9
$DIMJUST
 70
     0
  9
$DIMSD1
 70
     0
  9
$DIMSD2
 70
     0
  9
$DIMTOLJ
 70
     1
  9
$DIMTZIN
 70
     0
  9
$DIMALTZ
 70
     0
  9
$DIMALTTZ
 70
     0
  9
$DIMUPT
 70
     0
  9
$DIMDEC
 70
     4
  9
$DIMTDEC
 70
     4
  9
$DIMALTU
 70
     2
  9
$DIMALTTD
 70
     2
  9
$DIMTXSTY
  7
Standard
  9
$DIMAUNIT
 70
     0
  9
$DIMADEC
 70
     0
  9
$DIMALTRND
 40
0.0
  9
$DIMAZIN
 70
     0
  9
$DIMDSEP
 70
    46
  9
$DIMATFIT
 70
     3
  9
$DIMFRAC
 70
     0
  9
$DIMLDRBLK
  1

  9
$DIMLUNIT
 70
     2
  9
$DIMLWD
 70
    -2
  9
$DIMLWE
 70
    -2
  9
$DIMTMOVE
 70
     0
  9
$DIMFXL
 40
1.0
  9
$DIMFXLON
 70
     0
  9
$DIMJOGANG
 40
0.7853981633974483
  9
$DIMTFILL
 70
     0
  9
$DIMTFILLCLR
 70
     0
  9
$DIMARCSYM
 70
     0
  9
$DIMLTYPE
  6

  9
$DIMLTEX1
  6

  9
$DIMLTEX2
  6

  9
$DIMTXTDIRECTION
 70
     0
  9
$LUNITS
 70
     2
  9
$LUPREC
 70
     4
  9
$SKETCHINC
 40
0.1
  9
$FILLETRAD
 40
0.5
  9
$AUNITS
 70
     0
  9
$AUPREC
 70
     0
  9
$MENU
  1
.
  9
$ELEVATION
 40
0.0
  9
$PELEVATION
 40
0.0
  9
$THICKNESS
 40
0.0
  9
$LIMCHECK
 70
     0
  9
$CHAMFERA
 40
0.0
  9
$CHAMFERB
 40
0.0
  9
$CHAMFERC
 40
0.0
  9
$CHAMFERD
 40
0.0
  9
$SKPOLY
 70
     0
  9
$TDCREATE
 40
2458168.976265428
  9
$TDUCREATE
 40
2458168.934598762
  9
$TDUPDATE
 40
2458168.976265613
  9
$TDUUPDATE
 40
2458168.934598947
  9
$TDINDWG
 40
0.0000000116
  9
$TDUSRTIMER
 40
0.0000000116
  9
$USRTIMER
 70
     1
  9
$ANGBASE
 50
0.0
  9
$ANGDIR
 70
     0
  9
$PDMODE
 70
     0
  9
$PDSIZE
 40
0.0
  9
$PLINEWID
 40
0.0
  9
$SPLFRAME
 70
     0
  9
$SPLINETYPE
 70
     6
  9
$SPLINESEGS
 70
     8
  9
$HANDSEED
  5
225
  9
$SURFTAB1
 70
     6
  9
$SURFTAB2
 70
     6
  9
$SURFTYPE
 70
     6
  9
$SURFU
 70
     6
  9
$SURFV
 70
     6
  9
$UCSBASE
  2

  9
$UCSNAME
  2

  9
$UCSORG
 10
0.0
 20
0.0
 30
0.0
  9
$UCSXDIR
 10
1.0
 20
0.0
 30
0.0
  9
$UCSYDIR
 10
0.0
 20
1.0
 30
0.0
  9
$UCSORTHOREF
  2

  9
$UCSORTHOVIEW
 70
     0
  9
$UCSORGTOP
 10
0.0
 20
0.0
 30
0.0
  9
$UCSORGBOTTOM
 10
0.0
 20
0.0
 30
0.0
  9
$UCSORGLEFT
 10
0.0
 20
0.0
 30
0.0
  9
$UCSORGRIGHT
 10
0.0
 20
0.0
 30
0.0
  9
$UCSORGFRONT
 10
0.0
 20
0.0
 30
0.0
  9
$UCSORGBACK
 10
0.0
 20
0.0
 30
0.0
  9
$PUCSBASE
  2

  9
$PUCSNAME
  2

  9
$PUCSORG
 10
0.0
 20
0.0
 30
0.0
  9
$PUCSXDIR
 10
1.0
 20
0.0
 30
0.0
  9
$PUCSYDIR
 10
0.0
 20
1.0
 30
0.0
  9
$PUCSORTHOREF
  2

  9
$PUCSORTHOVIEW
 70
     0
  9
$PUCSORGTOP
 10
0.0
 20
0.0
 30
0.0
  9
$PUCSORGBOTTOM
 10
0.0
 20
0.0
 30
0.0
  9
$PUCSORGLEFT
 10
0.0
 20
0.0
 30
0.0
  9
$PUCSORGRIGHT
 10
0.0
 20
0.0
 30
0.0
  9
$PUCSORGFRONT
 10
0.0
 20
0.0
 30
0.0
  9
$PUCSORGBACK
 10
0.0
 20
0.0
 30
0.0
  9
$USERI1
 70
     0
  9
$USERI2
 70
     0
  9
$USERI3
 70
     0
  9
$USERI4
 70
     0
  9
$USERI5
 70
     0
  9
$USERR1
 40
0.0
  9
$USERR2
 40
0.0
  9
$USERR3
 40
0.0
  9
$USERR4
 40
0.0
  9
$USERR5
 40
0.0
  9
$WORLDVIEW
 70
     1
  9
$SHADEDGE
 70
     3
  9
$SHADEDIF
 70
    70
  9
$TILEMODE
 70
     1
  9
$MAXACTVP
 70
    64
  9
$PINSBASE
 10
0.0
 20
0.0
 30
0.0
  9
$PLIMCHECK
 70
     0
  9
$PEXTMIN
 10
1.000000000000000E+20
 20
1.000000000000000E+20
 30
1.000000000000000E+20
  9
$PEXTMAX
 10
-1.000000000000000E+20
 20
-1.000000000000000E+20
 30
-1.000000000000000E+20
  9
$PLIMMIN
 10
0.0
 20
0.0
  9
$PLIMMAX
 10
12.0
 20
9.0
  9
$UNITMODE
 70
     0
  9
$VISRETAIN
 70
     1
  9
$PLINEGEN
 70
     0
  9
$PSLTSCALE
 70
     1
  9
$TREEDEPTH
 70
  3020
  9
$CMLSTYLE
  2
Standard
  9
$CMLJUST
 70
     0
  9
$CMLSCALE
 40
1.0
  9
$PROXYGRAPHICS
 70
     1
  9
$MEASUREMENT
 70
     0
  9
$CELWEIGHT
370
    -1
  9
$ENDCAPS
280
     0
  9
$JOINSTYLE
280
     0
  9
$LWDISPLAY
290
     0
  9
$INSUNITS
 70
     1
  9
$HYPERLINKBASE
  1

  9
$STYLESHEET
  1

  9
$XEDIT
290
     1
  9
$CEPSNTYPE
380
     0
  9
$PSTYLEMODE
290
     1
  9
$FINGERPRINTGUID
  2
{5C804B74-1947-4A9E-9BC4-3384CFBBCB18}
  9
$VERSIONGUID
  2
{FAEB1C32-E019-11D5-929B-00C0DF256EC4}
  9
$EXTNAMES
290
     1
  9
$PSVPSCALE
 40
0.0
  9
$OLESTARTUP
290
     0
  9
$SORTENTS
280
   127
  9
$INDEXCTL
280
     0
  9
$HIDETEXT
280
     1
  9
$XCLIPFRAME
280
     2
  9
$HALOGAP
280
     0
  9
$OBSCOLOR
 70
   257
  9
$OBSLTYPE
280
     0
  9
$INTERSECTIONDISPLAY
280
     0
  9
$INTERSECTIONCOLOR
 70
   257
  9
$DIMASSOC
280
     2
  9
$PROJECTNAME
  1

  9
$CAMERADISPLAY
290
     0
  9
$LENSLENGTH
 40
50.0
  9
$CAMERAHEIGHT
 40
0.0
  9
$STEPSPERSEC
 40
2.0
  9
$STEPSIZE
 40
6.0
  9
$3DDWFPREC
 40
2.0
  9
$PSOLWIDTH
 40
0.25
  9
$PSOLHEIGHT
 40
4.0
  9
$LOFTANG1
 40
1.570796326794897
  9
$LOFTANG2
 40
1.570796326794897
  9
$LOFTMAG1
 40
0.0
  9
$LOFTMAG2
 40
0.0
  9
$LOFTPARAM
 70
     7
  9
$LOFTNORMALS
280
     1
  9
$LATITUDE
 40
37.795
  9
$LONGITUDE
 40
-122.394
  9
$NORTHDIRECTION
 40
0.0
  9
$TIMEZONE
 70
 -8000
  9
$LIGHTGLYPHDISPLAY
280
     1
  9
$TILEMODELIGHTSYNCH
280
     1
  9
$CMATERIAL
347
44
  9
$SOLIDHIST
280
     0
  9
$SHOWHIST
280
     1
  9
$DWFFRAME
280
     2
  9
$DGNFRAME
280
     2
  9
$REALWORLDSCALE
290
     1
  9
$INTERFERECOLOR
 62
   256
  9
$CSHADOW
280
     0
  9
$SHADOWPLANELOCATION
 40
0.0
  0
ENDSEC
  0
SECTION
  2
CLASSES
  0
CLASS
  1
ACDBDICTIONARYWDFLT
  2
AcDbDictionaryWithDefault
  3
ObjectDBX Classes
 90
        0
 91
        4
280
     0
281
     0
  0
CLASS
  1
VISUALSTYLE
  2
AcDbVisualStyle
  3
ObjectDBX Classes
 90
     4095
 91
        4
280
     0
281
     0
  0
CLASS
  1
MATERIAL
  2
AcDbMaterial
  3
ObjectDBX Classes
 90
     1153
 91
        4
280
     0
281
     0
  0
CLASS
  1
SCALE
  2
AcDbScale
  3
ObjectDBX Classes
 90
     1153
 91
        4
280
     0
281
     0
  0
CLASS
  1
TABLESTYLE
  2
AcDbTableStyle
  3
ObjectDBX Classes
 90
     4095
 91
        4
280
     0
281
     0
  0
CLASS
  1
MLEADERSTYLE
  2
AcDbMLeaderStyle
  3
ACDB_MLEADERSTYLE_CLASS
 90
     4095
 91
        4
280
     0
281
     0
  0
CLASS
  1
SUN
  2
AcDbSun
  3
SCENEOE
 90
     1153
 91
        4
280
     0
281
     0
  0
CLASS
  1
DICTIONARYVAR
  2
AcDbDictionaryVar
  3
ObjectDBX Classes
 90
        0
 91
        4
280
     0
281
     0
  0
CLASS
  1
CELLSTYLEMAP
  2
AcDbCellStyleMap
  3
ObjectDBX Classes
 90
     1152
 91
        4
280
     0
281
     0
  0
ENDSEC
  0
SECTION
  2
TABLES
  0
TABLE
  2
VPORT
  5
8
330
0
100
AcDbSymbolTable
 70
     1
  0
VPORT
  5
29
330
8
100
AcDbSymbolTableRecord
100
AcDbViewportTableRecord
  2
*Active
 70
     0
 10
0.0
 20
0.0
 11
1.0
 21
1.0
 12
0.0
 22
0.0
 13
0.0
 23
0.0
 14
0.5
 24
0.5
 15
0.5
 25
0.5
 16
0.0
 26
0.0
 36
1.0
 17
0.0
 27
0.0
 37
0.0
 40
5.4876
 41
1.0
 42
50.0
 43
0.0
 44
0.0
 50
0.0
 51
0.0
 71
     0
 72
   100
 73
     1
 74
     3
 75
     0
 76
     0
 77
     0
 78
     0
281
     0
 65
     1
110
0.0
120
0.0
130
0.0
111
1.0
121
0.0
131
0.0
112
0.0
122
1.0
132
0.0
 79
     0
146
0.0
348
2F
 60
     3
 61
     5
292
     1
282
     1
141
0.0
142
0.0
 63
   250
361
6D
  0
ENDTAB
  0
TABLE
  2
LTYPE
  5
5
330
0
100
AcDbSymbolTable
 70
     3
  0
LTYPE
  5
14
330
5
100
AcDbSymbolTableRecord
100
AcDbLinetypeTableRecord
  2
ByBlock
 70
     0
  3

 72
    65
 73
     0
 40
0.0
  0
LTYPE
  5
15
330
5
100
AcDbSymbolTableRecord
100
AcDbLinetypeTableRecord
  2
ByLayer
 70
     0
  3

 72
    65
 73
     0
 40
0.0
  0
LTYPE
  5
16
330
5
100
AcDbSymbolTableRecord
100
AcDbLinetypeTableRecord
  2
Continuous
 70
     0
  3
Solid line
 72
    65
 73
     0
 40
0.0
  0
LTYPE
  5
9E
330
5
100
AcDbSymbolTableRecord
100
AcDbLinetypeTableRecord
  2
Center
 70
     0
  3

 72
    65
 73
     4
 40
1.5
 49
0.45
 74
     0
 49
-0.5
 74
     0
 49
0.05
 74
     0
 49
-0.5
 74
     0
  0
LTYPE
  5
E4
330
5
100
AcDbSymbolTableRecord
100
AcDbLinetypeTableRecord
  2
Dashed
 70
     0
  3

 72
    65
 73
     2
 40
2.0
 49
1.0
 74
     0
 49
-1.0
 74
     0
  0
ENDTAB
  0
TABLE
  2
LAYER
  5
2
330
0
100
AcDbSymbolTable
 70
     7
  0
LAYER
  5
10
330
2
100
AcDbSymbolTableRecord
100
AcDbLayerTableRecord
  2
0
 70
     0
 62
     7
  6
Continuous
370
    -3
390
F
347
46
348
0
  0
LAYER
  5
72
330
2
100
AcDbSymbolTableRecord
100
AcDbLayerTableRecord
  2
AM_6
 70
     0
 62
    -2
  6
Continuous
370
    35
390
F
347
46
348
0
  0
LAYER
  5
9C
330
2
100
AcDbSymbolTableRecord
100
AcDbLayerTableRecord
  2
AM_5
 70
     0
 62
     3
  6
Continuous
370
    25
390
F
347
46
348
0
  0
LAYER
  5
9F
330
2
100
AcDbSymbolTableRecord
100
AcDbLayerTableRecord
  2
AM_7
 70
     0
 62
     7
  6
Center
370
    25
390
F
347
46
348
0
  0
LAYER
  5
A1
330
2
100
AcDbSymbolTableRecord
100
AcDbLayerTableRecord
  2
AM_4
 70
     0
 62
     7
  6
Continuous
370
    50
390
F
347
46
348
0
  0
LAYER
  5
E5
330
2
100
AcDbSymbolTableRecord
100
AcDbLayerTableRecord
  2
AM_9
 70
     0
 62
     6
  6
Dashed
370
    25
390
F
347
46
348
0
  0
LAYER
  5
210
330
2
100
AcDbSymbolTableRecord
100
AcDbLayerTableRecord
  2
ConnectionPoints
 70
     0
 62
     7
  6
Continuous
370
    50
390
F
347
46
348
0
  0
ENDTAB
  0
TABLE
  2
STYLE
  5
3
330
0
100
AcDbSymbolTable
 70
     1
  0
STYLE
  5
11
330
3
100
AcDbSymbolTableRecord
100
AcDbTextStyleTableRecord
  2
Standard
 70
     0
 40
0.0
 41
1.0
 50
0.0
 71
     0
 42
0.2
  3
txt
  4

  0
ENDTAB
  0
TABLE
  2
VIEW
  5
6
330
0
100
AcDbSymbolTable
 70
     0
  0
ENDTAB
  0
TABLE
  2
UCS
  5
7
330
0
100
AcDbSymbolTable
 70
     0
  0
ENDTAB
  0
TABLE
  2
APPID
  5
9
330
0
100
AcDbSymbolTable
 70
     1
  0
APPID
  5
12
330
9
100
AcDbSymbolTableRecord
100
AcDbRegAppTableRecord
  2
ACAD
 70
     0
  0
ENDTAB
  0
TABLE
  2
DIMSTYLE
  5
A
330
0
100
AcDbSymbolTable
 70
     1
100
AcDbDimStyleTable
  0
DIMSTYLE
105
27
330
A
100
AcDbSymbolTableRecord
100
AcDbDimStyleTableRecord
  2
Standard
 70
     0
178
     0
340
11
  0
ENDTAB
  0
TABLE
  2
BLOCK_RECORD
  5
1
330
0
100
AcDbSymbolTable
 70
     8
  0
BLOCK_RECORD
  5
1F
330
1
100
AcDbSymbolTableRecord
100
AcDbBlockTableRecord
  2
*Model_Space
340
22
 70
     0
280
     1
281
     0
  0
BLOCK_RECORD
  5
1B
330
1
100
AcDbSymbolTableRecord
100
AcDbBlockTableRecord
  2
*Paper_Space
340
1E
 70
     0
280
     1
281
     0
  0
BLOCK_RECORD
  5
23
330
1
100
AcDbSymbolTableRecord
100
AcDbBlockTableRecord
  2
*Paper_Space0
340
26
 70
     0
280
     1
281
     0
  0
BLOCK_RECORD
  5
6E
330
1
100
AcDbSymbolTableRecord
100
AcDbBlockTableRecord
  2
1_071340_0
340
0
102
{BLKREFS
331
6F
102
}
 70
     0
280
     1
281
     0
  0
BLOCK_RECORD
  5
8C
330
1
100
AcDbSymbolTableRecord
100
AcDbBlockTableRecord
  2
2_ASME_B18_3_10_1_0_in_071340_0
340
0
102
{BLKREFS
331
8D
102
}
 70
     0
280
     1
281
     0
  0
BLOCK_RECORD
  5
AC
330
1
100
AcDbSymbolTableRecord
100
AcDbBlockTableRecord
  2
3_ASME_B18_3_10_2_0_in_071340_0
340
0
102
{BLKREFS
331
AD
102
}
 70
     0
280
     1
281
     0
  0
BLOCK_RECORD
  5
C8
330
1
100
AcDbSymbolTableRecord
100
AcDbBlockTableRecord
  2
4_070885LWE_0_in_071340_0
340
0
102
{BLKREFS
331
C9
102
}
 70
     0
280
     1
281
     0
  0
BLOCK_RECORD
  5
119
330
1
100
AcDbSymbolTableRecord
100
AcDbBlockTableRecord
  2
5_070885EL_0_in_071340_0
340
0
102
{BLKREFS
331
11A
102
}
 70
     0
280
     1
281
     0
  0
BLOCK_RECORD
  5
175
330
1
100
AcDbSymbolTableRecord
100
AcDbBlockTableRecord
  2
6_405015E_Inch_0_in_071340_0
340
0
102
{BLKREFS
331
176
102
}
 70
     0
280
     1
281
     0
  0
BLOCK_RECORD
  5
1AA
330
1
100
AcDbSymbolTableRecord
100
AcDbBlockTableRecord
  2
7_071290LH_0_in_071340_0
340
0
102
{BLKREFS
331
1AB
102
}
 70
     0
280
     1
281
     0
  0
ENDTAB
  0
ENDSEC
  0
SECTION
  2
BLOCKS
  0
BLOCK
  5
20
330
1F
100
AcDbEntity
  8
0
100
AcDbBlockBegin
  2
*Model_Space
 70
     0
 10
0.0
 20
0.0
 30
0.0
  3
*Model_Space
  1

  0
ENDBLK
  5
21
330
1F
100
AcDbEntity
  8
0
100
AcDbBlockEnd
  0
BLOCK
  5
1C
330
1B
100
AcDbEntity
 67
     1
  8
0
100
AcDbBlockBegin
  2
*Paper_Space
 70
     0
 10
0.0
 20
0.0
 30
0.0
  3
*Paper_Space
  1

  0
ENDBLK
  5
1D
330
1B
100
AcDbEntity
 67
     1
  8
0
100
AcDbBlockEnd
  0
BLOCK
  5
24
330
23
100
AcDbEntity
  8
0
100
AcDbBlockBegin
  2
*Paper_Space0
 70
     0
 10
0.0
 20
0.0
 30
0.0
  3
*Paper_Space0
  1

  0
ENDBLK
  5
25
330
23
100
AcDbEntity
  8
0
100
AcDbBlockEnd
  0
BLOCK
  5
70
330
6E
100
AcDbEntity
  8
0
100
AcDbBlockBegin
  2
1_071340_0
 70
     2
 10
0.0
 20
0.0
 30
0.0
  3
1_071340_0
  1

  0
ATTDEF
  5
73
330
6E
100
AcDbEntity
  8
AM_6
100
AcDbText
 10
7.69
 20
2.69
 30
0.0
 40
0.5
  1
Imperial - IP Flange - Square with Type E Dimensions 1-3/8 thru 2-3/16 inch Labyrinth Seal Expansion
100
AcDbAttributeDefinition
  3

  2
NN
 70
     8
280
     0
  0
ATTDEF
  5
74
330
6E
100
AcDbEntity
  8
AM_6
100
AcDbText
 10
7.69
 20
2.19
 30
0.0
 40
0.5
  1
Imperial/E 4 Bolt Square Flange Bearings
100
AcDbAttributeDefinition
  3

  2
NT
 70
     8
280
     0
  0
ATTDEF
  5
75
330
6E
100
AcDbEntity
  8
AM_6
100
AcDbText
 10
7.69
 20
1.69
 30
0.0
 40
0.5
  1
071340
100
AcDbAttributeDefinition
  3

  2
NB
 70
     8
280
     0
  0
ATTDEF
  5
76
330
6E
100
AcDbEntity
  8
AM_6
100
AcDbText
 10
7.69
 20
1.19
 30
0.0
 40
0.5
  1
$PN.
100
AcDbAttributeDefinition
  3

  2
NBSYN
 70
     8
280
     0
  0
ATTDEF
  5
77
330
6E
100
AcDbEntity
  8
AM_6
100
AcDbText
 10
7.69
 20
0.69
 30
0.0
 40
0.5
  1
071340
100
AcDbAttributeDefinition
  3

  2
LINA
 70
     8
280
     0
  0
ATTDEF
  5
78
330
6E
100
AcDbEntity
  8
AM_6
100
AcDbText
 10
7.69
 20
0.1899999999999999
 30
0.0
 40
0.5
  1
1-1/2
100
AcDbAttributeDefinition
  3

  2
SS
 70
     8
280
     0
  0
ATTDEF
  5
79
330
6E
100
AcDbEntity
  8
AM_6
100
AcDbText
 10
7.69
 20
-0.3100000000000001
 30
0.0
 40
0.5
  1
Non-Expansion
100
AcDbAttributeDefinition
  3

  2
TYPE
 70
     8
280
     0
  0
ATTDEF
  5
7A
330
6E
100
AcDbEntity
  8
AM_6
100
AcDbText
 10
7.69
 20
-0.81
 30
0.0
 40
0.5
  1
071340
100
AcDbAttributeDefinition
  3

  2
PN
 70
     8
280
     0
  0
ATTDEF
  5
7B
330
6E
100
AcDbEntity
  8
AM_6
100
AcDbText
 10
7.69
 20
-1.31
 30
0.0
 40
0.5
  1
EF4B-IP-108L
100
AcDbAttributeDefinition
  3

  2
DESCRIPTION
 70
     8
280
     0
  0
ATTDEF
  5
7C
330
6E
100
AcDbEntity
  8
AM_6
100
AcDbText
 10
7.69
 20
-1.81
 30
0.0
 40
0.5
  1
Labyrinth Seal
100
AcDbAttributeDefinition
  3

  2
ST
 70
     8
280
     0
  0
ATTDEF
  5
7D
330
6E
100
AcDbEntity
  8
AM_6
100
AcDbText
 10
7.69
 20
-2.31
 30
0.0
 40
0.5
  1
2.81
100
AcDbAttributeDefinition
  3

  2
A
 70
     8
280
     0
  0
ATTDEF
  5
7E
330
6E
100
AcDbEntity
  8
AM_6
100
AcDbText
 10
7.69
 20
-2.81
 30
0.0
 40
0.5
  1
5.38
100
AcDbAttributeDefinition
  3

  2
B
 70
     8
280
     0
  0
ATTDEF
  5
7F
330
6E
100
AcDbEntity
  8
AM_6
100
AcDbText
 10
7.69
 20
-3.31
 30
0.0
 40
0.5
  1
3.64
100
AcDbAttributeDefinition
  3

  2
C
 70
     8
280
     0
  0
ATTDEF
  5
80
330
6E
100
AcDbEntity
  8
AM_6
100
AcDbText
 10
7.69
 20
-3.81
 30
0.0
 40
0.5
  1
4.13
100
AcDbAttributeDefinition
  3

  2
D
 70
     8
280
     0
  0
ATTDEF
  5
81
330
6E
100
AcDbEntity
  8
AM_6
100
AcDbText
 10
7.69
 20
-4.31
 30
0.0
 40
0.5
  1
1/2
100
AcDbAttributeDefinition
  3

  2
F
 70
     8
280
     0
  0
ATTDEF
  5
82
330
6E
100
AcDbEntity
  8
AM_6
100
AcDbText
 10
7.69
 20
-4.81
 30
0.0
 40
0.5
  1
0.67
100
AcDbAttributeDefinition
  3

  2
G
 70
     8
280
     0
  0
ATTDEF
  5
83
330
6E
100
AcDbEntity
  8
AM_6
100
AcDbText
 10
7.69
 20
-5.31
 30
0.0
 40
0.5
  1
1.19
100
AcDbAttributeDefinition
  3

  2
H
 70
     8
280
     0
  0
ATTDEF
  5
84
330
6E
100
AcDbEntity
  8
AM_6
100
AcDbText
 10
7.69
 20
-5.81
 30
0.0
 40
0.5
  1
4.18
100
AcDbAttributeDefinition
  3

  2
J
 70
     8
280
     0
  0
ATTDEF
  5
85
330
6E
100
AcDbEntity
  8
AM_6
100
AcDbText
 10
7.69
 20
-6.31
 30
0.0
 40
0.5
  1
3
100
AcDbAttributeDefinition
  3

  2
L
 70
     8
280
     0
  0
ATTDEF
  5
86
330
6E
100
AcDbEntity
  8
AM_6
100
AcDbText
 10
7.69
 20
-6.81
 30
0.0
 40
0.5
  1
2.5
100
AcDbAttributeDefinition
  3

  2
N
 70
     8
280
     0
  0
ATTDEF
  5
87
330
6E
100
AcDbEntity
  8
AM_6
100
AcDbText
 10
7.69
 20
-7.31
 30
0.0
 40
0.5
  1
0.83
100
AcDbAttributeDefinition
  3

  2
P
 70
     8
280
     0
  0
ATTDEF
  5
88
330
6E
100
AcDbEntity
  8
AM_6
100
AcDbText
 10
7.69
 20
-7.81
 30
0.0
 40
0.5
  1
0.19
100
AcDbAttributeDefinition
  3

  2
X
 70
     8
280
     0
  0
ATTDEF
  5
89
330
6E
100
AcDbEntity
  8
AM_6
100
AcDbText
 10
7.69
 20
-8.31
 30
0.0
 40
0.5
  1
0.020
100
AcDbAttributeDefinition
  3

  2
Y
 70
     8
280
     0
  0
ATTDEF
  5
8A
330
6E
100
AcDbEntity
  8
AM_6
100
AcDbText
 10
7.69
 20
-8.81
 30
0.0
 40
0.5
  1
2.08
100
AcDbAttributeDefinition
  3

  2
Z
 70
     8
280
     0
  0
ATTDEF
  5
8B
330
6E
100
AcDbEntity
  8
AM_6
100
AcDbText
 10
7.69
 20
-9.31
 30
0.0
 40
0.5
  1
baldor
100
AcDbAttributeDefinition
  3

  2
COMPANY
 70
     8
280
     0
  0
INSERT
  5
8D
330
6E
100
AcDbEntity
  8
0
100
AcDbBlockReference
  2
2_ASME_B18_3_10_1_0_in_071340_0
 10
0.0
 20
0.0
 30
0.0
  0
INSERT
  5
AD
330
6E
100
AcDbEntity
  8
0
100
AcDbBlockReference
  2
3_ASME_B18_3_10_2_0_in_071340_0
 10
0.0
 20
0.0
 30
0.0
  0
INSERT
  5
C9
330
6E
100
AcDbEntity
  8
0
100
AcDbBlockReference
  2
4_070885LWE_0_in_071340_0
 10
0.0
 20
0.0
 30
0.0
  0
INSERT
  5
11A
330
6E
100
AcDbEntity
  8
0
100
AcDbBlockReference
  2
5_070885EL_0_in_071340_0
 10
0.0
 20
0.0
 30
0.0
  0
INSERT
  5
176
330
6E
100
AcDbEntity
  8
0
100
AcDbBlockReference
  2
6_405015E_Inch_0_in_071340_0
 10
0.0
 20
0.0
 30
0.0
  0
INSERT
  5
1AB
330
6E
100
AcDbEntity
  8
0
100
AcDbBlockReference
  2
7_071290LH_0_in_071340_0
 10
0.0
 20
0.0
 30
0.0
  0
ENDBLK
  5
71
330
6E
100
AcDbEntity
  8
0
100
AcDbBlockEnd
  0
BLOCK
  5
8E
330
8C
100
AcDbEntity
  8
0
100
AcDbBlockBegin
  2
2_ASME_B18_3_10_1_0_in_071340_0
 70
     2
 10
0.0
 20
0.0
 30
0.0
  3
2_ASME_B18_3_10_1_0_in_071340_0
  1

  0
ATTDEF
  5
90
330
8C
100
AcDbEntity
  8
AM_6
100
AcDbText
 10
5.189525
 20
-0.9158541666666666
 30
0.0
 40
0.5
  1
ANSI/ASME B18.3-1998
100
AcDbAttributeDefinition
  3

  2
NN
 70
     8
280
     0
  0
ATTDEF
  5
91
330
8C
100
AcDbEntity
  8
AM_6
100
AcDbText
 10
5.189525
 20
-1.415854166666667
 30
0.0
 40
0.5
  1
Socket Button Head Cap Screws
100
AcDbAttributeDefinition
  3

  2
NT
 70
     8
280
     0
  0
ATTDEF
  5
92
330
8C
100
AcDbEntity
  8
AM_6
100
AcDbText
 10
5.189525
 20
-1.915854166666667
 30
0.0
 40
0.5
  1
ASME B18.3-10
100
AcDbAttributeDefinition
  3

  2
NB
 70
     8
280
     0
  0
ATTDEF
  5
93
330
8C
100
AcDbEntity
  8
AM_6
100
AcDbText
 10
5.189525
 20
-2.415854166666667
 30
0.0
 40
0.5
  1
ASME B18.3-$NS.
100
AcDbAttributeDefinition
  3

  2
NBSYN
 70
     8
280
     0
  0
ATTDEF
  5
94
330
8C
100
AcDbEntity
  8
AM_6
100
AcDbText
 10
5.189525
 20
-2.915854166666667
 30
0.0
 40
0.5
  1
ASME B18.3-10
100
AcDbAttributeDefinition
  3

  2
LINA
 70
     8
280
     0
  0
ATTDEF
  5
95
330
8C
100
AcDbEntity
  8
AM_6
100
AcDbText
 10
5.189525
 20
-3.415854166666667
 30
0.0
 40
0.5
  1
10
100
AcDbAttributeDefinition
  3

  2
NS
 70
     8
280
     0
  0
ATTDEF
  5
96
330
8C
100
AcDbEntity
  8
AM_6
100
AcDbText
 10
5.189525
 20
-3.915854166666667
 30
0.0
 40
0.5
  1
0.361
100
AcDbAttributeDefinition
  3

  2
A
 70
     8
280
     0
  0
ATTDEF
  5
97
330
8C
100
AcDbEntity
  8
AM_6
100
AcDbText
 10
5.189525
 20
-4.415854166666667
 30
0.0
 40
0.5
  1
0.101
100
AcDbAttributeDefinition
  3

  2
H
 70
     8
280
     0
  0
ATTDEF
  5
98
330
8C
100
AcDbEntity
  8
AM_6
100
AcDbText
 10
5.189525
 20
-4.915854166666667
 30
0.0
 40
0.5
  1
0.800
100
AcDbAttributeDefinition
  3

  2
L
 70
     8
280
     0
  0
ATTDEF
  5
99
330
8C
100
AcDbEntity
  8
AM_6
100
AcDbText
 10
5.189525
 20
-5.415854166666667
 30
0.0
 40
0.5
  1
0.020
100
AcDbAttributeDefinition
  3

  2
S
 70
     8
280
     0
  0
ATTDEF
  5
9A
330
8C
100
AcDbEntity
  8
AM_6
100
AcDbText
 10
5.189525
 20
-5.915854166666667
 30
0.0
 40
0.5
  1
0.125000
100
AcDbAttributeDefinition
  3

  2
J
 70
     8
280
     0
  0
ATTDEF
  5
9B
330
8C
100
AcDbEntity
  8
AM_6
100
AcDbText
 10
5.189525
 20
-6.415854166666667
 30
0.0
 40
0.5
  1
baldor
100
AcDbAttributeDefinition
  3

  2
COMPANY
 70
     8
280
     0
  0
ARC
  5
9D
330
8C
100
AcDbEntity
  8
AM_5
100
AcDbCircle
 10
-0.0000000000000001
 20
-1.096354166666667
 30
0.0
 40
0.0702000000000003
100
AcDbArc
 50
75.0000000000001
 51
15.00000000000019
  0
LINE
  5
A0
330
8C
100
AcDbEntity
  8
AM_7
100
AcDbLine
 10
-0.1895249999999999
 20
-1.096354166666667
 30
0.0
 11
0.1895249999999999
 21
-1.096354166666667
 31
0.0
  0
LINE
  5
A2
330
8C
100
AcDbEntity
  8
AM_4
100
AcDbLine
 10
-0.0625
 20
-1.132438558491018
 30
0.0
 11
-0.0625
 21
-1.060269774842315
 31
0.0
  0
LINE
  5
A3
330
8C
100
AcDbEntity
  8
AM_4
100
AcDbLine
 10
-0.0625
 20
-1.060269774842315
 30
0.0
 11
0.0
 21
-1.024185383017963
 31
0.0
  0
LINE
  5
A4
330
8C
100
AcDbEntity
  8
AM_4
100
AcDbLine
 10
0.0
 20
-1.024185383017963
 30
0.0
 11
0.0625
 21
-1.060269774842315
 31
0.0
  0
LINE
  5
A5
330
8C
100
AcDbEntity
  8
AM_4
100
AcDbLine
 10
0.0625
 20
-1.060269774842315
 30
0.0
 11
0.0625
 21
-1.132438558491018
 31
0.0
  0
LINE
  5
A6
330
8C
100
AcDbEntity
  8
AM_4
100
AcDbLine
 10
0.0625
 20
-1.132438558491018
 30
0.0
 11
0.0
 21
-1.16852295031537
 31
0.0
  0
LINE
  5
A7
330
8C
100
AcDbEntity
  8
AM_4
100
AcDbLine
 10
0.0
 20
-1.16852295031537
 30
0.0
 11
-0.0625
 21
-1.132438558491018
 31
0.0
  0
CIRCLE
  5
A8
330
8C
100
AcDbEntity
  8
AM_4
100
AcDbCircle
 10
0.0
 20
-1.096354166666667
 30
0.0
 40
0.0995
  0
ARC
  5
A9
330
8C
100
AcDbEntity
  8
AM_5
100
AcDbCircle
 10
0.0
 20
-1.096354166666666
 30
0.0
 40
0.0702
100
AcDbArc
 50
344.9999999999998
 51
284.9999999999999
  0
CIRCLE
  5
AA
330
8C
100
AcDbEntity
  8
AM_4
100
AcDbCircle
 10
0.0
 20
-1.096354166666667
 30
0.0
 40
0.1804999999999999
  0
CIRCLE
  5
AB
330
8C
100
AcDbEntity
  8
AM_5
100
AcDbCircle
 10
0.0
 20
-1.096354166666667
 30
0.0
 40
0.0764
  0
ENDBLK
  5
8F
330
8C
100
AcDbEntity
  8
0
100
AcDbBlockEnd
  0
BLOCK
  5
AE
330
AC
100
AcDbEntity
  8
0
100
AcDbBlockBegin
  2
3_ASME_B18_3_10_2_0_in_071340_0
 70
     2
 10
0.0
 20
0.0
 30
0.0
  3
3_ASME_B18_3_10_2_0_in_071340_0
  1

  0
ATTDEF
  5
B0
330
AC
100
AcDbEntity
  8
AM_6
100
AcDbText
 10
5.189525
 20
1.276854166666666
 30
0.0
 40
0.5
  1
ANSI/ASME B18.3-1998
100
AcDbAttributeDefinition
  3

  2
NN
 70
     8
280
     0
  0
ATTDEF
  5
B1
330
AC
100
AcDbEntity
  8
AM_6
100
AcDbText
 10
5.189525
 20
0.7768541666666664
 30
0.0
 40
0.5
  1
Socket Button Head Cap Screws
100
AcDbAttributeDefinition
  3

  2
NT
 70
     8
280
     0
  0
ATTDEF
  5
B2
330
AC
100
AcDbEntity
  8
AM_6
100
AcDbText
 10
5.189525
 20
0.2768541666666664
 30
0.0
 40
0.5
  1
ASME B18.3-10
100
AcDbAttributeDefinition
  3

  2
NB
 70
     8
280
     0
  0
ATTDEF
  5
B3
330
AC
100
AcDbEntity
  8
AM_6
100
AcDbText
 10
5.189525
 20
-0.2231458333333336
 30
0.0
 40
0.5
  1
ASME B18.3-$NS.
100
AcDbAttributeDefinition
  3

  2
NBSYN
 70
     8
280
     0
  0
ATTDEF
  5
B4
330
AC
100
AcDbEntity
  8
AM_6
100
AcDbText
 10
5.189525
 20
-0.7231458333333336
 30
0.0
 40
0.5
  1
ASME B18.3-10
100
AcDbAttributeDefinition
  3

  2
LINA
 70
     8
280
     0
  0
ATTDEF
  5
B5
330
AC
100
AcDbEntity
  8
AM_6
100
AcDbText
 10
5.189525
 20
-1.223145833333334
 30
0.0
 40
0.5
  1
10
100
AcDbAttributeDefinition
  3

  2
NS
 70
     8
280
     0
  0
ATTDEF
  5
B6
330
AC
100
AcDbEntity
  8
AM_6
100
AcDbText
 10
5.189525
 20
-1.723145833333334
 30
0.0
 40
0.5
  1
0.361
100
AcDbAttributeDefinition
  3

  2
A
 70
     8
280
     0
  0
ATTDEF
  5
B7
330
AC
100
AcDbEntity
  8
AM_6
100
AcDbText
 10
5.189525
 20
-2.223145833333334
 30
0.0
 40
0.5
  1
0.101
100
AcDbAttributeDefinition
  3

  2
H
 70
     8
280
     0
  0
ATTDEF
  5
B8
330
AC
100
AcDbEntity
  8
AM_6
100
AcDbText
 10
5.189525
 20
-2.723145833333334
 30
0.0
 40
0.5
  1
0.800
100
AcDbAttributeDefinition
  3

  2
L
 70
     8
280
     0
  0
ATTDEF
  5
B9
330
AC
100
AcDbEntity
  8
AM_6
100
AcDbText
 10
5.189525
 20
-3.223145833333334
 30
0.0
 40
0.5
  1
0.020
100
AcDbAttributeDefinition
  3

  2
S
 70
     8
280
     0
  0
ATTDEF
  5
BA
330
AC
100
AcDbEntity
  8
AM_6
100
AcDbText
 10
5.189525
 20
-3.723145833333334
 30
0.0
 40
0.5
  1
0.125000
100
AcDbAttributeDefinition
  3

  2
J
 70
     8
280
     0
  0
ATTDEF
  5
BB
330
AC
100
AcDbEntity
  8
AM_6
100
AcDbText
 10
5.189525
 20
-4.223145833333334
 30
0.0
 40
0.5
  1
baldor
100
AcDbAttributeDefinition
  3

  2
COMPANY
 70
     8
280
     0
  0
ARC
  5
BC
330
AC
100
AcDbEntity
  8
AM_5
100
AcDbCircle
 10
0.0000000000000003
 20
1.096354166666667
 30
0.0
 40
0.0702
100
AcDbArc
 50
75.00000000000023
 51
15.00000000000027
  0
LINE
  5
BD
330
AC
100
AcDbEntity
  8
AM_7
100
AcDbLine
 10
-0.1895249999999999
 20
1.096354166666667
 30
0.0
 11
0.1895249999999999
 21
1.096354166666667
 31
0.0
  0
LINE
  5
BE
330
AC
100
AcDbEntity
  8
AM_4
100
AcDbLine
 10
0.0
 20
1.16852295031537
 30
0.0
 11
0.0625
 21
1.132438558491018
 31
0.0
  0
LINE
  5
BF
330
AC
100
AcDbEntity
  8
AM_4
100
AcDbLine
 10
0.0
 20
1.024185383017963
 30
0.0
 11
-0.0625
 21
1.060269774842315
 31
0.0
  0
CIRCLE
  5
C0
330
AC
100
AcDbEntity
  8
AM_4
100
AcDbCircle
 10
0.0
 20
1.096354166666667
 30
0.0
 40
0.0995
  0
LINE
  5
C1
330
AC
100
AcDbEntity
  8
AM_4
100
AcDbLine
 10
-0.0625
 20
1.060269774842315
 30
0.0
 11
-0.0625
 21
1.132438558491018
 31
0.0
  0
LINE
  5
C2
330
AC
100
AcDbEntity
  8
AM_4
100
AcDbLine
 10
-0.0625
 20
1.132438558491018
 30
0.0
 11
0.0
 21
1.16852295031537
 31
0.0
  0
LINE
  5
C3
330
AC
100
AcDbEntity
  8
AM_4
100
AcDbLine
 10
0.0625
 20
1.132438558491018
 30
0.0
 11
0.0625
 21
1.060269774842315
 31
0.0
  0
LINE
  5
C4
330
AC
100
AcDbEntity
  8
AM_4
100
AcDbLine
 10
0.0625
 20
1.060269774842315
 30
0.0
 11
0.0
 21
1.024185383017963
 31
0.0
  0
ARC
  5
C5
330
AC
100
AcDbEntity
  8
AM_5
100
AcDbCircle
 10
0.0
 20
1.096354166666667
 30
0.0
 40
0.0702
100
AcDbArc
 50
344.9999999999998
 51
284.9999999999999
  0
CIRCLE
  5
C6
330
AC
100
AcDbEntity
  8
AM_4
100
AcDbCircle
 10
0.0
 20
1.096354166666667
 30
0.0
 40
0.1804999999999999
  0
CIRCLE
  5
C7
330
AC
100
AcDbEntity
  8
AM_5
100
AcDbCircle
 10
0.0
 20
1.096354166666667
 30
0.0
 40
0.0764
  0
ENDBLK
  5
AF
330
AC
100
AcDbEntity
  8
0
100
AcDbBlockEnd
  0
BLOCK
  5
CA
330
C8
100
AcDbEntity
  8
0
100
AcDbBlockBegin
  2
4_070885LWE_0_in_071340_0
 70
     2
 10
0.0
 20
0.0
 30
0.0
  3
4_070885LWE_0_in_071340_0
  1

  0
ATTDEF
  5
CC
330
C8
100
AcDbEntity
  8
AM_6
100
AcDbText
 10
6.359375
 20
1.359375
 30
0.0
 40
0.5
  1
Imperial/E Insert Lockwasher -Inch
100
AcDbAttributeDefinition
  3

  2
NN
 70
     8
280
     0
  0
ATTDEF
  5
CD
330
C8
100
AcDbEntity
  8
AM_6
100
AcDbText
 10
6.359375
 20
0.859375
 30
0.0
 40
0.5
  1
Imperial/E Bearings
100
AcDbAttributeDefinition
  3

  2
NT
 70
     8
280
     0
  0
ATTDEF
  5
CE
330
C8
100
AcDbEntity
  8
AM_6
100
AcDbText
 10
6.359375
 20
0.359375
 30
0.0
 40
0.5
  1
070885LWE
100
AcDbAttributeDefinition
  3

  2
NB
 70
     8
280
     0
  0
ATTDEF
  5
CF
330
C8
100
AcDbEntity
  8
AM_6
100
AcDbText
 10
6.359375
 20
-0.140625
 30
0.0
 40
0.5
  1
$PN.LWE
100
AcDbAttributeDefinition
  3

  2
NBSYN
 70
     8
280
     0
  0
ATTDEF
  5
D0
330
C8
100
AcDbEntity
  8
AM_6
100
AcDbText
 10
6.359375
 20
-0.640625
 30
0.0
 40
0.5
  1
070885
100
AcDbAttributeDefinition
  3

  2
LINA
 70
     8
280
     0
  0
ATTDEF
  5
D1
330
C8
100
AcDbEntity
  8
AM_6
100
AcDbText
 10
6.359375
 20
-1.140625
 30
0.0
 40
0.5
  1
1-1/2
100
AcDbAttributeDefinition
  3

  2
SS
 70
     8
280
     0
  0
ATTDEF
  5
D2
330
C8
100
AcDbEntity
  8
AM_6
100
AcDbText
 10
6.359375
 20
-1.640625
 30
0.0
 40
0.5
  1
2.718750
100
AcDbAttributeDefinition
  3

  2
E1
 70
     8
280
     0
  0
ATTDEF
  5
D3
330
C8
100
AcDbEntity
  8
AM_6
100
AcDbText
 10
6.359375
 20
-2.140625
 30
0.0
 40
0.5
  1
1.500000
100
AcDbAttributeDefinition
  3

  2
SS1
 70
     8
280
     0
  0
ATTDEF
  5
D4
330
C8
100
AcDbEntity
  8
AM_6
100
AcDbText
 10
6.359375
 20
-2.640625
 30
0.0
 40
0.5
  1
070885
100
AcDbAttributeDefinition
  3

  2
PN
 70
     8
280
     0
  0
ATTDEF
  5
D5
330
C8
100
AcDbEntity
  8
AM_6
100
AcDbText
 10
6.359375
 20
-3.140625
 30
0.0
 40
0.5
  1
INS-IP-108R
100
AcDbAttributeDefinition
  3

  2
DESCRIPTION
 70
     8
280
     0
  0
ATTDEF
  5
D6
330
C8
100
AcDbEntity
  8
AM_6
100
AcDbText
 10
6.359375
 20
-3.640625
 30
0.0
 40
0.5
  1
3.1496
100
AcDbAttributeDefinition
  3

  2
A
 70
     8
280
     0
  0
ATTDEF
  5
D7
330
C8
100
AcDbEntity
  8
AM_6
100
AcDbText
 10
6.359375
 20
-4.140625
 30
0.0
 40
0.5
  1
61/64
100
AcDbAttributeDefinition
  3

  2
B
 70
     8
280
     0
  0
ATTDEF
  5
D8
330
C8
100
AcDbEntity
  8
AM_6
100
AcDbText
 10
6.359375
 20
-4.640625
 30
0.0
 40
0.5
  1
0.953125
100
AcDbAttributeDefinition
  3

  2
B1
 70
     8
280
     0
  0
ATTDEF
  5
D9
330
C8
100
AcDbEntity
  8
AM_6
100
AcDbText
 10
6.359375
 20
-5.140625
 30
0.0
 40
0.5
  1
2-5/8
100
AcDbAttributeDefinition
  3

  2
C
 70
     8
280
     0
  0
ATTDEF
  5
DA
330
C8
100
AcDbEntity
  8
AM_6
100
AcDbText
 10
6.359375
 20
-5.640625
 30
0.0
 40
0.5
  1
2.625000
100
AcDbAttributeDefinition
  3

  2
C1
 70
     8
280
     0
  0
ATTDEF
  5
DB
330
C8
100
AcDbEntity
  8
AM_6
100
AcDbText
 10
6.359375
 20
-6.140625
 30
0.0
 40
0.5
  1
0.970
100
AcDbAttributeDefinition
  3

  2
D
 70
     8
280
     0
  0
ATTDEF
  5
DC
330
C8
100
AcDbEntity
  8
AM_6
100
AcDbText
 10
6.359375
 20
-6.640625
 30
0.0
 40
0.5
  1
2-23/32
100
AcDbAttributeDefinition
  3

  2
E
 70
     8
280
     0
  0
ATTDEF
  5
DD
330
C8
100
AcDbEntity
  8
AM_6
100
AcDbText
 10
6.359375
 20
-7.140625
 30
0.0
 40
0.5
  1
0.1900
100
AcDbAttributeDefinition
  3

  2
NDM
 70
     8
280
     0
  0
ATTDEF
  5
DE
330
C8
100
AcDbEntity
  8
AM_6
100
AcDbText
 10
6.359375
 20
-7.640625
 30
0.0
 40
0.5
  1
0.1450
100
AcDbAttributeDefinition
  3

  2
KDM
 70
     8
280
     0
  0
ATTDEF
  5
DF
330
C8
100
AcDbEntity
  8
AM_6
100
AcDbText
 10
6.359375
 20
-8.140625
 30
0.0
 40
0.5
  1
2.22
100
AcDbAttributeDefinition
  3

  2
AL
 70
     8
280
     0
  0
ATTDEF
  5
E0
330
C8
100
AcDbEntity
  8
AM_6
100
AcDbText
 10
6.359375
 20
-8.640625
 30
0.0
 40
0.5
  1
0.38
100
AcDbAttributeDefinition
  3

  2
BL
 70
     8
280
     0
  0
ATTDEF
  5
E1
330
C8
100
AcDbEntity
  8
AM_6
100
AcDbText
 10
6.359375
 20
-9.140625
 30
0.0
 40
0.5
  1
0.07
100
AcDbAttributeDefinition
  3

  2
CL
 70
     8
280
     0
  0
ATTDEF
  5
E2
330
C8
100
AcDbEntity
  8
AM_6
100
AcDbText
 10
6.359375
 20
-9.640625
 30
0.0
 40
0.5
  1
0.44
100
AcDbAttributeDefinition
  3

  2
DL
 70
     8
280
     0
  0
ATTDEF
  5
E3
330
C8
100
AcDbEntity
  8
AM_6
100
AcDbText
 10
6.359375
 20
-10.140625
 30
0.0
 40
0.5
  1
baldor
100
AcDbAttributeDefinition
  3

  2
COMPANY
 70
     8
280
     0
  0
ARC
  5
E6
330
C8
100
AcDbEntity
  8
AM_9
100
AcDbCircle
 10
-0.0000000000000073
 20
0.0000000000000164
 30
0.0
 40
0.7894736842105083
100
AcDbArc
 50
105.5886594237053
 51
119.4113405762946
  0
LINE
  5
E7
330
C8
100
AcDbEntity
  8
AM_9
100
AcDbLine
 10
0.0950000000000002
 20
-0.9428769696633333
 30
0.0
 11
0.0950000000000003
 21
-1.096354166666667
 31
0.0
  0
LINE
  5
E8
330
C8
100
AcDbEntity
  8
AM_9
100
AcDbLine
 10
-0.0949999999999997
 20
-1.096354166666667
 30
0.0
 11
-0.0949999999999999
 21
-0.9428769696633332
 31
0.0
  0
LINE
  5
E9
330
C8
100
AcDbEntity
  8
AM_9
100
AcDbLine
 10
-0.095
 20
0.9428769696633332
 30
0.0
 11
-0.0949999999999999
 21
1.096354166666667
 31
0.0
  0
ARC
  5
EA
330
C8
100
AcDbEntity
  8
AM_9
100
AcDbCircle
 10
0.0
 20
1.092230497087204
 30
0.0
 40
0.0950894560442985
100
AcDbArc
 50
2.485480422747741
 51
177.5145195772522
  0
LINE
  5
EB
330
C8
100
AcDbEntity
  8
AM_9
100
AcDbLine
 10
0.0949999999999999
 20
1.096354166666667
 30
0.0
 11
0.0950000000000001
 21
0.9428769696633333
 31
0.0
  0
LINE
  5
EC
330
C8
100
AcDbEntity
  8
AM_7
100
AcDbLine
 10
-0.8750527352359927
 20
-0.7753026910538965
 30
0.0
 11
-0.6755526468717994
 21
-0.7753026910538965
 31
0.0
  0
LINE
  5
ED
330
C8
100
AcDbEntity
  8
AM_7
100
AcDbLine
 10
-0.775302691053896
 20
-0.8750527352359931
 30
0.0
 11
-0.775302691053896
 21
-0.6755526468717998
 31
0.0
  0
LINE
  5
EE
330
C8
100
AcDbEntity
  8
AM_7
100
AcDbLine
 10
0.6755526468717996
 20
-0.7753026910538963
 30
0.0
 11
0.8750527352359929
 21
-0.7753026910538963
 31
0.0
  0
LINE
  5
EF
330
C8
100
AcDbEntity
  8
AM_7
100
AcDbLine
 10
0.7753026910538963
 20
-0.8750527352359929
 30
0.0
 11
0.7753026910538963
 21
-0.6755526468717996
 31
0.0
  0
LINE
  5
F0
330
C8
100
AcDbEntity
  8
AM_7
100
AcDbLine
 10
1.096443580632778
 20
-0.0997500441820964
 30
0.0
 11
1.096443580632778
 21
0.0997500441820966
 31
0.0
  0
LINE
  5
F1
330
C8
100
AcDbEntity
  8
AM_7
100
AcDbLine
 10
-1.096443580632778
 20
-0.0997500441820973
 30
0.0
 11
-1.096443580632778
 21
0.0997500441820962
 31
0.0
  0
LINE
  5
F2
330
C8
100
AcDbEntity
  8
AM_7
100
AcDbLine
 10
0.6755526468717997
 20
0.7753026910538965
 30
0.0
 11
0.8750527352359928
 21
0.7753026910538965
 31
0.0
  0
LINE
  5
F3
330
C8
100
AcDbEntity
  8
AM_7
100
AcDbLine
 10
0.7753026910538963
 20
0.6755526468717999
 30
0.0
 11
0.7753026910538963
 21
0.875052735235993
 31
0.0
  0
LINE
  5
F4
330
C8
100
AcDbEntity
  8
AM_7
100
AcDbLine
 10
-0.8750527352359927
 20
0.7753026910538965
 30
0.0
 11
-0.6755526468717998
 21
0.7753026910538965
 31
0.0
  0
LINE
  5
F5
330
C8
100
AcDbEntity
  8
AM_7
100
AcDbLine
 10
-0.7753026910538963
 20
0.6755526468718
 30
0.0
 11
-0.7753026910538963
 21
0.8750527352359929
 31
0.0
  0
LINE
  5
F6
330
C8
100
AcDbEntity
  8
AM_4
100
AcDbLine
 10
0.0950000000000007
 20
-0.8052261613532464
 30
0.0
 11
0.0950000000000002
 21
-0.9428769696633333
 31
0.0
  0
ARC
  5
F7
330
C8
100
AcDbEntity
  8
AM_4
100
AcDbCircle
 10
-0.0000000000000021
 20
0.0000000000000047
 30
0.0
 40
0.8108108108108157
100
AcDbArc
 50
276.7286108996217
 51
308.2713891003783
  0
CIRCLE
  5
F8
330
C8
100
AcDbEntity
  8
AM_4
100
AcDbCircle
 10
0.0
 20
0.0
 30
0.0
 40
1.359375
  0
ARC
  5
F9
330
C8
100
AcDbEntity
  8
AM_4
100
AcDbCircle
 10
0.7753026910538963
 20
-0.7753026910538963
 30
0.0
 40
0.0950000420781872
100
AcDbArc
 50
224.9460732486775
 51
45.0539267513151
  0
LINE
  5
FA
330
C8
100
AcDbEntity
  8
AM_4
100
AcDbLine
 10
0.6365560232944155
 20
-0.5022057348689715
 30
0.0
 11
0.8424146100448484
 21
-0.7080643216194041
 31
0.0
  0
LINE
  5
FB
330
C8
100
AcDbEntity
  8
AM_4
100
AcDbLine
 10
-0.7080643216193956
 20
0.8424146100448398
 30
0.0
 11
-0.5022057348689715
 21
0.6365560232944156
 31
0.0
  0
ARC
  5
FC
330
C8
100
AcDbEntity
  8
AM_4
100
AcDbCircle
 10
1.096443580632778
 20
0.0000000000000001
 30
0.0
 40
0.0950000420781872
100
AcDbArc
 50
269.9460732486847
 51
90.05392675131526
  0
LINE
  5
FD
330
C8
100
AcDbEntity
  8
AM_4
100
AcDbLine
 10
0.7080643216193956
 20
-0.8424146100448396
 30
0.0
 11
0.5022057348689717
 21
-0.6365560232944155
 31
0.0
  0
LINE
  5
FE
330
C8
100
AcDbEntity
  8
AM_4
100
AcDbLine
 10
-0.0949999999999999
 20
-0.9428769696633332
 30
0.0
 11
-0.0949999999999998
 21
-0.8052261613532463
 31
0.0
  0
LINE
  5
FF
330
C8
100
AcDbEntity
  8
AM_4
100
AcDbLine
 10
0.8424146100448484
 20
0.7080643216194044
 30
0.0
 11
0.6365560232944156
 21
0.5022057348689716
 31
0.0
  0
ARC
  5
100
330
C8
100
AcDbEntity
  8
AM_4
100
AcDbCircle
 10
0.7753026910538964
 20
0.7753026910538964
 30
0.0
 40
0.0950000420781872
100
AcDbArc
 50
314.9460732486849
 51
135.0539267513152
  0
ARC
  5
101
330
C8
100
AcDbEntity
  8
AM_4
100
AcDbCircle
 10
-0.0000000000000054
 20
0.0000000000000282
 30
0.0
 40
0.810810810810782
100
AcDbArc
 50
96.72861089962142
 51
105.7713891003786
  0
ARC
  5
102
330
C8
100
AcDbEntity
  8
AM_4
100
AcDbCircle
 10
-0.0000000000000054
 20
0.0000000000000084
 30
0.0
 40
0.8108108108108008
100
AcDbArc
 50
119.2286108996215
 51
128.2713891003785
  0
LINE
  5
103
330
C8
100
AcDbEntity
  8
AM_4
100
AcDbLine
 10
-0.2121546127903873
 20
0.7604335068450776
 30
0.0
 11
-0.2203781556682535
 21
0.7802868955915787
 31
0.0
  0
ARC
  5
104
330
C8
100
AcDbEntity
  8
AM_4
100
AcDbCircle
 10
0.000000000000008
 20
-0.0000000000000188
 30
0.0
 40
0.7500000000000202
100
AcDbArc
 50
105.2229861234306
 51
119.7770138765694
  0
LINE
  5
105
330
C8
100
AcDbEntity
  8
AM_4
100
AcDbLine
 10
-0.3959152668453982
 20
0.7075770434422117
 30
0.0
 11
-0.387691723967532
 21
0.6877236546957105
 31
0.0
  0
LINE
  5
106
330
C8
100
AcDbEntity
  8
AM_4
100
AcDbLine
 10
0.5022057348689715
 20
0.6365560232944159
 30
0.0
 11
0.7080643216194042
 21
0.8424146100448483
 31
0.0
  0
ARC
  5
107
330
C8
100
AcDbEntity
  8
AM_4
100
AcDbCircle
 10
0.0000000000000023
 20
0.0000000000000008
 30
0.0
 40
0.8108108108108084
100
AcDbArc
 50
6.728610899621628
 51
38.2713891003785
  0
LINE
  5
108
330
C8
100
AcDbEntity
  8
AM_4
100
AcDbLine
 10
0.8052261613532463
 20
0.0950000000000008
 30
0.0
 11
1.096354166666667
 21
0.0950000000000002
 31
0.0
  0
LINE
  5
109
330
C8
100
AcDbEntity
  8
AM_4
100
AcDbLine
 10
1.096354166666667
 20
-0.0949999999999999
 30
0.0
 11
0.8052261613532461
 21
-0.0949999999999999
 31
0.0
  0
ARC
  5
10A
330
C8
100
AcDbEntity
  8
AM_4
100
AcDbCircle
 10
-0.0000000000000028
 20
0.0000000000000009
 30
0.0
 40
0.8108108108108134
100
AcDbArc
 50
321.7286108996217
 51
353.2713891003784
  0
ARC
  5
10B
330
C8
100
AcDbEntity
  8
AM_4
100
AcDbCircle
 10
0.0000000000000016
 20
0.0000000000000048
 30
0.0
 40
0.8108108108108155
100
AcDbArc
 50
231.7286108996216
 51
263.2713891003784
  0
LINE
  5
10C
330
C8
100
AcDbEntity
  8
AM_4
100
AcDbLine
 10
-0.5022057348689724
 20
-0.6365560232944151
 30
0.0
 11
-0.7080643216194039
 21
-0.8424146100448485
 31
0.0
  0
ARC
  5
10D
330
C8
100
AcDbEntity
  8
AM_4
100
AcDbCircle
 10
-0.775302691053896
 20
-0.7753026910538965
 30
0.0
 40
0.0950000420781874
100
AcDbArc
 50
134.946073248685
 51
315.0539267513151
  0
LINE
  5
10E
330
C8
100
AcDbEntity
  8
AM_4
100
AcDbLine
 10
-0.8424146100448483
 20
-0.7080643216194045
 30
0.0
 11
-0.6365560232944155
 21
-0.502205734868972
 31
0.0
  0
ARC
  5
10F
330
C8
100
AcDbEntity
  8
AM_4
100
AcDbCircle
 10
-0.0000000000000026
 20
-0.0000000000000017
 30
0.0
 40
0.8108108108108079
100
AcDbArc
 50
186.7286108996214
 51
218.2713891003784
  0
LINE
  5
110
330
C8
100
AcDbEntity
  8
AM_4
100
AcDbLine
 10
-0.8052261613532462
 20
-0.0950000000000002
 30
0.0
 11
-1.096354166666667
 21
-0.0950000000000006
 31
0.0
  0
ARC
  5
111
330
C8
100
AcDbEntity
  8
AM_4
100
AcDbCircle
 10
-1.096443580632778
 20
-0.0000000000000005
 30
0.0
 40
0.0950000420781873
100
AcDbArc
 50
89.94607324868488
 51
270.053926751315
  0
LINE
  5
112
330
C8
100
AcDbEntity
  8
AM_4
100
AcDbLine
 10
-1.096354166666667
 20
0.0949999999999996
 30
0.0
 11
-0.8052261613532461
 21
0.0949999999999995
 31
0.0
  0
ARC
  5
113
330
C8
100
AcDbEntity
  8
AM_4
100
AcDbCircle
 10
0.0000000000000031
 20
-0.0000000000000001
 30
0.0
 40
0.8108108108108136
100
AcDbArc
 50
141.7286108996217
 51
173.2713891003785
  0
LINE
  5
114
330
C8
100
AcDbEntity
  8
AM_4
100
AcDbLine
 10
-0.6365560232944159
 20
0.5022057348689718
 30
0.0
 11
-0.8424146100448481
 21
0.7080643216194044
 31
0.0
  0
ARC
  5
115
330
C8
100
AcDbEntity
  8
AM_4
100
AcDbCircle
 10
-0.7753026910538963
 20
0.7753026910538965
 30
0.0
 40
0.0950000420781871
100
AcDbArc
 50
44.94607324867746
 51
225.0539267513153
  0
LINE
  5
116
330
C8
100
AcDbEntity
  8
AM_4
100
AcDbLine
 10
-0.095
 20
0.8052261613532463
 30
0.0
 11
-0.095
 21
0.9428769696633332
 31
0.0
  0
LINE
  5
117
330
C8
100
AcDbEntity
  8
AM_4
100
AcDbLine
 10
0.0950000000000001
 20
0.9428769696633333
 30
0.0
 11
0.0950000000000001
 21
0.8052261613532463
 31
0.0
  0
ARC
  5
118
330
C8
100
AcDbEntity
  8
AM_4
100
AcDbCircle
 10
0.0000000000000003
 20
-0.0000000000000001
 30
0.0
 40
0.8108108108108107
100
AcDbArc
 50
51.7286108996216
 51
83.27138910037844
  0
ENDBLK
  5
CB
330
C8
100
AcDbEntity
  8
0
100
AcDbBlockEnd
  0
BLOCK
  5
11B
330
119
100
AcDbEntity
  8
0
100
AcDbBlockBegin
  2
5_070885EL_0_in_071340_0
 70
     2
 10
0.0
 20
0.0
 30
0.0
  3
5_070885EL_0_in_071340_0
  1

  0
ATTDEF
  5
11D
330
119
100
AcDbEntity
  8
AM_6
100
AcDbText
 10
6.5648
 20
1.5648
 30
0.0
 40
0.5
  1
Imperial/E Insert -Inch
100
AcDbAttributeDefinition
  3

  2
NN
 70
     8
280
     0
  0
ATTDEF
  5
11E
330
119
100
AcDbEntity
  8
AM_6
100
AcDbText
 10
6.5648
 20
1.0648
 30
0.0
 40
0.5
  1
Imperial Bearings
100
AcDbAttributeDefinition
  3

  2
NT
 70
     8
280
     0
  0
ATTDEF
  5
11F
330
119
100
AcDbEntity
  8
AM_6
100
AcDbText
 10
6.5648
 20
0.5648000000000004
 30
0.0
 40
0.5
  1
070885EL
100
AcDbAttributeDefinition
  3

  2
NB
 70
     8
280
     0
  0
ATTDEF
  5
120
330
119
100
AcDbEntity
  8
AM_6
100
AcDbText
 10
6.5648
 20
0.0648000000000004
 30
0.0
 40
0.5
  1
$PN.
100
AcDbAttributeDefinition
  3

  2
NBSYN
 70
     8
280
     0
  0
ATTDEF
  5
121
330
119
100
AcDbEntity
  8
AM_6
100
AcDbText
 10
6.5648
 20
-0.4351999999999996
 30
0.0
 40
0.5
  1
070885EL
100
AcDbAttributeDefinition
  3

  2
LINA
 70
     8
280
     0
  0
ATTDEF
  5
122
330
119
100
AcDbEntity
  8
AM_6
100
AcDbText
 10
6.5648
 20
-0.9351999999999996
 30
0.0
 40
0.5
  1
1-1/2
100
AcDbAttributeDefinition
  3

  2
SS
 70
     8
280
     0
  0
ATTDEF
  5
123
330
119
100
AcDbEntity
  8
AM_6
100
AcDbText
 10
6.5648
 20
-1.4352
 30
0.0
 40
0.5
  1
1.500000
100
AcDbAttributeDefinition
  3

  2
SS1
 70
     8
280
     0
  0
ATTDEF
  5
124
330
119
100
AcDbEntity
  8
AM_6
100
AcDbText
 10
6.5648
 20
-1.9352
 30
0.0
 40
0.5
  1
070885EL
100
AcDbAttributeDefinition
  3

  2
PN
 70
     8
280
     0
  0
ATTDEF
  5
125
330
119
100
AcDbEntity
  8
AM_6
100
AcDbText
 10
6.5648
 20
-2.4352
 30
0.0
 40
0.5
  1
INS-IP-108R
100
AcDbAttributeDefinition
  3

  2
DESCRIPTION
 70
     8
280
     0
  0
ATTDEF
  5
126
330
119
100
AcDbEntity
  8
AM_6
100
AcDbText
 10
6.5648
 20
-2.9352
 30
0.0
 40
0.5
  1
Labyrinth Seal
100
AcDbAttributeDefinition
  3

  2
ST
 70
     8
280
     0
  0
ATTDEF
  5
127
330
119
100
AcDbEntity
  8
AM_6
100
AcDbText
 10
6.5648
 20
-3.4352
 30
0.0
 40
0.5
  1
1
100
AcDbAttributeDefinition
  3

  2
ST1
 70
     8
280
     0
  0
ATTDEF
  5
128
330
119
100
AcDbEntity
  8
AM_6
100
AcDbText
 10
6.5648
 20
-3.9352
 30
0.0
 40
0.5
  1
3.1496
100
AcDbAttributeDefinition
  3

  2
A
 70
     8
280
     0
  0
ATTDEF
  5
129
330
119
100
AcDbEntity
  8
AM_6
100
AcDbText
 10
6.5648
 20
-4.4352
 30
0.0
 40
0.5
  1
61/64
100
AcDbAttributeDefinition
  3

  2
B
 70
     8
280
     0
  0
ATTDEF
  5
12A
330
119
100
AcDbEntity
  8
AM_6
100
AcDbText
 10
6.5648
 20
-4.9352
 30
0.0
 40
0.5
  1
0.953125
100
AcDbAttributeDefinition
  3

  2
B1
 70
     8
280
     0
  0
ATTDEF
  5
12B
330
119
100
AcDbEntity
  8
AM_6
100
AcDbText
 10
6.5648
 20
-5.4352
 30
0.0
 40
0.5
  1
2-5/8
100
AcDbAttributeDefinition
  3

  2
C
 70
     8
280
     0
  0
ATTDEF
  5
12C
330
119
100
AcDbEntity
  8
AM_6
100
AcDbText
 10
6.5648
 20
-5.9352
 30
0.0
 40
0.5
  1
2.810000
100
AcDbAttributeDefinition
  3

  2
C1
 70
     8
280
     0
  0
ATTDEF
  5
12D
330
119
100
AcDbEntity
  8
AM_6
100
AcDbText
 10
6.5648
 20
-6.4352
 30
0.0
 40
0.5
  1
3.64000
100
AcDbAttributeDefinition
  3

  2
CR
 70
     8
280
     0
  0
ATTDEF
  5
12E
330
119
100
AcDbEntity
  8
AM_6
100
AcDbText
 10
6.5648
 20
-6.9352
 30
0.0
 40
0.5
  1
0.970
100
AcDbAttributeDefinition
  3

  2
D
 70
     8
280
     0
  0
ATTDEF
  5
12F
330
119
100
AcDbEntity
  8
AM_6
100
AcDbText
 10
6.5648
 20
-7.4352
 30
0.0
 40
0.5
  1
2-23/32
100
AcDbAttributeDefinition
  3

  2
E
 70
     8
280
     0
  0
ATTDEF
  5
130
330
119
100
AcDbEntity
  8
AM_6
100
AcDbText
 10
6.5648
 20
-7.9352
 30
0.0
 40
0.5
  1
2.718750
100
AcDbAttributeDefinition
  3

  2
E1
 70
     8
280
     0
  0
ATTDEF
  5
131
330
119
100
AcDbEntity
  8
AM_6
100
AcDbText
 10
6.5648
 20
-8.4352
 30
0.0
 40
0.5
  1
0.1900
100
AcDbAttributeDefinition
  3

  2
NDM
 70
     8
280
     0
  0
ATTDEF
  5
132
330
119
100
AcDbEntity
  8
AM_6
100
AcDbText
 10
6.5648
 20
-8.9352
 30
0.0
 40
0.5
  1
0.1450
100
AcDbAttributeDefinition
  3

  2
KDM
 70
     8
280
     0
  0
ATTDEF
  5
133
330
119
100
AcDbEntity
  8
AM_6
100
AcDbText
 10
6.5648
 20
-9.4352
 30
0.0
 40
0.5
  1
2.22
100
AcDbAttributeDefinition
  3

  2
AL
 70
     8
280
     0
  0
ATTDEF
  5
134
330
119
100
AcDbEntity
  8
AM_6
100
AcDbText
 10
6.5648
 20
-9.9352
 30
0.0
 40
0.5
  1
0.38
100
AcDbAttributeDefinition
  3

  2
BL
 70
     8
280
     0
  0
ATTDEF
  5
135
330
119
100
AcDbEntity
  8
AM_6
100
AcDbText
 10
6.5648
 20
-10.4352
 30
0.0
 40
0.5
  1
0.07
100
AcDbAttributeDefinition
  3

  2
CL
 70
     8
280
     0
  0
ATTDEF
  5
136
330
119
100
AcDbEntity
  8
AM_6
100
AcDbText
 10
6.5648
 20
-10.9352
 30
0.0
 40
0.5
  1
0.44
100
AcDbAttributeDefinition
  3

  2
DL
 70
     8
280
     0
  0
ATTDEF
  5
137
330
119
100
AcDbEntity
  8
AM_6
100
AcDbText
 10
6.5648
 20
-11.4352
 30
0.0
 40
0.5
  1
0.8000
100
AcDbAttributeDefinition
  3

  2
LL
 70
     8
280
     0
  0
ATTDEF
  5
138
330
119
100
AcDbEntity
  8
AM_6
100
AcDbText
 10
6.5648
 20
-11.9352
 30
0.0
 40
0.5
  1
0.020
100
AcDbAttributeDefinition
  3

  2
Y
 70
     8
280
     0
  0
ATTDEF
  5
139
330
119
100
AcDbEntity
  8
AM_6
100
AcDbText
 10
6.5648
 20
-12.4352
 30
0.0
 40
0.5
  1
0.020000
100
AcDbAttributeDefinition
  3

  2
Y1
 70
     8
280
     0
  0
ATTDEF
  5
13A
330
119
100
AcDbEntity
  8
AM_6
100
AcDbText
 10
6.5648
 20
-12.9352
 30
0.0
 40
0.5
  1
1-51/64
100
AcDbAttributeDefinition
  3

  2
Z
 70
     8
280
     0
  0
ATTDEF
  5
13B
330
119
100
AcDbEntity
  8
AM_6
100
AcDbText
 10
6.5648
 20
-13.4352
 30
0.0
 40
0.5
  1
1.796875
100
AcDbAttributeDefinition
  3

  2
Z1
 70
     8
280
     0
  0
ATTDEF
  5
13C
330
119
100
AcDbEntity
  8
AM_6
100
AcDbText
 10
6.5648
 20
-13.9352
 30
0.0
 40
0.5
  1
0.83000
100
AcDbAttributeDefinition
  3

  2
P1
 70
     8
280
     0
  0
ATTDEF
  5
13D
330
119
100
AcDbEntity
  8
AM_6
100
AcDbText
 10
6.5648
 20
-14.4352
 30
0.0
 40
0.5
  1
1.19000
100
AcDbAttributeDefinition
  3

  2
H1
 70
     8
280
     0
  0
ATTDEF
  5
13E
330
119
100
AcDbEntity
  8
AM_6
100
AcDbText
 10
6.5648
 20
-14.9352
 30
0.0
 40
0.5
  1
0.67000
100
AcDbAttributeDefinition
  3

  2
G1
 70
     8
280
     0
  0
ATTDEF
  5
13F
330
119
100
AcDbEntity
  8
AM_6
100
AcDbText
 10
6.5648
 20
-15.4352
 30
0.0
 40
0.5
  1
0.10100
100
AcDbAttributeDefinition
  3

  2
CW
 70
     8
280
     0
  0
ATTDEF
  5
140
330
119
100
AcDbEntity
  8
AM_6
100
AcDbText
 10
6.5648
 20
-15.9352
 30
0.0
 40
0.5
  1
3.00000
100
AcDbAttributeDefinition
  3

  2
L1
 70
     8
280
     0
  0
ATTDEF
  5
141
330
119
100
AcDbEntity
  8
AM_6
100
AcDbText
 10
6.5648
 20
-16.4352
 30
0.0
 40
0.5
  1
baldor
100
AcDbAttributeDefinition
  3

  2
COMPANY
 70
     8
280
     0
  0
CIRCLE
  5
142
330
119
100
AcDbEntity
  8
AM_9
100
AcDbCircle
 10
0.0
 20
0.0
 30
0.0
 40
0.8984375000000001
  0
CIRCLE
  5
143
330
119
100
AcDbEntity
  8
AM_9
100
AcDbCircle
 10
0.0
 20
0.0
 30
0.0
 40
1.207007578016766
  0
CIRCLE
  5
144
330
119
100
AcDbEntity
  8
AM_9
100
AcDbCircle
 10
0.0
 20
0.0
 30
0.0
 40
1.197916666666667
  0
CIRCLE
  5
145
330
119
100
AcDbEntity
  8
AM_9
100
AcDbCircle
 10
0.0
 20
0.0
 30
0.0
 40
1.293610118395209
  0
CIRCLE
  5
146
330
119
100
AcDbEntity
  8
AM_9
100
AcDbCircle
 10
0.0
 20
0.0
 30
0.0
 40
1.3748
  0
CIRCLE
  5
147
330
119
100
AcDbEntity
  8
AM_9
100
AcDbCircle
 10
0.0
 20
0.0
 30
0.0
 40
1.5248
  0
CIRCLE
  5
148
330
119
100
AcDbEntity
  8
AM_9
100
AcDbCircle
 10
0.0
 20
0.0
 30
0.0
 40
1.52714375
  0
CIRCLE
  5
149
330
119
100
AcDbEntity
  8
AM_9
100
AcDbCircle
 10
0.0
 20
1.096354166666667
 30
0.0
 40
0.0724499999999998
  0
LINE
  5
14A
330
119
100
AcDbEntity
  8
AM_9
100
AcDbLine
 10
0.650538238691624
 20
0.9192388155425117
 30
0.0
 11
0.8174376056520651
 21
1.086138182502953
 31
0.0
  0
LINE
  5
14B
330
119
100
AcDbEntity
  8
AM_9
100
AcDbLine
 10
-0.8174376056520651
 20
1.086138182502953
 30
0.0
 11
-0.6505382386916237
 21
0.9192388155425117
 31
0.0
  0
LINE
  5
14C
330
119
100
AcDbEntity
  8
AM_9
100
AcDbLine
 10
-0.8513762383455246
 20
0.7184008158886113
 30
0.0
 11
-0.9192388155425117
 21
0.650538238691624
 31
0.0
  0
LINE
  5
14D
330
119
100
AcDbEntity
  8
AM_9
100
AcDbLine
 10
-0.6505382386916237
 20
0.9192388155425117
 30
0.0
 11
-0.7184008158886108
 21
0.8513762383455249
 31
0.0
  0
LINE
  5
14E
330
119
100
AcDbEntity
  8
AM_9
100
AcDbLine
 10
-0.9192388155425117
 20
0.650538238691624
 30
0.0
 11
-1.086138182502953
 21
0.8174376056520651
 31
0.0
  0
LINE
  5
14F
330
119
100
AcDbEntity
  8
AM_9
100
AcDbLine
 10
-1.086138182502953
 20
-0.8174376056520648
 30
0.0
 11
-0.9192388155425121
 21
-0.6505382386916243
 31
0.0
  0
LINE
  5
150
330
119
100
AcDbEntity
  8
AM_9
100
AcDbLine
 10
-0.7184008158886107
 20
-0.8513762383455251
 30
0.0
 11
-0.650538238691624
 21
-0.9192388155425117
 31
0.0
  0
LINE
  5
151
330
119
100
AcDbEntity
  8
AM_9
100
AcDbLine
 10
-0.9192388155425121
 20
-0.6505382386916243
 30
0.0
 11
-0.8513762383455246
 21
-0.7184008158886113
 31
0.0
  0
LINE
  5
152
330
119
100
AcDbEntity
  8
AM_9
100
AcDbLine
 10
-0.650538238691624
 20
-0.9192388155425117
 30
0.0
 11
-0.8174376056520651
 21
-1.086138182502953
 31
0.0
  0
LINE
  5
153
330
119
100
AcDbEntity
  8
AM_9
100
AcDbLine
 10
0.8174376056520651
 20
-1.086138182502953
 30
0.0
 11
0.6505382386916237
 21
-0.9192388155425117
 31
0.0
  0
LINE
  5
154
330
119
100
AcDbEntity
  8
AM_9
100
AcDbLine
 10
0.8513762383455249
 20
-0.7184008158886108
 30
0.0
 11
0.9192388155425119
 21
-0.6505382386916239
 31
0.0
  0
LINE
  5
155
330
119
100
AcDbEntity
  8
AM_9
100
AcDbLine
 10
0.6505382386916237
 20
-0.9192388155425117
 30
0.0
 11
0.718400815888611
 21
-0.8513762383455246
 31
0.0
  0
LINE
  5
156
330
119
100
AcDbEntity
  8
AM_9
100
AcDbLine
 10
0.9192388155425119
 20
-0.6505382386916239
 30
0.0
 11
1.086138182502953
 21
-0.817437605652065
 31
0.0
  0
LINE
  5
157
330
119
100
AcDbEntity
  8
AM_9
100
AcDbLine
 10
1.086138182502953
 20
0.8174376056520642
 30
0.0
 11
0.9192388155425123
 21
0.6505382386916234
 31
0.0
  0
LINE
  5
158
330
119
100
AcDbEntity
  8
AM_9
100
AcDbLine
 10
0.7184008158886109
 20
0.8513762383455248
 30
0.0
 11
0.650538238691624
 21
0.9192388155425117
 31
0.0
  0
LINE
  5
159
330
119
100
AcDbEntity
  8
AM_9
100
AcDbLine
 10
0.9192388155425123
 20
0.6505382386916234
 30
0.0
 11
0.8513762383455247
 21
0.718400815888611
 31
0.0
  0
ARC
  5
15A
330
119
100
AcDbEntity
  8
AM_9
100
AcDbCircle
 10
-0.0000000000000087
 20
0.0000000000000215
 30
0.0
 40
0.7915567282321669
100
AcDbArc
 50
105.6069355393676
 51
119.3930644606324
  0
CIRCLE
  5
15B
330
119
100
AcDbEntity
  8
AM_9
100
AcDbCircle
 10
0.0
 20
-1.096354166666667
 30
0.0
 40
0.0724499999999998
  0
CIRCLE
  5
15C
330
119
100
AcDbEntity
  8
AM_4
100
AcDbCircle
 10
0.0
 20
0.0
 30
0.0
 40
1.5648
  0
CIRCLE
  5
15D
330
119
100
AcDbEntity
  8
AM_4
100
AcDbCircle
 10
0.0
 20
0.0
 30
0.0
 40
1.428264996535481
  0
LINE
  5
15E
330
119
100
AcDbEntity
  8
AM_4
100
AcDbLine
 10
0.8229218771461462
 20
-1.091622453997034
 30
0.0
 11
0.8174376056520651
 21
-1.086138182502953
 31
0.0
  0
LINE
  5
15F
330
119
100
AcDbEntity
  8
AM_4
100
AcDbLine
 10
-0.8229218771461462
 20
1.091622453997034
 30
0.0
 11
-0.8174376056520651
 21
1.086138182502953
 31
0.0
  0
LINE
  5
160
330
119
100
AcDbEntity
  8
AM_4
100
AcDbLine
 10
0.8174376056520651
 20
1.086138182502953
 30
0.0
 11
0.8229218771461462
 21
1.091622453997034
 31
0.0
  0
LINE
  5
161
330
119
100
AcDbEntity
  8
AM_4
100
AcDbLine
 10
1.091622453997035
 20
0.8229218771461455
 30
0.0
 11
1.086138182502953
 21
0.8174376056520642
 31
0.0
  0
LINE
  5
162
330
119
100
AcDbEntity
  8
AM_4
100
AcDbLine
 10
-0.8174376056520651
 20
-1.086138182502953
 30
0.0
 11
-0.8229218771461462
 21
-1.091622453997034
 31
0.0
  0
CIRCLE
  5
163
330
119
100
AcDbEntity
  8
AM_4
100
AcDbCircle
 10
0.0
 20
0.0
 30
0.0
 40
1.378272611777662
  0
LINE
  5
164
330
119
100
AcDbEntity
  8
AM_4
100
AcDbLine
 10
1.086138182502953
 20
-0.817437605652065
 30
0.0
 11
1.091622453997034
 21
-0.8229218771461463
 31
0.0
  0
ARC
  5
165
330
119
100
AcDbEntity
  8
AM_4
100
AcDbCircle
 10
-0.0000000000000179
 20
0.0000000000000187
 30
0.0
 40
1.367055228568441
100
AcDbArc
 50
307.0108903962602
 51
322.9891096037397
  0
ARC
  5
166
330
119
100
AcDbEntity
  8
AM_4
100
AcDbCircle
 10
-0.0000000000000184
 20
-0.0000000000000194
 30
0.0
 40
1.367055228568389
100
AcDbArc
 50
217.0108903962599
 51
232.98910960374
  0
LINE
  5
167
330
119
100
AcDbEntity
  8
AM_4
100
AcDbLine
 10
-1.091622453997034
 20
-0.8229218771461458
 30
0.0
 11
-1.086138182502953
 21
-0.8174376056520648
 31
0.0
  0
LINE
  5
168
330
119
100
AcDbEntity
  8
AM_4
100
AcDbLine
 10
-1.086138182502953
 20
0.8174376056520651
 30
0.0
 11
-1.091622453997034
 21
0.8229218771461462
 31
0.0
  0
ARC
  5
169
330
119
100
AcDbEntity
  8
AM_4
100
AcDbCircle
 10
0.0000000000000029
 20
-0.0000000000000022
 30
0.0
 40
1.367055228568419
100
AcDbArc
 50
127.0108903962601
 51
142.9891096037399
  0
ARC
  5
16A
330
119
100
AcDbEntity
  8
AM_4
100
AcDbCircle
 10
-0.0000000000000244
 20
-0.0000000000000246
 30
0.0
 40
1.36705522856845
100
AcDbArc
 50
37.01089039626026
 51
52.98910960373972
  0
LINE
  5
16B
330
119
100
AcDbEntity
  8
AM_4
100
AcDbLine
 10
-0.7184008158886108
 20
0.8513762383455249
 30
0.0
 11
-0.8513762383455246
 21
0.7184008158886113
 31
0.0
  0
LINE
  5
16C
330
119
100
AcDbEntity
  8
AM_4
100
AcDbLine
 10
-0.8513762383455246
 20
-0.7184008158886113
 30
0.0
 11
-0.7184008158886107
 21
-0.8513762383455251
 31
0.0
  0
LINE
  5
16D
330
119
100
AcDbEntity
  8
AM_4
100
AcDbLine
 10
0.718400815888611
 20
-0.8513762383455246
 30
0.0
 11
0.8513762383455249
 21
-0.7184008158886108
 31
0.0
  0
LINE
  5
16E
330
119
100
AcDbEntity
  8
AM_4
100
AcDbLine
 10
0.8513762383455247
 20
0.718400815888611
 30
0.0
 11
0.7184008158886109
 21
0.8513762383455248
 31
0.0
  0
ARC
  5
16F
330
119
100
AcDbEntity
  8
AM_4
100
AcDbCircle
 10
-0.0000000000000011
 20
-0.0000000000000005
 30
0.0
 40
0.7894736842105262
100
AcDbArc
 50
119.4113405762944
 51
105.5886594237055
  0
ARC
  5
170
330
119
100
AcDbEntity
  8
AM_4
100
AcDbCircle
 10
-0.0000000000000003
 20
-0.0000000000000001
 30
0.0
 40
0.7499999999999999
100
AcDbArc
 50
119.7770138765696
 51
105.2229861234304
  0
LINE
  5
171
330
119
100
AcDbEntity
  8
AM_4
100
AcDbLine
 10
-0.387691723967532
 20
0.6877236546957105
 30
0.0
 11
-0.3724693408726803
 21
0.6509735709764806
 31
0.0
  0
LINE
  5
172
330
119
100
AcDbEntity
  8
AM_4
100
AcDbLine
 10
-0.1969322296955358
 20
0.7236834231258475
 30
0.0
 11
-0.2121546127903875
 21
0.7604335068450774
 31
0.0
  0
CIRCLE
  5
173
330
119
100
AcDbEntity
  8
AM_5
100
AcDbCircle
 10
0.0
 20
1.096354166666667
 30
0.0
 40
0.0950000000000001
  0
CIRCLE
  5
174
330
119
100
AcDbEntity
  8
AM_5
100
AcDbCircle
 10
0.0
 20
-1.096354166666667
 30
0.0
 40
0.0950000000000001
  0
ENDBLK
  5
11C
330
119
100
AcDbEntity
  8
0
100
AcDbBlockEnd
  0
BLOCK
  5
177
330
175
100
AcDbEntity
  8
0
100
AcDbBlockBegin
  2
6_405015E_Inch_0_in_071340_0
 70
     2
 10
0.0
 20
0.0
 30
0.0
  3
6_405015E_Inch_0_in_071340_0
  1

  0
ATTDEF
  5
179
330
175
100
AcDbEntity
  8
AM_6
100
AcDbText
 10
5.21875
 20
2.5
 30
0.0
 40
0.5
  1
405015E -Inch
100
AcDbAttributeDefinition
  3

  2
NN
 70
     8
280
     0
  0
ATTDEF
  5
17A
330
175
100
AcDbEntity
  8
AM_6
100
AcDbText
 10
5.21875
 20
2.0
 30
0.0
 40
0.5
  1
Grease Fitting
100
AcDbAttributeDefinition
  3

  2
NT
 70
     8
280
     0
  0
ATTDEF
  5
17B
330
175
100
AcDbEntity
  8
AM_6
100
AcDbText
 10
5.21875
 20
1.5
 30
0.0
 40
0.5
  1
405015E-Inch
100
AcDbAttributeDefinition
  3

  2
NB
 70
     8
280
     0
  0
ATTDEF
  5
17C
330
175
100
AcDbEntity
  8
AM_6
100
AcDbText
 10
5.21875
 20
1.0
 30
0.0
 40
0.5
  1
$MN.-Inch
100
AcDbAttributeDefinition
  3

  2
NBSYN
 70
     8
280
     0
  0
ATTDEF
  5
17D
330
175
100
AcDbEntity
  8
AM_6
100
AcDbText
 10
5.21875
 20
0.5
 30
0.0
 40
0.5
  1
405015E
100
AcDbAttributeDefinition
  3

  2
LINA
 70
     8
280
     0
  0
ATTDEF
  5
17E
330
175
100
AcDbEntity
  8
AM_6
100
AcDbText
 10
5.21875
 20
0.0
 30
0.0
 40
0.5
  1
405015E
100
AcDbAttributeDefinition
  3

  2
MN
 70
     8
280
     0
  0
ATTDEF
  5
17F
330
175
100
AcDbEntity
  8
AM_6
100
AcDbText
 10
5.21875
 20
-0.5
 30
0.0
 40
0.5
  1
1/8 x 27PTF
100
AcDbAttributeDefinition
  3

  2
T
 70
     8
280
     0
  0
ATTDEF
  5
180
330
175
100
AcDbEntity
  8
AM_6
100
AcDbText
 10
5.21875
 20
-1.0
 30
0.0
 40
0.5
  1
baldor
100
AcDbAttributeDefinition
  3

  2
COMPANY
 70
     8
280
     0
  0
LINE
  5
181
330
175
100
AcDbEntity
  8
AM_9
100
AcDbLine
 10
-0.161902872472269
 20
1.86
 30
0.0
 11
0.161902872472269
 21
1.86
 31
0.0
  0
LINE
  5
182
330
175
100
AcDbEntity
  8
AM_9
100
AcDbLine
 10
0.161902872472269
 20
1.86
 30
0.0
 11
0.1986176267812154
 21
1.896714754308946
 31
0.0
  0
LINE
  5
183
330
175
100
AcDbEntity
  8
AM_9
100
AcDbLine
 10
-0.1986176267812154
 20
1.896714754308946
 30
0.0
 11
-0.161902872472269
 21
1.86
 31
0.0
  0
LINE
  5
184
330
175
100
AcDbEntity
  8
AM_9
100
AcDbLine
 10
-0.1986176267812154
 20
1.896714754308946
 30
0.0
 11
0.1986176267812154
 21
1.896714754308946
 31
0.0
  0
LINE
  5
185
330
175
100
AcDbEntity
  8
AM_9
100
AcDbLine
 10
0.1986176267812154
 20
1.896714754308946
 30
0.0
 11
0.2057518972230696
 21
2.125
 31
0.0
  0
LINE
  5
186
330
175
100
AcDbEntity
  8
AM_9
100
AcDbLine
 10
-0.2057518972230696
 20
2.125
 30
0.0
 11
-0.1986176267812154
 21
1.896714754308946
 31
0.0
  0
LINE
  5
187
330
175
100
AcDbEntity
  8
AM_5
100
AcDbLine
 10
-0.1681491248523479
 20
2.059870087748463
 30
0.0
 11
-0.161902872472269
 21
1.86
 31
0.0
  0
LINE
  5
188
330
175
100
AcDbEntity
  8
AM_5
100
AcDbLine
 10
-0.2057518972230696
 20
2.125
 30
0.0
 11
-0.1681491248523479
 21
2.059870087748463
 31
0.0
  0
LINE
  5
189
330
175
100
AcDbEntity
  8
AM_5
100
AcDbLine
 10
0.2037164857515569
 20
2.059870087748463
 30
0.0
 11
-0.2037164857515566
 21
2.059870087748463
 31
0.0
  0
LINE
  5
18A
330
175
100
AcDbEntity
  8
AM_5
100
AcDbLine
 10
0.1681491248523479
 20
2.059870087748463
 30
0.0
 11
0.161902872472269
 21
1.86
 31
0.0
  0
LINE
  5
18B
330
175
100
AcDbEntity
  8
AM_5
100
AcDbLine
 10
0.2057518972230696
 20
2.125
 30
0.0
 11
0.1681491248523479
 21
2.059870087748463
 31
0.0
  0
LINE
  5
18C
330
175
100
AcDbEntity
  8
AM_4
100
AcDbLine
 10
0.105
 20
2.33
 30
0.0
 11
0.105
 21
2.36
 31
0.0
  0
LINE
  5
18D
330
175
100
AcDbEntity
  8
AM_4
100
AcDbLine
 10
-0.105
 20
2.36
 30
0.0
 11
-0.105
 21
2.33
 31
0.0
  0
LINE
  5
18E
330
175
100
AcDbEntity
  8
AM_4
100
AcDbLine
 10
-0.105
 20
2.33
 30
0.0
 11
0.105
 21
2.33
 31
0.0
  0
LINE
  5
18F
330
175
100
AcDbEntity
  8
AM_4
100
AcDbLine
 10
-0.105
 20
2.33
 30
0.0
 11
-0.1188200907348975
 21
2.297753121618572
 31
0.0
  0
LINE
  5
190
330
175
100
AcDbEntity
  8
AM_4
100
AcDbLine
 10
0.1188200907348975
 20
2.297753121618572
 30
0.0
 11
0.105
 21
2.33
 31
0.0
  0
LINE
  5
191
330
175
100
AcDbEntity
  8
AM_4
100
AcDbLine
 10
-0.1026779019331875
 20
2.5
 30
0.0
 11
0.1026779019331875
 21
2.5
 31
0.0
  0
LINE
  5
192
330
175
100
AcDbEntity
  8
AM_4
100
AcDbLine
 10
-0.1026779019331875
 20
2.5
 30
0.0
 11
-0.135
 21
2.42
 31
0.0
  0
LINE
  5
193
330
175
100
AcDbEntity
  8
AM_4
100
AcDbLine
 10
0.135
 20
2.42
 30
0.0
 11
0.1026779019331875
 21
2.5
 31
0.0
  0
LINE
  5
194
330
175
100
AcDbEntity
  8
AM_4
100
AcDbLine
 10
-0.135
 20
2.42
 30
0.0
 11
0.135
 21
2.42
 31
0.0
  0
LINE
  5
195
330
175
100
AcDbEntity
  8
AM_4
100
AcDbLine
 10
-0.105
 20
2.36
 30
0.0
 11
0.105
 21
2.36
 31
0.0
  0
LINE
  5
196
330
175
100
AcDbEntity
  8
AM_4
100
AcDbLine
 10
0.105
 20
2.36
 30
0.0
 11
0.135
 21
2.42
 31
0.0
  0
LINE
  5
197
330
175
100
AcDbEntity
  8
AM_4
100
AcDbLine
 10
-0.135
 20
2.42
 30
0.0
 11
-0.105
 21
2.36
 31
0.0
  0
LINE
  5
198
330
175
100
AcDbEntity
  8
AM_4
100
AcDbLine
 10
-0.1188200907348975
 20
2.297753121618572
 30
0.0
 11
0.1188200907348975
 21
2.297753121618572
 31
0.0
  0
LINE
  5
199
330
175
100
AcDbEntity
  8
AM_4
100
AcDbLine
 10
-0.1188200907348975
 20
2.297753121618572
 30
0.0
 11
-0.1725340532830154
 21
2.243318198540882
 31
0.0
  0
LINE
  5
19A
330
175
100
AcDbEntity
  8
AM_4
100
AcDbLine
 10
0.1725340532830154
 20
2.243318198540882
 30
0.0
 11
0.1188200907348975
 21
2.297753121618572
 31
0.0
  0
LINE
  5
19B
330
175
100
AcDbEntity
  8
AM_4
100
AcDbLine
 10
-0.21875
 20
2.225
 30
0.0
 11
0.21875
 21
2.225
 31
0.0
  0
LINE
  5
19C
330
175
100
AcDbEntity
  8
AM_4
100
AcDbLine
 10
-0.21875
 20
2.225
 30
0.0
 11
-0.21875
 21
2.125
 31
0.0
  0
LINE
  5
19D
330
175
100
AcDbEntity
  8
AM_4
100
AcDbLine
 10
0.21875
 20
2.125
 30
0.0
 11
0.21875
 21
2.225
 31
0.0
  0
LINE
  5
19E
330
175
100
AcDbEntity
  8
AM_4
100
AcDbLine
 10
-0.1725340532830154
 20
2.243318198540882
 30
0.0
 11
0.1725340532830154
 21
2.243318198540882
 31
0.0
  0
LINE
  5
19F
330
175
100
AcDbEntity
  8
AM_4
100
AcDbLine
 10
-0.1725340532830154
 20
2.243318198540882
 30
0.0
 11
-0.21375
 21
2.225
 31
0.0
  0
LINE
  5
1A0
330
175
100
AcDbEntity
  8
AM_4
100
AcDbLine
 10
0.21375
 20
2.225
 30
0.0
 11
0.1725340532830154
 21
2.243318198540882
 31
0.0
  0
LWPOLYLINE
  5
1A1
330
175
100
AcDbEntity
  8
AM_4
100
AcDbPolyline
 90
        4
 70
     0
 43
0.0
 10
0.1093749999999999
 20
2.225
 10
0.1367187499999999
 20
2.224392585996001
 10
0.1640954144832171
 20
2.222603793958984
 10
0.21875
 20
2.215932400303386
  0
LWPOLYLINE
  5
1A2
330
175
100
AcDbEntity
  8
AM_4
100
AcDbPolyline
 90
        4
 70
     0
 43
0.0
 10
0.21875
 20
2.134067599696615
 10
0.1779449093802249
 20
2.128721412808832
 10
0.1368799989092349
 20
2.125614561814227
 10
0.109375
 20
2.125
  0
LWPOLYLINE
  5
1A3
330
175
100
AcDbEntity
  8
AM_4
100
AcDbPolyline
 90
        4
 70
     0
 43
0.0
 10
0.109375
 20
2.125
 10
0.08203125
 20
2.125607414003999
 10
0.0546545855167828
 20
2.127396206041015
 10
0.0
 20
2.134067599696615
  0
LINE
  5
1A4
330
175
100
AcDbEntity
  8
AM_4
100
AcDbLine
 10
0.0
 20
2.215932400303386
 30
0.0
 11
0.0
 21
2.134067599696615
 31
0.0
  0
LWPOLYLINE
  5
1A5
330
175
100
AcDbEntity
  8
AM_4
100
AcDbPolyline
 90
        4
 70
     0
 43
0.0
 10
-0.21875
 20
2.215932400303386
 10
-0.1779449093802249
 20
2.221278587191168
 10
-0.1368799989092349
 20
2.224385438185772
 10
-0.109375
 20
2.225
  0
LWPOLYLINE
  5
1A6
330
175
100
AcDbEntity
  8
AM_4
100
AcDbPolyline
 90
        4
 70
     0
 43
0.0
 10
-0.109375
 20
2.125
 10
-0.1367187499999999
 20
2.125607414003999
 10
-0.1640954144832171
 20
2.127396206041015
 10
-0.21875
 20
2.134067599696615
  0
LWPOLYLINE
  5
1A7
330
175
100
AcDbEntity
  8
AM_4
100
AcDbPolyline
 90
        4
 70
     0
 43
0.0
 10
0.0
 20
2.134067599696615
 10
-0.040805090619775
 20
2.128721412808832
 10
-0.0818700010907651
 20
2.125614561814227
 10
-0.109375
 20
2.125
  0
LWPOLYLINE
  5
1A8
330
175
100
AcDbEntity
  8
AM_4
100
AcDbPolyline
 90
        4
 70
     0
 43
0.0
 10
-0.109375
 20
2.225
 10
-0.08203125
 20
2.224392585996001
 10
-0.0546545855167828
 20
2.222603793958984
 10
0.0
 20
2.215932400303386
  0
LWPOLYLINE
  5
1A9
330
175
100
AcDbEntity
  8
AM_4
100
AcDbPolyline
 90
        4
 70
     0
 43
0.0
 10
0.0
 20
2.215932400303386
 10
0.040805090619775
 20
2.221278587191168
 10
0.0818700010907651
 20
2.224385438185772
 10
0.1093749999999999
 20
2.225
  0
ENDBLK
  5
178
330
175
100
AcDbEntity
  8
0
100
AcDbBlockEnd
  0
BLOCK
  5
1AC
330
1AA
100
AcDbEntity
  8
0
100
AcDbBlockBegin
  2
7_071290LH_0_in_071340_0
 70
     2
 10
0.0
 20
0.0
 30
0.0
  3
7_071290LH_0_in_071340_0
  1

  0
ATTDEF
  5
1AE
330
1AA
100
AcDbEntity
  8
AM_6
100
AcDbText
 10
7.69
 20
2.69
 30
0.0
 40
0.5
  1
EF4S-IP -(Labyrinth Seal)-Housing -Inch
100
AcDbAttributeDefinition
  3

  2
NN
 70
     8
280
     0
  0
ATTDEF
  5
1AF
330
1AA
100
AcDbEntity
  8
AM_6
100
AcDbText
 10
7.69
 20
2.19
 30
0.0
 40
0.5
  1
Imperial 4 Bolt Square Flange Bearings
100
AcDbAttributeDefinition
  3

  2
NT
 70
     8
280
     0
  0
ATTDEF
  5
1B0
330
1AA
100
AcDbEntity
  8
AM_6
100
AcDbText
 10
7.69
 20
1.69
 30
0.0
 40
0.5
  1
071290LH
100
AcDbAttributeDefinition
  3

  2
NB
 70
     8
280
     0
  0
ATTDEF
  5
1B1
330
1AA
100
AcDbEntity
  8
AM_6
100
AcDbText
 10
7.69
 20
1.19
 30
0.0
 40
0.5
  1
$PN.H
100
AcDbAttributeDefinition
  3

  2
NBSYN
 70
     8
280
     0
  0
ATTDEF
  5
1B2
330
1AA
100
AcDbEntity
  8
AM_6
100
AcDbText
 10
7.69
 20
0.69
 30
0.0
 40
0.5
  1
071290L
100
AcDbAttributeDefinition
  3

  2
LINA
 70
     8
280
     0
  0
ATTDEF
  5
1B3
330
1AA
100
AcDbEntity
  8
AM_6
100
AcDbText
 10
7.69
 20
0.1899999999999999
 30
0.0
 40
0.5
  1
1-1/2
100
AcDbAttributeDefinition
  3

  2
SS
 70
     8
280
     0
  0
ATTDEF
  5
1B4
330
1AA
100
AcDbEntity
  8
AM_6
100
AcDbText
 10
7.69
 20
-0.3100000000000001
 30
0.0
 40
0.5
  1
1.5000
100
AcDbAttributeDefinition
  3

  2
SS1
 70
     8
280
     0
  0
ATTDEF
  5
1B5
330
1AA
100
AcDbEntity
  8
AM_6
100
AcDbText
 10
7.69
 20
-0.81
 30
0.0
 40
0.5
  1
3.1496
100
AcDbAttributeDefinition
  3

  2
BORE
 70
     8
280
     0
  0
ATTDEF
  5
1B6
330
1AA
100
AcDbEntity
  8
AM_6
100
AcDbText
 10
7.69
 20
-1.31
 30
0.0
 40
0.5
  1
Non-Expansion
100
AcDbAttributeDefinition
  3

  2
TYPE
 70
     8
280
     0
  0
ATTDEF
  5
1B7
330
1AA
100
AcDbEntity
  8
AM_6
100
AcDbText
 10
7.69
 20
-1.81
 30
0.0
 40
0.5
  1
EF4B-IP-108L
100
AcDbAttributeDefinition
  3

  2
DESCRIPTION
 70
     8
280
     0
  0
ATTDEF
  5
1B8
330
1AA
100
AcDbEntity
  8
AM_6
100
AcDbText
 10
7.69
 20
-2.31
 30
0.0
 40
0.5
  1
Non-Expansion Type
100
AcDbAttributeDefinition
  3

  2
EF
 70
     8
280
     0
  0
ATTDEF
  5
1B9
330
1AA
100
AcDbEntity
  8
AM_6
100
AcDbText
 10
7.69
 20
-2.81
 30
0.0
 40
0.5
  1
1
100
AcDbAttributeDefinition
  3

  2
EF1
 70
     8
280
     0
  0
ATTDEF
  5
1BA
330
1AA
100
AcDbEntity
  8
AM_6
100
AcDbText
 10
7.69
 20
-3.31
 30
0.0
 40
0.5
  1
Labyrinth Seal
100
AcDbAttributeDefinition
  3

  2
ST
 70
     8
280
     0
  0
ATTDEF
  5
1BB
330
1AA
100
AcDbEntity
  8
AM_6
100
AcDbText
 10
7.69
 20
-3.81
 30
0.0
 40
0.5
  1
2
100
AcDbAttributeDefinition
  3

  2
ST1
 70
     8
280
     0
  0
ATTDEF
  5
1BC
330
1AA
100
AcDbEntity
  8
AM_6
100
AcDbText
 10
7.69
 20
-4.31
 30
0.0
 40
0.5
  1
2.81
100
AcDbAttributeDefinition
  3

  2
A
 70
     8
280
     0
  0
ATTDEF
  5
1BD
330
1AA
100
AcDbEntity
  8
AM_6
100
AcDbText
 10
7.69
 20
-4.81
 30
0.0
 40
0.5
  1
2.810000
100
AcDbAttributeDefinition
  3

  2
A1
 70
     8
280
     0
  0
ATTDEF
  5
1BE
330
1AA
100
AcDbEntity
  8
AM_6
100
AcDbText
 10
7.69
 20
-5.31
 30
0.0
 40
0.5
  1
5.38
100
AcDbAttributeDefinition
  3

  2
B
 70
     8
280
     0
  0
ATTDEF
  5
1BF
330
1AA
100
AcDbEntity
  8
AM_6
100
AcDbText
 10
7.69
 20
-5.81
 30
0.0
 40
0.5
  1
5.380000
100
AcDbAttributeDefinition
  3

  2
B1
 70
     8
280
     0
  0
ATTDEF
  5
1C0
330
1AA
100
AcDbEntity
  8
AM_6
100
AcDbText
 10
7.69
 20
-6.31
 30
0.0
 40
0.5
  1
3.64
100
AcDbAttributeDefinition
  3

  2
C
 70
     8
280
     0
  0
ATTDEF
  5
1C1
330
1AA
100
AcDbEntity
  8
AM_6
100
AcDbText
 10
7.69
 20
-6.81
 30
0.0
 40
0.5
  1
3.640000
100
AcDbAttributeDefinition
  3

  2
C1
 70
     8
280
     0
  0
ATTDEF
  5
1C2
330
1AA
100
AcDbEntity
  8
AM_6
100
AcDbText
 10
7.69
 20
-7.31
 30
0.0
 40
0.5
  1
4.13
100
AcDbAttributeDefinition
  3

  2
D
 70
     8
280
     0
  0
ATTDEF
  5
1C3
330
1AA
100
AcDbEntity
  8
AM_6
100
AcDbText
 10
7.69
 20
-7.81
 30
0.0
 40
0.5
  1
4.130000
100
AcDbAttributeDefinition
  3

  2
D1
 70
     8
280
     0
  0
ATTDEF
  5
1C4
330
1AA
100
AcDbEntity
  8
AM_6
100
AcDbText
 10
7.69
 20
-8.31
 30
0.0
 40
0.5
  1
1/2
100
AcDbAttributeDefinition
  3

  2
F
 70
     8
280
     0
  0
ATTDEF
  5
1C5
330
1AA
100
AcDbEntity
  8
AM_6
100
AcDbText
 10
7.69
 20
-8.81
 30
0.0
 40
0.5
  1
0.500
100
AcDbAttributeDefinition
  3

  2
F1
 70
     8
280
     0
  0
ATTDEF
  5
1C6
330
1AA
100
AcDbEntity
  8
AM_6
100
AcDbText
 10
7.69
 20
-9.31
 30
0.0
 40
0.5
  1
0.67
100
AcDbAttributeDefinition
  3

  2
G
 70
     8
280
     0
  0
ATTDEF
  5
1C7
330
1AA
100
AcDbEntity
  8
AM_6
100
AcDbText
 10
7.69
 20
-9.81
 30
0.0
 40
0.5
  1
0.670000
100
AcDbAttributeDefinition
  3

  2
G1
 70
     8
280
     0
  0
ATTDEF
  5
1C8
330
1AA
100
AcDbEntity
  8
AM_6
100
AcDbText
 10
7.69
 20
-10.31
 30
0.0
 40
0.5
  1
1.19
100
AcDbAttributeDefinition
  3

  2
H
 70
     8
280
     0
  0
ATTDEF
  5
1C9
330
1AA
100
AcDbEntity
  8
AM_6
100
AcDbText
 10
7.69
 20
-10.81
 30
0.0
 40
0.5
  1
1.190000
100
AcDbAttributeDefinition
  3

  2
H1
 70
     8
280
     0
  0
ATTDEF
  5
1CA
330
1AA
100
AcDbEntity
  8
AM_6
100
AcDbText
 10
7.69
 20
-11.31
 30
0.0
 40
0.5
  1
4.18
100
AcDbAttributeDefinition
  3

  2
J
 70
     8
280
     0
  0
ATTDEF
  5
1CB
330
1AA
100
AcDbEntity
  8
AM_6
100
AcDbText
 10
7.69
 20
-11.81
 30
0.0
 40
0.5
  1
4.180000
100
AcDbAttributeDefinition
  3

  2
J1
 70
     8
280
     0
  0
ATTDEF
  5
1CC
330
1AA
100
AcDbEntity
  8
AM_6
100
AcDbText
 10
7.69
 20
-12.31
 30
0.0
 40
0.5
  1
4.180000
100
AcDbAttributeDefinition
  3

  2
K
 70
     8
280
     0
  0
ATTDEF
  5
1CD
330
1AA
100
AcDbEntity
  8
AM_6
100
AcDbText
 10
7.69
 20
-12.81
 30
0.0
 40
0.5
  1
6.000
100
AcDbAttributeDefinition
  3

  2
K1
 70
     8
280
     0
  0
ATTDEF
  5
1CE
330
1AA
100
AcDbEntity
  8
AM_6
100
AcDbText
 10
7.69
 20
-13.31
 30
0.0
 40
0.5
  1
3
100
AcDbAttributeDefinition
  3

  2
L
 70
     8
280
     0
  0
ATTDEF
  5
1CF
330
1AA
100
AcDbEntity
  8
AM_6
100
AcDbText
 10
7.69
 20
-13.81
 30
0.0
 40
0.5
  1
3.00000
100
AcDbAttributeDefinition
  3

  2
L1
 70
     8
280
     0
  0
ATTDEF
  5
1D0
330
1AA
100
AcDbEntity
  8
AM_6
100
AcDbText
 10
7.69
 20
-14.31
 30
0.0
 40
0.5
  1
2.5
100
AcDbAttributeDefinition
  3

  2
N
 70
     8
280
     0
  0
ATTDEF
  5
1D1
330
1AA
100
AcDbEntity
  8
AM_6
100
AcDbText
 10
7.69
 20
-14.81
 30
0.0
 40
0.5
  1
2.500000
100
AcDbAttributeDefinition
  3

  2
N1
 70
     8
280
     0
  0
ATTDEF
  5
1D2
330
1AA
100
AcDbEntity
  8
AM_6
100
AcDbText
 10
7.69
 20
-15.31
 30
0.0
 40
0.5
  1
0.83
100
AcDbAttributeDefinition
  3

  2
P
 70
     8
280
     0
  0
ATTDEF
  5
1D3
330
1AA
100
AcDbEntity
  8
AM_6
100
AcDbText
 10
7.69
 20
-15.81
 30
0.0
 40
0.5
  1
0.830000
100
AcDbAttributeDefinition
  3

  2
P1
 70
     8
280
     0
  0
ATTDEF
  5
1D4
330
1AA
100
AcDbEntity
  8
AM_6
100
AcDbText
 10
7.69
 20
-16.31
 30
0.0
 40
0.5
  1
0.19
100
AcDbAttributeDefinition
  3

  2
X
 70
     8
280
     0
  0
ATTDEF
  5
1D5
330
1AA
100
AcDbEntity
  8
AM_6
100
AcDbText
 10
7.69
 20
-16.81
 30
0.0
 40
0.5
  1
0.1900
100
AcDbAttributeDefinition
  3

  2
X1
 70
     8
280
     0
  0
ATTDEF
  5
1D6
330
1AA
100
AcDbEntity
  8
AM_6
100
AcDbText
 10
7.69
 20
-17.31
 30
0.0
 40
0.5
  1
0.020
100
AcDbAttributeDefinition
  3

  2
Y
 70
     8
280
     0
  0
ATTDEF
  5
1D7
330
1AA
100
AcDbEntity
  8
AM_6
100
AcDbText
 10
7.69
 20
-17.81
 30
0.0
 40
0.5
  1
2.08
100
AcDbAttributeDefinition
  3

  2
Z
 70
     8
280
     0
  0
ATTDEF
  5
1D8
330
1AA
100
AcDbEntity
  8
AM_6
100
AcDbText
 10
7.69
 20
-18.31
 30
0.0
 40
0.5
  1
2.080000
100
AcDbAttributeDefinition
  3

  2
Z1
 70
     8
280
     0
  0
ATTDEF
  5
1D9
330
1AA
100
AcDbEntity
  8
AM_6
100
AcDbText
 10
7.69
 20
-18.81
 30
0.0
 40
0.5
  1
071290L
100
AcDbAttributeDefinition
  3

  2
PN1
 70
     8
280
     0
  0
ATTDEF
  5
1DA
330
1AA
100
AcDbEntity
  8
AM_6
100
AcDbText
 10
7.69
 20
-19.31
 30
0.0
 40
0.5
  1
071315L
100
AcDbAttributeDefinition
  3

  2
PN2
 70
     8
280
     0
  0
ATTDEF
  5
1DB
330
1AA
100
AcDbEntity
  8
AM_6
100
AcDbText
 10
7.69
 20
-19.81
 30
0.0
 40
0.5
  1
baldor
100
AcDbAttributeDefinition
  3

  2
COMPANY
 70
     8
280
     0
  0
LINE
  5
1DC
330
1AA
100
AcDbEntity
  8
AM_9
100
AcDbLine
 10
-1.363636363636364
 20
2.69
 30
0.0
 11
-1.363636363636364
 21
1.363636363636364
 31
0.0
  0
LINE
  5
1DD
330
1AA
100
AcDbEntity
  8
AM_9
100
AcDbLine
 10
1.363636363636364
 20
2.69
 30
0.0
 11
1.363636363636364
 21
1.363636363636364
 31
0.0
  0
LINE
  5
1DE
330
1AA
100
AcDbEntity
  8
AM_9
100
AcDbLine
 10
-1.363636363636364
 20
1.363636363636364
 30
0.0
 11
-2.69
 21
1.363636363636364
 31
0.0
  0
LINE
  5
1DF
330
1AA
100
AcDbEntity
  8
AM_9
100
AcDbLine
 10
1.363636363636364
 20
-1.363636363636364
 30
0.0
 11
1.363636363636364
 21
-2.69
 31
0.0
  0
LINE
  5
1E0
330
1AA
100
AcDbEntity
  8
AM_9
100
AcDbLine
 10
-1.363636363636364
 20
-1.363636363636364
 30
0.0
 11
-1.363636363636364
 21
-2.69
 31
0.0
  0
LINE
  5
1E1
330
1AA
100
AcDbEntity
  8
AM_9
100
AcDbLine
 10
-1.363636363636364
 20
-1.363636363636364
 30
0.0
 11
-2.69
 21
-1.363636363636364
 31
0.0
  0
LINE
  5
1E2
330
1AA
100
AcDbEntity
  8
AM_9
100
AcDbLine
 10
2.69
 20
-1.363636363636364
 30
0.0
 11
1.363636363636364
 21
-1.363636363636364
 31
0.0
  0
LINE
  5
1E3
330
1AA
100
AcDbEntity
  8
AM_9
100
AcDbLine
 10
2.69
 20
1.363636363636364
 30
0.0
 11
1.363636363636364
 21
1.363636363636364
 31
0.0
  0
LINE
  5
1E4
330
1AA
100
AcDbEntity
  8
AM_7
100
AcDbLine
 10
1.8025
 20
-2.065
 30
0.0
 11
2.3275
 21
-2.065
 31
0.0
  0
LINE
  5
1E5
330
1AA
100
AcDbEntity
  8
AM_7
100
AcDbLine
 10
2.065
 20
-2.3275
 30
0.0
 11
2.065
 21
-1.8025
 31
0.0
  0
LINE
  5
1E6
330
1AA
100
AcDbEntity
  8
AM_7
100
AcDbLine
 10
-2.3275
 20
-2.065
 30
0.0
 11
-1.8025
 21
-2.065
 31
0.0
  0
LINE
  5
1E7
330
1AA
100
AcDbEntity
  8
AM_7
100
AcDbLine
 10
-2.065
 20
-2.3275
 30
0.0
 11
-2.065
 21
-1.8025
 31
0.0
  0
LINE
  5
1E8
330
1AA
100
AcDbEntity
  8
AM_7
100
AcDbLine
 10
-2.3275
 20
2.065
 30
0.0
 11
-1.8025
 21
2.065
 31
0.0
  0
LINE
  5
1E9
330
1AA
100
AcDbEntity
  8
AM_7
100
AcDbLine
 10
-2.065
 20
1.8025
 30
0.0
 11
-2.065
 21
2.3275
 31
0.0
  0
LINE
  5
1EA
330
1AA
100
AcDbEntity
  8
AM_7
100
AcDbLine
 10
1.8025
 20
2.065
 30
0.0
 11
2.3275
 21
2.065
 31
0.0
  0
LINE
  5
1EB
330
1AA
100
AcDbEntity
  8
AM_7
100
AcDbLine
 10
2.065
 20
1.8025
 30
0.0
 11
2.065
 21
2.3275
 31
0.0
  0
LINE
  5
1EC
330
1AA
100
AcDbEntity
  8
AM_7
100
AcDbLine
 10
-2.194500000000001
 20
0.0
 30
0.0
 11
2.194500000000001
 21
0.0
 31
0.0
  0
LINE
  5
1ED
330
1AA
100
AcDbEntity
  8
AM_7
100
AcDbLine
 10
0.0
 20
-2.194500000000001
 30
0.0
 11
0.0
 21
2.532
 31
0.0
  0
LINE
  5
1EE
330
1AA
100
AcDbEntity
  8
AM_4
100
AcDbLine
 10
-2.064999999999999
 20
-2.69
 30
0.0
 11
2.065
 21
-2.69
 31
0.0
  0
ARC
  5
1EF
330
1AA
100
AcDbEntity
  8
AM_4
100
AcDbCircle
 10
2.064999999999995
 20
-2.065000000000023
 30
0.0
 40
0.6253937007999764
100
AcDbArc
 50
244.9999999999993
 51
267.9668622061955
  0
LINE
  5
1F0
330
1AA
100
AcDbEntity
  8
AM_4
100
AcDbLine
 10
0.7997535856006889
 20
-1.930930915988151
 30
0.0
 11
1.800697201264319
 21
-2.631799180998708
 31
0.0
  0
CIRCLE
  5
1F1
330
1AA
100
AcDbEntity
  8
AM_4
100
AcDbCircle
 10
2.065
 20
-2.065
 30
0.0
 40
0.25
  0
LINE
  5
1F2
330
1AA
100
AcDbEntity
  8
AM_4
100
AcDbLine
 10
2.631799180998712
 20
-1.800697201264327
 30
0.0
 11
1.930930915988151
 21
-0.7997535856006904
 31
0.0
  0
ARC
  5
1F3
330
1AA
100
AcDbEntity
  8
AM_4
100
AcDbCircle
 10
2.065
 20
-2.065
 30
0.0
 40
0.625
100
AcDbArc
 50
270.0
 51
0.0
  0
ARC
  5
1F4
330
1AA
100
AcDbEntity
  8
AM_4
100
AcDbCircle
 10
2.065000000000003
 20
-2.064999999999999
 30
0.0
 40
0.6253937007999972
100
AcDbArc
 50
2.033137793804621
 51
24.99999999999941
  0
ARC
  5
1F5
330
1AA
100
AcDbEntity
  8
AM_4
100
AcDbCircle
 10
-2.064999999999994
 20
-2.065000000000002
 30
0.0
 40
0.6253937008000062
100
AcDbArc
 50
154.9999999999999
 51
177.9668622061938
  0
LINE
  5
1F6
330
1AA
100
AcDbEntity
  8
AM_4
100
AcDbLine
 10
-2.69
 20
2.064999999999999
 30
0.0
 11
-2.69
 21
-2.064999999999999
 31
0.0
  0
ARC
  5
1F7
330
1AA
100
AcDbEntity
  8
AM_4
100
AcDbCircle
 10
-2.064999999999999
 20
-2.065000000000011
 30
0.0
 40
0.625393700799989
100
AcDbArc
 50
272.0331377938052
 51
295.0000000000001
  0
LINE
  5
1F8
330
1AA
100
AcDbEntity
  8
AM_4
100
AcDbLine
 10
-1.800697201264325
 20
-2.63179918099871
 30
0.0
 11
-0.7997535856006901
 21
-1.930930915988151
 31
0.0
  0
CIRCLE
  5
1F9
330
1AA
100
AcDbEntity
  8
AM_4
100
AcDbCircle
 10
-2.065
 20
-2.065
 30
0.0
 40
0.25
  0
LINE
  5
1FA
330
1AA
100
AcDbEntity
  8
AM_4
100
AcDbLine
 10
-1.930930915988151
 20
-0.7997535856006887
 30
0.0
 11
-2.631799180998708
 21
-1.80069720126432
 31
0.0
  0
ARC
  5
1FB
330
1AA
100
AcDbEntity
  8
AM_4
100
AcDbCircle
 10
-2.065
 20
-2.065
 30
0.0
 40
0.625
100
AcDbArc
 50
180.0
 51
270.0
  0
ARC
  5
1FC
330
1AA
100
AcDbEntity
  8
AM_4
100
AcDbCircle
 10
-2.064999999999999
 20
2.065000000000006
 30
0.0
 40
0.6253937007999937
100
AcDbArc
 50
64.99999999999984
 51
87.96686220619519
  0
ARC
  5
1FD
330
1AA
100
AcDbEntity
  8
AM_4
100
AcDbCircle
 10
-2.06499999999999
 20
2.065000000000002
 30
0.0
 40
0.6253937008000102
100
AcDbArc
 50
182.0331377938049
 51
204.9999999999994
  0
LINE
  5
1FE
330
1AA
100
AcDbEntity
  8
AM_4
100
AcDbLine
 10
-2.631799180998711
 20
1.800697201264325
 30
0.0
 11
-1.930930915988151
 21
0.7997535856006901
 31
0.0
  0
LINE
  5
1FF
330
1AA
100
AcDbEntity
  8
AM_4
100
AcDbLine
 10
2.064999999999999
 20
2.69
 30
0.0
 11
-2.065
 21
2.69
 31
0.0
  0
CIRCLE
  5
200
330
1AA
100
AcDbEntity
  8
AM_4
100
AcDbCircle
 10
-2.065
 20
2.065
 30
0.0
 40
0.25
  0
LINE
  5
201
330
1AA
100
AcDbEntity
  8
AM_4
100
AcDbLine
 10
-0.7997535856006891
 20
1.930930915988151
 30
0.0
 11
-1.800697201264321
 21
2.631799180998708
 31
0.0
  0
ARC
  5
202
330
1AA
100
AcDbEntity
  8
AM_4
100
AcDbCircle
 10
-2.065
 20
2.065
 30
0.0
 40
0.6250000000000004
100
AcDbArc
 50
90.0
 51
179.9999991462263
  0
ARC
  5
203
330
1AA
100
AcDbEntity
  8
AM_4
100
AcDbCircle
 10
2.064999999999993
 20
2.065
 30
0.0
 40
0.6253937008000069
100
AcDbArc
 50
335.0000000000003
 51
357.966862206196
  0
ARC
  5
204
330
1AA
100
AcDbEntity
  8
AM_4
100
AcDbCircle
 10
2.065
 20
2.065000000000001
 30
0.0
 40
0.6253937007999983
100
AcDbArc
 50
92.0331377938043
 51
114.9999999999999
  0
LINE
  5
205
330
1AA
100
AcDbEntity
  8
AM_4
100
AcDbLine
 10
2.69
 20
-2.064999999999999
 30
0.0
 11
2.69
 21
2.065
 31
0.0
  0
CIRCLE
  5
206
330
1AA
100
AcDbEntity
  8
AM_4
100
AcDbCircle
 10
2.065
 20
2.065
 30
0.0
 40
0.25
  0
LINE
  5
207
330
1AA
100
AcDbEntity
  8
AM_4
100
AcDbLine
 10
1.930930915988151
 20
0.7997535856006892
 30
0.0
 11
2.631799180998709
 21
1.800697201264321
 31
0.0
  0
ARC
  5
208
330
1AA
100
AcDbEntity
  8
AM_4
100
AcDbCircle
 10
2.065
 20
2.065
 30
0.0
 40
0.625
100
AcDbArc
 50
0.0
 51
90.0
  0
LINE
  5
209
330
1AA
100
AcDbEntity
  8
AM_4
100
AcDbLine
 10
1.800697201264323
 20
2.631799180998709
 30
0.0
 11
0.7997535856006899
 21
1.930930915988151
 31
0.0
  0
LINE
  5
20A
330
1AA
100
AcDbEntity
  8
AM_4
100
AcDbLine
 10
0.3999999999999999
 20
2.125
 30
0.0
 11
-0.3999999999999999
 21
2.125
 31
0.0
  0
ARC
  5
20B
330
1AA
100
AcDbEntity
  8
AM_4
100
AcDbCircle
 10
-0.4000000000000001
 20
2.025
 30
0.0
 40
0.1000000000000001
100
AcDbArc
 50
90.0
 51
177.1762339340565
  0
ARC
  5
20C
330
1AA
100
AcDbEntity
  8
AM_4
100
AcDbCircle
 10
0.4000000000000004
 20
2.025
 30
0.0
 40
0.0999999999999995
100
AcDbArc
 50
2.824007662001891
 51
90.0
  0
CIRCLE
  5
20D
330
1AA
100
AcDbEntity
  8
AM_4
100
AcDbCircle
 10
0.0
 20
0.0
 30
0.0
 40
1.5748
  0
CIRCLE
  5
20E
330
1AA
100
AcDbEntity
  8
AM_4
100
AcDbCircle
 10
0.0
 20
0.0
 30
0.0
 40
2.09
  0
CIRCLE
  5
20F
330
1AA
100
AcDbEntity
  8
AM_4
100
AcDbCircle
 10
0.0
 20
0.0
 30
0.0
 40
2.023
  0
ENDBLK
  5
1AD
330
1AA
100
AcDbEntity
  8
0
100
AcDbBlockEnd
  0
ENDSEC
  0
SECTION
  2
ENTITIES
  0
INSERT
  5
6F
330
1F
100
AcDbEntity
  8
0
100
AcDbBlockReference
  2
1_071340_0
 10
0.0
 20
0.0
 30
0.0
  0
POINT
  5
211
330
1F
100
AcDbEntity
  8
ConnectionPoints
100
AcDbPoint
 10
0.0
 20
1.096354166666667
 30
3.478333333333333
  0
POINT
  5
212
330
1F
100
AcDbEntity
  8
ConnectionPoints
100
AcDbPoint
 10
0.0
 20
0.0
 30
3.408333333333333
  0
POINT
  5
213
330
1F
100
AcDbEntity
  8
ConnectionPoints
100
AcDbPoint
 10
0.0
 20
0.0
 30
3.64
  0
POINT
  5
214
330
1F
100
AcDbEntity
  8
ConnectionPoints
100
AcDbPoint
 10
0.0
 20
0.0
 30
3.607333333333334
  0
POINT
  5
215
330
1F
100
AcDbEntity
  8
ConnectionPoints
100
AcDbPoint
 10
0.0
 20
1.096354166666667
 30
3.408333333333333
  0
POINT
  5
216
330
1F
100
AcDbEntity
  8
ConnectionPoints
100
AcDbPoint
 10
0.0
 20
-1.096354166666667
 30
3.408333333333333
  0
POINT
  5
217
330
1F
100
AcDbEntity
  8
ConnectionPoints
100
AcDbPoint
 10
0.0
 20
0.0
 30
3.408333333333333
  0
POINT
  5
218
330
1F
100
AcDbEntity
  8
ConnectionPoints
100
AcDbPoint
 10
0.0
 20
2.125
 30
2.08
  0
POINT
  5
219
330
1F
100
AcDbEntity
  8
ConnectionPoints
100
AcDbPoint
 10
0.0
 20
2.125
 30
2.08
  0
POINT
  5
21A
330
1F
100
AcDbEntity
  8
ConnectionPoints
100
AcDbPoint
 10
0.0
 20
0.0
 30
3.45
  0
POINT
  5
21B
330
1F
100
AcDbEntity
  8
ConnectionPoints
100
AcDbPoint
 10
0.0
 20
0.0
 30
3.64
  0
ENDSEC
  0
SECTION
  2
OBJECTS
  0
DICTIONARY
  5
C
330
0
100
AcDbDictionary
281
     1
  3
ACAD_DETAILVIEWSTYLE
350
223
  3
ACAD_GROUP
350
D
  3
ACAD_LAYOUT
350
1A
  3
ACAD_MATERIAL
350
43
  3
ACAD_MLEADERSTYLE
350
6B
  3
ACAD_MLINESTYLE
350
17
  3
ACAD_PLOTSETTINGS
350
19
  3
ACAD_PLOTSTYLENAME
350
E
  3
ACAD_SCALELIST
350
47
  3
ACAD_SECTIONVIEWSTYLE
350
224
  3
ACAD_TABLESTYLE
350
69
  3
ACAD_VISUALSTYLE
350
2A
  3
ACDB_RECOMPOSE_DATA
350
220
  3
AcDbVariableDictionary
350
21C
  0
SUN
  5
6D
330
29
100
AcDbSun
 90
        1
290
     0
 63
     7
421
 16777215
 40
1.0
291
     1
 91
  2455826
 92
 54000000
292
     0
 70
     2
 71
   256
280
     1
  0
DICTIONARY
  5
223
102
{ACAD_REACTORS
330
C
102
}
330
C
100
AcDbDictionary
281
     1
  0
DICTIONARY
  5
D
102
{ACAD_REACTORS
330
C
102
}
330
C
100
AcDbDictionary
281
     1
  0
DICTIONARY
  5
1A
102
{ACAD_REACTORS
330
C
102
}
330
C
100
AcDbDictionary
281
     1
  3
Layout1
350
1E
  3
Layout2
350
26
  3
Model
350
22
  0
DICTIONARY
  5
43
102
{ACAD_REACTORS
330
C
102
}
330
C
100
AcDbDictionary
281
     1
  3
ByBlock
350
45
  3
ByLayer
350
44
  3
Global
350
46
  0
DICTIONARY
  5
6B
102
{ACAD_REACTORS
330
C
102
}
330
C
100
AcDbDictionary
281
     1
  3
Standard
350
6C
  0
DICTIONARY
  5
17
102
{ACAD_REACTORS
330
C
102
}
330
C
100
AcDbDictionary
281
     1
  3
Standard
350
18
  0
DICTIONARY
  5
19
102
{ACAD_REACTORS
330
C
102
}
330
C
100
AcDbDictionary
281
     1
  0
ACDBDICTIONARYWDFLT
  5
E
102
{ACAD_REACTORS
330
C
102
}
330
C
100
AcDbDictionary
281
     1
  3
Normal
350
F
100
AcDbDictionaryWithDefault
340
F
  0
DICTIONARY
  5
47
102
{ACAD_REACTORS
330
C
102
}
330
C
100
AcDbDictionary
281
     1
  3
A0
350
48
  3
A1
350
49
  3
A2
350
4A
  3
A3
350
4B
  3
A4
350
4C
  3
A5
350
4D
  3
A6
350
4E
  3
A7
350
4F
  3
A8
350
50
  3
A9
350
51
  3
B0
350
52
  3
B1
350
53
  3
B2
350
54
  3
B3
350
55
  3
B4
350
56
  3
B5
350
57
  3
B6
350
58
  3
B7
350
59
  3
B8
350
5A
  3
B9
350
5B
  3
C0
350
5C
  3
C1
350
5D
  3
C2
350
5E
  3
C3
350
5F
  3
C4
350
60
  3
C5
350
61
  3
C6
350
62
  3
C7
350
63
  3
C8
350
64
  3
C9
350
65
  3
D0
350
66
  3
D1
350
67
  3
D2
350
68
  0
DICTIONARY
  5
224
102
{ACAD_REACTORS
330
C
102
}
330
C
100
AcDbDictionary
281
     1
  0
DICTIONARY
  5
69
102
{ACAD_REACTORS
330
C
102
}
330
C
100
AcDbDictionary
281
     1
  3
Standard
350
6A
  0
DICTIONARY
  5
2A
102
{ACAD_REACTORS
330
C
102
}
330
C
100
AcDbDictionary
281
     1
  3
2dWireframe
350
2F
  3
Basic
350
32
  3
Brighten
350
36
  3
ColorChange
350
3A
  3
Conceptual
350
34
  3
Dim
350
35
  3
EdgeColorOff
350
3D
  3
Facepattern
350
39
  3
Flat
350
2B
  3
FlatWithEdges
350
2C
  3
Gouraud
350
2D
  3
GouraudWithEdges
350
2E
  3
Hidden
350
31
  3
JitterOff
350
3B
  3
Linepattern
350
38
  3
OverhangOff
350
3C
  3
Realistic
350
33
  3
Shaded
350
42
  3
Shaded with edges
350
41
  3
Shades of Gray
350
3E
  3
Sketchy
350
3F
  3
Thicken
350
37
  3
Wireframe
350
30
  3
X-Ray
350
40
  0
XRECORD
  5
220
102
{ACAD_REACTORS
330
C
102
}
330
C
100
AcDbXrecord
280
     1
 90
        1
330
6A
  0
DICTIONARY
  5
21C
102
{ACAD_REACTORS
330
C
102
}
330
C
100
AcDbDictionary
281
     1
  3
CANNOSCALE
350
21D
  3
CMLEADERSTYLE
350
222
  3
CTABLESTYLE
350
221
  0
LAYOUT
  5
1E
102
{ACAD_REACTORS
330
1A
102
}
330
1A
100
AcDbPlotSettings
  1

  2
none_device
  4

  6

 40
0.0
 41
0.0
 42
0.0
 43
0.0
 44
0.0
 45
0.0
 46
0.0
 47
0.0
 48
0.0
 49
0.0
140
0.0
141
0.0
142
1.0
143
1.0
 70
   688
 72
     0
 73
     0
 74
     5
  7

 75
    16
 76
     0
 77
     2
 78
   300
147
1.0
148
0.0
149
0.0
100
AcDbLayout
  1
Layout1
 70
     1
 71
     1
 10
0.0
 20
0.0
 11
12.0
 21
9.0
 12
0.0
 22
0.0
 32
0.0
 14
1.000000000000000E+20
 24
1.000000000000000E+20
 34
1.000000000000000E+20
 15
-1.000000000000000E+20
 25
-1.000000000000000E+20
 35
-1.000000000000000E+20
146
0.0
 13
0.0
 23
0.0
 33
0.0
 16
1.0
 26
0.0
 36
0.0
 17
0.0
 27
1.0
 37
0.0
 76
     0
330
1B
  0
LAYOUT
  5
26
102
{ACAD_REACTORS
330
1A
102
}
330
1A
100
AcDbPlotSettings
  1

  2
none_device
  4

  6

 40
0.0
 41
0.0
 42
0.0
 43
0.0
 44
0.0
 45
0.0
 46
0.0
 47
0.0
 48
0.0
 49
0.0
140
0.0
141
0.0
142
1.0
143
1.0
 70
   688
 72
     0
 73
     0
 74
     5
  7

 75
    16
 76
     0
 77
     2
 78
   300
147
1.0
148
0.0
149
0.0
100
AcDbLayout
  1
Layout2
 70
     1
 71
     2
 10
0.0
 20
0.0
 11
0.0
 21
0.0
 12
0.0
 22
0.0
 32
0.0
 14
0.0
 24
0.0
 34
0.0
 15
0.0
 25
0.0
 35
0.0
146
0.0
 13
0.0
 23
0.0
 33
0.0
 16
1.0
 26
0.0
 36
0.0
 17
0.0
 27
1.0
 37
0.0
 76
     0
330
23
  0
LAYOUT
  5
22
102
{ACAD_REACTORS
330
1A
102
}
330
1A
100
AcDbPlotSettings
  1

  2
none_device
  4
Letter_(8.50_x_11.00_Inches)
  6

 40
6.35
 41
6.35
 42
6.35000508
 43
6.35000508
 44
215.9
 45
279.4
 46
0.0
 47
0.0
 48
0.0
 49
0.0
140
0.0
141
0.0
142
1.0
143
1.0
 70
  1712
 72
     0
 73
     0
 74
     0
  7

 75
     0
 76
     0
 77
     2
 78
   300
147
1.0
148
0.0
149
0.0
100
AcDbLayout
  1
Model
 70
     1
 71
     0
 10
0.0
 20
0.0
 11
12.0
 21
9.0
 12
0.0
 22
0.0
 32
0.0
 14
1.000000000000000E+20
 24
1.000000000000000E+20
 34
1.000000000000000E+20
 15
-1.000000000000000E+20
 25
-1.000000000000000E+20
 35
-1.000000000000000E+20
146
0.0
 13
0.0
 23
0.0
 33
0.0
 16
1.0
 26
0.0
 36
0.0
 17
0.0
 27
1.0
 37
0.0
 76
     0
330
1F
331
29
  0
MATERIAL
  5
45
102
{ACAD_REACTORS
330
43
102
}
330
43
100
AcDbMaterial
  1
ByBlock
 72
     1
 94
      127
  0
MATERIAL
  5
44
102
{ACAD_REACTORS
330
43
102
}
330
43
100
AcDbMaterial
  1
ByLayer
 72
     1
 94
      127
  0
MATERIAL
  5
46
102
{ACAD_REACTORS
330
43
102
}
330
43
100
AcDbMaterial
  1
Global
 72
     1
 94
      127
  0
MLEADERSTYLE
  5
6C
102
{ACAD_REACTORS
330
6B
102
}
330
6B
100
AcDbMLeaderStyle
179
     2
170
     2
171
     1
172
     0
 90
        2
 40
0.0
 41
0.0
173
     1
 91
-1056964608
340
14
 92
       -2
290
     1
 42
0.09
291
     1
 43
0.36
  3
Standard
341
0
 44
0.18
300

342
11
174
     1
178
     6
175
     1
176
     0
 93
-1056964608
 45
0.18
292
     0
297
     0
 46
0.18
343
0
 94
-1056964608
 47
1.0
 49
1.0
140
1.0
293
     1
141
0.0
294
     1
177
     0
142
1.0
295
     0
296
     0
143
0.125
271
     0
272
     9
273
     9
298
     0
  0
MLINESTYLE
  5
18
102
{ACAD_REACTORS
330
17
102
}
330
17
100
AcDbMlineStyle
  2
Standard
 70
     0
  3

 62
   256
 51
90.0
 52
90.0
 71
     2
 49
0.5
 62
   256
  6
BYLAYER
 49
-0.5
 62
   256
  6
BYLAYER
  0
ACDBPLACEHOLDER
  5
F
102
{ACAD_REACTORS
330
E
102
}
330
E
  0
SCALE
  5
48
102
{ACAD_REACTORS
330
47
102
}
330
47
100
AcDbScale
 70
     0
300
1:1
140
1.0
141
1.0
290
     1
  0
SCALE
  5
49
102
{ACAD_REACTORS
330
47
102
}
330
47
100
AcDbScale
 70
     0
300
1:2
140
1.0
141
2.0
290
     0
  0
SCALE
  5
4A
102
{ACAD_REACTORS
330
47
102
}
330
47
100
AcDbScale
 70
     0
300
1:4
140
1.0
141
4.0
290
     0
  0
SCALE
  5
4B
102
{ACAD_REACTORS
330
47
102
}
330
47
100
AcDbScale
 70
     0
300
1:5
140
1.0
141
5.0
290
     0
  0
SCALE
  5
4C
102
{ACAD_REACTORS
330
47
102
}
330
47
100
AcDbScale
 70
     0
300
1:8
140
1.0
141
8.0
290
     0
  0
SCALE
  5
4D
102
{ACAD_REACTORS
330
47
102
}
330
47
100
AcDbScale
 70
     0
300
1:10
140
1.0
141
10.0
290
     0
  0
SCALE
  5
4E
102
{ACAD_REACTORS
330
47
102
}
330
47
100
AcDbScale
 70
     0
300
1:16
140
1.0
141
16.0
290
     0
  0
SCALE
  5
4F
102
{ACAD_REACTORS
330
47
102
}
330
47
100
AcDbScale
 70
     0
300
1:20
140
1.0
141
20.0
290
     0
  0
SCALE
  5
50
102
{ACAD_REACTORS
330
47
102
}
330
47
100
AcDbScale
 70
     0
300
1:30
140
1.0
141
30.0
290
     0
  0
SCALE
  5
51
102
{ACAD_REACTORS
330
47
102
}
330
47
100
AcDbScale
 70
     0
300
1:40
140
1.0
141
40.0
290
     0
  0
SCALE
  5
52
102
{ACAD_REACTORS
330
47
102
}
330
47
100
AcDbScale
 70
     0
300
1:50
140
1.0
141
50.0
290
     0
  0
SCALE
  5
53
102
{ACAD_REACTORS
330
47
102
}
330
47
100
AcDbScale
 70
     0
300
1:100
140
1.0
141
100.0
290
     0
  0
SCALE
  5
54
102
{ACAD_REACTORS
330
47
102
}
330
47
100
AcDbScale
 70
     0
300
2:1
140
2.0
141
1.0
290
     0
  0
SCALE
  5
55
102
{ACAD_REACTORS
330
47
102
}
330
47
100
AcDbScale
 70
     0
300
4:1
140
4.0
141
1.0
290
     0
  0
SCALE
  5
56
102
{ACAD_REACTORS
330
47
102
}
330
47
100
AcDbScale
 70
     0
300
8:1
140
8.0
141
1.0
290
     0
  0
SCALE
  5
57
102
{ACAD_REACTORS
330
47
102
}
330
47
100
AcDbScale
 70
     0
300
10:1
140
10.0
141
1.0
290
     0
  0
SCALE
  5
58
102
{ACAD_REACTORS
330
47
102
}
330
47
100
AcDbScale
 70
     0
300
100:1
140
100.0
141
1.0
290
     0
  0
SCALE
  5
59
102
{ACAD_REACTORS
330
47
102
}
330
47
100
AcDbScale
 70
     0
300
1/128" = 1'-0"
140
0.0078125
141
12.0
290
     0
  0
SCALE
  5
5A
102
{ACAD_REACTORS
330
47
102
}
330
47
100
AcDbScale
 70
     0
300
1/64" = 1'-0"
140
0.015625
141
12.0
290
     0
  0
SCALE
  5
5B
102
{ACAD_REACTORS
330
47
102
}
330
47
100
AcDbScale
 70
     0
300
1/32" = 1'-0"
140
0.03125
141
12.0
290
     0
  0
SCALE
  5
5C
102
{ACAD_REACTORS
330
47
102
}
330
47
100
AcDbScale
 70
     0
300
1/16" = 1'-0"
140
0.0625
141
12.0
290
     0
  0
SCALE
  5
5D
102
{ACAD_REACTORS
330
47
102
}
330
47
100
AcDbScale
 70
     0
300
3/32" = 1'-0"
140
0.09375
141
12.0
290
     0
  0
SCALE
  5
5E
102
{ACAD_REACTORS
330
47
102
}
330
47
100
AcDbScale
 70
     0
300
1/8" = 1'-0"
140
0.125
141
12.0
290
     0
  0
SCALE
  5
5F
102
{ACAD_REACTORS
330
47
102
}
330
47
100
AcDbScale
 70
     0
300
3/16" = 1'-0"
140
0.1875
141
12.0
290
     0
  0
SCALE
  5
60
102
{ACAD_REACTORS
330
47
102
}
330
47
100
AcDbScale
 70
     0
300
1/4" = 1'-0"
140
0.25
141
12.0
290
     0
  0
SCALE
  5
61
102
{ACAD_REACTORS
330
47
102
}
330
47
100
AcDbScale
 70
     0
300
3/8" = 1'-0"
140
0.375
141
12.0
290
     0
  0
SCALE
  5
62
102
{ACAD_REACTORS
330
47
102
}
330
47
100
AcDbScale
 70
     0
300
1/2" = 1'-0"
140
0.5
141
12.0
290
     0
  0
SCALE
  5
63
102
{ACAD_REACTORS
330
47
102
}
330
47
100
AcDbScale
 70
     0
300
3/4" = 1'-0"
140
0.75
141
12.0
290
     0
  0
SCALE
  5
64
102
{ACAD_REACTORS
330
47
102
}
330
47
100
AcDbScale
 70
     0
300
1" = 1'-0"
140
1.0
141
12.0
290
     0
  0
SCALE
  5
65
102
{ACAD_REACTORS
330
47
102
}
330
47
100
AcDbScale
 70
     0
300
1-1/2" = 1'-0"
140
1.5
141
12.0
290
     0
  0
SCALE
  5
66
102
{ACAD_REACTORS
330
47
102
}
330
47
100
AcDbScale
 70
     0
300
3" = 1'-0"
140
3.0
141
12.0
290
     0
  0
SCALE
  5
67
102
{ACAD_REACTORS
330
47
102
}
330
47
100
AcDbScale
 70
     0
300
6" = 1'-0"
140
6.0
141
12.0
290
     0
  0
SCALE
  5
68
102
{ACAD_REACTORS
330
47
102
}
330
47
100
AcDbScale
 70
     0
300
1'-0" = 1'-0"
140
12.0
141
12.0
290
     0
  0
TABLESTYLE
  5
6A
102
{ACAD_REACTORS
330
69
102
}
102
{ACAD_XDICTIONARY
360
21E
102
}
330
69
100
AcDbTableStyle
  3
Standard
 70
     0
 71
     0
 40
0.06
 41
0.06
280
     0
281
     0
  7
Standard
140
0.18
170
     2
 62
     0
 63
   257
283
     0
 90
        4
 91
        0
  1

274
    -2
284
     1
 64
     0
275
    -2
285
     1
 65
     0
276
    -2
286
     1
 66
     0
277
    -2
287
     1
 67
     0
278
    -2
288
     1
 68
     0
279
    -2
289
     1
 69
     0
  7
Standard
140
0.25
170
     5
 62
     0
 63
   257
283
     0
 90
        4
 91
        0
  1

274
    -2
284
     1
 64
     0
275
    -2
285
     1
 65
     0
276
    -2
286
     1
 66
     0
277
    -2
287
     1
 67
     0
278
    -2
288
     1
 68
     0
279
    -2
289
     1
 69
     0
  7
Standard
140
0.18
170
     5
 62
     0
 63
   257
283
     0
 90
        4
 91
        0
  1

274
    -2
284
     1
 64
     0
275
    -2
285
     1
 65
     0
276
    -2
286
     1
 66
     0
277
    -2
287
     1
 67
     0
278
    -2
288
     1
 68
     0
279
    -2
289
     1
 69
     0
  0
VISUALSTYLE
  5
2F
102
{ACAD_REACTORS
330
2A
102
}
330
2A
100
AcDbVisualStyle
  2
2dWireframe
 70
     4
177
     3
291
     0
 70
    58
 90
        0
176
     1
 90
        2
176
     1
 90
        0
176
     1
 90
        0
176
     1
 40
0.6
176
     1
 40
30.0
176
     1
 62
     7
420
 16777215
176
     1
 90
        1
176
     1
 90
        4
176
     1
 62
     7
176
     1
 62
   257
176
     1
 90
        1
176
     1
 90
        1
176
     1
 40
1.0
176
     1
 90
        0
176
     1
 62
   257
176
     1
 40
1.0
176
     1
 90
        1
176
     1
 90
        6
176
     1
 90
        2
176
     1
 62
     7
176
     1
 90
        5
176
     1
 90
        0
176
     1
 90
        0
176
     1
290
     0
176
     1
 90
        1
176
     1
 40
0.0
176
     1
 90
        0
176
     1
290
     1
176
     1
290
     1
176
     1
290
     0
176
     1
290
     0
176
     1
290
     0
176
     1
290
     0
176
     1
290
     0
176
     1
290
     0
176
     1
290
     0
176
     1
 90
       50
176
     1
 40
0.0
176
     1
 40
1.0
176
     1
 90
        0
176
     1
 62
    18
420
        0
176
     1
 90
       50
176
     1
 90
        3
176
     1
 62
     5
420
      255
176
     1
290
     0
176
     1
 90
       50
176
     1
 90
       50
176
     1
 90
       50
176
     1
290
     0
176
     1
 90
       50
176
     1
 62
   256
176
     0
 40
1.0
176
     0
 90
        2
176
     1
  1
strokes_ogs.tif
176
     1
290
     0
176
     1
 40
1.0
176
     1
 40
1.0
176
     1
  0
VISUALSTYLE
  5
32
102
{ACAD_REACTORS
330
2A
102
}
330
2A
100
AcDbVisualStyle
  2
Basic
 70
     7
177
     3
291
     1
 70
    58
 90
        1
176
     1
 90
        0
176
     1
 90
        1
176
     1
 90
        0
176
     1
 40
0.6
176
     1
 40
30.0
176
     1
 62
     7
420
 16777215
176
     1
 90
        0
176
     1
 90
        4
176
     1
 62
     7
176
     1
 62
   257
176
     1
 90
        1
176
     1
 90
        1
176
     1
 40
1.0
176
     1
 90
        8
176
     1
 62
     7
176
     1
 40
1.0
176
     1
 90
        1
176
     1
 90
        6
176
     1
 90
        2
176
     1
 62
     7
176
     1
 90
        5
176
     1
 90
        0
176
     1
 90
        0
176
     1
290
     0
176
     1
 90
        1
176
     1
 40
0.0
176
     1
 90
        0
176
     1
290
     0
176
     1
290
     1
176
     1
290
     1
176
     1
290
     0
176
     1
290
     0
176
     1
290
     0
176
     1
290
     0
176
     1
290
     0
176
     1
290
     0
176
     1
 90
       50
176
     1
 40
0.0
176
     1
 40
1.0
176
     1
 90
        0
176
     1
 62
    18
420
        0
176
     1
 90
       50
176
     1
 90
        3
176
     1
 62
     5
420
      255
176
     1
290
     0
176
     1
 90
       50
176
     1
 90
       50
176
     1
 90
       50
176
     1
290
     0
176
     1
 90
       50
176
     1
 62
   256
176
     0
 40
1.0
176
     0
 90
        2
176
     1
  1
strokes_ogs.tif
176
     1
290
     0
176
     1
 40
1.0
176
     1
 40
1.0
176
     1
  0
VISUALSTYLE
  5
36
102
{ACAD_REACTORS
330
2A
102
}
330
2A
100
AcDbVisualStyle
  2
Brighten
 70
    12
177
     3
291
     1
 70
    58
 90
        2
176
     1
 90
        2
176
     1
 90
        0
176
     1
 90
        0
176
     1
 40
0.6
176
     1
 40
30.0
176
     1
 62
     7
420
 16777215
176
     1
 90
        1
176
     1
 90
        4
176
     1
 62
     7
176
     1
 62
   257
176
     1
 90
        1
176
     1
 90
        1
176
     1
 40
1.0
176
     1
 90
        8
176
     1
 62
     7
176
     1
 40
1.0
176
     1
 90
        1
176
     1
 90
        6
176
     1
 90
        2
176
     1
 62
     7
176
     1
 90
        5
176
     1
 90
        0
176
     1
 90
        0
176
     1
290
     0
176
     1
 90
        1
176
     1
 40
50.0
176
     1
 90
        0
176
     1
290
     0
176
     1
290
     1
176
     1
290
     1
176
     1
290
     0
176
     1
290
     0
176
     1
290
     0
176
     1
290
     0
176
     1
290
     0
176
     1
290
     0
176
     1
 90
       50
176
     1
 40
0.0
176
     1
 40
1.0
176
     1
 90
        0
176
     1
 62
    18
420
        0
176
     1
 90
       50
176
     1
 90
        3
176
     1
 62
     5
420
      255
176
     1
290
     0
176
     1
 90
       50
176
     1
 90
       50
176
     1
 90
       50
176
     1
290
     0
176
     1
 90
       50
176
     1
 62
   256
176
     0
 40
1.0
176
     0
 90
        2
176
     1
  1
strokes_ogs.tif
176
     1
290
     0
176
     1
 40
1.0
176
     1
 40
1.0
176
     1
  0
VISUALSTYLE
  5
3A
102
{ACAD_REACTORS
330
2A
102
}
330
2A
100
AcDbVisualStyle
  2
ColorChange
 70
    16
177
     3
291
     1
 70
    58
 90
        2
176
     1
 90
        2
176
     1
 90
        3
176
     1
 90
        0
176
     1
 40
0.6
176
     1
 40
30.0
176
     1
 62
     8
420
  8421504
176
     1
 90
        1
176
     1
 90
        4
176
     1
 62
     7
176
     1
 62
   257
176
     1
 90
        1
176
     1
 90
        1
176
     1
 40
1.0
176
     1
 90
        8
176
     1
 62
     8
420
  8421504
176
     1
 40
1.0
176
     1
 90
        1
176
     1
 90
        6
176
     1
 90
        2
176
     1
 62
     7
176
     1
 90
        5
176
     1
 90
        0
176
     1
 90
        0
176
     1
290
     0
176
     1
 90
        1
176
     1
 40
0.0
176
     1
 90
        0
176
     1
290
     0
176
     1
290
     1
176
     1
290
     1
176
     1
290
     0
176
     1
290
     0
176
     1
290
     0
176
     1
290
     0
176
     1
290
     0
176
     1
290
     0
176
     1
 90
       50
176
     1
 40
0.0
176
     1
 40
1.0
176
     1
 90
        0
176
     1
 62
    18
420
        0
176
     1
 90
       50
176
     1
 90
        3
176
     1
 62
     5
420
      255
176
     1
290
     0
176
     1
 90
       50
176
     1
 90
       50
176
     1
 90
       50
176
     1
290
     0
176
     1
 90
       50
176
     1
 62
   256
176
     0
 40
1.0
176
     0
 90
        2
176
     1
  1
strokes_ogs.tif
176
     1
290
     0
176
     1
 40
1.0
176
     1
 40
1.0
176
     1
  0
VISUALSTYLE
  5
34
102
{ACAD_REACTORS
330
2A
102
}
330
2A
100
AcDbVisualStyle
  2
Conceptual
 70
     9
177
     3
291
     0
 70
    58
 90
        3
176
     1
 90
        2
176
     1
 90
        0
176
     1
 90
        0
176
     1
 40
0.6
176
     1
 40
30.0
176
     1
 62
     7
420
 16777215
176
     1
 90
        2
176
     1
 90
        2
176
     1
 62
     7
176
     1
 62
   257
176
     1
 90
        1
176
     1
 90
        1
176
     1
 40
179.0
176
     1
 90
        8
176
     1
 62
     7
176
     1
 40
1.0
176
     1
 90
        1
176
     1
 90
        6
176
     1
 90
        2
176
     1
 62
     7
176
     1
 90
        3
176
     1
 90
        0
176
     1
 90
        0
176
     1
290
     0
176
     1
 90
        1
176
     1
 40
0.0
176
     1
 90
        0
176
     1
290
     0
176
     1
290
     1
176
     1
290
     1
176
     1
290
     0
176
     1
290
     0
176
     1
290
     0
176
     1
290
     0
176
     1
290
     0
176
     1
290
     0
176
     1
 90
       50
176
     1
 40
0.0
176
     1
 40
1.0
176
     1
 90
        0
176
     1
 62
    18
420
        0
176
     1
 90
       50
176
     1
 90
        3
176
     1
 62
     5
420
      255
176
     1
290
     0
176
     1
 90
       50
176
     1
 90
       50
176
     1
 90
       50
176
     1
290
     0
176
     1
 90
       50
176
     1
 62
   256
176
     0
 40
1.0
176
     0
 90
        2
176
     1
  1
strokes_ogs.tif
176
     1
290
     0
176
     1
 40
1.0
176
     1
 40
1.0
176
     1
  0
VISUALSTYLE
  5
35
102
{ACAD_REACTORS
330
2A
102
}
330
2A
100
AcDbVisualStyle
  2
Dim
 70
    11
177
     3
291
     1
 70
    58
 90
        2
176
     1
 90
        2
176
     1
 90
        0
176
     1
 90
        0
176
     1
 40
0.6
176
     1
 40
30.0
176
     1
 62
     7
420
 16777215
176
     1
 90
        1
176
     1
 90
        4
176
     1
 62
     7
176
     1
 62
   257
176
     1
 90
        1
176
     1
 90
        1
176
     1
 40
1.0
176
     1
 90
        8
176
     1
 62
     7
176
     1
 40
1.0
176
     1
 90
        1
176
     1
 90
        6
176
     1
 90
        2
176
     1
 62
     7
176
     1
 90
        5
176
     1
 90
        0
176
     1
 90
        0
176
     1
290
     0
176
     1
 90
        1
176
     1
 40
-50.0
176
     1
 90
        0
176
     1
290
     0
176
     1
290
     1
176
     1
290
     1
176
     1
290
     0
176
     1
290
     0
176
     1
290
     0
176
     1
290
     0
176
     1
290
     0
176
     1
290
     0
176
     1
 90
       50
176
     1
 40
0.0
176
     1
 40
1.0
176
     1
 90
        0
176
     1
 62
    18
420
        0
176
     1
 90
       50
176
     1
 90
        3
176
     1
 62
     5
420
      255
176
     1
290
     0
176
     1
 90
       50
176
     1
 90
       50
176
     1
 90
       50
176
     1
290
     0
176
     1
 90
       50
176
     1
 62
   256
176
     0
 40
1.0
176
     0
 90
        2
176
     1
  1
strokes_ogs.tif
176
     1
290
     0
176
     1
 40
1.0
176
     1
 40
1.0
176
     1
  0
VISUALSTYLE
  5
3D
102
{ACAD_REACTORS
330
2A
102
}
330
2A
100
AcDbVisualStyle
  2
EdgeColorOff
 70
    22
177
     3
291
     1
 70
    58
 90
        2
176
     0
 90
        2
176
     0
 90
        0
176
     0
 90
        0
176
     0
 40
0.6
176
     0
 40
30.0
176
     0
 62
     7
420
 16777215
176
     0
 90
        1
176
     0
 90
        4
176
     0
 62
     7
176
     0
 62
   257
176
     0
 90
        1
176
     0
 90
        1
176
     0
 40
1.0
176
     0
 90
        8
176
     2
 62
     7
176
     0
 40
1.0
176
     0
 90
        1
176
     0
 90
        6
176
     0
 90
        2
176
     0
 62
     7
176
     0
 90
        5
176
     0
 90
        0
176
     0
 90
        0
176
     0
290
     0
176
     0
 90
        1
176
     0
 40
0.0
176
     0
 90
        0
176
     0
290
     0
176
     0
290
     1
176
     0
290
     1
176
     0
290
     0
176
     0
290
     0
176
     0
290
     0
176
     0
290
     0
176
     0
290
     0
176
     0
290
     0
176
     0
 90
       50
176
     0
 40
0.0
176
     0
 40
1.0
176
     0
 90
        0
176
     0
 62
    18
420
        0
176
     0
 90
       50
176
     0
 90
        3
176
     0
 62
     5
420
      255
176
     0
290
     0
176
     0
 90
       50
176
     0
 90
       50
176
     0
 90
       50
176
     0
290
     0
176
     0
 90
       50
176
     0
 62
   256
176
     0
 40
1.0
176
     0
 90
        2
176
     0
  1
strokes_ogs.tif
176
     0
290
     0
176
     0
 40
1.0
176
     0
 40
1.0
176
     0
  0
VISUALSTYLE
  5
39
102
{ACAD_REACTORS
330
2A
102
}
330
2A
100
AcDbVisualStyle
  2
Facepattern
 70
    15
177
     3
291
     1
 70
    58
 90
        2
176
     1
 90
        2
176
     1
 90
        0
176
     1
 90
        0
176
     1
 40
0.6
176
     1
 40
30.0
176
     1
 62
     7
420
 16777215
176
     1
 90
        1
176
     1
 90
        4
176
     1
 62
     7
176
     1
 62
   257
176
     1
 90
        1
176
     1
 90
        1
176
     1
 40
1.0
176
     1
 90
        8
176
     1
 62
     7
176
     1
 40
1.0
176
     1
 90
        1
176
     1
 90
        6
176
     1
 90
        2
176
     1
 62
     7
176
     1
 90
        5
176
     1
 90
        0
176
     1
 90
        0
176
     1
290
     0
176
     1
 90
        1
176
     1
 40
0.0
176
     1
 90
        0
176
     1
290
     0
176
     1
290
     1
176
     1
290
     1
176
     1
290
     0
176
     1
290
     0
176
     1
290
     0
176
     1
290
     0
176
     1
290
     0
176
     1
290
     0
176
     1
 90
       50
176
     1
 40
0.0
176
     1
 40
1.0
176
     1
 90
        0
176
     1
 62
    18
420
        0
176
     1
 90
       50
176
     1
 90
        3
176
     1
 62
     5
420
      255
176
     1
290
     0
176
     1
 90
       50
176
     1
 90
       50
176
     1
 90
       50
176
     1
290
     0
176
     1
 90
       50
176
     1
 62
   256
176
     0
 40
1.0
176
     0
 90
        2
176
     1
  1
strokes_ogs.tif
176
     1
290
     0
176
     1
 40
1.0
176
     1
 40
1.0
176
     1
  0
VISUALSTYLE
  5
2B
102
{ACAD_REACTORS
330
2A
102
}
330
2A
100
AcDbVisualStyle
  2
Flat
 70
     0
177
     3
291
     1
 70
    58
 90
        2
176
     1
 90
        1
176
     1
 90
        1
176
     1
 90
        2
176
     1
 40
0.6
176
     1
 40
30.0
176
     1
 62
     7
420
 16777215
176
     1
 90
        0
176
     1
 90
        0
176
     1
 62
     7
176
     1
 62
   257
176
     1
 90
        1
176
     1
 90
        1
176
     1
 40
1.0
176
     1
 90
        8
176
     1
 62
     7
176
     1
 40
1.0
176
     1
 90
        1
176
     1
 90
        6
176
     1
 90
        2
176
     1
 62
     7
176
     1
 90
        5
176
     1
 90
        0
176
     1
 90
        0
176
     1
290
     0
176
     1
 90
       13
176
     1
 40
0.0
176
     1
 90
        0
176
     1
290
     0
176
     1
290
     1
176
     1
290
     1
176
     1
290
     0
176
     1
290
     0
176
     1
290
     0
176
     1
290
     0
176
     1
290
     0
176
     1
290
     0
176
     1
 90
       50
176
     1
 40
0.0
176
     1
 40
1.0
176
     1
 90
        0
176
     1
 62
    18
420
        0
176
     1
 90
       50
176
     1
 90
        3
176
     1
 62
     5
420
      255
176
     1
290
     0
176
     1
 90
       50
176
     1
 90
       50
176
     1
 90
       50
176
     1
290
     0
176
     1
 90
       50
176
     1
 62
   256
176
     0
 40
1.0
176
     0
 90
        2
176
     1
  1
strokes_ogs.tif
176
     1
290
     0
176
     1
 40
1.0
176
     1
 40
1.0
176
     1
  0
VISUALSTYLE
  5
2C
102
{ACAD_REACTORS
330
2A
102
}
330
2A
100
AcDbVisualStyle
  2
FlatWithEdges
 70
     1
177
     3
291
     1
 70
    58
 90
        2
176
     1
 90
        1
176
     1
 90
        1
176
     1
 90
        2
176
     1
 40
0.6
176
     1
 40
30.0
176
     1
 62
     7
420
 16777215
176
     1
 90
        1
176
     1
 90
        0
176
     1
 62
     7
176
     1
 62
   257
176
     1
 90
        1
176
     1
 90
        1
176
     1
 40
1.0
176
     1
 90
        0
176
     1
 62
   257
176
     1
 40
1.0
176
     1
 90
        1
176
     1
 90
        6
176
     1
 90
        2
176
     1
 62
     7
176
     1
 90
        5
176
     1
 90
        0
176
     1
 90
        0
176
     1
290
     0
176
     1
 90
       13
176
     1
 40
0.0
176
     1
 90
        0
176
     1
290
     0
176
     1
290
     1
176
     1
290
     1
176
     1
290
     0
176
     1
290
     0
176
     1
290
     0
176
     1
290
     0
176
     1
290
     0
176
     1
290
     0
176
     1
 90
       50
176
     1
 40
0.0
176
     1
 40
1.0
176
     1
 90
        0
176
     1
 62
    18
420
        0
176
     1
 90
       50
176
     1
 90
        3
176
     1
 62
     5
420
      255
176
     1
290
     0
176
     1
 90
       50
176
     1
 90
       50
176
     1
 90
       50
176
     1
290
     0
176
     1
 90
       50
176
     1
 62
   256
176
     0
 40
1.0
176
     0
 90
        2
176
     1
  1
strokes_ogs.tif
176
     1
290
     0
176
     1
 40
1.0
176
     1
 40
1.0
176
     1
  0
VISUALSTYLE
  5
2D
102
{ACAD_REACTORS
330
2A
102
}
330
2A
100
AcDbVisualStyle
  2
Gouraud
 70
     2
177
     3
291
     1
 70
    58
 90
        2
176
     1
 90
        2
176
     1
 90
        1
176
     1
 90
        2
176
     1
 40
0.6
176
     1
 40
30.0
176
     1
 62
     7
420
 16777215
176
     1
 90
        0
176
     1
 90
        0
176
     1
 62
     7
176
     1
 62
   257
176
     1
 90
        1
176
     1
 90
        1
176
     1
 40
1.0
176
     1
 90
        0
176
     1
 62
     7
176
     1
 40
1.0
176
     1
 90
        1
176
     1
 90
        6
176
     1
 90
        2
176
     1
 62
     7
176
     1
 90
        5
176
     1
 90
        0
176
     1
 90
        0
176
     1
290
     0
176
     1
 90
       13
176
     1
 40
0.0
176
     1
 90
        0
176
     1
290
     0
176
     1
290
     1
176
     1
290
     1
176
     1
290
     0
176
     1
290
     0
176
     1
290
     0
176
     1
290
     0
176
     1
290
     0
176
     1
290
     0
176
     1
 90
       50
176
     1
 40
0.0
176
     1
 40
1.0
176
     1
 90
        0
176
     1
 62
    18
420
        0
176
     1
 90
       50
176
     1
 90
        3
176
     1
 62
     5
420
      255
176
     1
290
     0
176
     1
 90
       50
176
     1
 90
       50
176
     1
 90
       50
176
     1
290
     0
176
     1
 90
       50
176
     1
 62
   256
176
     0
 40
1.0
176
     0
 90
        2
176
     1
  1
strokes_ogs.tif
176
     1
290
     0
176
     1
 40
1.0
176
     1
 40
1.0
176
     1
  0
VISUALSTYLE
  5
2E
102
{ACAD_REACTORS
330
2A
102
}
330
2A
100
AcDbVisualStyle
  2
GouraudWithEdges
 70
     3
177
     3
291
     1
 70
    58
 90
        2
176
     1
 90
        2
176
     1
 90
        1
176
     1
 90
        2
176
     1
 40
0.6
176
     1
 40
30.0
176
     1
 62
     7
420
 16777215
176
     1
 90
        1
176
     1
 90
        0
176
     1
 62
     7
176
     1
 62
   257
176
     1
 90
        1
176
     1
 90
        1
176
     1
 40
1.0
176
     1
 90
        0
176
     1
 62
   257
176
     1
 40
1.0
176
     1
 90
        1
176
     1
 90
        6
176
     1
 90
        2
176
     1
 62
     7
176
     1
 90
        5
176
     1
 90
        0
176
     1
 90
        0
176
     1
290
     0
176
     1
 90
       13
176
     1
 40
0.0
176
     1
 90
        0
176
     1
290
     0
176
     1
290
     1
176
     1
290
     1
176
     1
290
     0
176
     1
290
     0
176
     1
290
     0
176
     1
290
     0
176
     1
290
     0
176
     1
290
     0
176
     1
 90
       50
176
     1
 40
0.0
176
     1
 40
1.0
176
     1
 90
        0
176
     1
 62
    18
420
        0
176
     1
 90
       50
176
     1
 90
        3
176
     1
 62
     5
420
      255
176
     1
290
     0
176
     1
 90
       50
176
     1
 90
       50
176
     1
 90
       50
176
     1
290
     0
176
     1
 90
       50
176
     1
 62
   256
176
     0
 40
1.0
176
     0
 90
        2
176
     1
  1
strokes_ogs.tif
176
     1
290
     0
176
     1
 40
1.0
176
     1
 40
1.0
176
     1
  0
VISUALSTYLE
  5
31
102
{ACAD_REACTORS
330
2A
102
}
330
2A
100
AcDbVisualStyle
  2
Hidden
 70
     6
177
     3
291
     0
 70
    58
 90
        1
176
     1
 90
        2
176
     1
 90
        2
176
     1
 90
        0
176
     1
 40
0.6
176
     1
 40
30.0
176
     1
 62
     7
420
 16777215
176
     1
 90
        2
176
     1
 90
        2
176
     1
 62
     7
176
     1
 62
   257
176
     1
 90
        2
176
     1
 90
        1
176
     1
 40
40.0
176
     1
 90
        0
176
     1
 62
   257
176
     1
 40
1.0
176
     1
 90
        1
176
     1
 90
        6
176
     1
 90
        2
176
     1
 62
     7
176
     1
 90
        3
176
     1
 90
        0
176
     1
 90
        0
176
     1
290
     0
176
     1
 90
        1
176
     1
 40
0.0
176
     1
 90
        0
176
     1
290
     0
176
     1
290
     1
176
     1
290
     1
176
     1
290
     0
176
     1
290
     0
176
     1
290
     0
176
     1
290
     0
176
     1
290
     0
176
     1
290
     0
176
     1
 90
       50
176
     1
 40
0.0
176
     1
 40
1.0
176
     1
 90
        0
176
     1
 62
    18
420
        0
176
     1
 90
       50
176
     1
 90
        3
176
     1
 62
     5
420
      255
176
     1
290
     0
176
     1
 90
       50
176
     1
 90
       50
176
     1
 90
       50
176
     1
290
     0
176
     1
 90
       50
176
     1
 62
   256
176
     0
 40
1.0
176
     0
 90
        2
176
     1
  1
strokes_ogs.tif
176
     1
290
     0
176
     1
 40
1.0
176
     1
 40
1.0
176
     1
  0
VISUALSTYLE
  5
3B
102
{ACAD_REACTORS
330
2A
102
}
330
2A
100
AcDbVisualStyle
  2
JitterOff
 70
    20
177
     3
291
     1
 70
    58
 90
        2
176
     0
 90
        2
176
     0
 90
        0
176
     0
 90
        0
176
     0
 40
0.6
176
     0
 40
30.0
176
     0
 62
     7
420
 16777215
176
     0
 90
        1
176
     0
 90
        4
176
     0
 62
     7
176
     0
 62
   257
176
     0
 90
        1
176
     0
 90
        1
176
     0
 40
1.0
176
     0
 90
       10
176
     2
 62
     7
176
     0
 40
1.0
176
     0
 90
        1
176
     0
 90
        6
176
     0
 90
        2
176
     0
 62
     7
176
     0
 90
        5
176
     0
 90
        0
176
     0
 90
        0
176
     0
290
     0
176
     0
 90
        1
176
     0
 40
0.0
176
     0
 90
        0
176
     0
290
     0
176
     0
290
     1
176
     0
290
     1
176
     0
290
     0
176
     0
290
     0
176
     0
290
     0
176
     0
290
     0
176
     0
290
     0
176
     0
290
     0
176
     0
 90
       50
176
     0
 40
0.0
176
     0
 40
1.0
176
     0
 90
        0
176
     0
 62
    18
420
        0
176
     0
 90
       50
176
     0
 90
        3
176
     0
 62
     5
420
      255
176
     0
290
     0
176
     0
 90
       50
176
     0
 90
       50
176
     0
 90
       50
176
     0
290
     0
176
     0
 90
       50
176
     0
 62
   256
176
     0
 40
1.0
176
     0
 90
        2
176
     0
  1
strokes_ogs.tif
176
     0
290
     0
176
     0
 40
1.0
176
     0
 40
1.0
176
     0
  0
VISUALSTYLE
  5
38
102
{ACAD_REACTORS
330
2A
102
}
330
2A
100
AcDbVisualStyle
  2
Linepattern
 70
    14
177
     3
291
     1
 70
    58
 90
        2
176
     1
 90
        2
176
     1
 90
        0
176
     1
 90
        0
176
     1
 40
0.6
176
     1
 40
30.0
176
     1
 62
     7
420
 16777215
176
     1
 90
        1
176
     1
 90
        4
176
     1
 62
     7
176
     1
 62
   257
176
     1
 90
        7
176
     1
 90
        7
176
     1
 40
1.0
176
     1
 90
        8
176
     1
 62
     7
176
     1
 40
1.0
176
     1
 90
        1
176
     1
 90
        6
176
     1
 90
        2
176
     1
 62
     7
176
     1
 90
        5
176
     1
 90
        0
176
     1
 90
        0
176
     1
290
     0
176
     1
 90
        1
176
     1
 40
0.0
176
     1
 90
        0
176
     1
290
     0
176
     1
290
     1
176
     1
290
     1
176
     1
290
     0
176
     1
290
     0
176
     1
290
     0
176
     1
290
     0
176
     1
290
     0
176
     1
290
     0
176
     1
 90
       50
176
     1
 40
0.0
176
     1
 40
1.0
176
     1
 90
        0
176
     1
 62
    18
420
        0
176
     1
 90
       50
176
     1
 90
        3
176
     1
 62
     5
420
      255
176
     1
290
     0
176
     1
 90
       50
176
     1
 90
       50
176
     1
 90
       50
176
     1
290
     0
176
     1
 90
       50
176
     1
 62
   256
176
     0
 40
1.0
176
     0
 90
        2
176
     1
  1
strokes_ogs.tif
176
     1
290
     0
176
     1
 40
1.0
176
     1
 40
1.0
176
     1
  0
VISUALSTYLE
  5
3C
102
{ACAD_REACTORS
330
2A
102
}
330
2A
100
AcDbVisualStyle
  2
OverhangOff
 70
    21
177
     3
291
     1
 70
    58
 90
        2
176
     0
 90
        2
176
     0
 90
        0
176
     0
 90
        0
176
     0
 40
0.6
176
     0
 40
30.0
176
     0
 62
     7
420
 16777215
176
     0
 90
        1
176
     0
 90
        4
176
     0
 62
     7
176
     0
 62
   257
176
     0
 90
        1
176
     0
 90
        1
176
     0
 40
1.0
176
     0
 90
        9
176
     2
 62
     7
176
     0
 40
1.0
176
     0
 90
        1
176
     0
 90
        6
176
     0
 90
        2
176
     0
 62
     7
176
     0
 90
        5
176
     0
 90
        0
176
     0
 90
        0
176
     0
290
     0
176
     0
 90
        1
176
     0
 40
0.0
176
     0
 90
        0
176
     0
290
     0
176
     0
290
     1
176
     0
290
     1
176
     0
290
     0
176
     0
290
     0
176
     0
290
     0
176
     0
290
     0
176
     0
290
     0
176
     0
290
     0
176
     0
 90
       50
176
     0
 40
0.0
176
     0
 40
1.0
176
     0
 90
        0
176
     0
 62
    18
420
        0
176
     0
 90
       50
176
     0
 90
        3
176
     0
 62
     5
420
      255
176
     0
290
     0
176
     0
 90
       50
176
     0
 90
       50
176
     0
 90
       50
176
     0
290
     0
176
     0
 90
       50
176
     0
 62
   256
176
     0
 40
1.0
176
     0
 90
        2
176
     0
  1
strokes_ogs.tif
176
     0
290
     0
176
     0
 40
1.0
176
     0
 40
1.0
176
     0
  0
VISUALSTYLE
  5
33
102
{ACAD_REACTORS
330
2A
102
}
330
2A
100
AcDbVisualStyle
  2
Realistic
 70
     8
177
     3
291
     0
 70
    58
 90
        2
176
     1
 90
        3
176
     1
 90
        0
176
     1
 90
        2
176
     1
 40
0.6
176
     1
 40
30.0
176
     1
 62
     7
420
 16777215
176
     1
 90
        0
176
     1
 90
        0
176
     1
 62
     7
176
     1
 62
   257
176
     1
 90
        1
176
     1
 90
        1
176
     1
 40
1.0
176
     1
 90
        8
176
     1
 62
   257
176
     1
 40
1.0
176
     1
 90
        1
176
     1
 90
        6
176
     1
 90
        2
176
     1
 62
     7
176
     1
 90
        3
176
     1
 90
        0
176
     1
 90
        0
176
     1
290
     0
176
     1
 90
       13
176
     1
 40
0.0
176
     1
 90
        0
176
     1
290
     0
176
     1
290
     1
176
     1
290
     1
176
     1
290
     0
176
     1
290
     0
176
     1
290
     0
176
     1
290
     0
176
     1
290
     0
176
     1
290
     0
176
     1
 90
       50
176
     1
 40
0.0
176
     1
 40
1.0
176
     1
 90
        0
176
     1
 62
    18
420
        0
176
     1
 90
       50
176
     1
 90
        3
176
     1
 62
     5
420
      255
176
     1
290
     0
176
     1
 90
       50
176
     1
 90
       50
176
     1
 90
       50
176
     1
290
     0
176
     1
 90
       50
176
     1
 62
   256
176
     0
 40
1.0
176
     0
 90
        2
176
     1
  1
strokes_ogs.tif
176
     1
290
     0
176
     1
 40
1.0
176
     1
 40
1.0
176
     1
  0
VISUALSTYLE
  5
42
102
{ACAD_REACTORS
330
2A
102
}
330
2A
100
AcDbVisualStyle
  2
Shaded
 70
    27
177
     3
291
     0
 70
    58
 90
        2
176
     1
 90
        2
176
     1
 90
        1
176
     1
 90
        2
176
     1
 40
0.6
176
     1
 40
30.0
176
     1
 62
     7
420
 16777215
176
     1
 90
        0
176
     1
 90
        4
176
     1
 62
     7
176
     1
 62
   257
176
     1
 90
        1
176
     1
 90
        1
176
     1
 40
1.0
176
     1
 90
        8
176
     1
 62
   257
176
     1
 40
1.0
176
     1
 90
        1
176
     1
 90
        6
176
     1
 90
        2
176
     1
 62
     8
420
  7895160
176
     1
 90
        3
176
     1
 90
        0
176
     1
 90
        0
176
     1
290
     0
176
     1
 90
        5
176
     1
 40
0.0
176
     1
 90
        0
176
     1
290
     0
176
     1
290
     1
176
     1
290
     1
176
     1
290
     0
176
     1
290
     0
176
     1
290
     0
176
     1
290
     0
176
     1
290
     0
176
     1
290
     0
176
     1
 90
       50
176
     1
 40
0.0
176
     1
 40
1.0
176
     1
 90
        0
176
     1
 62
    18
420
        0
176
     1
 90
       50
176
     1
 90
        3
176
     1
 62
     5
420
      255
176
     1
290
     0
176
     1
 90
       50
176
     1
 90
       50
176
     1
 90
       50
176
     1
290
     0
176
     1
 90
       50
176
     1
 62
   256
176
     0
 40
1.0
176
     0
 90
        2
176
     1
  1
strokes_ogs.tif
176
     1
290
     0
176
     1
 40
1.0
176
     1
 40
1.0
176
     1
  0
VISUALSTYLE
  5
41
102
{ACAD_REACTORS
330
2A
102
}
330
2A
100
AcDbVisualStyle
  2
Shaded with edges
 70
    26
177
     3
291
     0
 70
    58
 90
        2
176
     1
 90
        2
176
     1
 90
        1
176
     1
 90
        2
176
     1
 40
0.6
176
     1
 40
30.0
176
     1
 62
     7
420
 16777215
176
     1
 90
        1
176
     1
 90
       10
176
     1
 62
     7
176
     1
 62
   257
176
     1
 90
        2
176
     1
 90
        1
176
     1
 40
1.0
176
     1
 90
        8
176
     1
 62
   257
176
     1
 40
1.0
176
     1
 90
        1
176
     1
 90
        6
176
     1
 90
        2
176
     1
 62
     7
176
     1
 90
        3
176
     1
 90
        0
176
     1
 90
        0
176
     1
290
     0
176
     1
 90
        5
176
     1
 40
0.0
176
     1
 90
        0
176
     1
290
     0
176
     1
290
     1
176
     1
290
     1
176
     1
290
     0
176
     1
290
     0
176
     1
290
     0
176
     1
290
     0
176
     1
290
     0
176
     1
290
     0
176
     1
 90
       50
176
     1
 40
0.0
176
     1
 40
1.0
176
     1
 90
        0
176
     1
 62
    18
420
        0
176
     1
 90
       50
176
     1
 90
        3
176
     1
 62
     5
420
      255
176
     1
290
     0
176
     1
 90
       50
176
     1
 90
       50
176
     1
 90
       50
176
     1
290
     0
176
     1
 90
       50
176
     1
 62
   256
176
     0
 40
1.0
176
     0
 90
        2
176
     1
  1
strokes_ogs.tif
176
     1
290
     0
176
     1
 40
1.0
176
     1
 40
1.0
176
     1
  0
VISUALSTYLE
  5
3E
102
{ACAD_REACTORS
330
2A
102
}
330
2A
100
AcDbVisualStyle
  2
Shades of Gray
 70
    23
177
     3
291
     0
 70
    58
 90
        2
176
     1
 90
        2
176
     1
 90
        3
176
     1
 90
        0
176
     1
 40
0.6
176
     1
 40
30.0
176
     1
 62
     7
420
 16777215
176
     1
 90
        2
176
     1
 90
        2
176
     1
 62
     7
176
     1
 62
     7
176
     1
 90
        1
176
     1
 90
        1
176
     1
 40
40.0
176
     1
 90
        8
176
     1
 62
     7
176
     1
 40
1.0
176
     1
 90
        1
176
     1
 90
        6
176
     1
 90
        2
176
     1
 62
     7
176
     1
 90
        3
176
     1
 90
        0
176
     1
 90
        0
176
     1
290
     0
176
     1
 90
        1
176
     1
 40
0.0
176
     1
 90
        0
176
     1
290
     0
176
     1
290
     1
176
     1
290
     1
176
     1
290
     0
176
     1
290
     0
176
     1
290
     0
176
     1
290
     0
176
     1
290
     0
176
     1
290
     0
176
     1
 90
       50
176
     1
 40
0.0
176
     1
 40
1.0
176
     1
 90
        0
176
     1
 62
    18
420
        0
176
     1
 90
       50
176
     1
 90
        3
176
     1
 62
     5
420
      255
176
     1
290
     0
176
     1
 90
       50
176
     1
 90
       50
176
     1
 90
       50
176
     1
290
     0
176
     1
 90
       50
176
     1
 62
   256
176
     0
 40
1.0
176
     0
 90
        2
176
     1
  1
strokes_ogs.tif
176
     1
290
     0
176
     1
 40
1.0
176
     1
 40
1.0
176
     1
  0
VISUALSTYLE
  5
3F
102
{ACAD_REACTORS
330
2A
102
}
330
2A
100
AcDbVisualStyle
  2
Sketchy
 70
    24
177
     3
291
     0
 70
    58
 90
        1
176
     1
 90
        2
176
     1
 90
        2
176
     1
 90
        0
176
     1
 40
0.6
176
     1
 40
30.0
176
     1
 62
     7
420
 16777215
176
     1
 90
        2
176
     1
 90
        2
176
     1
 62
     7
176
     1
 62
     7
176
     1
 90
        1
176
     1
 90
        1
176
     1
 40
40.0
176
     1
 90
       11
176
     1
 62
     7
176
     1
 40
1.0
176
     1
 90
        1
176
     1
 90
        6
176
     1
 90
        2
176
     1
 62
     7
176
     1
 90
        6
176
     1
 90
        0
176
     1
 90
        0
176
     1
290
     0
176
     1
 90
        1
176
     1
 40
0.0
176
     1
 90
        0
176
     1
290
     0
176
     1
290
     1
176
     1
290
     1
176
     1
290
     0
176
     1
290
     0
176
     1
290
     0
176
     1
290
     0
176
     1
290
     0
176
     1
290
     0
176
     1
 90
       50
176
     1
 40
0.0
176
     1
 40
1.0
176
     1
 90
        0
176
     1
 62
    18
420
        0
176
     1
 90
       50
176
     1
 90
        3
176
     1
 62
     5
420
      255
176
     1
290
     0
176
     1
 90
       50
176
     1
 90
       50
176
     1
 90
       50
176
     1
290
     0
176
     1
 90
       50
176
     1
 62
   256
176
     0
 40
1.0
176
     0
 90
        2
176
     1
  1
strokes_ogs.tif
176
     1
290
     0
176
     1
 40
1.0
176
     1
 40
1.0
176
     1
  0
VISUALSTYLE
  5
37
102
{ACAD_REACTORS
330
2A
102
}
330
2A
100
AcDbVisualStyle
  2
Thicken
 70
    13
177
     3
291
     1
 70
    58
 90
        2
176
     1
 90
        2
176
     1
 90
        0
176
     1
 90
        0
176
     1
 40
0.6
176
     1
 40
30.0
176
     1
 62
     7
420
 16777215
176
     1
 90
        1
176
     1
 90
        4
176
     1
 62
     7
176
     1
 62
   257
176
     1
 90
        1
176
     1
 90
        1
176
     1
 40
1.0
176
     1
 90
       12
176
     1
 62
     7
176
     1
 40
1.0
176
     1
 90
        1
176
     1
 90
        6
176
     1
 90
        2
176
     1
 62
     7
176
     1
 90
        5
176
     1
 90
        0
176
     1
 90
        0
176
     1
290
     0
176
     1
 90
        1
176
     1
 40
0.0
176
     1
 90
        0
176
     1
290
     0
176
     1
290
     1
176
     1
290
     1
176
     1
290
     0
176
     1
290
     0
176
     1
290
     0
176
     1
290
     0
176
     1
290
     0
176
     1
290
     0
176
     1
 90
       50
176
     1
 40
0.0
176
     1
 40
1.0
176
     1
 90
        0
176
     1
 62
    18
420
        0
176
     1
 90
       50
176
     1
 90
        3
176
     1
 62
     5
420
      255
176
     1
290
     0
176
     1
 90
       50
176
     1
 90
       50
176
     1
 90
       50
176
     1
290
     0
176
     1
 90
       50
176
     1
 62
   256
176
     0
 40
1.0
176
     0
 90
        2
176
     1
  1
strokes_ogs.tif
176
     1
290
     0
176
     1
 40
1.0
176
     1
 40
1.0
176
     1
  0
VISUALSTYLE
  5
30
102
{ACAD_REACTORS
330
2A
102
}
330
2A
100
AcDbVisualStyle
  2
Wireframe
 70
     5
177
     3
291
     0
 70
    58
 90
        0
176
     1
 90
        2
176
     1
 90
        0
176
     1
 90
        0
176
     1
 40
0.6
176
     1
 40
30.0
176
     1
 62
     7
420
 16777215
176
     1
 90
        1
176
     1
 90
        4
176
     1
 62
     7
176
     1
 62
   257
176
     1
 90
        1
176
     1
 90
        1
176
     1
 40
1.0
176
     1
 90
        0
176
     1
 62
   257
176
     1
 40
1.0
176
     1
 90
        1
176
     1
 90
        6
176
     1
 90
        2
176
     1
 62
     7
176
     1
 90
        3
176
     1
 90
        0
176
     1
 90
        0
176
     1
290
     0
176
     1
 90
        1
176
     1
 40
0.0
176
     1
 90
        0
176
     1
290
     0
176
     1
290
     1
176
     1
290
     1
176
     1
290
     0
176
     1
290
     0
176
     1
290
     0
176
     1
290
     0
176
     1
290
     0
176
     1
290
     0
176
     1
 90
       50
176
     1
 40
0.0
176
     1
 40
1.0
176
     1
 90
        0
176
     1
 62
    18
420
        0
176
     1
 90
       50
176
     1
 90
        3
176
     1
 62
     5
420
      255
176
     1
290
     0
176
     1
 90
       50
176
     1
 90
       50
176
     1
 90
       50
176
     1
290
     0
176
     1
 90
       50
176
     1
 62
   256
176
     0
 40
1.0
176
     0
 90
        2
176
     1
  1
strokes_ogs.tif
176
     1
290
     0
176
     1
 40
1.0
176
     1
 40
1.0
176
     1
  0
VISUALSTYLE
  5
40
102
{ACAD_REACTORS
330
2A
102
}
330
2A
100
AcDbVisualStyle
  2
X-Ray
 70
    25
177
     3
291
     0
 70
    58
 90
        2
176
     1
 90
        2
176
     1
 90
        1
176
     1
 90
        1
176
     1
 40
0.5
176
     1
 40
30.0
176
     1
 62
     7
420
 16777215
176
     1
 90
        1
176
     1
 90
        0
176
     1
 62
     7
176
     1
 62
   257
176
     1
 90
        1
176
     1
 90
        1
176
     1
 40
1.0
176
     1
 90
        8
176
     1
 62
     7
176
     1
 40
1.0
176
     1
 90
        1
176
     1
 90
        6
176
     1
 90
        2
176
     1
 62
     7
176
     1
 90
        3
176
     1
 90
        0
176
     1
 90
        0
176
     1
290
     0
176
     1
 90
       13
176
     1
 40
0.0
176
     1
 90
        0
176
     1
290
     0
176
     1
290
     1
176
     1
290
     1
176
     1
290
     0
176
     1
290
     0
176
     1
290
     0
176
     1
290
     0
176
     1
290
     0
176
     1
290
     0
176
     1
 90
       50
176
     1
 40
0.0
176
     1
 40
1.0
176
     1
 90
        0
176
     1
 62
    18
420
        0
176
     1
 90
       50
176
     1
 90
        3
176
     1
 62
     5
420
      255
176
     1
290
     0
176
     1
 90
       50
176
     1
 90
       50
176
     1
 90
       50
176
     1
290
     0
176
     1
 90
       50
176
     1
 62
   256
176
     0
 40
1.0
176
     0
 90
        2
176
     1
  1
strokes_ogs.tif
176
     1
290
     0
176
     1
 40
1.0
176
     1
 40
1.0
176
     1
  0
DICTIONARYVAR
  5
21D
102
{ACAD_REACTORS
330
21C
102
}
330
21C
100
DictionaryVariables
280
     0
  1
1:1
  0
DICTIONARYVAR
  5
222
102
{ACAD_REACTORS
330
21C
102
}
330
21C
100
DictionaryVariables
280
     0
  1
Standard
  0
DICTIONARYVAR
  5
221
102
{ACAD_REACTORS
330
21C
102
}
330
21C
100
DictionaryVariables
280
     0
  1
Standard
  0
DICTIONARY
  5
21E
330
6A
100
AcDbDictionary
280
     1
281
     1
  3
ACAD_ROUNDTRIP_2008_TABLESTYLE_CELLSTYLEMAP
360
21F
  0
CELLSTYLEMAP
  5
21F
102
{ACAD_REACTORS
330
21E
102
}
330
21E
100
AcDbCellStyleMap
 90
        3
300
CELLSTYLE
  1
TABLEFORMAT_BEGIN
 90
        5
170
     1
 91
        0
 92
    32768
 62
   257
 93
        1
300
CONTENTFORMAT
  1
CONTENTFORMAT_BEGIN
 90
        0
 91
        0
 92
        4
 93
        0
300

 40
0.0
140
1.0
 94
        5
 62
     0
340
11
144
0.25
309
CONTENTFORMAT_END
171
     1
301
MARGIN
  1
CELLMARGIN_BEGIN
 40
0.06
 40
0.06
 40
0.06
 40
0.06
 40
0.06
 40
0.06
309
CELLMARGIN_END
 94
        6
 95
        1
302
GRIDFORMAT
  1
GRIDFORMAT_BEGIN
 90
        0
 91
        1
 62
     0
 92
       -2
340
14
 93
        0
 40
0.045
309
GRIDFORMAT_END
 95
        2
302
GRIDFORMAT
  1
GRIDFORMAT_BEGIN
 90
        0
 91
        1
 62
     0
 92
       -2
340
14
 93
        0
 40
0.045
309
GRIDFORMAT_END
 95
        4
302
GRIDFORMAT
  1
GRIDFORMAT_BEGIN
 90
        0
 91
        1
 62
     0
 92
       -2
340
14
 93
        0
 40
0.045
309
GRIDFORMAT_END
 95
        8
302
GRIDFORMAT
  1
GRIDFORMAT_BEGIN
 90
        0
 91
        1
 62
     0
 92
       -2
340
14
 93
        0
 40
0.045
309
GRIDFORMAT_END
 95
       16
302
GRIDFORMAT
  1
GRIDFORMAT_BEGIN
 90
        0
 91
        1
 62
     0
 92
       -2
340
14
 93
        0
 40
0.045
309
GRIDFORMAT_END
 95
       32
302
GRIDFORMAT
  1
GRIDFORMAT_BEGIN
 90
        0
 91
        1
 62
     0
 92
       -2
340
14
 93
        0
 40
0.045
309
GRIDFORMAT_END
309
TABLEFORMAT_END
  1
CELLSTYLE_BEGIN
 90
        1
 91
        1
300
_TITLE
309
CELLSTYLE_END
300
CELLSTYLE
  1
TABLEFORMAT_BEGIN
 90
        5
170
     1
 91
        0
 92
        0
 62
   257
 93
        1
300
CONTENTFORMAT
  1
CONTENTFORMAT_BEGIN
 90
        0
 91
        0
 92
        4
 93
        0
300

 40
0.0
140
1.0
 94
        5
 62
     0
340
11
144
0.18
309
CONTENTFORMAT_END
171
     1
301
MARGIN
  1
CELLMARGIN_BEGIN
 40
0.06
 40
0.06
 40
0.06
 40
0.06
 40
0.06
 40
0.06
309
CELLMARGIN_END
 94
        6
 95
        1
302
GRIDFORMAT
  1
GRIDFORMAT_BEGIN
 90
        0
 91
        1
 62
     0
 92
       -2
340
14
 93
        0
 40
0.045
309
GRIDFORMAT_END
 95
        2
302
GRIDFORMAT
  1
GRIDFORMAT_BEGIN
 90
        0
 91
        1
 62
     0
 92
       -2
340
14
 93
        0
 40
0.045
309
GRIDFORMAT_END
 95
        4
302
GRIDFORMAT
  1
GRIDFORMAT_BEGIN
 90
        0
 91
        1
 62
     0
 92
       -2
340
14
 93
        0
 40
0.045
309
GRIDFORMAT_END
 95
        8
302
GRIDFORMAT
  1
GRIDFORMAT_BEGIN
 90
        0
 91
        1
 62
     0
 92
       -2
340
14
 93
        0
 40
0.045
309
GRIDFORMAT_END
 95
       16
302
GRIDFORMAT
  1
GRIDFORMAT_BEGIN
 90
        0
 91
        1
 62
     0
 92
       -2
340
14
 93
        0
 40
0.045
309
GRIDFORMAT_END
 95
       32
302
GRIDFORMAT
  1
GRIDFORMAT_BEGIN
 90
        0
 91
        1
 62
     0
 92
       -2
340
14
 93
        0
 40
0.045
309
GRIDFORMAT_END
309
TABLEFORMAT_END
  1
CELLSTYLE_BEGIN
 90
        2
 91
        1
300
_HEADER
309
CELLSTYLE_END
300
CELLSTYLE
  1
TABLEFORMAT_BEGIN
 90
        5
170
     1
 91
        0
 92
        0
 62
   257
 93
        1
300
CONTENTFORMAT
  1
CONTENTFORMAT_BEGIN
 90
        0
 91
        0
 92
        4
 93
        0
300

 40
0.0
140
1.0
 94
        2
 62
     0
340
11
144
0.18
309
CONTENTFORMAT_END
171
     1
301
MARGIN
  1
CELLMARGIN_BEGIN
 40
0.06
 40
0.06
 40
0.06
 40
0.06
 40
0.06
 40
0.06
309
CELLMARGIN_END
 94
        6
 95
        1
302
GRIDFORMAT
  1
GRIDFORMAT_BEGIN
 90
        0
 91
        1
 62
     0
 92
       -2
340
14
 93
        0
 40
0.045
309
GRIDFORMAT_END
 95
        2
302
GRIDFORMAT
  1
GRIDFORMAT_BEGIN
 90
        0
 91
        1
 62
     0
 92
       -2
340
14
 93
        0
 40
0.045
309
GRIDFORMAT_END
 95
        4
302
GRIDFORMAT
  1
GRIDFORMAT_BEGIN
 90
        0
 91
        1
 62
     0
 92
       -2
340
14
 93
        0
 40
0.045
309
GRIDFORMAT_END
 95
        8
302
GRIDFORMAT
  1
GRIDFORMAT_BEGIN
 90
        0
 91
        1
 62
     0
 92
       -2
340
14
 93
        0
 40
0.045
309
GRIDFORMAT_END
 95
       16
302
GRIDFORMAT
  1
GRIDFORMAT_BEGIN
 90
        0
 91
        1
 62
     0
 92
       -2
340
14
 93
        0
 40
0.045
309
GRIDFORMAT_END
 95
       32
302
GRIDFORMAT
  1
GRIDFORMAT_BEGIN
 90
        0
 91
        1
 62
     0
 92
       -2
340
14
 93
        0
 40
0.045
309
GRIDFORMAT_END
309
TABLEFORMAT_END
  1
CELLSTYLE_BEGIN
 90
        3
 91
        2
300
_DATA
309
CELLSTYLE_END
  0
ENDSEC
  0
EOF