0
SECTION
  2
HEADER
  9
$ACADVER
  1
AC1027
  9
$ACADMAINTVER
 70
     8
  9
$DWGCODEPAGE
  3
ANSI_1252
  9
$REQUIREDVERSIONS
160
                 0
  9
$COMMENTS
  1
File was created by Cadenas
  9
$CUSTOMPROPERTYTAG
  1
NN
  9
$CUSTOMPROPERTY
  1
Imperial - IP Flange - Square with Type E Dimensions 1-3/8 thru 2-3/16 inch Trident Seal Expansion
  9
$CUSTOMPROPERTYTAG
  1
NT
  9
$CUSTOMPROPERTY
  1
Imperial/E 4 Bolt Flange Bearings
  9
$CUSTOMPROPERTYTAG
  1
NB
  9
$CUSTOMPROPERTY
  1
071332
  9
$CUSTOMPROPERTYTAG
  1
NBSYN
  9
$CUSTOMPROPERTY
  1
$PN.
  9
$CUSTOMPROPERTYTAG
  1
LINA
  9
$CUSTOMPROPERTY
  1
071332
  9
$CUSTOMPROPERTYTAG
  1
SS
  9
$CUSTOMPROPERTY
  1
3-7/16
  9
$CUSTOMPROPERTYTAG
  1
TYPE
  9
$CUSTOMPROPERTY
  1
Expansion
  9
$CUSTOMPROPERTYTAG
  1
PN
  9
$CUSTOMPROPERTY
  1
071332
  9
$CUSTOMPROPERTYTAG
  1
DESCRIPTION
  9
$CUSTOMPROPERTY
  1
EF4B-IP-307RE
  9
$CUSTOMPROPERTYTAG
  1
ST
  9
$CUSTOMPROPERTY
  1
Contact Seal
  9
$CUSTOMPROPERTYTAG
  1
A
  9
$CUSTOMPROPERTY
  1
4.17
  9
$CUSTOMPROPERTYTAG
  1
B
  9
$CUSTOMPROPERTY
  1
9.25
  9
$CUSTOMPROPERTYTAG
  1
C
  9
$CUSTOMPROPERTY
  1
5.4
  9
$CUSTOMPROPERTYTAG
  1
D
  9
$CUSTOMPROPERTY
  1
7.00
  9
$CUSTOMPROPERTYTAG
  1
DD
  9
$CUSTOMPROPERTY
  1
9.899
  9
$CUSTOMPROPERTYTAG
  1
F
  9
$CUSTOMPROPERTY
  1
3/4
  9
$CUSTOMPROPERTYTAG
  1
G
  9
$CUSTOMPROPERTY
  1
1.12
  9
$CUSTOMPROPERTYTAG
  1
H
  9
$CUSTOMPROPERTY
  1
1.88
  9
$CUSTOMPROPERTYTAG
  1
J
  9
$CUSTOMPROPERTY
  1
7.44
  9
$CUSTOMPROPERTYTAG
  1
L
  9
$CUSTOMPROPERTY
  1
5.00
  9
$CUSTOMPROPERTYTAG
  1
N
  9
$CUSTOMPROPERTY
  1
4.15
  9
$CUSTOMPROPERTYTAG
  1
P
  9
$CUSTOMPROPERTY
  1
1.24
  9
$CUSTOMPROPERTYTAG
  1
X
  9
$CUSTOMPROPERTY
  1
0.25
  9
$CUSTOMPROPERTYTAG
  1
Y
  9
$CUSTOMPROPERTY
  1
0.025
  9
$CUSTOMPROPERTYTAG
  1
Z
  9
$CUSTOMPROPERTY
  1
4.05
  9
$CUSTOMPROPERTYTAG
  1
COMPANY
  9
$CUSTOMPROPERTY
  1
baldor
  9
$INSBASE
 10
0.0
 20
0.0
 30
0.0
  9
$EXTMIN
 10
1.000000000000000E+20
 20
1.000000000000000E+20
 30
1.000000000000000E+20
  9
$EXTMAX
 10
-1.000000000000000E+20
 20
-1.000000000000000E+20
 30
-1.000000000000000E+20
  9
$LIMMIN
 10
0.0
 20
0.0
  9
$LIMMAX
 10
12.0
 20
9.0
  9
$ORTHOMODE
 70
     0
  9
$REGENMODE
 70
     1
  9
$FILLMODE
 70
     1
  9
$QTEXTMODE
 70
     0
  9
$MIRRTEXT
 70
     1
  9
$LTSCALE
 40
1.0
  9
$ATTMODE
 70
     1
  9
$TEXTSIZE
 40
0.2
  9
$TRACEWID
 40
0.05
  9
$TEXTSTYLE
  7
Standard
  9
$CLAYER
  8
0
  9
$CELTYPE
  6
ByLayer
  9
$CECOLOR
 62
   256
  9
$CELTSCALE
 40
1.0
  9
$DISPSILH
 70
     0
  9
$DIMSCALE
 40
1.0
  9
$DIMASZ
 40
0.18
  9
$DIMEXO
 40
0.0625
  9
$DIMDLI
 40
0.38
  9
$DIMRND
 40
0.0
  9
$DIMDLE
 40
0.0
  9
$DIMEXE
 40
0.18
  9
$DIMTP
 40
0.0
  9
$DIMTM
 40
0.0
  9
$DIMTXT
 40
0.18
  9
$DIMCEN
 40
0.09
  9
$DIMTSZ
 40
0.0
  9
$DIMTOL
 70
     0
  9
$DIMLIM
 70
     0
  9
$DIMTIH
 70
     1
  9
$DIMTOH
 70
     1
  9
$DIMSE1
 70
     0
  9
$DIMSE2
 70
     0
  9
$DIMTAD
 70
     0
  9
$DIMZIN
 70
     0
  9
$DIMBLK
  1

  9
$DIMASO
 70
     1
  9
$DIMSHO
 70
     1
  9
$DIMPOST
  1

  9
$DIMAPOST
  1

  9
$DIMALT
 70
     0
  9
$DIMALTD
 70
     2
  9
$DIMALTF
 40
25.4
  9
$DIMLFAC
 40
1.0
  9
$DIMTOFL
 70
     0
  9
$DIMTVP
 40
0.0
  9
$DIMTIX
 70
     0
  9
$DIMSOXD
 70
     0
  9
$DIMSAH
 70
     0
  9
$DIMBLK1
  1

  9
$DIMBLK2
  1

  9
$DIMSTYLE
  2
Standard
  9
$DIMCLRD
 70
     0
  9
$DIMCLRE
 70
     0
  9
$DIMCLRT
 70
     0
  9
$DIMTFAC
 40
1.0
  9
$DIMGAP
 40
0.09
  9
$DIMJUST
 70
     0
  9
$DIMSD1
 70
     0
  9
$DIMSD2
 70
     0
  9
$DIMTOLJ
 70
     1
  9
$DIMTZIN
 70
     0
  9
$DIMALTZ
 70
     0
  9
$DIMALTTZ
 70
     0
  9
$DIMUPT
 70
     0
  9
$DIMDEC
 70
     4
  9
$DIMTDEC
 70
     4
  9
$DIMALTU
 70
     2
  9
$DIMALTTD
 70
     2
  9
$DIMTXSTY
  7
Standard
  9
$DIMAUNIT
 70
     0
  9
$DIMADEC
 70
     0
  9
$DIMALTRND
 40
0.0
  9
$DIMAZIN
 70
     0
  9
$DIMDSEP
 70
    46
  9
$DIMATFIT
 70
     3
  9
$DIMFRAC
 70
     0
  9
$DIMLDRBLK
  1

  9
$DIMLUNIT
 70
     2
  9
$DIMLWD
 70
    -2
  9
$DIMLWE
 70
    -2
  9
$DIMTMOVE
 70
     0
  9
$DIMFXL
 40
1.0
  9
$DIMFXLON
 70
     0
  9
$DIMJOGANG
 40
0.7853981633974483
  9
$DIMTFILL
 70
     0
  9
$DIMTFILLCLR
 70
     0
  9
$DIMARCSYM
 70
     0
  9
$DIMLTYPE
  6

  9
$DIMLTEX1
  6

  9
$DIMLTEX2
  6

  9
$DIMTXTDIRECTION
 70
     0
  9
$LUNITS
 70
     2
  9
$LUPREC
 70
     4
  9
$SKETCHINC
 40
0.1
  9
$FILLETRAD
 40
0.5
  9
$AUNITS
 70
     0
  9
$AUPREC
 70
     0
  9
$MENU
  1
.
  9
$ELEVATION
 40
0.0
  9
$PELEVATION
 40
0.0
  9
$THICKNESS
 40
0.0
  9
$LIMCHECK
 70
     0
  9
$CHAMFERA
 40
0.0
  9
$CHAMFERB
 40
0.0
  9
$CHAMFERC
 40
0.0
  9
$CHAMFERD
 40
0.0
  9
$SKPOLY
 70
     0
  9
$TDCREATE
 40
2458168.976154317
  9
$TDUCREATE
 40
2458168.934487651
  9
$TDUPDATE
 40
2458168.976154502
  9
$TDUUPDATE
 40
2458168.934487836
  9
$TDINDWG
 40
0.0000000116
  9
$TDUSRTIMER
 40
0.0000000116
  9
$USRTIMER
 70
     1
  9
$ANGBASE
 50
0.0
  9
$ANGDIR
 70
     0
  9
$PDMODE
 70
     0
  9
$PDSIZE
 40
0.0
  9
$PLINEWID
 40
0.0
  9
$SPLFRAME
 70
     0
  9
$SPLINETYPE
 70
     6
  9
$SPLINESEGS
 70
     8
  9
$HANDSEED
  5
256
  9
$SURFTAB1
 70
     6
  9
$SURFTAB2
 70
     6
  9
$SURFTYPE
 70
     6
  9
$SURFU
 70
     6
  9
$SURFV
 70
     6
  9
$UCSBASE
  2

  9
$UCSNAME
  2

  9
$UCSORG
 10
0.0
 20
0.0
 30
0.0
  9
$UCSXDIR
 10
1.0
 20
0.0
 30
0.0
  9
$UCSYDIR
 10
0.0
 20
1.0
 30
0.0
  9
$UCSORTHOREF
  2

  9
$UCSORTHOVIEW
 70
     0
  9
$UCSORGTOP
 10
0.0
 20
0.0
 30
0.0
  9
$UCSORGBOTTOM
 10
0.0
 20
0.0
 30
0.0
  9
$UCSORGLEFT
 10
0.0
 20
0.0
 30
0.0
  9
$UCSORGRIGHT
 10
0.0
 20
0.0
 30
0.0
  9
$UCSORGFRONT
 10
0.0
 20
0.0
 30
0.0
  9
$UCSORGBACK
 10
0.0
 20
0.0
 30
0.0
  9
$PUCSBASE
  2

  9
$PUCSNAME
  2

  9
$PUCSORG
 10
0.0
 20
0.0
 30
0.0
  9
$PUCSXDIR
 10
1.0
 20
0.0
 30
0.0
  9
$PUCSYDIR
 10
0.0
 20
1.0
 30
0.0
  9
$PUCSORTHOREF
  2

  9
$PUCSORTHOVIEW
 70
     0
  9
$PUCSORGTOP
 10
0.0
 20
0.0
 30
0.0
  9
$PUCSORGBOTTOM
 10
0.0
 20
0.0
 30
0.0
  9
$PUCSORGLEFT
 10
0.0
 20
0.0
 30
0.0
  9
$PUCSORGRIGHT
 10
0.0
 20
0.0
 30
0.0
  9
$PUCSORGFRONT
 10
0.0
 20
0.0
 30
0.0
  9
$PUCSORGBACK
 10
0.0
 20
0.0
 30
0.0
  9
$USERI1
 70
     0
  9
$USERI2
 70
     0
  9
$USERI3
 70
     0
  9
$USERI4
 70
     0
  9
$USERI5
 70
     0
  9
$USERR1
 40
0.0
  9
$USERR2
 40
0.0
  9
$USERR3
 40
0.0
  9
$USERR4
 40
0.0
  9
$USERR5
 40
0.0
  9
$WORLDVIEW
 70
     1
  9
$SHADEDGE
 70
     3
  9
$SHADEDIF
 70
    70
  9
$TILEMODE
 70
     1
  9
$MAXACTVP
 70
    64
  9
$PINSBASE
 10
0.0
 20
0.0
 30
0.0
  9
$PLIMCHECK
 70
     0
  9
$PEXTMIN
 10
1.000000000000000E+20
 20
1.000000000000000E+20
 30
1.000000000000000E+20
  9
$PEXTMAX
 10
-1.000000000000000E+20
 20
-1.000000000000000E+20
 30
-1.000000000000000E+20
  9
$PLIMMIN
 10
0.0
 20
0.0
  9
$PLIMMAX
 10
12.0
 20
9.0
  9
$UNITMODE
 70
     0
  9
$VISRETAIN
 70
     1
  9
$PLINEGEN
 70
     0
  9
$PSLTSCALE
 70
     1
  9
$TREEDEPTH
 70
  3020
  9
$CMLSTYLE
  2
Standard
  9
$CMLJUST
 70
     0
  9
$CMLSCALE
 40
1.0
  9
$PROXYGRAPHICS
 70
     1
  9
$MEASUREMENT
 70
     0
  9
$CELWEIGHT
370
    -1
  9
$ENDCAPS
280
     0
  9
$JOINSTYLE
280
     0
  9
$LWDISPLAY
290
     0
  9
$INSUNITS
 70
     1
  9
$HYPERLINKBASE
  1

  9
$STYLESHEET
  1

  9
$XEDIT
290
     1
  9
$CEPSNTYPE
380
     0
  9
$PSTYLEMODE
290
     1
  9
$FINGERPRINTGUID
  2
{02B5820A-8BB2-4DA0-8C88-29689831738A}
  9
$VERSIONGUID
  2
{FAEB1C32-E019-11D5-929B-00C0DF256EC4}
  9
$EXTNAMES
290
     1
  9
$PSVPSCALE
 40
0.0
  9
$OLESTARTUP
290
     0
  9
$SORTENTS
280
   127
  9
$INDEXCTL
280
     0
  9
$HIDETEXT
280
     1
  9
$XCLIPFRAME
280
     2
  9
$HALOGAP
280
     0
  9
$OBSCOLOR
 70
   257
  9
$OBSLTYPE
280
     0
  9
$INTERSECTIONDISPLAY
280
     0
  9
$INTERSECTIONCOLOR
 70
   257
  9
$DIMASSOC
280
     2
  9
$PROJECTNAME
  1

  9
$CAMERADISPLAY
290
     0
  9
$LENSLENGTH
 40
50.0
  9
$CAMERAHEIGHT
 40
0.0
  9
$STEPSPERSEC
 40
2.0
  9
$STEPSIZE
 40
6.0
  9
$3DDWFPREC
 40
2.0
  9
$PSOLWIDTH
 40
0.25
  9
$PSOLHEIGHT
 40
4.0
  9
$LOFTANG1
 40
1.570796326794897
  9
$LOFTANG2
 40
1.570796326794897
  9
$LOFTMAG1
 40
0.0
  9
$LOFTMAG2
 40
0.0
  9
$LOFTPARAM
 70
     7
  9
$LOFTNORMALS
280
     1
  9
$LATITUDE
 40
37.795
  9
$LONGITUDE
 40
-122.394
  9
$NORTHDIRECTION
 40
0.0
  9
$TIMEZONE
 70
 -8000
  9
$LIGHTGLYPHDISPLAY
280
     1
  9
$TILEMODELIGHTSYNCH
280
     1
  9
$CMATERIAL
347
44
  9
$SOLIDHIST
280
     0
  9
$SHOWHIST
280
     1
  9
$DWFFRAME
280
     2
  9
$DGNFRAME
280
     2
  9
$REALWORLDSCALE
290
     1
  9
$INTERFERECOLOR
 62
   256
  9
$CSHADOW
280
     0
  9
$SHADOWPLANELOCATION
 40
0.0
  0
ENDSEC
  0
SECTION
  2
CLASSES
  0
CLASS
  1
ACDBDICTIONARYWDFLT
  2
AcDbDictionaryWithDefault
  3
ObjectDBX Classes
 90
        0
 91
        4
280
     0
281
     0
  0
CLASS
  1
VISUALSTYLE
  2
AcDbVisualStyle
  3
ObjectDBX Classes
 90
     4095
 91
        4
280
     0
281
     0
  0
CLASS
  1
MATERIAL
  2
AcDbMaterial
  3
ObjectDBX Classes
 90
     1153
 91
        4
280
     0
281
     0
  0
CLASS
  1
SCALE
  2
AcDbScale
  3
ObjectDBX Classes
 90
     1153
 91
        4
280
     0
281
     0
  0
CLASS
  1
TABLESTYLE
  2
AcDbTableStyle
  3
ObjectDBX Classes
 90
     4095
 91
        4
280
     0
281
     0
  0
CLASS
  1
MLEADERSTYLE
  2
AcDbMLeaderStyle
  3
ACDB_MLEADERSTYLE_CLASS
 90
     4095
 91
        4
280
     0
281
     0
  0
CLASS
  1
SUN
  2
AcDbSun
  3
SCENEOE
 90
     1153
 91
        4
280
     0
281
     0
  0
CLASS
  1
DICTIONARYVAR
  2
AcDbDictionaryVar
  3
ObjectDBX Classes
 90
        0
 91
        4
280
     0
281
     0
  0
CLASS
  1
CELLSTYLEMAP
  2
AcDbCellStyleMap
  3
ObjectDBX Classes
 90
     1152
 91
        4
280
     0
281
     0
  0
ENDSEC
  0
SECTION
  2
TABLES
  0
TABLE
  2
VPORT
  5
8
330
0
100
AcDbSymbolTable
 70
     1
  0
VPORT
  5
29
330
8
100
AcDbSymbolTableRecord
100
AcDbViewportTableRecord
  2
*Active
 70
     0
 10
0.0
 20
0.0
 11
1.0
 21
1.0
 12
-2.584499999978316
 22
0.0
 13
0.0
 23
0.0
 14
0.5
 24
0.5
 15
0.5
 25
0.5
 16
0.0
 26
0.0
 36
1.0
 17
0.0
 27
0.0
 37
0.0
 40
9.435
 41
0.6109189189236073
 42
50.0
 43
0.0
 44
0.0
 50
0.0
 51
0.0
 71
     0
 72
   100
 73
     1
 74
     3
 75
     0
 76
     0
 77
     0
 78
     0
281
     0
 65
     1
110
0.0
120
0.0
130
0.0
111
1.0
121
0.0
131
0.0
112
0.0
122
1.0
132
0.0
 79
     0
146
0.0
348
2F
 60
     3
 61
     5
292
     1
282
     1
141
0.0
142
0.0
 63
   250
361
6D
  0
ENDTAB
  0
TABLE
  2
LTYPE
  5
5
330
0
100
AcDbSymbolTable
 70
     3
  0
LTYPE
  5
14
330
5
100
AcDbSymbolTableRecord
100
AcDbLinetypeTableRecord
  2
ByBlock
 70
     0
  3

 72
    65
 73
     0
 40
0.0
  0
LTYPE
  5
15
330
5
100
AcDbSymbolTableRecord
100
AcDbLinetypeTableRecord
  2
ByLayer
 70
     0
  3

 72
    65
 73
     0
 40
0.0
  0
LTYPE
  5
16
330
5
100
AcDbSymbolTableRecord
100
AcDbLinetypeTableRecord
  2
Continuous
 70
     0
  3
Solid line
 72
    65
 73
     0
 40
0.0
  0
LTYPE
  5
9D
330
5
100
AcDbSymbolTableRecord
100
AcDbLinetypeTableRecord
  2
Dashed
 70
     0
  3

 72
    65
 73
     2
 40
2.0
 49
1.0
 74
     0
 49
-1.0
 74
     0
  0
LTYPE
  5
18B
330
5
100
AcDbSymbolTableRecord
100
AcDbLinetypeTableRecord
  2
Center
 70
     0
  3

 72
    65
 73
     4
 40
1.5
 49
0.45
 74
     0
 49
-0.5
 74
     0
 49
0.05
 74
     0
 49
-0.5
 74
     0
  0
ENDTAB
  0
TABLE
  2
LAYER
  5
2
330
0
100
AcDbSymbolTable
 70
     7
  0
LAYER
  5
10
330
2
100
AcDbSymbolTableRecord
100
AcDbLayerTableRecord
  2
0
 70
     0
 62
     7
  6
Continuous
370
    -3
390
F
347
46
348
0
  0
LAYER
  5
72
330
2
100
AcDbSymbolTableRecord
100
AcDbLayerTableRecord
  2
AM_6
 70
     0
 62
    -2
  6
Continuous
370
    35
390
F
347
46
348
0
  0
LAYER
  5
9E
330
2
100
AcDbSymbolTableRecord
100
AcDbLayerTableRecord
  2
AM_9
 70
     0
 62
     6
  6
Dashed
370
    25
390
F
347
46
348
0
  0
LAYER
  5
AA
330
2
100
AcDbSymbolTableRecord
100
AcDbLayerTableRecord
  2
AM_5
 70
     0
 62
     3
  6
Continuous
370
    25
390
F
347
46
348
0
  0
LAYER
  5
AE
330
2
100
AcDbSymbolTableRecord
100
AcDbLayerTableRecord
  2
AM_4
 70
     0
 62
     7
  6
Continuous
370
    50
390
F
347
46
348
0
  0
LAYER
  5
18C
330
2
100
AcDbSymbolTableRecord
100
AcDbLayerTableRecord
  2
AM_7
 70
     0
 62
     7
  6
Center
370
    25
390
F
347
46
348
0
  0
LAYER
  5
241
330
2
100
AcDbSymbolTableRecord
100
AcDbLayerTableRecord
  2
ConnectionPoints
 70
     0
 62
     7
  6
Continuous
370
    50
390
F
347
46
348
0
  0
ENDTAB
  0
TABLE
  2
STYLE
  5
3
330
0
100
AcDbSymbolTable
 70
     1
  0
STYLE
  5
11
330
3
100
AcDbSymbolTableRecord
100
AcDbTextStyleTableRecord
  2
Standard
 70
     0
 40
0.0
 41
1.0
 50
0.0
 71
     0
 42
0.2
  3
txt
  4

  0
ENDTAB
  0
TABLE
  2
VIEW
  5
6
330
0
100
AcDbSymbolTable
 70
     0
  0
ENDTAB
  0
TABLE
  2
UCS
  5
7
330
0
100
AcDbSymbolTable
 70
     0
  0
ENDTAB
  0
TABLE
  2
APPID
  5
9
330
0
100
AcDbSymbolTable
 70
     1
  0
APPID
  5
12
330
9
100
AcDbSymbolTableRecord
100
AcDbRegAppTableRecord
  2
ACAD
 70
     0
  0
ENDTAB
  0
TABLE
  2
DIMSTYLE
  5
A
330
0
100
AcDbSymbolTable
 70
     1
100
AcDbDimStyleTable
  0
DIMSTYLE
105
27
330
A
100
AcDbSymbolTableRecord
100
AcDbDimStyleTableRecord
  2
Standard
 70
     0
178
     0
340
11
  0
ENDTAB
  0
TABLE
  2
BLOCK_RECORD
  5
1
330
0
100
AcDbSymbolTable
 70
     8
  0
BLOCK_RECORD
  5
1F
330
1
100
AcDbSymbolTableRecord
100
AcDbBlockTableRecord
  2
*Model_Space
340
22
 70
     0
280
     1
281
     0
  0
BLOCK_RECORD
  5
1B
330
1
100
AcDbSymbolTableRecord
100
AcDbBlockTableRecord
  2
*Paper_Space
340
1E
 70
     0
280
     1
281
     0
  0
BLOCK_RECORD
  5
23
330
1
100
AcDbSymbolTableRecord
100
AcDbBlockTableRecord
  2
*Paper_Space0
340
26
 70
     0
280
     1
281
     0
  0
BLOCK_RECORD
  5
6E
330
1
100
AcDbSymbolTableRecord
100
AcDbBlockTableRecord
  2
1_071332_2
340
0
102
{BLKREFS
331
6F
102
}
 70
     0
280
     1
281
     0
  0
BLOCK_RECORD
  5
8D
330
1
100
AcDbSymbolTableRecord
100
AcDbBlockTableRecord
  2
2_ASME_B18_3_1_4_1_0_in_071332_2
340
0
102
{BLKREFS
331
8E
102
}
 70
     0
280
     1
281
     0
  0
BLOCK_RECORD
  5
B5
330
1
100
AcDbSymbolTableRecord
100
AcDbBlockTableRecord
  2
3_ASME_B18_3_1_4_2_0_in_071332_2
340
0
102
{BLKREFS
331
B6
102
}
 70
     0
280
     1
281
     0
  0
BLOCK_RECORD
  5
D9
330
1
100
AcDbSymbolTableRecord
100
AcDbBlockTableRecord
  2
4_070903LWE_0_in_071332_2
340
0
102
{BLKREFS
331
DA
102
}
 70
     0
280
     1
281
     0
  0
BLOCK_RECORD
  5
112
330
1
100
AcDbSymbolTableRecord
100
AcDbBlockTableRecord
  2
5_070903E_0_in_071332_2
340
0
102
{BLKREFS
331
113
102
}
 70
     0
280
     1
281
     0
  0
BLOCK_RECORD
  5
1A0
330
1
100
AcDbSymbolTableRecord
100
AcDbBlockTableRecord
  2
6_405015E_Inch_0_in_071332_2
340
0
102
{BLKREFS
331
1A1
102
}
 70
     0
280
     1
281
     0
  0
BLOCK_RECORD
  5
1DF
330
1
100
AcDbSymbolTableRecord
100
AcDbBlockTableRecord
  2
7_071332H_0_in_071332_2
340
0
102
{BLKREFS
331
1E0
102
}
 70
     0
280
     1
281
     0
  0
ENDTAB
  0
ENDSEC
  0
SECTION
  2
BLOCKS
  0
BLOCK
  5
20
330
1F
100
AcDbEntity
  8
0
100
AcDbBlockBegin
  2
*Model_Space
 70
     0
 10
0.0
 20
0.0
 30
0.0
  3
*Model_Space
  1

  0
ENDBLK
  5
21
330
1F
100
AcDbEntity
  8
0
100
AcDbBlockEnd
  0
BLOCK
  5
1C
330
1B
100
AcDbEntity
 67
     1
  8
0
100
AcDbBlockBegin
  2
*Paper_Space
 70
     0
 10
0.0
 20
0.0
 30
0.0
  3
*Paper_Space
  1

  0
ENDBLK
  5
1D
330
1B
100
AcDbEntity
 67
     1
  8
0
100
AcDbBlockEnd
  0
BLOCK
  5
24
330
23
100
AcDbEntity
  8
0
100
AcDbBlockBegin
  2
*Paper_Space0
 70
     0
 10
0.0
 20
0.0
 30
0.0
  3
*Paper_Space0
  1

  0
ENDBLK
  5
25
330
23
100
AcDbEntity
  8
0
100
AcDbBlockEnd
  0
BLOCK
  5
70
330
6E
100
AcDbEntity
  8
0
100
AcDbBlockBegin
  2
1_071332_2
 70
     2
 10
0.0
 20
0.0
 30
0.0
  3
1_071332_2
  1

  0
ATTDEF
  5
73
330
6E
100
AcDbEntity
  8
AM_6
100
AcDbText
 10
5.241000000043369
 20
4.625
 30
0.0
 40
0.5
  1
Imperial - IP Flange - Square with Type E Dimensions 1-3/8 thru 2-3/16 inch Trident Seal Expansion
100
AcDbAttributeDefinition
  3

  2
NN
 70
     8
280
     0
  0
ATTDEF
  5
74
330
6E
100
AcDbEntity
  8
AM_6
100
AcDbText
 10
5.241000000043369
 20
4.125
 30
0.0
 40
0.5
  1
Imperial/E 4 Bolt Flange Bearings
100
AcDbAttributeDefinition
  3

  2
NT
 70
     8
280
     0
  0
ATTDEF
  5
75
330
6E
100
AcDbEntity
  8
AM_6
100
AcDbText
 10
5.241000000043369
 20
3.625
 30
0.0
 40
0.5
  1
071332
100
AcDbAttributeDefinition
  3

  2
NB
 70
     8
280
     0
  0
ATTDEF
  5
76
330
6E
100
AcDbEntity
  8
AM_6
100
AcDbText
 10
5.241000000043369
 20
3.125
 30
0.0
 40
0.5
  1
$PN.
100
AcDbAttributeDefinition
  3

  2
NBSYN
 70
     8
280
     0
  0
ATTDEF
  5
77
330
6E
100
AcDbEntity
  8
AM_6
100
AcDbText
 10
5.241000000043369
 20
2.625
 30
0.0
 40
0.5
  1
071332
100
AcDbAttributeDefinition
  3

  2
LINA
 70
     8
280
     0
  0
ATTDEF
  5
78
330
6E
100
AcDbEntity
  8
AM_6
100
AcDbText
 10
5.241000000043369
 20
2.125
 30
0.0
 40
0.5
  1
3-7/16
100
AcDbAttributeDefinition
  3

  2
SS
 70
     8
280
     0
  0
ATTDEF
  5
79
330
6E
100
AcDbEntity
  8
AM_6
100
AcDbText
 10
5.241000000043369
 20
1.625
 30
0.0
 40
0.5
  1
Expansion
100
AcDbAttributeDefinition
  3

  2
TYPE
 70
     8
280
     0
  0
ATTDEF
  5
7A
330
6E
100
AcDbEntity
  8
AM_6
100
AcDbText
 10
5.241000000043369
 20
1.125
 30
0.0
 40
0.5
  1
071332
100
AcDbAttributeDefinition
  3

  2
PN
 70
     8
280
     0
  0
ATTDEF
  5
7B
330
6E
100
AcDbEntity
  8
AM_6
100
AcDbText
 10
5.241000000043369
 20
0.625
 30
0.0
 40
0.5
  1
EF4B-IP-307RE
100
AcDbAttributeDefinition
  3

  2
DESCRIPTION
 70
     8
280
     0
  0
ATTDEF
  5
7C
330
6E
100
AcDbEntity
  8
AM_6
100
AcDbText
 10
5.241000000043369
 20
0.125
 30
0.0
 40
0.5
  1
Contact Seal
100
AcDbAttributeDefinition
  3

  2
ST
 70
     8
280
     0
  0
ATTDEF
  5
7D
330
6E
100
AcDbEntity
  8
AM_6
100
AcDbText
 10
5.241000000043369
 20
-0.375
 30
0.0
 40
0.5
  1
4.17
100
AcDbAttributeDefinition
  3

  2
A
 70
     8
280
     0
  0
ATTDEF
  5
7E
330
6E
100
AcDbEntity
  8
AM_6
100
AcDbText
 10
5.241000000043369
 20
-0.875
 30
0.0
 40
0.5
  1
9.25
100
AcDbAttributeDefinition
  3

  2
B
 70
     8
280
     0
  0
ATTDEF
  5
7F
330
6E
100
AcDbEntity
  8
AM_6
100
AcDbText
 10
5.241000000043369
 20
-1.375
 30
0.0
 40
0.5
  1
5.4
100
AcDbAttributeDefinition
  3

  2
C
 70
     8
280
     0
  0
ATTDEF
  5
80
330
6E
100
AcDbEntity
  8
AM_6
100
AcDbText
 10
5.241000000043369
 20
-1.875
 30
0.0
 40
0.5
  1
7.00
100
AcDbAttributeDefinition
  3

  2
D
 70
     8
280
     0
  0
ATTDEF
  5
81
330
6E
100
AcDbEntity
  8
AM_6
100
AcDbText
 10
5.241000000043369
 20
-2.375
 30
0.0
 40
0.5
  1
9.899
100
AcDbAttributeDefinition
  3

  2
DD
 70
     8
280
     0
  0
ATTDEF
  5
82
330
6E
100
AcDbEntity
  8
AM_6
100
AcDbText
 10
5.241000000043369
 20
-2.875
 30
0.0
 40
0.5
  1
3/4
100
AcDbAttributeDefinition
  3

  2
F
 70
     8
280
     0
  0
ATTDEF
  5
83
330
6E
100
AcDbEntity
  8
AM_6
100
AcDbText
 10
5.241000000043369
 20
-3.375
 30
0.0
 40
0.5
  1
1.12
100
AcDbAttributeDefinition
  3

  2
G
 70
     8
280
     0
  0
ATTDEF
  5
84
330
6E
100
AcDbEntity
  8
AM_6
100
AcDbText
 10
5.241000000043369
 20
-3.875
 30
0.0
 40
0.5
  1
1.88
100
AcDbAttributeDefinition
  3

  2
H
 70
     8
280
     0
  0
ATTDEF
  5
85
330
6E
100
AcDbEntity
  8
AM_6
100
AcDbText
 10
5.241000000043369
 20
-4.375
 30
0.0
 40
0.5
  1
7.44
100
AcDbAttributeDefinition
  3

  2
J
 70
     8
280
     0
  0
ATTDEF
  5
86
330
6E
100
AcDbEntity
  8
AM_6
100
AcDbText
 10
5.241000000043369
 20
-4.875
 30
0.0
 40
0.5
  1
5.00
100
AcDbAttributeDefinition
  3

  2
L
 70
     8
280
     0
  0
ATTDEF
  5
87
330
6E
100
AcDbEntity
  8
AM_6
100
AcDbText
 10
5.241000000043369
 20
-5.375
 30
0.0
 40
0.5
  1
4.15
100
AcDbAttributeDefinition
  3

  2
N
 70
     8
280
     0
  0
ATTDEF
  5
88
330
6E
100
AcDbEntity
  8
AM_6
100
AcDbText
 10
5.241000000043369
 20
-5.875
 30
0.0
 40
0.5
  1
1.24
100
AcDbAttributeDefinition
  3

  2
P
 70
     8
280
     0
  0
ATTDEF
  5
89
330
6E
100
AcDbEntity
  8
AM_6
100
AcDbText
 10
5.241000000043369
 20
-6.375
 30
0.0
 40
0.5
  1
0.25
100
AcDbAttributeDefinition
  3

  2
X
 70
     8
280
     0
  0
ATTDEF
  5
8A
330
6E
100
AcDbEntity
  8
AM_6
100
AcDbText
 10
5.241000000043369
 20
-6.875
 30
0.0
 40
0.5
  1
0.025
100
AcDbAttributeDefinition
  3

  2
Y
 70
     8
280
     0
  0
ATTDEF
  5
8B
330
6E
100
AcDbEntity
  8
AM_6
100
AcDbText
 10
5.241000000043369
 20
-7.375
 30
0.0
 40
0.5
  1
4.05
100
AcDbAttributeDefinition
  3

  2
Z
 70
     8
280
     0
  0
ATTDEF
  5
8C
330
6E
100
AcDbEntity
  8
AM_6
100
AcDbText
 10
5.241000000043369
 20
-7.875
 30
0.0
 40
0.5
  1
baldor
100
AcDbAttributeDefinition
  3

  2
COMPANY
 70
     8
280
     0
  0
INSERT
  5
8E
330
6E
100
AcDbEntity
  8
0
100
AcDbBlockReference
  2
2_ASME_B18_3_1_4_1_0_in_071332_2
 10
0.0
 20
0.0
 30
0.0
  0
INSERT
  5
B6
330
6E
100
AcDbEntity
  8
0
100
AcDbBlockReference
  2
3_ASME_B18_3_1_4_2_0_in_071332_2
 10
0.0
 20
0.0
 30
0.0
  0
INSERT
  5
DA
330
6E
100
AcDbEntity
  8
0
100
AcDbBlockReference
  2
4_070903LWE_0_in_071332_2
 10
0.0
 20
0.0
 30
0.0
  0
INSERT
  5
113
330
6E
100
AcDbEntity
  8
0
100
AcDbBlockReference
  2
5_070903E_0_in_071332_2
 10
0.0
 20
0.0
 30
0.0
  0
INSERT
  5
1A1
330
6E
100
AcDbEntity
  8
0
100
AcDbBlockReference
  2
6_405015E_Inch_0_in_071332_2
 10
0.0
 20
0.0
 30
0.0
  0
INSERT
  5
1E0
330
6E
100
AcDbEntity
  8
0
100
AcDbBlockReference
  2
7_071332H_0_in_071332_2
 10
0.0
 20
0.0
 30
0.0
  0
ENDBLK
  5
71
330
6E
100
AcDbEntity
  8
0
100
AcDbBlockEnd
  0
BLOCK
  5
8F
330
8D
100
AcDbEntity
  8
0
100
AcDbBlockBegin
  2
2_ASME_B18_3_1_4_1_0_in_071332_2
 70
     2
 10
0.0
 20
0.0
 30
0.0
  3
2_ASME_B18_3_1_4_1_0_in_071332_2
  1

  0
ATTDEF
  5
91
330
8D
100
AcDbEntity
  8
AM_6
100
AcDbText
 10
0.8871666666666664
 20
-1.986361111111111
 30
0.0
 40
0.5
  1
ANSI/ASME B18.3-1998
100
AcDbAttributeDefinition
  3

  2
NN
 70
     8
280
     0
  0
ATTDEF
  5
92
330
8D
100
AcDbEntity
  8
AM_6
100
AcDbText
 10
0.8871666666666664
 20
-2.486361111111111
 30
0.0
 40
0.5
  1
Socket Button Head Cap Screws
100
AcDbAttributeDefinition
  3

  2
NT
 70
     8
280
     0
  0
ATTDEF
  5
93
330
8D
100
AcDbEntity
  8
AM_6
100
AcDbText
 10
0.8871666666666664
 20
-2.986361111111111
 30
0.0
 40
0.5
  1
ASME B18.3-1/4
100
AcDbAttributeDefinition
  3

  2
NB
 70
     8
280
     0
  0
ATTDEF
  5
94
330
8D
100
AcDbEntity
  8
AM_6
100
AcDbText
 10
0.8871666666666664
 20
-3.486361111111111
 30
0.0
 40
0.5
  1
ASME B18.3-$NS.
100
AcDbAttributeDefinition
  3

  2
NBSYN
 70
     8
280
     0
  0
ATTDEF
  5
95
330
8D
100
AcDbEntity
  8
AM_6
100
AcDbText
 10
0.8871666666666664
 20
-3.986361111111111
 30
0.0
 40
0.5
  1
ASME B18.3-1/4
100
AcDbAttributeDefinition
  3

  2
LINA
 70
     8
280
     0
  0
ATTDEF
  5
96
330
8D
100
AcDbEntity
  8
AM_6
100
AcDbText
 10
0.8871666666666664
 20
-4.486361111111111
 30
0.0
 40
0.5
  1
1/4
100
AcDbAttributeDefinition
  3

  2
NS
 70
     8
280
     0
  0
ATTDEF
  5
97
330
8D
100
AcDbEntity
  8
AM_6
100
AcDbText
 10
0.8871666666666664
 20
-4.986361111111111
 30
0.0
 40
0.5
  1
0.437
100
AcDbAttributeDefinition
  3

  2
A
 70
     8
280
     0
  0
ATTDEF
  5
98
330
8D
100
AcDbEntity
  8
AM_6
100
AcDbText
 10
0.8871666666666664
 20
-5.486361111111111
 30
0.0
 40
0.5
  1
0.132
100
AcDbAttributeDefinition
  3

  2
H
 70
     8
280
     0
  0
ATTDEF
  5
99
330
8D
100
AcDbEntity
  8
AM_6
100
AcDbText
 10
0.8871666666666664
 20
-5.986361111111111
 30
0.0
 40
0.5
  1
0.800
100
AcDbAttributeDefinition
  3

  2
L
 70
     8
280
     0
  0
ATTDEF
  5
9A
330
8D
100
AcDbEntity
  8
AM_6
100
AcDbText
 10
0.8871666666666664
 20
-6.486361111111111
 30
0.0
 40
0.5
  1
0.031
100
AcDbAttributeDefinition
  3

  2
S
 70
     8
280
     0
  0
ATTDEF
  5
9B
330
8D
100
AcDbEntity
  8
AM_6
100
AcDbText
 10
0.8871666666666664
 20
-6.986361111111111
 30
0.0
 40
0.5
  1
0.156250
100
AcDbAttributeDefinition
  3

  2
J
 70
     8
280
     0
  0
ATTDEF
  5
9C
330
8D
100
AcDbEntity
  8
AM_6
100
AcDbText
 10
0.8871666666666664
 20
-7.486361111111111
 30
0.0
 40
0.5
  1
baldor
100
AcDbAttributeDefinition
  3

  2
COMPANY
 70
     8
280
     0
  0
LINE
  5
9F
330
8D
100
AcDbEntity
  8
AM_9
100
AcDbLine
 10
-4.974833333333333
 20
-2.114650131550232
 30
0.0
 11
-5.044833333333333
 21
-2.114650131550232
 31
0.0
  0
LINE
  5
A0
330
8D
100
AcDbEntity
  8
AM_9
100
AcDbLine
 10
-4.974833333333333
 20
-2.29507209067199
 30
0.0
 11
-5.044833333333333
 21
-2.29507209067199
 31
0.0
  0
LINE
  5
A1
330
8D
100
AcDbEntity
  8
AM_9
100
AcDbLine
 10
-4.974833333333333
 20
-2.114650131550232
 30
0.0
 11
-4.974833333333333
 21
-2.29507209067199
 31
0.0
  0
LINE
  5
A2
330
8D
100
AcDbEntity
  8
AM_9
100
AcDbLine
 10
-4.974833333333333
 20
-2.249966600891551
 30
0.0
 11
-5.044833333333333
 21
-2.249966600891551
 31
0.0
  0
LINE
  5
A3
330
8D
100
AcDbEntity
  8
AM_9
100
AcDbLine
 10
-4.974833333333333
 20
-2.159755621330671
 30
0.0
 11
-5.044833333333333
 21
-2.159755621330671
 31
0.0
  0
LINE
  5
A4
330
8D
100
AcDbEntity
  8
AM_9
100
AcDbLine
 10
-4.112833333333334
 20
-2.098461111111111
 30
0.0
 11
-4.112833333333334
 21
-2.311261111111111
 31
0.0
  0
LINE
  5
A5
330
8D
100
AcDbEntity
  8
AM_9
100
AcDbLine
 10
-4.112833333333334
 20
-2.098461111111111
 30
0.0
 11
-4.131433333333334
 21
-2.079861111111111
 31
0.0
  0
LINE
  5
A6
330
8D
100
AcDbEntity
  8
AM_9
100
AcDbLine
 10
-4.131433333333334
 20
-2.329861111111111
 30
0.0
 11
-4.112833333333334
 21
-2.311261111111111
 31
0.0
  0
LINE
  5
A7
330
8D
100
AcDbEntity
  8
AM_9
100
AcDbLine
 10
-4.131433333333334
 20
-2.079861111111111
 30
0.0
 11
-4.131433333333334
 21
-2.329861111111111
 31
0.0
  0
LINE
  5
A8
330
8D
100
AcDbEntity
  8
AM_9
100
AcDbLine
 10
-4.912833333333333
 20
-2.329861111111111
 30
0.0
 11
-4.131433333333334
 21
-2.329861111111111
 31
0.0
  0
LINE
  5
A9
330
8D
100
AcDbEntity
  8
AM_9
100
AcDbLine
 10
-4.131433333333334
 20
-2.079861111111111
 30
0.0
 11
-4.912833333333333
 21
-2.079861111111111
 31
0.0
  0
LINE
  5
AB
330
8D
100
AcDbEntity
  8
AM_5
100
AcDbLine
 10
-4.832833333333333
 20
-2.311261111111111
 30
0.0
 11
-4.865049478354114
 21
-2.329861111111111
 31
0.0
  0
LINE
  5
AC
330
8D
100
AcDbEntity
  8
AM_5
100
AcDbLine
 10
-4.832833333333333
 20
-2.079861111111111
 30
0.0
 11
-4.832833333333333
 21
-2.329861111111109
 31
0.0
  0
LINE
  5
AD
330
8D
100
AcDbEntity
  8
AM_5
100
AcDbLine
 10
-4.832833333333333
 20
-2.098461111111111
 30
0.0
 11
-4.865049478354114
 21
-2.079861111111111
 31
0.0
  0
LINE
  5
AF
330
8D
100
AcDbEntity
  8
AM_4
100
AcDbLine
 10
-5.044833333333333
 20
-2.087361111111111
 30
0.0
 11
-5.044833333333333
 21
-2.322361111111111
 31
0.0
  0
ARC
  5
B0
330
8D
100
AcDbEntity
  8
AM_4
100
AcDbCircle
 10
-4.943833333333332
 20
-2.32236111111111
 30
0.0
 40
0.1010000000000009
100
AcDbArc
 50
180.0
 51
270.0
  0
ARC
  5
B1
330
8D
100
AcDbEntity
  8
AM_4
100
AcDbCircle
 10
-4.943833333333331
 20
-2.087361111111112
 30
0.0
 40
0.1010000000000015
100
AcDbArc
 50
90.0
 51
180.0
  0
LINE
  5
B2
330
8D
100
AcDbEntity
  8
AM_4
100
AcDbLine
 10
-4.943833333333333
 20
-1.986361111111111
 30
0.0
 11
-4.943833333333333
 21
-2.423361111111111
 31
0.0
  0
LINE
  5
B3
330
8D
100
AcDbEntity
  8
AM_4
100
AcDbLine
 10
-4.943833333333333
 20
-2.423361111111111
 30
0.0
 11
-4.912833333333333
 21
-2.423361111111111
 31
0.0
  0
LINE
  5
B4
330
8D
100
AcDbEntity
  8
AM_4
100
AcDbLine
 10
-4.912833333333333
 20
-1.986361111111111
 30
0.0
 11
-4.943833333333333
 21
-1.986361111111111
 31
0.0
  0
ENDBLK
  5
90
330
8D
100
AcDbEntity
  8
0
100
AcDbBlockEnd
  0
BLOCK
  5
B7
330
B5
100
AcDbEntity
  8
0
100
AcDbBlockBegin
  2
3_ASME_B18_3_1_4_2_0_in_071332_2
 70
     2
 10
0.0
 20
0.0
 30
0.0
  3
3_ASME_B18_3_1_4_2_0_in_071332_2
  1

  0
ATTDEF
  5
B9
330
B5
100
AcDbEntity
  8
AM_6
100
AcDbText
 10
0.8871666666666664
 20
2.423361111111111
 30
0.0
 40
0.5
  1
ANSI/ASME B18.3-1998
100
AcDbAttributeDefinition
  3

  2
NN
 70
     8
280
     0
  0
ATTDEF
  5
BA
330
B5
100
AcDbEntity
  8
AM_6
100
AcDbText
 10
0.8871666666666664
 20
1.923361111111111
 30
0.0
 40
0.5
  1
Socket Button Head Cap Screws
100
AcDbAttributeDefinition
  3

  2
NT
 70
     8
280
     0
  0
ATTDEF
  5
BB
330
B5
100
AcDbEntity
  8
AM_6
100
AcDbText
 10
0.8871666666666664
 20
1.423361111111111
 30
0.0
 40
0.5
  1
ASME B18.3-1/4
100
AcDbAttributeDefinition
  3

  2
NB
 70
     8
280
     0
  0
ATTDEF
  5
BC
330
B5
100
AcDbEntity
  8
AM_6
100
AcDbText
 10
0.8871666666666664
 20
0.9233611111111113
 30
0.0
 40
0.5
  1
ASME B18.3-$NS.
100
AcDbAttributeDefinition
  3

  2
NBSYN
 70
     8
280
     0
  0
ATTDEF
  5
BD
330
B5
100
AcDbEntity
  8
AM_6
100
AcDbText
 10
0.8871666666666664
 20
0.4233611111111113
 30
0.0
 40
0.5
  1
ASME B18.3-1/4
100
AcDbAttributeDefinition
  3

  2
LINA
 70
     8
280
     0
  0
ATTDEF
  5
BE
330
B5
100
AcDbEntity
  8
AM_6
100
AcDbText
 10
0.8871666666666664
 20
-0.0766388888888887
 30
0.0
 40
0.5
  1
1/4
100
AcDbAttributeDefinition
  3

  2
NS
 70
     8
280
     0
  0
ATTDEF
  5
BF
330
B5
100
AcDbEntity
  8
AM_6
100
AcDbText
 10
0.8871666666666664
 20
-0.5766388888888887
 30
0.0
 40
0.5
  1
0.437
100
AcDbAttributeDefinition
  3

  2
A
 70
     8
280
     0
  0
ATTDEF
  5
C0
330
B5
100
AcDbEntity
  8
AM_6
100
AcDbText
 10
0.8871666666666664
 20
-1.076638888888889
 30
0.0
 40
0.5
  1
0.132
100
AcDbAttributeDefinition
  3

  2
H
 70
     8
280
     0
  0
ATTDEF
  5
C1
330
B5
100
AcDbEntity
  8
AM_6
100
AcDbText
 10
0.8871666666666664
 20
-1.576638888888889
 30
0.0
 40
0.5
  1
0.800
100
AcDbAttributeDefinition
  3

  2
L
 70
     8
280
     0
  0
ATTDEF
  5
C2
330
B5
100
AcDbEntity
  8
AM_6
100
AcDbText
 10
0.8871666666666664
 20
-2.076638888888889
 30
0.0
 40
0.5
  1
0.031
100
AcDbAttributeDefinition
  3

  2
S
 70
     8
280
     0
  0
ATTDEF
  5
C3
330
B5
100
AcDbEntity
  8
AM_6
100
AcDbText
 10
0.8871666666666664
 20
-2.576638888888889
 30
0.0
 40
0.5
  1
0.156250
100
AcDbAttributeDefinition
  3

  2
J
 70
     8
280
     0
  0
ATTDEF
  5
C4
330
B5
100
AcDbEntity
  8
AM_6
100
AcDbText
 10
0.8871666666666664
 20
-3.076638888888889
 30
0.0
 40
0.5
  1
baldor
100
AcDbAttributeDefinition
  3

  2
COMPANY
 70
     8
280
     0
  0
LINE
  5
C5
330
B5
100
AcDbEntity
  8
AM_9
100
AcDbLine
 10
-4.974833333333333
 20
2.29507209067199
 30
0.0
 11
-5.044833333333333
 21
2.29507209067199
 31
0.0
  0
LINE
  5
C6
330
B5
100
AcDbEntity
  8
AM_9
100
AcDbLine
 10
-4.974833333333333
 20
2.114650131550232
 30
0.0
 11
-5.044833333333333
 21
2.114650131550232
 31
0.0
  0
LINE
  5
C7
330
B5
100
AcDbEntity
  8
AM_9
100
AcDbLine
 10
-4.974833333333333
 20
2.249966600891551
 30
0.0
 11
-5.044833333333333
 21
2.249966600891551
 31
0.0
  0
LINE
  5
C8
330
B5
100
AcDbEntity
  8
AM_9
100
AcDbLine
 10
-4.974833333333333
 20
2.159755621330671
 30
0.0
 11
-5.044833333333333
 21
2.159755621330671
 31
0.0
  0
LINE
  5
C9
330
B5
100
AcDbEntity
  8
AM_9
100
AcDbLine
 10
-4.974833333333333
 20
2.29507209067199
 30
0.0
 11
-4.974833333333333
 21
2.114650131550232
 31
0.0
  0
LINE
  5
CA
330
B5
100
AcDbEntity
  8
AM_9
100
AcDbLine
 10
-4.112833333333334
 20
2.311261111111111
 30
0.0
 11
-4.112833333333334
 21
2.098461111111111
 31
0.0
  0
LINE
  5
CB
330
B5
100
AcDbEntity
  8
AM_9
100
AcDbLine
 10
-4.112833333333334
 20
2.311261111111111
 30
0.0
 11
-4.131433333333334
 21
2.329861111111111
 31
0.0
  0
LINE
  5
CC
330
B5
100
AcDbEntity
  8
AM_9
100
AcDbLine
 10
-4.131433333333334
 20
2.079861111111111
 30
0.0
 11
-4.112833333333334
 21
2.098461111111111
 31
0.0
  0
LINE
  5
CD
330
B5
100
AcDbEntity
  8
AM_9
100
AcDbLine
 10
-4.131433333333334
 20
2.329861111111111
 30
0.0
 11
-4.131433333333334
 21
2.079861111111111
 31
0.0
  0
LINE
  5
CE
330
B5
100
AcDbEntity
  8
AM_9
100
AcDbLine
 10
-4.912833333333333
 20
2.079861111111111
 30
0.0
 11
-4.131433333333334
 21
2.079861111111111
 31
0.0
  0
LINE
  5
CF
330
B5
100
AcDbEntity
  8
AM_9
100
AcDbLine
 10
-4.131433333333334
 20
2.329861111111111
 30
0.0
 11
-4.912833333333333
 21
2.329861111111111
 31
0.0
  0
LINE
  5
D0
330
B5
100
AcDbEntity
  8
AM_5
100
AcDbLine
 10
-4.832833333333333
 20
2.098461111111111
 30
0.0
 11
-4.865049478354115
 21
2.079861111111111
 31
0.0
  0
LINE
  5
D1
330
B5
100
AcDbEntity
  8
AM_5
100
AcDbLine
 10
-4.832833333333333
 20
2.329861111111109
 30
0.0
 11
-4.832833333333333
 21
2.079861111111111
 31
0.0
  0
LINE
  5
D2
330
B5
100
AcDbEntity
  8
AM_5
100
AcDbLine
 10
-4.832833333333333
 20
2.311261111111111
 30
0.0
 11
-4.865049478354114
 21
2.329861111111111
 31
0.0
  0
LINE
  5
D3
330
B5
100
AcDbEntity
  8
AM_4
100
AcDbLine
 10
-5.044833333333333
 20
2.322361111111111
 30
0.0
 11
-5.044833333333333
 21
2.087361111111111
 31
0.0
  0
ARC
  5
D4
330
B5
100
AcDbEntity
  8
AM_4
100
AcDbCircle
 10
-4.943833333333332
 20
2.087361111111111
 30
0.0
 40
0.1010000000000009
100
AcDbArc
 50
180.0
 51
270.0
  0
ARC
  5
D5
330
B5
100
AcDbEntity
  8
AM_4
100
AcDbCircle
 10
-4.943833333333332
 20
2.32236111111111
 30
0.0
 40
0.1010000000000009
100
AcDbArc
 50
90.0
 51
180.0
  0
LINE
  5
D6
330
B5
100
AcDbEntity
  8
AM_4
100
AcDbLine
 10
-4.943833333333333
 20
2.423361111111111
 30
0.0
 11
-4.943833333333333
 21
1.986361111111111
 31
0.0
  0
LINE
  5
D7
330
B5
100
AcDbEntity
  8
AM_4
100
AcDbLine
 10
-4.943833333333333
 20
1.986361111111111
 30
0.0
 11
-4.912833333333333
 21
1.986361111111111
 31
0.0
  0
LINE
  5
D8
330
B5
100
AcDbEntity
  8
AM_4
100
AcDbLine
 10
-4.912833333333333
 20
2.423361111111111
 30
0.0
 11
-4.943833333333333
 21
2.423361111111111
 31
0.0
  0
ENDBLK
  5
B8
330
B5
100
AcDbEntity
  8
0
100
AcDbBlockEnd
  0
BLOCK
  5
DB
330
D9
100
AcDbEntity
  8
0
100
AcDbBlockBegin
  2
4_070903LWE_0_in_071332_2
 70
     2
 10
0.0
 20
0.0
 30
0.0
  3
4_070903LWE_0_in_071332_2
  1

  0
ATTDEF
  5
DD
330
D9
100
AcDbEntity
  8
AM_6
100
AcDbText
 10
0.527166666666667
 20
2.5
 30
0.0
 40
0.5
  1
Imperial/E Insert Lockwasher -Inch
100
AcDbAttributeDefinition
  3

  2
NN
 70
     8
280
     0
  0
ATTDEF
  5
DE
330
D9
100
AcDbEntity
  8
AM_6
100
AcDbText
 10
0.527166666666667
 20
2.0
 30
0.0
 40
0.5
  1
Imperial/E Bearings
100
AcDbAttributeDefinition
  3

  2
NT
 70
     8
280
     0
  0
ATTDEF
  5
DF
330
D9
100
AcDbEntity
  8
AM_6
100
AcDbText
 10
0.527166666666667
 20
1.5
 30
0.0
 40
0.5
  1
070903LWE
100
AcDbAttributeDefinition
  3

  2
NB
 70
     8
280
     0
  0
ATTDEF
  5
E0
330
D9
100
AcDbEntity
  8
AM_6
100
AcDbText
 10
0.527166666666667
 20
1.0
 30
0.0
 40
0.5
  1
$PN.LWE
100
AcDbAttributeDefinition
  3

  2
NBSYN
 70
     8
280
     0
  0
ATTDEF
  5
E1
330
D9
100
AcDbEntity
  8
AM_6
100
AcDbText
 10
0.527166666666667
 20
0.5
 30
0.0
 40
0.5
  1
070903
100
AcDbAttributeDefinition
  3

  2
LINA
 70
     8
280
     0
  0
ATTDEF
  5
E2
330
D9
100
AcDbEntity
  8
AM_6
100
AcDbText
 10
0.527166666666667
 20
0.0
 30
0.0
 40
0.5
  1
3-7/16
100
AcDbAttributeDefinition
  3

  2
SS
 70
     8
280
     0
  0
ATTDEF
  5
E3
330
D9
100
AcDbEntity
  8
AM_6
100
AcDbText
 10
0.527166666666667
 20
-0.5
 30
0.0
 40
0.5
  1
5.000000
100
AcDbAttributeDefinition
  3

  2
E1
 70
     8
280
     0
  0
ATTDEF
  5
E4
330
D9
100
AcDbEntity
  8
AM_6
100
AcDbText
 10
0.527166666666667
 20
-1.0
 30
0.0
 40
0.5
  1
3.437500
100
AcDbAttributeDefinition
  3

  2
SS1
 70
     8
280
     0
  0
ATTDEF
  5
E5
330
D9
100
AcDbEntity
  8
AM_6
100
AcDbText
 10
0.527166666666667
 20
-1.5
 30
0.0
 40
0.5
  1
070903
100
AcDbAttributeDefinition
  3

  2
PN
 70
     8
280
     0
  0
ATTDEF
  5
E6
330
D9
100
AcDbEntity
  8
AM_6
100
AcDbText
 10
0.527166666666667
 20
-2.0
 30
0.0
 40
0.5
  1
INS-IP-307R
100
AcDbAttributeDefinition
  3

  2
DESCRIPTION
 70
     8
280
     0
  0
ATTDEF
  5
E7
330
D9
100
AcDbEntity
  8
AM_6
100
AcDbText
 10
0.527166666666667
 20
-2.5
 30
0.0
 40
0.5
  1
6.2992
100
AcDbAttributeDefinition
  3

  2
A
 70
     8
280
     0
  0
ATTDEF
  5
E8
330
D9
100
AcDbEntity
  8
AM_6
100
AcDbText
 10
0.527166666666667
 20
-3.0
 30
0.0
 40
0.5
  1
1-5/8
100
AcDbAttributeDefinition
  3

  2
B
 70
     8
280
     0
  0
ATTDEF
  5
E9
330
D9
100
AcDbEntity
  8
AM_6
100
AcDbText
 10
0.527166666666667
 20
-3.5
 30
0.0
 40
0.5
  1
1.625000
100
AcDbAttributeDefinition
  3

  2
B1
 70
     8
280
     0
  0
ATTDEF
  5
EA
330
D9
100
AcDbEntity
  8
AM_6
100
AcDbText
 10
0.527166666666667
 20
-4.0
 30
0.0
 40
0.5
  1
4-11/64
100
AcDbAttributeDefinition
  3

  2
C
 70
     8
280
     0
  0
ATTDEF
  5
EB
330
D9
100
AcDbEntity
  8
AM_6
100
AcDbText
 10
0.527166666666667
 20
-4.5
 30
0.0
 40
0.5
  1
4.171875
100
AcDbAttributeDefinition
  3

  2
C1
 70
     8
280
     0
  0
ATTDEF
  5
EC
330
D9
100
AcDbEntity
  8
AM_6
100
AcDbText
 10
0.527166666666667
 20
-5.0
 30
0.0
 40
0.5
  1
1.483
100
AcDbAttributeDefinition
  3

  2
D
 70
     8
280
     0
  0
ATTDEF
  5
ED
330
D9
100
AcDbEntity
  8
AM_6
100
AcDbText
 10
0.527166666666667
 20
-5.5
 30
0.0
 40
0.5
  1
5
100
AcDbAttributeDefinition
  3

  2
E
 70
     8
280
     0
  0
ATTDEF
  5
EE
330
D9
100
AcDbEntity
  8
AM_6
100
AcDbText
 10
0.527166666666667
 20
-6.0
 30
0.0
 40
0.5
  1
0.2500
100
AcDbAttributeDefinition
  3

  2
NDM
 70
     8
280
     0
  0
ATTDEF
  5
EF
330
D9
100
AcDbEntity
  8
AM_6
100
AcDbText
 10
0.527166666666667
 20
-6.5
 30
0.0
 40
0.5
  1
0.1960
100
AcDbAttributeDefinition
  3

  2
KDM
 70
     8
280
     0
  0
ATTDEF
  5
F0
330
D9
100
AcDbEntity
  8
AM_6
100
AcDbText
 10
0.527166666666667
 20
-7.0
 30
0.0
 40
0.5
  1
4.28
100
AcDbAttributeDefinition
  3

  2
AL
 70
     8
280
     0
  0
ATTDEF
  5
F1
330
D9
100
AcDbEntity
  8
AM_6
100
AcDbText
 10
0.527166666666667
 20
-7.5
 30
0.0
 40
0.5
  1
0.50
100
AcDbAttributeDefinition
  3

  2
BL
 70
     8
280
     0
  0
ATTDEF
  5
F2
330
D9
100
AcDbEntity
  8
AM_6
100
AcDbText
 10
0.527166666666667
 20
-8.0
 30
0.0
 40
0.5
  1
0.07
100
AcDbAttributeDefinition
  3

  2
CL
 70
     8
280
     0
  0
ATTDEF
  5
F3
330
D9
100
AcDbEntity
  8
AM_6
100
AcDbText
 10
0.527166666666667
 20
-8.5
 30
0.0
 40
0.5
  1
0.44
100
AcDbAttributeDefinition
  3

  2
DL
 70
     8
280
     0
  0
ATTDEF
  5
F4
330
D9
100
AcDbEntity
  8
AM_6
100
AcDbText
 10
0.527166666666667
 20
-9.0
 30
0.0
 40
0.5
  1
baldor
100
AcDbAttributeDefinition
  3

  2
COMPANY
 70
     8
280
     0
  0
LINE
  5
F5
330
D9
100
AcDbEntity
  8
AM_9
100
AcDbLine
 10
-4.842833333333333
 20
1.664943722831429
 30
0.0
 11
-4.912833333333333
 21
1.664943722831429
 31
0.0
  0
LINE
  5
F6
330
D9
100
AcDbEntity
  8
AM_9
100
AcDbLine
 10
-4.472833333333334
 20
1.619662894025522
 30
0.0
 11
-4.842833333333333
 21
1.619662894025522
 31
0.0
  0
LINE
  5
F7
330
D9
100
AcDbEntity
  8
AM_9
100
AcDbLine
 10
-4.472833333333334
 20
1.535877497308362
 30
0.0
 11
-4.472833333333333
 21
1.715333752116795
 31
0.0
  0
LINE
  5
F8
330
D9
100
AcDbEntity
  8
AM_9
100
AcDbLine
 10
-4.472833333333334
 20
1.535877497308362
 30
0.0
 11
-4.912833333333333
 21
1.535877497308362
 31
0.0
  0
LINE
  5
F9
330
D9
100
AcDbEntity
  8
AM_9
100
AcDbLine
 10
-4.842833333333333
 20
1.715333752116795
 30
0.0
 11
-4.472833333333333
 21
1.715333752116795
 31
0.0
  0
LINE
  5
FA
330
D9
100
AcDbEntity
  8
AM_9
100
AcDbLine
 10
-4.472833333333334
 20
1.631548355399634
 30
0.0
 11
-4.912833333333333
 21
1.631548355399634
 31
0.0
  0
LINE
  5
FB
330
D9
100
AcDbEntity
  8
AM_9
100
AcDbLine
 10
-4.842833333333333
 20
1.760614580922702
 30
0.0
 11
-4.912833333333333
 21
1.760614580922702
 31
0.0
  0
LINE
  5
FC
330
D9
100
AcDbEntity
  8
AM_9
100
AcDbLine
 10
-4.842833333333333
 20
2.204861111111111
 30
0.0
 11
-4.912833333333333
 21
2.204861111111111
 31
0.0
  0
LINE
  5
FD
330
D9
100
AcDbEntity
  8
AM_9
100
AcDbLine
 10
-4.842833333333333
 20
2.329911401963232
 30
0.0
 11
-4.912833333333333
 21
2.329911401963232
 31
0.0
  0
LINE
  5
FE
330
D9
100
AcDbEntity
  8
AM_9
100
AcDbLine
 10
-4.842833333333333
 20
-2.204861111111111
 30
0.0
 11
-4.912833333333333
 21
-2.204861111111111
 31
0.0
  0
LINE
  5
FF
330
D9
100
AcDbEntity
  8
AM_9
100
AcDbLine
 10
-4.912833333333333
 20
-2.329911401963232
 30
0.0
 11
-4.842833333333333
 21
-2.329911401963232
 31
0.0
  0
LINE
  5
100
330
D9
100
AcDbEntity
  8
AM_9
100
AcDbLine
 10
-4.842833333333333
 20
-1.853898794815158
 30
0.0
 11
-4.912833333333333
 21
-1.853898794815158
 31
0.0
  0
LINE
  5
101
330
D9
100
AcDbEntity
  8
AM_9
100
AcDbLine
 10
-4.842833333333333
 20
1.853898794815157
 30
0.0
 11
-4.912833333333333
 21
1.853898794815157
 31
0.0
  0
LINE
  5
102
330
D9
100
AcDbEntity
  8
AM_9
100
AcDbLine
 10
-4.842833333333333
 20
1.399292757095684
 30
0.0
 11
-4.912833333333333
 21
1.399292757095684
 31
0.0
  0
LINE
  5
103
330
D9
100
AcDbEntity
  8
AM_9
100
AcDbLine
 10
-4.842833333333333
 20
-1.399292757095684
 30
0.0
 11
-4.912833333333333
 21
-1.399292757095684
 31
0.0
  0
LINE
  5
104
330
D9
100
AcDbEntity
  8
AM_9
100
AcDbLine
 10
-4.842833333333333
 20
-1.222516061799047
 30
0.0
 11
-4.912833333333333
 21
-1.222516061799047
 31
0.0
  0
LINE
  5
105
330
D9
100
AcDbEntity
  8
AM_9
100
AcDbLine
 10
-4.842833333333333
 20
1.222516061799047
 30
0.0
 11
-4.912833333333333
 21
1.222516061799047
 31
0.0
  0
LINE
  5
106
330
D9
100
AcDbEntity
  8
AM_9
100
AcDbLine
 10
-4.842833333333333
 20
-1.470683895592854
 30
0.0
 11
-4.912833333333333
 21
-1.470683895592854
 31
0.0
  0
LINE
  5
107
330
D9
100
AcDbEntity
  8
AM_9
100
AcDbLine
 10
-4.842833333333333
 20
-1.647460590889495
 30
0.0
 11
-4.912833333333333
 21
-1.647460590889495
 31
0.0
  0
LINE
  5
108
330
D9
100
AcDbEntity
  8
AM_9
100
AcDbLine
 10
-4.912833333333333
 20
-1.684107807205653
 30
0.0
 11
-4.842833333333333
 21
-1.684107807205653
 31
0.0
  0
LINE
  5
109
330
D9
100
AcDbEntity
  8
AM_9
100
AcDbLine
 10
-4.842833333333333
 20
1.647460590889491
 30
0.0
 11
-4.912833333333333
 21
1.647460590889491
 31
0.0
  0
LINE
  5
10A
330
D9
100
AcDbEntity
  8
AM_9
100
AcDbLine
 10
-4.842833333333333
 20
1.470683895592854
 30
0.0
 11
-4.912833333333333
 21
1.470683895592854
 31
0.0
  0
LINE
  5
10B
330
D9
100
AcDbEntity
  8
AM_9
100
AcDbLine
 10
-4.842833333333333
 20
1.684107807205654
 30
0.0
 11
-4.912833333333333
 21
1.684107807205654
 31
0.0
  0
LINE
  5
10C
330
D9
100
AcDbEntity
  8
AM_9
100
AcDbLine
 10
-4.842833333333333
 20
0.1250000000000003
 30
0.0
 11
-4.912833333333333
 21
0.1250000000000003
 31
0.0
  0
LINE
  5
10D
330
D9
100
AcDbEntity
  8
AM_9
100
AcDbLine
 10
-4.842833333333333
 20
-0.1249999999999999
 30
0.0
 11
-4.912833333333333
 21
-0.1249999999999999
 31
0.0
  0
LINE
  5
10E
330
D9
100
AcDbEntity
  8
AM_4
100
AcDbLine
 10
-4.842833333333333
 20
2.5
 30
0.0
 11
-4.912833333333333
 21
2.5
 31
0.0
  0
LINE
  5
10F
330
D9
100
AcDbEntity
  8
AM_4
100
AcDbLine
 10
-4.912833333333333
 20
-2.5
 30
0.0
 11
-4.842833333333333
 21
-2.5
 31
0.0
  0
LINE
  5
110
330
D9
100
AcDbEntity
  8
AM_4
100
AcDbLine
 10
-4.912833333333333
 20
2.5
 30
0.0
 11
-4.912833333333333
 21
-2.5
 31
0.0
  0
LINE
  5
111
330
D9
100
AcDbEntity
  8
AM_4
100
AcDbLine
 10
-4.842833333333333
 20
2.5
 30
0.0
 11
-4.842833333333333
 21
-2.5
 31
0.0
  0
ENDBLK
  5
DC
330
D9
100
AcDbEntity
  8
0
100
AcDbBlockEnd
  0
BLOCK
  5
114
330
112
100
AcDbEntity
  8
0
100
AcDbBlockBegin
  2
5_070903E_0_in_071332_2
 70
     2
 10
0.0
 20
0.0
 30
0.0
  3
5_070903E_0_in_071332_2
  1

  0
ATTDEF
  5
116
330
112
100
AcDbEntity
  8
AM_6
100
AcDbText
 10
4.034999999999999
 20
3.1496
 30
0.0
 40
0.5
  1
Imperial/E Insert -Inch
100
AcDbAttributeDefinition
  3

  2
NN
 70
     8
280
     0
  0
ATTDEF
  5
117
330
112
100
AcDbEntity
  8
AM_6
100
AcDbText
 10
4.034999999999999
 20
2.6496
 30
0.0
 40
0.5
  1
Imperial Bearings
100
AcDbAttributeDefinition
  3

  2
NT
 70
     8
280
     0
  0
ATTDEF
  5
118
330
112
100
AcDbEntity
  8
AM_6
100
AcDbText
 10
4.034999999999999
 20
2.1496
 30
0.0
 40
0.5
  1
070903E
100
AcDbAttributeDefinition
  3

  2
NB
 70
     8
280
     0
  0
ATTDEF
  5
119
330
112
100
AcDbEntity
  8
AM_6
100
AcDbText
 10
4.034999999999999
 20
1.6496
 30
0.0
 40
0.5
  1
$PN.
100
AcDbAttributeDefinition
  3

  2
NBSYN
 70
     8
280
     0
  0
ATTDEF
  5
11A
330
112
100
AcDbEntity
  8
AM_6
100
AcDbText
 10
4.034999999999999
 20
1.1496
 30
0.0
 40
0.5
  1
070903E
100
AcDbAttributeDefinition
  3

  2
LINA
 70
     8
280
     0
  0
ATTDEF
  5
11B
330
112
100
AcDbEntity
  8
AM_6
100
AcDbText
 10
4.034999999999999
 20
0.6495999999999995
 30
0.0
 40
0.5
  1
3-7/16
100
AcDbAttributeDefinition
  3

  2
SS
 70
     8
280
     0
  0
ATTDEF
  5
11C
330
112
100
AcDbEntity
  8
AM_6
100
AcDbText
 10
4.034999999999999
 20
0.1495999999999995
 30
0.0
 40
0.5
  1
3.437500
100
AcDbAttributeDefinition
  3

  2
SS1
 70
     8
280
     0
  0
ATTDEF
  5
11D
330
112
100
AcDbEntity
  8
AM_6
100
AcDbText
 10
4.034999999999999
 20
-0.3504000000000005
 30
0.0
 40
0.5
  1
070903E
100
AcDbAttributeDefinition
  3

  2
PN
 70
     8
280
     0
  0
ATTDEF
  5
11E
330
112
100
AcDbEntity
  8
AM_6
100
AcDbText
 10
4.034999999999999
 20
-0.8504000000000005
 30
0.0
 40
0.5
  1
INS-IP-307R
100
AcDbAttributeDefinition
  3

  2
DESCRIPTION
 70
     8
280
     0
  0
ATTDEF
  5
11F
330
112
100
AcDbEntity
  8
AM_6
100
AcDbText
 10
4.034999999999999
 20
-1.3504
 30
0.0
 40
0.5
  1
Contact Seal
100
AcDbAttributeDefinition
  3

  2
ST
 70
     8
280
     0
  0
ATTDEF
  5
120
330
112
100
AcDbEntity
  8
AM_6
100
AcDbText
 10
4.034999999999999
 20
-1.8504
 30
0.0
 40
0.5
  1
1
100
AcDbAttributeDefinition
  3

  2
ST1
 70
     8
280
     0
  0
ATTDEF
  5
121
330
112
100
AcDbEntity
  8
AM_6
100
AcDbText
 10
4.034999999999999
 20
-2.3504
 30
0.0
 40
0.5
  1
6.2992
100
AcDbAttributeDefinition
  3

  2
A
 70
     8
280
     0
  0
ATTDEF
  5
122
330
112
100
AcDbEntity
  8
AM_6
100
AcDbText
 10
4.034999999999999
 20
-2.8504
 30
0.0
 40
0.5
  1
1-5/8
100
AcDbAttributeDefinition
  3

  2
B
 70
     8
280
     0
  0
ATTDEF
  5
123
330
112
100
AcDbEntity
  8
AM_6
100
AcDbText
 10
4.034999999999999
 20
-3.3504
 30
0.0
 40
0.5
  1
1.625000
100
AcDbAttributeDefinition
  3

  2
B1
 70
     8
280
     0
  0
ATTDEF
  5
124
330
112
100
AcDbEntity
  8
AM_6
100
AcDbText
 10
4.034999999999999
 20
-3.8504
 30
0.0
 40
0.5
  1
4-11/64
100
AcDbAttributeDefinition
  3

  2
C
 70
     8
280
     0
  0
ATTDEF
  5
125
330
112
100
AcDbEntity
  8
AM_6
100
AcDbText
 10
4.034999999999999
 20
-4.3504
 30
0.0
 40
0.5
  1
4.170000
100
AcDbAttributeDefinition
  3

  2
C1
 70
     8
280
     0
  0
ATTDEF
  5
126
330
112
100
AcDbEntity
  8
AM_6
100
AcDbText
 10
4.034999999999999
 20
-4.8504
 30
0.0
 40
0.5
  1
5.40000
100
AcDbAttributeDefinition
  3

  2
CR
 70
     8
280
     0
  0
ATTDEF
  5
127
330
112
100
AcDbEntity
  8
AM_6
100
AcDbText
 10
4.034999999999999
 20
-5.3504
 30
0.0
 40
0.5
  1
1.483
100
AcDbAttributeDefinition
  3

  2
D
 70
     8
280
     0
  0
ATTDEF
  5
128
330
112
100
AcDbEntity
  8
AM_6
100
AcDbText
 10
4.034999999999999
 20
-5.8504
 30
0.0
 40
0.5
  1
5
100
AcDbAttributeDefinition
  3

  2
E
 70
     8
280
     0
  0
ATTDEF
  5
129
330
112
100
AcDbEntity
  8
AM_6
100
AcDbText
 10
4.034999999999999
 20
-6.3504
 30
0.0
 40
0.5
  1
5.000000
100
AcDbAttributeDefinition
  3

  2
E1
 70
     8
280
     0
  0
ATTDEF
  5
12A
330
112
100
AcDbEntity
  8
AM_6
100
AcDbText
 10
4.034999999999999
 20
-6.8504
 30
0.0
 40
0.5
  1
0.2500
100
AcDbAttributeDefinition
  3

  2
NDM
 70
     8
280
     0
  0
ATTDEF
  5
12B
330
112
100
AcDbEntity
  8
AM_6
100
AcDbText
 10
4.034999999999999
 20
-7.3504
 30
0.0
 40
0.5
  1
0.1960
100
AcDbAttributeDefinition
  3

  2
KDM
 70
     8
280
     0
  0
ATTDEF
  5
12C
330
112
100
AcDbEntity
  8
AM_6
100
AcDbText
 10
4.034999999999999
 20
-7.8504
 30
0.0
 40
0.5
  1
4.28
100
AcDbAttributeDefinition
  3

  2
AL
 70
     8
280
     0
  0
ATTDEF
  5
12D
330
112
100
AcDbEntity
  8
AM_6
100
AcDbText
 10
4.034999999999999
 20
-8.3504
 30
0.0
 40
0.5
  1
0.50
100
AcDbAttributeDefinition
  3

  2
BL
 70
     8
280
     0
  0
ATTDEF
  5
12E
330
112
100
AcDbEntity
  8
AM_6
100
AcDbText
 10
4.034999999999999
 20
-8.8504
 30
0.0
 40
0.5
  1
0.07
100
AcDbAttributeDefinition
  3

  2
CL
 70
     8
280
     0
  0
ATTDEF
  5
12F
330
112
100
AcDbEntity
  8
AM_6
100
AcDbText
 10
4.034999999999999
 20
-9.3504
 30
0.0
 40
0.5
  1
0.44
100
AcDbAttributeDefinition
  3

  2
DL
 70
     8
280
     0
  0
ATTDEF
  5
130
330
112
100
AcDbEntity
  8
AM_6
100
AcDbText
 10
4.034999999999999
 20
-9.8504
 30
0.0
 40
0.5
  1
0.8000
100
AcDbAttributeDefinition
  3

  2
LL
 70
     8
280
     0
  0
ATTDEF
  5
131
330
112
100
AcDbEntity
  8
AM_6
100
AcDbText
 10
4.034999999999999
 20
-10.3504
 30
0.0
 40
0.5
  1
0.025
100
AcDbAttributeDefinition
  3

  2
Y
 70
     8
280
     0
  0
ATTDEF
  5
132
330
112
100
AcDbEntity
  8
AM_6
100
AcDbText
 10
4.034999999999999
 20
-10.8504
 30
0.0
 40
0.5
  1
0.025000
100
AcDbAttributeDefinition
  3

  2
Y1
 70
     8
280
     0
  0
ATTDEF
  5
133
330
112
100
AcDbEntity
  8
AM_6
100
AcDbText
 10
4.034999999999999
 20
-11.3504
 30
0.0
 40
0.5
  1
4-3/64
100
AcDbAttributeDefinition
  3

  2
Z
 70
     8
280
     0
  0
ATTDEF
  5
134
330
112
100
AcDbEntity
  8
AM_6
100
AcDbText
 10
4.034999999999999
 20
-11.8504
 30
0.0
 40
0.5
  1
4.046875
100
AcDbAttributeDefinition
  3

  2
Z1
 70
     8
280
     0
  0
ATTDEF
  5
135
330
112
100
AcDbEntity
  8
AM_6
100
AcDbText
 10
4.034999999999999
 20
-12.3504
 30
0.0
 40
0.5
  1
1.24000
100
AcDbAttributeDefinition
  3

  2
P1
 70
     8
280
     0
  0
ATTDEF
  5
136
330
112
100
AcDbEntity
  8
AM_6
100
AcDbText
 10
4.034999999999999
 20
-12.8504
 30
0.0
 40
0.5
  1
1.88000
100
AcDbAttributeDefinition
  3

  2
H1
 70
     8
280
     0
  0
ATTDEF
  5
137
330
112
100
AcDbEntity
  8
AM_6
100
AcDbText
 10
4.034999999999999
 20
-13.3504
 30
0.0
 40
0.5
  1
1.12000
100
AcDbAttributeDefinition
  3

  2
G1
 70
     8
280
     0
  0
ATTDEF
  5
138
330
112
100
AcDbEntity
  8
AM_6
100
AcDbText
 10
4.034999999999999
 20
-13.8504
 30
0.0
 40
0.5
  1
0.13200
100
AcDbAttributeDefinition
  3

  2
CW
 70
     8
280
     0
  0
ATTDEF
  5
139
330
112
100
AcDbEntity
  8
AM_6
100
AcDbText
 10
4.034999999999999
 20
-14.3504
 30
0.0
 40
0.5
  1
5.00000
100
AcDbAttributeDefinition
  3

  2
L1
 70
     8
280
     0
  0
ATTDEF
  5
13A
330
112
100
AcDbEntity
  8
AM_6
100
AcDbText
 10
4.034999999999999
 20
-14.8504
 30
0.0
 40
0.5
  1
baldor
100
AcDbAttributeDefinition
  3

  2
COMPANY
 70
     8
280
     0
  0
LINE
  5
13B
330
112
100
AcDbEntity
  8
AM_9
100
AcDbLine
 10
-1.660500000000001
 20
1.719754559032353
 30
0.0
 11
-4.842833333333333
 21
1.719754559032353
 31
0.0
  0
LINE
  5
13C
330
112
100
AcDbEntity
  8
AM_9
100
AcDbLine
 10
-1.660500000000001
 20
1.624083700941081
 30
0.0
 11
-4.842833333333333
 21
1.624083700941081
 31
0.0
  0
LINE
  5
13D
330
112
100
AcDbEntity
  8
AM_9
100
AcDbLine
 10
-4.002833333333333
 20
2.204861111111111
 30
0.0
 11
-4.059384792200457
 21
2.302811111111111
 31
0.0
  0
LINE
  5
13E
330
112
100
AcDbEntity
  8
AM_9
100
AcDbLine
 10
-4.059384792200457
 20
2.106911111111111
 30
0.0
 11
-4.002833333333333
 21
2.204861111111111
 31
0.0
  0
LINE
  5
13F
330
112
100
AcDbEntity
  8
AM_9
100
AcDbLine
 10
-4.002833333333339
 20
-2.204861111111111
 30
0.0
 11
-4.059384792200453
 21
-2.106911111111111
 31
0.0
  0
LINE
  5
140
330
112
100
AcDbEntity
  8
AM_9
100
AcDbLine
 10
-4.059384792200453
 20
-2.302811111111111
 30
0.0
 11
-4.002833333333339
 21
-2.204861111111111
 31
0.0
  0
LINE
  5
141
330
112
100
AcDbEntity
  8
AM_9
100
AcDbLine
 10
-4.815783333333312
 20
-2.302811111111111
 30
0.0
 11
-4.059384792200453
 21
-2.302811111111111
 31
0.0
  0
LINE
  5
142
330
112
100
AcDbEntity
  8
AM_9
100
AcDbLine
 10
-4.059384792200453
 20
-2.106911111111111
 30
0.0
 11
-4.815783333333312
 21
-2.106911111111111
 31
0.0
  0
LINE
  5
143
330
112
100
AcDbEntity
  8
AM_9
100
AcDbLine
 10
-4.059384792200453
 20
-2.106911111111111
 30
0.0
 11
-4.059384792200453
 21
-2.302811111111111
 31
0.0
  0
LINE
  5
144
330
112
100
AcDbEntity
  8
AM_9
100
AcDbLine
 10
-4.059384792200457
 20
2.106911111111111
 30
0.0
 11
-4.059384792200457
 21
2.302811111111111
 31
0.0
  0
LINE
  5
145
330
112
100
AcDbEntity
  8
AM_9
100
AcDbLine
 10
-4.059384792200457
 20
2.302811111111111
 30
0.0
 11
-4.815783333333333
 21
2.302811111111111
 31
0.0
  0
LINE
  5
146
330
112
100
AcDbEntity
  8
AM_9
100
AcDbLine
 10
-4.815783333333333
 20
2.106911111111111
 30
0.0
 11
-4.059384792200457
 21
2.106911111111111
 31
0.0
  0
LINE
  5
147
330
112
100
AcDbEntity
  8
AM_9
100
AcDbLine
 10
-4.815783333333333
 20
2.106911111111111
 30
0.0
 11
-4.815783333333333
 21
2.302811111111111
 31
0.0
  0
LINE
  5
148
330
112
100
AcDbEntity
  8
AM_9
100
AcDbLine
 10
-4.815783333333333
 20
2.302811111111111
 30
0.0
 11
-4.842833333333333
 21
2.329861111111111
 31
0.0
  0
LINE
  5
149
330
112
100
AcDbEntity
  8
AM_9
100
AcDbLine
 10
-4.842833333333333
 20
2.079861111111111
 30
0.0
 11
-4.815783333333333
 21
2.106911111111111
 31
0.0
  0
LINE
  5
14A
330
112
100
AcDbEntity
  8
AM_9
100
AcDbLine
 10
-4.815783333333312
 20
-2.106911111111111
 30
0.0
 11
-4.842833333333346
 21
-2.079861111111111
 31
0.0
  0
LINE
  5
14B
330
112
100
AcDbEntity
  8
AM_9
100
AcDbLine
 10
-4.842833333333346
 20
-2.329861111111111
 30
0.0
 11
-4.815783333333312
 21
-2.302811111111111
 31
0.0
  0
LINE
  5
14C
330
112
100
AcDbEntity
  8
AM_9
100
AcDbLine
 10
-4.815783333333312
 20
-2.106911111111111
 30
0.0
 11
-4.815783333333312
 21
-2.302811111111111
 31
0.0
  0
LINE
  5
14D
330
112
100
AcDbEntity
  8
AM_9
100
AcDbLine
 10
-4.402833333333334
 20
-1.336431816442575
 30
0.0
 11
-4.842833333333333
 21
-1.336431816442575
 31
0.0
  0
LINE
  5
14E
330
112
100
AcDbEntity
  8
AM_9
100
AcDbLine
 10
-4.402833333333334
 20
1.336431816442574
 30
0.0
 11
-4.842833333333333
 21
1.336431816442574
 31
0.0
  0
LINE
  5
14F
330
112
100
AcDbEntity
  8
AM_9
100
AcDbLine
 10
-1.660500000000001
 20
1.631548355399633
 30
0.0
 11
-5.160000000000001
 21
1.631548355399634
 31
0.0
  0
LINE
  5
150
330
112
100
AcDbEntity
  8
AM_9
100
AcDbLine
 10
-5.160000000000001
 20
1.535877497308361
 30
0.0
 11
-1.660500000000001
 21
1.53587749730836
 31
0.0
  0
LINE
  5
151
330
112
100
AcDbEntity
  8
AM_9
100
AcDbLine
 10
-1.6605
 20
1.718749999999999
 30
0.0
 11
-5.160000000000001
 21
1.718749999999999
 31
0.0
  0
LINE
  5
152
330
112
100
AcDbEntity
  8
AM_9
100
AcDbLine
 10
-5.160000000000001
 20
-1.718749999999999
 30
0.0
 11
-1.6605
 21
-1.718749999999999
 31
0.0
  0
LINE
  5
153
330
112
100
AcDbEntity
  8
AM_9
100
AcDbLine
 10
-0.9900000000000001
 20
1.80921052631579
 30
0.0
 11
-1.6605
 21
1.80921052631579
 31
0.0
  0
LINE
  5
154
330
112
100
AcDbEntity
  8
AM_9
100
AcDbLine
 10
-1.6605
 20
-1.80921052631579
 30
0.0
 11
-0.9900000000000001
 21
-1.80921052631579
 31
0.0
  0
LINE
  5
155
330
112
100
AcDbEntity
  8
AM_9
100
AcDbLine
 10
-5.160000000000001
 20
1.715333752116795
 30
0.0
 11
-4.842833333333333
 21
1.715333752116795
 31
0.0
  0
LINE
  5
156
330
112
100
AcDbEntity
  8
AM_9
100
AcDbLine
 10
-4.842833333333333
 20
1.619662894025522
 30
0.0
 11
-5.160000000000001
 21
1.619662894025522
 31
0.0
  0
LINE
  5
157
330
112
100
AcDbEntity
  8
AM_9
100
AcDbLine
 10
-4.842833333333333
 20
1.80921052631579
 30
0.0
 11
-4.912833333333333
 21
1.80921052631579
 31
0.0
  0
LINE
  5
158
330
112
100
AcDbEntity
  8
AM_9
100
AcDbLine
 10
-4.912833333333333
 20
-1.80921052631579
 30
0.0
 11
-4.842833333333333
 21
-1.80921052631579
 31
0.0
  0
LINE
  5
159
330
112
100
AcDbEntity
  8
AM_9
100
AcDbLine
 10
-4.402833333333334
 20
-1.336431816442575
 30
0.0
 11
-4.402833333333334
 21
-1.587587230988546
 31
0.0
  0
LINE
  5
15A
330
112
100
AcDbEntity
  8
AM_9
100
AcDbLine
 10
-4.402833333333334
 20
1.587587230988545
 30
0.0
 11
-4.402833333333334
 21
1.336431816442574
 31
0.0
  0
LINE
  5
15B
330
112
100
AcDbEntity
  8
AM_9
100
AcDbLine
 10
-0.9900000000000001
 20
-2.0234375
 30
0.0
 11
-0.9900000000000001
 21
2.0234375
 31
0.0
  0
LINE
  5
15C
330
112
100
AcDbEntity
  8
AM_9
100
AcDbLine
 10
-0.9650000000000007
 20
2.0234375
 30
0.0
 11
-0.9900000000000001
 21
2.0234375
 31
0.0
  0
LINE
  5
15D
330
112
100
AcDbEntity
  8
AM_9
100
AcDbLine
 10
-0.9900000000000001
 20
-2.0234375
 30
0.0
 11
-0.9650000000000007
 21
-2.0234375
 31
0.0
  0
LINE
  5
15E
330
112
100
AcDbEntity
  8
AM_9
100
AcDbLine
 10
-4.29
 20
-2.509649741727814
 30
0.0
 11
-3.334627379678136
 21
-2.526325832846175
 31
0.0
  0
LINE
  5
15F
330
112
100
AcDbEntity
  8
AM_9
100
AcDbLine
 10
-3.334627379678136
 20
2.526325832846175
 30
0.0
 11
-4.29
 21
2.509649741727814
 31
0.0
  0
LINE
  5
160
330
112
100
AcDbEntity
  8
AM_9
100
AcDbLine
 10
-3.334627379678136
 20
-2.526325832846175
 30
0.0
 11
-3.334627379678136
 21
2.526325832846175
 31
0.0
  0
ARC
  5
161
330
112
100
AcDbEntity
  8
AM_9
100
AcDbCircle
 10
-3.335500000000001
 20
2.576318217603995
 30
0.0
 40
0.0500000000000008
100
AcDbArc
 50
271.0000000000011
 51
0.0
  0
ARC
  5
162
330
112
100
AcDbEntity
  8
AM_9
100
AcDbCircle
 10
-3.335500000000001
 20
-2.576318217603995
 30
0.0
 40
0.0500000000000012
100
AcDbArc
 50
0.0
 51
88.99999999999885
  0
LINE
  5
163
330
112
100
AcDbEntity
  8
AM_9
100
AcDbLine
 10
-0.9650000000000006
 20
2.272727272727272
 30
0.0
 11
-0.9650000000000007
 21
2.697916666666666
 31
0.0
  0
LINE
  5
164
330
112
100
AcDbEntity
  8
AM_9
100
AcDbLine
 10
-0.9650000000000007
 20
2.697916666666666
 30
0.0
 11
-1.3355
 21
2.697916666666666
 31
0.0
  0
LINE
  5
165
330
112
100
AcDbEntity
  8
AM_9
100
AcDbLine
 10
-1.3355
 20
-2.697916666666666
 30
0.0
 11
-0.9650000000000007
 21
-2.697916666666666
 31
0.0
  0
LINE
  5
166
330
112
100
AcDbEntity
  8
AM_9
100
AcDbLine
 10
-0.9650000000000007
 20
-2.697916666666666
 30
0.0
 11
-0.9650000000000006
 21
-2.272727272727272
 31
0.0
  0
LINE
  5
167
330
112
100
AcDbEntity
  8
AM_9
100
AcDbLine
 10
-1.3355
 20
-2.704226135594408
 30
0.0
 11
-1.3355
 21
2.704226135594408
 31
0.0
  0
ARC
  5
168
330
112
100
AcDbEntity
  8
AM_9
100
AcDbCircle
 10
-1.435500000000002
 20
2.704226135594408
 30
0.0
 40
0.1000000000000021
100
AcDbArc
 50
0.0
 51
59.99999999999946
  0
ARC
  5
169
330
112
100
AcDbEntity
  8
AM_9
100
AcDbCircle
 10
-1.435500000000002
 20
-2.704226135594408
 30
0.0
 40
0.1000000000000014
100
AcDbArc
 50
300.0000000000005
 51
0.0
  0
LINE
  5
16A
330
112
100
AcDbEntity
  8
AM_9
100
AcDbLine
 10
-1.3855
 20
-2.790828675972853
 30
0.0
 11
-1.3855
 21
2.790828675972853
 31
0.0
  0
LINE
  5
16B
330
112
100
AcDbEntity
  8
AM_9
100
AcDbLine
 10
-1.3855
 20
2.790828675972853
 30
0.0
 11
-1.6605
 21
2.9496
 31
0.0
  0
LINE
  5
16C
330
112
100
AcDbEntity
  8
AM_9
100
AcDbLine
 10
-1.6605
 20
-2.9496
 30
0.0
 11
-1.3855
 21
-2.790828675972853
 31
0.0
  0
LINE
  5
16D
330
112
100
AcDbEntity
  8
AM_9
100
AcDbLine
 10
-2.446090290628343
 20
3.06835
 30
0.0
 11
-2.539909709371657
 21
3.06835
 31
0.0
  0
LINE
  5
16E
330
112
100
AcDbEntity
  8
AM_9
100
AcDbLine
 10
-2.539909709371657
 20
-3.06835
 30
0.0
 11
-2.446090290628343
 21
-3.06835
 31
0.0
  0
LINE
  5
16F
330
112
100
AcDbEntity
  8
AM_9
100
AcDbLine
 10
-3.2855
 20
-3.139600000000001
 30
0.0
 11
-3.2855
 21
3.139600000000001
 31
0.0
  0
ARC
  5
170
330
112
100
AcDbEntity
  8
AM_9
100
AcDbCircle
 10
-3.275500000000001
 20
3.1396
 30
0.0
 40
0.0099999999999993
100
AcDbArc
 50
90.0
 51
180.0
  0
ARC
  5
171
330
112
100
AcDbEntity
  8
AM_9
100
AcDbCircle
 10
-3.275500000000001
 20
-3.1396
 30
0.0
 40
0.0099999999999989
100
AcDbArc
 50
180.0
 51
270.0
  0
LINE
  5
172
330
112
100
AcDbEntity
  8
AM_9
100
AcDbLine
 10
-3.275500000000001
 20
-3.1496
 30
0.0
 11
-3.275500000000001
 21
3.1496
 31
0.0
  0
LINE
  5
173
330
112
100
AcDbEntity
  8
AM_9
100
AcDbLine
 10
-2.586819418743314
 20
3.1496
 30
0.0
 11
-3.275500000000001
 21
3.1496
 31
0.0
  0
LINE
  5
174
330
112
100
AcDbEntity
  8
AM_9
100
AcDbLine
 10
-3.275500000000001
 20
-3.1496
 30
0.0
 11
-2.586819418743314
 21
-3.1496
 31
0.0
  0
LINE
  5
175
330
112
100
AcDbEntity
  8
AM_9
100
AcDbLine
 10
-1.7105
 20
3.1496
 30
0.0
 11
-2.399180581256685
 21
3.1496
 31
0.0
  0
LINE
  5
176
330
112
100
AcDbEntity
  8
AM_9
100
AcDbLine
 10
-2.399180581256685
 20
-3.1496
 30
0.0
 11
-1.7105
 21
-3.1496
 31
0.0
  0
LINE
  5
177
330
112
100
AcDbEntity
  8
AM_9
100
AcDbLine
 10
-2.399180581256685
 20
-3.1496
 30
0.0
 11
-2.399180581256685
 21
3.1496
 31
0.0
  0
LINE
  5
178
330
112
100
AcDbEntity
  8
AM_9
100
AcDbLine
 10
-2.446090290628343
 20
-3.06835
 30
0.0
 11
-2.446090290628343
 21
3.06835
 31
0.0
  0
LINE
  5
179
330
112
100
AcDbEntity
  8
AM_9
100
AcDbLine
 10
-2.446090290628343
 20
-3.06835
 30
0.0
 11
-2.399180581256685
 21
-3.1496
 31
0.0
  0
LINE
  5
17A
330
112
100
AcDbEntity
  8
AM_9
100
AcDbLine
 10
-2.399180581256685
 20
3.1496
 30
0.0
 11
-2.446090290628343
 21
3.06835
 31
0.0
  0
LINE
  5
17B
330
112
100
AcDbEntity
  8
AM_9
100
AcDbLine
 10
-2.539909709371657
 20
-3.06835
 30
0.0
 11
-2.539909709371657
 21
3.06835
 31
0.0
  0
LINE
  5
17C
330
112
100
AcDbEntity
  8
AM_9
100
AcDbLine
 10
-2.586819418743314
 20
-3.1496
 30
0.0
 11
-2.586819418743314
 21
3.1496
 31
0.0
  0
LINE
  5
17D
330
112
100
AcDbEntity
  8
AM_9
100
AcDbLine
 10
-2.539909709371657
 20
3.06835
 30
0.0
 11
-2.586819418743314
 21
3.1496
 31
0.0
  0
LINE
  5
17E
330
112
100
AcDbEntity
  8
AM_9
100
AcDbLine
 10
-2.586819418743314
 20
-3.1496
 30
0.0
 11
-2.539909709371657
 21
-3.06835
 31
0.0
  0
LINE
  5
17F
330
112
100
AcDbEntity
  8
AM_9
100
AcDbLine
 10
-1.6605
 20
-3.0996
 30
0.0
 11
-1.6605
 21
3.0996
 31
0.0
  0
LINE
  5
180
330
112
100
AcDbEntity
  8
AM_9
100
AcDbLine
 10
-1.7105
 20
-3.1496
 30
0.0
 11
-1.7105
 21
3.1496
 31
0.0
  0
ARC
  5
181
330
112
100
AcDbEntity
  8
AM_9
100
AcDbCircle
 10
-1.710499999999996
 20
3.099600000000003
 30
0.0
 40
0.049999999999996
100
AcDbArc
 50
0.0
 51
90.0
  0
ARC
  5
182
330
112
100
AcDbEntity
  8
AM_9
100
AcDbCircle
 10
-1.7105
 20
-3.0996
 30
0.0
 40
0.0499999999999998
100
AcDbArc
 50
270.0
 51
0.0
  0
LINE
  5
183
330
112
100
AcDbEntity
  8
AM_5
100
AcDbLine
 10
-4.842833333333333
 20
2.329861111111111
 30
0.0
 11
-4.142833333333334
 21
2.329861111111111
 31
0.0
  0
LINE
  5
184
330
112
100
AcDbEntity
  8
AM_5
100
AcDbLine
 10
-4.142833333333334
 20
2.329861111111111
 30
0.0
 11
-4.115860643730191
 21
2.314288421507968
 31
0.0
  0
LINE
  5
185
330
112
100
AcDbEntity
  8
AM_5
100
AcDbLine
 10
-4.842833333333333
 20
2.079861111111111
 30
0.0
 11
-4.142833333333334
 21
2.079861111111111
 31
0.0
  0
LINE
  5
186
330
112
100
AcDbEntity
  8
AM_5
100
AcDbLine
 10
-4.142833333333334
 20
2.079861111111111
 30
0.0
 11
-4.115860643730191
 21
2.095433800714254
 31
0.0
  0
LINE
  5
187
330
112
100
AcDbEntity
  8
AM_5
100
AcDbLine
 10
-4.842833333333333
 20
-2.329861111111111
 30
0.0
 11
-4.14283333333334
 21
-2.329861111111111
 31
0.0
  0
LINE
  5
188
330
112
100
AcDbEntity
  8
AM_5
100
AcDbLine
 10
-4.14283333333334
 20
-2.329861111111111
 30
0.0
 11
-4.115860643730174
 21
-2.314288421507952
 31
0.0
  0
LINE
  5
189
330
112
100
AcDbEntity
  8
AM_5
100
AcDbLine
 10
-4.842833333333333
 20
-2.079861111111111
 30
0.0
 11
-4.14283333333334
 21
-2.079861111111111
 31
0.0
  0
LINE
  5
18A
330
112
100
AcDbEntity
  8
AM_5
100
AcDbLine
 10
-4.14283333333334
 20
-2.079861111111111
 30
0.0
 11
-4.115860643730173
 21
-2.095433800714271
 31
0.0
  0
LINE
  5
18D
330
112
100
AcDbEntity
  8
AM_7
100
AcDbLine
 10
-3.960833333333333
 20
2.204861111111111
 30
0.0
 11
-5.091433333333333
 21
2.204861111111111
 31
0.0
  0
LINE
  5
18E
330
112
100
AcDbEntity
  8
AM_7
100
AcDbLine
 10
-3.960833333333338
 20
-2.204861111111111
 30
0.0
 11
-5.091433333333333
 21
-2.204861111111111
 31
0.0
  0
LINE
  5
18F
330
112
100
AcDbEntity
  8
AM_4
100
AcDbLine
 10
-4.402833333333334
 20
-1.689985207035849
 30
0.0
 11
-4.842833333333333
 21
-1.689985207035849
 31
0.0
  0
LINE
  5
190
330
112
100
AcDbEntity
  8
AM_4
100
AcDbLine
 10
-4.402833333333334
 20
1.689985207035848
 30
0.0
 11
-4.842833333333333
 21
1.689985207035848
 31
0.0
  0
LINE
  5
191
330
112
100
AcDbEntity
  8
AM_4
100
AcDbLine
 10
-4.912833333333333
 20
1.80921052631579
 30
0.0
 11
-5.160000000000001
 21
1.80921052631579
 31
0.0
  0
LINE
  5
192
330
112
100
AcDbEntity
  8
AM_4
100
AcDbLine
 10
-5.160000000000001
 20
-1.80921052631579
 30
0.0
 11
-4.912833333333333
 21
-1.80921052631579
 31
0.0
  0
LINE
  5
193
330
112
100
AcDbEntity
  8
AM_4
100
AcDbLine
 10
-5.160000000000001
 20
-1.80921052631579
 30
0.0
 11
-5.160000000000001
 21
1.80921052631579
 31
0.0
  0
LINE
  5
194
330
112
100
AcDbEntity
  8
AM_4
100
AcDbLine
 10
-4.842833333333333
 20
-1.582129214637147
 30
0.0
 11
-4.842833333333333
 21
1.582129214637146
 31
0.0
  0
LINE
  5
195
330
112
100
AcDbEntity
  8
AM_4
100
AcDbLine
 10
-4.842833333333333
 20
-1.582129214637147
 30
0.0
 11
-4.402833333333334
 21
-1.587587230988546
 31
0.0
  0
LINE
  5
196
330
112
100
AcDbEntity
  8
AM_4
100
AcDbLine
 10
-4.402833333333334
 20
-1.587587230988546
 30
0.0
 11
-4.402833333333334
 21
-1.941140621581819
 31
0.0
  0
LINE
  5
197
330
112
100
AcDbEntity
  8
AM_4
100
AcDbLine
 10
-4.402833333333334
 20
-1.941140621581819
 30
0.0
 11
-4.842833333333333
 21
-1.935682605230421
 31
0.0
  0
LINE
  5
198
330
112
100
AcDbEntity
  8
AM_4
100
AcDbLine
 10
-4.842833333333333
 20
1.935682605230421
 30
0.0
 11
-4.842833333333333
 21
2.499999999999997
 31
0.0
  0
LINE
  5
199
330
112
100
AcDbEntity
  8
AM_4
100
AcDbLine
 10
-4.842833333333333
 20
1.935682605230421
 30
0.0
 11
-4.402833333333334
 21
1.941140621581819
 31
0.0
  0
LINE
  5
19A
330
112
100
AcDbEntity
  8
AM_4
100
AcDbLine
 10
-4.402833333333334
 20
1.941140621581819
 30
0.0
 11
-4.402833333333334
 21
1.587587230988545
 31
0.0
  0
LINE
  5
19B
330
112
100
AcDbEntity
  8
AM_4
100
AcDbLine
 10
-4.402833333333334
 20
1.587587230988545
 30
0.0
 11
-4.842833333333333
 21
1.582129214637146
 31
0.0
  0
LINE
  5
19C
330
112
100
AcDbEntity
  8
AM_4
100
AcDbLine
 10
-4.842833333333333
 20
-2.499999999999997
 30
0.0
 11
-4.29
 21
-2.509649741727814
 31
0.0
  0
LINE
  5
19D
330
112
100
AcDbEntity
  8
AM_4
100
AcDbLine
 10
-4.29
 20
2.509649741727814
 30
0.0
 11
-4.842833333333333
 21
2.499999999999997
 31
0.0
  0
LINE
  5
19E
330
112
100
AcDbEntity
  8
AM_4
100
AcDbLine
 10
-4.842833333333333
 20
-2.499999999999997
 30
0.0
 11
-4.842833333333333
 21
-1.935682605230421
 31
0.0
  0
LINE
  5
19F
330
112
100
AcDbEntity
  8
AM_4
100
AcDbLine
 10
-0.9650000000000006
 20
-2.272727272727272
 30
0.0
 11
-0.9650000000000006
 21
2.272727272727272
 31
0.0
  0
ENDBLK
  5
115
330
112
100
AcDbEntity
  8
0
100
AcDbBlockEnd
  0
BLOCK
  5
1A2
330
1A0
100
AcDbEntity
  8
0
100
AcDbBlockBegin
  2
6_405015E_Inch_0_in_071332_2
 70
     2
 10
0.0
 20
0.0
 30
0.0
  3
6_405015E_Inch_0_in_071332_2
  1

  0
ATTDEF
  5
1A4
330
1A0
100
AcDbEntity
  8
AM_6
100
AcDbText
 10
2.172590742770461
 20
4.182
 30
0.0
 40
0.5
  1
405015E -Inch
100
AcDbAttributeDefinition
  3

  2
NN
 70
     8
280
     0
  0
ATTDEF
  5
1A5
330
1A0
100
AcDbEntity
  8
AM_6
100
AcDbText
 10
2.172590742770461
 20
3.682
 30
0.0
 40
0.5
  1
Grease Fitting
100
AcDbAttributeDefinition
  3

  2
NT
 70
     8
280
     0
  0
ATTDEF
  5
1A6
330
1A0
100
AcDbEntity
  8
AM_6
100
AcDbText
 10
2.172590742770461
 20
3.182
 30
0.0
 40
0.5
  1
405015E-Inch
100
AcDbAttributeDefinition
  3

  2
NB
 70
     8
280
     0
  0
ATTDEF
  5
1A7
330
1A0
100
AcDbEntity
  8
AM_6
100
AcDbText
 10
2.172590742770461
 20
2.682
 30
0.0
 40
0.5
  1
$MN.-Inch
100
AcDbAttributeDefinition
  3

  2
NBSYN
 70
     8
280
     0
  0
ATTDEF
  5
1A8
330
1A0
100
AcDbEntity
  8
AM_6
100
AcDbText
 10
2.172590742770461
 20
2.182
 30
0.0
 40
0.5
  1
405015E
100
AcDbAttributeDefinition
  3

  2
LINA
 70
     8
280
     0
  0
ATTDEF
  5
1A9
330
1A0
100
AcDbEntity
  8
AM_6
100
AcDbText
 10
2.172590742770461
 20
1.682
 30
0.0
 40
0.5
  1
405015E
100
AcDbAttributeDefinition
  3

  2
MN
 70
     8
280
     0
  0
ATTDEF
  5
1AA
330
1A0
100
AcDbEntity
  8
AM_6
100
AcDbText
 10
2.172590742770461
 20
1.182
 30
0.0
 40
0.5
  1
1/8 x 27PTF
100
AcDbAttributeDefinition
  3

  2
T
 70
     8
280
     0
  0
ATTDEF
  5
1AB
330
1A0
100
AcDbEntity
  8
AM_6
100
AcDbText
 10
2.172590742770461
 20
0.6820000000000004
 30
0.0
 40
0.5
  1
baldor
100
AcDbAttributeDefinition
  3

  2
COMPANY
 70
     8
280
     0
  0
LINE
  5
1AC
330
1A0
100
AcDbEntity
  8
AM_9
100
AcDbLine
 10
-3.241902872472269
 20
3.510000000000001
 30
0.0
 11
-2.918097127527731
 21
3.510000000000001
 31
0.0
  0
LINE
  5
1AD
330
1A0
100
AcDbEntity
  8
AM_9
100
AcDbLine
 10
-2.918097127527731
 20
3.510000000000001
 30
0.0
 11
-2.881382373218784
 21
3.546714754308947
 31
0.0
  0
LINE
  5
1AE
330
1A0
100
AcDbEntity
  8
AM_9
100
AcDbLine
 10
-3.278617626781215
 20
3.546714754308947
 30
0.0
 11
-3.241902872472269
 21
3.510000000000001
 31
0.0
  0
LINE
  5
1AF
330
1A0
100
AcDbEntity
  8
AM_9
100
AcDbLine
 10
-3.278617626781215
 20
3.546714754308947
 30
0.0
 11
-2.881382373218784
 21
3.546714754308947
 31
0.0
  0
LINE
  5
1B0
330
1A0
100
AcDbEntity
  8
AM_9
100
AcDbLine
 10
-2.881382373218784
 20
3.546714754308947
 30
0.0
 11
-2.87424810277693
 21
3.775
 31
0.0
  0
LINE
  5
1B1
330
1A0
100
AcDbEntity
  8
AM_9
100
AcDbLine
 10
-3.285751897223069
 20
3.775
 30
0.0
 11
-3.278617626781215
 21
3.546714754308947
 31
0.0
  0
LINE
  5
1B2
330
1A0
100
AcDbEntity
  8
AM_5
100
AcDbLine
 10
-2.911850875147652
 20
3.709870087748464
 30
0.0
 11
-2.918097127527731
 21
3.510000000000001
 31
0.0
  0
LINE
  5
1B3
330
1A0
100
AcDbEntity
  8
AM_5
100
AcDbLine
 10
-2.87424810277693
 20
3.775
 30
0.0
 11
-2.911850875147652
 21
3.709870087748464
 31
0.0
  0
LINE
  5
1B4
330
1A0
100
AcDbEntity
  8
AM_5
100
AcDbLine
 10
-3.283716485751557
 20
3.709870087748464
 30
0.0
 11
-2.876283514248443
 21
3.709870087748464
 31
0.0
  0
LINE
  5
1B5
330
1A0
100
AcDbEntity
  8
AM_5
100
AcDbLine
 10
-3.248149124852348
 20
3.709870087748464
 30
0.0
 11
-3.241902872472269
 21
3.510000000000001
 31
0.0
  0
LINE
  5
1B6
330
1A0
100
AcDbEntity
  8
AM_5
100
AcDbLine
 10
-3.285751897223069
 20
3.775
 30
0.0
 11
-3.248149124852348
 21
3.709870087748464
 31
0.0
  0
LINE
  5
1B7
330
1A0
100
AcDbEntity
  8
AM_7
100
AcDbLine
 10
-3.08
 20
4.182
 30
0.0
 11
-3.08
 21
3.478000000000001
 31
0.0
  0
LINE
  5
1B8
330
1A0
100
AcDbEntity
  8
AM_4
100
AcDbLine
 10
-2.975
 20
3.980000000000001
 30
0.0
 11
-2.975
 21
4.010000000000001
 31
0.0
  0
LINE
  5
1B9
330
1A0
100
AcDbEntity
  8
AM_4
100
AcDbLine
 10
-3.185
 20
4.010000000000001
 30
0.0
 11
-3.185
 21
3.980000000000001
 31
0.0
  0
LINE
  5
1BA
330
1A0
100
AcDbEntity
  8
AM_4
100
AcDbLine
 10
-3.29875
 20
3.875
 30
0.0
 11
-2.86125
 21
3.875
 31
0.0
  0
LINE
  5
1BB
330
1A0
100
AcDbEntity
  8
AM_4
100
AcDbLine
 10
-2.827409257229539
 20
3.865932400303386
 30
0.0
 11
-2.86125
 21
3.875
 31
0.0
  0
LINE
  5
1BC
330
1A0
100
AcDbEntity
  8
AM_4
100
AcDbLine
 10
-3.29875
 20
3.875
 30
0.0
 11
-3.332590742770461
 21
3.865932400303386
 31
0.0
  0
LINE
  5
1BD
330
1A0
100
AcDbEntity
  8
AM_4
100
AcDbLine
 10
-2.86125
 20
3.775
 30
0.0
 11
-2.827409257229539
 21
3.784067599696615
 31
0.0
  0
LINE
  5
1BE
330
1A0
100
AcDbEntity
  8
AM_4
100
AcDbLine
 10
-3.332590742770461
 20
3.784067599696615
 30
0.0
 11
-3.29875
 21
3.775
 31
0.0
  0
LINE
  5
1BF
330
1A0
100
AcDbEntity
  8
AM_4
100
AcDbLine
 10
-3.185
 20
3.980000000000001
 30
0.0
 11
-2.975
 21
3.980000000000001
 31
0.0
  0
LINE
  5
1C0
330
1A0
100
AcDbEntity
  8
AM_4
100
AcDbLine
 10
-3.185
 20
3.980000000000001
 30
0.0
 11
-3.198820090734897
 21
3.947753121618573
 31
0.0
  0
LINE
  5
1C1
330
1A0
100
AcDbEntity
  8
AM_4
100
AcDbLine
 10
-2.961179909265102
 20
3.947753121618573
 30
0.0
 11
-2.975
 21
3.980000000000001
 31
0.0
  0
LINE
  5
1C2
330
1A0
100
AcDbEntity
  8
AM_4
100
AcDbLine
 10
-3.182677901933187
 20
4.15
 30
0.0
 11
-2.977322098066812
 21
4.15
 31
0.0
  0
LINE
  5
1C3
330
1A0
100
AcDbEntity
  8
AM_4
100
AcDbLine
 10
-3.182677901933187
 20
4.15
 30
0.0
 11
-3.215
 21
4.07
 31
0.0
  0
LINE
  5
1C4
330
1A0
100
AcDbEntity
  8
AM_4
100
AcDbLine
 10
-2.945
 20
4.07
 30
0.0
 11
-2.977322098066812
 21
4.15
 31
0.0
  0
LINE
  5
1C5
330
1A0
100
AcDbEntity
  8
AM_4
100
AcDbLine
 10
-3.215
 20
4.07
 30
0.0
 11
-2.945
 21
4.07
 31
0.0
  0
LINE
  5
1C6
330
1A0
100
AcDbEntity
  8
AM_4
100
AcDbLine
 10
-3.185
 20
4.010000000000001
 30
0.0
 11
-2.975
 21
4.010000000000001
 31
0.0
  0
LINE
  5
1C7
330
1A0
100
AcDbEntity
  8
AM_4
100
AcDbLine
 10
-2.975
 20
4.010000000000001
 30
0.0
 11
-2.945
 21
4.07
 31
0.0
  0
LINE
  5
1C8
330
1A0
100
AcDbEntity
  8
AM_4
100
AcDbLine
 10
-3.215
 20
4.07
 30
0.0
 11
-3.185
 21
4.010000000000001
 31
0.0
  0
LINE
  5
1C9
330
1A0
100
AcDbEntity
  8
AM_4
100
AcDbLine
 10
-3.198820090734897
 20
3.947753121618573
 30
0.0
 11
-2.961179909265102
 21
3.947753121618573
 31
0.0
  0
LINE
  5
1CA
330
1A0
100
AcDbEntity
  8
AM_4
100
AcDbLine
 10
-3.198820090734897
 20
3.947753121618573
 30
0.0
 11
-3.252534053283015
 21
3.893318198540883
 31
0.0
  0
LINE
  5
1CB
330
1A0
100
AcDbEntity
  8
AM_4
100
AcDbLine
 10
-2.907465946716985
 20
3.893318198540883
 30
0.0
 11
-2.961179909265102
 21
3.947753121618573
 31
0.0
  0
LINE
  5
1CC
330
1A0
100
AcDbEntity
  8
AM_4
100
AcDbLine
 10
-3.252534053283015
 20
3.893318198540883
 30
0.0
 11
-2.907465946716985
 21
3.893318198540883
 31
0.0
  0
LINE
  5
1CD
330
1A0
100
AcDbEntity
  8
AM_4
100
AcDbLine
 10
-3.252534053283015
 20
3.893318198540883
 30
0.0
 11
-3.29375
 21
3.875
 31
0.0
  0
LINE
  5
1CE
330
1A0
100
AcDbEntity
  8
AM_4
100
AcDbLine
 10
-2.86625
 20
3.875
 30
0.0
 11
-2.907465946716985
 21
3.893318198540883
 31
0.0
  0
LINE
  5
1CF
330
1A0
100
AcDbEntity
  8
AM_4
100
AcDbLine
 10
-2.827409257229539
 20
3.865932400303386
 30
0.0
 11
-2.827409257229539
 21
3.784067599696615
 31
0.0
  0
LWPOLYLINE
  5
1D0
330
1A0
100
AcDbEntity
  8
AM_4
100
AcDbPolyline
 90
        4
 70
     0
 43
0.0
 10
-2.890556942922154
 20
3.875
 10
-2.874770021499
 20
3.874392585996002
 10
-2.858983100075847
 20
3.872606619214966
 10
-2.827409257229539
 20
3.865932400303386
  0
LWPOLYLINE
  5
1D1
330
1A0
100
AcDbEntity
  8
AM_4
100
AcDbPolyline
 90
        4
 70
     0
 43
0.0
 10
-2.827409257229539
 20
3.784067599696615
 10
-2.858841135576436
 20
3.77741452494962
 10
-2.874676924397847
 20
3.775614561814228
 10
-2.890556942922154
 20
3.775
  0
LWPOLYLINE
  5
1D2
330
1A0
100
AcDbEntity
  8
AM_4
100
AcDbPolyline
 90
        4
 70
     0
 43
0.0
 10
-2.890556942922154
 20
3.775
 10
-2.906343864345308
 20
3.775607414003999
 10
-2.922130785768462
 20
3.777393380785036
 10
-2.953704628614769
 20
3.784067599696615
  0
LWPOLYLINE
  5
1D3
330
1A0
100
AcDbEntity
  8
AM_4
100
AcDbPolyline
 90
        4
 70
     0
 43
0.0
 10
-3.332590742770461
 20
3.865932400303386
 10
-3.301158864423564
 20
3.87258547505038
 10
-3.285323075602153
 20
3.874385438185773
 10
-3.269443057077846
 20
3.875
  0
LINE
  5
1D4
330
1A0
100
AcDbEntity
  8
AM_4
100
AcDbLine
 10
-3.332590742770461
 20
3.865932400303386
 30
0.0
 11
-3.332590742770461
 21
3.784067599696615
 31
0.0
  0
LWPOLYLINE
  5
1D5
330
1A0
100
AcDbEntity
  8
AM_4
100
AcDbPolyline
 90
        4
 70
     0
 43
0.0
 10
-3.269443057077846
 20
3.775
 10
-3.285229978501
 20
3.775607414003999
 10
-3.301016899924153
 20
3.777393380785036
 10
-3.332590742770461
 20
3.784067599696615
  0
LWPOLYLINE
  5
1D6
330
1A0
100
AcDbEntity
  8
AM_4
100
AcDbPolyline
 90
        4
 70
     0
 43
0.0
 10
-3.206295371385231
 20
3.784067599696615
 10
-3.237727249732127
 20
3.77741452494962
 10
-3.253563038553538
 20
3.775614561814228
 10
-3.269443057077846
 20
3.775
  0
LWPOLYLINE
  5
1D7
330
1A0
100
AcDbEntity
  8
AM_4
100
AcDbPolyline
 90
        4
 70
     0
 43
0.0
 10
-2.953704628614769
 20
3.865932400303386
 10
-2.922272750267872
 20
3.87258547505038
 10
-2.906436961446461
 20
3.874385438185773
 10
-2.890556942922154
 20
3.875
  0
LWPOLYLINE
  5
1D8
330
1A0
100
AcDbEntity
  8
AM_4
100
AcDbPolyline
 90
        4
 70
     0
 43
0.0
 10
-3.269443057077846
 20
3.875
 10
-3.253656135654692
 20
3.874392585996002
 10
-3.237869214231539
 20
3.872606619214966
 10
-3.206295371385231
 20
3.865932400303386
  0
LINE
  5
1D9
330
1A0
100
AcDbEntity
  8
AM_4
100
AcDbLine
 10
-2.953704628614769
 20
3.865932400303386
 30
0.0
 11
-2.953704628614769
 21
3.784067599696615
 31
0.0
  0
LWPOLYLINE
  5
1DA
330
1A0
100
AcDbEntity
  8
AM_4
100
AcDbPolyline
 90
        4
 70
     0
 43
0.0
 10
-3.08
 20
3.875
 10
-3.031600183944101
 20
3.873582439282863
 10
-2.983200367888202
 20
3.869517587482157
 10
-2.953704628614769
 20
3.865932400303386
  0
LWPOLYLINE
  5
1DB
330
1A0
100
AcDbEntity
  8
AM_4
100
AcDbPolyline
 90
        4
 70
     0
 43
0.0
 10
-3.206295371385231
 20
3.865932400303386
 10
-3.143431614691437
 20
3.87258547505038
 10
-3.111760037048614
 20
3.874385438185773
 10
-3.08
 20
3.875
  0
LINE
  5
1DC
330
1A0
100
AcDbEntity
  8
AM_4
100
AcDbLine
 10
-3.206295371385231
 20
3.865932400303386
 30
0.0
 11
-3.206295371385231
 21
3.784067599696615
 31
0.0
  0
LWPOLYLINE
  5
1DD
330
1A0
100
AcDbEntity
  8
AM_4
100
AcDbPolyline
 90
        4
 70
     0
 43
0.0
 10
-3.08
 20
3.775
 10
-3.111573842846308
 20
3.775607414003999
 10
-3.143147685692615
 20
3.777393380785036
 10
-3.206295371385231
 20
3.784067599696615
  0
LWPOLYLINE
  5
1DE
330
1A0
100
AcDbEntity
  8
AM_4
100
AcDbPolyline
 90
        4
 70
     0
 43
0.0
 10
-2.953704628614769
 20
3.784067599696615
 10
-2.983200367888202
 20
3.780482412517844
 10
-3.031457558752245
 20
3.776425828243072
 10
-3.08
 20
3.775
  0
ENDBLK
  5
1A3
330
1A0
100
AcDbEntity
  8
0
100
AcDbBlockEnd
  0
BLOCK
  5
1E1
330
1DF
100
AcDbEntity
  8
0
100
AcDbBlockBegin
  2
7_071332H_0_in_071332_2
 70
     2
 10
0.0
 20
0.0
 30
0.0
  3
7_071332H_0_in_071332_2
  1

  0
ATTDEF
  5
1E3
330
1DF
100
AcDbEntity
  8
AM_6
100
AcDbText
 10
5.241000000043369
 20
4.625
 30
0.0
 40
0.5
  1
EF4S-IP -(Contact Seal)-Housing -Inch
100
AcDbAttributeDefinition
  3

  2
NN
 70
     8
280
     0
  0
ATTDEF
  5
1E4
330
1DF
100
AcDbEntity
  8
AM_6
100
AcDbText
 10
5.241000000043369
 20
4.125
 30
0.0
 40
0.5
  1
Imperial/E 4 Bolt Square Flange Bearings
100
AcDbAttributeDefinition
  3

  2
NT
 70
     8
280
     0
  0
ATTDEF
  5
1E5
330
1DF
100
AcDbEntity
  8
AM_6
100
AcDbText
 10
5.241000000043369
 20
3.625
 30
0.0
 40
0.5
  1
071332H
100
AcDbAttributeDefinition
  3

  2
NB
 70
     8
280
     0
  0
ATTDEF
  5
1E6
330
1DF
100
AcDbEntity
  8
AM_6
100
AcDbText
 10
5.241000000043369
 20
3.125
 30
0.0
 40
0.5
  1
$PN.H
100
AcDbAttributeDefinition
  3

  2
NBSYN
 70
     8
280
     0
  0
ATTDEF
  5
1E7
330
1DF
100
AcDbEntity
  8
AM_6
100
AcDbText
 10
5.241000000043369
 20
2.625
 30
0.0
 40
0.5
  1
071332
100
AcDbAttributeDefinition
  3

  2
LINA
 70
     8
280
     0
  0
ATTDEF
  5
1E8
330
1DF
100
AcDbEntity
  8
AM_6
100
AcDbText
 10
5.241000000043369
 20
2.125
 30
0.0
 40
0.5
  1
3-7/16
100
AcDbAttributeDefinition
  3

  2
SS
 70
     8
280
     0
  0
ATTDEF
  5
1E9
330
1DF
100
AcDbEntity
  8
AM_6
100
AcDbText
 10
5.241000000043369
 20
1.625
 30
0.0
 40
0.5
  1
3.4375
100
AcDbAttributeDefinition
  3

  2
SS1
 70
     8
280
     0
  0
ATTDEF
  5
1EA
330
1DF
100
AcDbEntity
  8
AM_6
100
AcDbText
 10
5.241000000043369
 20
1.125
 30
0.0
 40
0.5
  1
6.2992
100
AcDbAttributeDefinition
  3

  2
BORE
 70
     8
280
     0
  0
ATTDEF
  5
1EB
330
1DF
100
AcDbEntity
  8
AM_6
100
AcDbText
 10
5.241000000043369
 20
0.625
 30
0.0
 40
0.5
  1
Expansion
100
AcDbAttributeDefinition
  3

  2
TYPE
 70
     8
280
     0
  0
ATTDEF
  5
1EC
330
1DF
100
AcDbEntity
  8
AM_6
100
AcDbText
 10
5.241000000043369
 20
0.125
 30
0.0
 40
0.5
  1
EF4B-IP-307R
100
AcDbAttributeDefinition
  3

  2
DESCRIPTION
 70
     8
280
     0
  0
ATTDEF
  5
1ED
330
1DF
100
AcDbEntity
  8
AM_6
100
AcDbText
 10
5.241000000043369
 20
-0.375
 30
0.0
 40
0.5
  1
Non-Expansion Type
100
AcDbAttributeDefinition
  3

  2
EF
 70
     8
280
     0
  0
ATTDEF
  5
1EE
330
1DF
100
AcDbEntity
  8
AM_6
100
AcDbText
 10
5.241000000043369
 20
-0.875
 30
0.0
 40
0.5
  1
1
100
AcDbAttributeDefinition
  3

  2
EF1
 70
     8
280
     0
  0
ATTDEF
  5
1EF
330
1DF
100
AcDbEntity
  8
AM_6
100
AcDbText
 10
5.241000000043369
 20
-1.375
 30
0.0
 40
0.5
  1
Contact Seal
100
AcDbAttributeDefinition
  3

  2
ST
 70
     8
280
     0
  0
ATTDEF
  5
1F0
330
1DF
100
AcDbEntity
  8
AM_6
100
AcDbText
 10
5.241000000043369
 20
-1.875
 30
0.0
 40
0.5
  1
1
100
AcDbAttributeDefinition
  3

  2
ST1
 70
     8
280
     0
  0
ATTDEF
  5
1F1
330
1DF
100
AcDbEntity
  8
AM_6
100
AcDbText
 10
5.241000000043369
 20
-2.375
 30
0.0
 40
0.5
  1
4.17
100
AcDbAttributeDefinition
  3

  2
A
 70
     8
280
     0
  0
ATTDEF
  5
1F2
330
1DF
100
AcDbEntity
  8
AM_6
100
AcDbText
 10
5.241000000043369
 20
-2.875
 30
0.0
 40
0.5
  1
4.170000
100
AcDbAttributeDefinition
  3

  2
A1
 70
     8
280
     0
  0
ATTDEF
  5
1F3
330
1DF
100
AcDbEntity
  8
AM_6
100
AcDbText
 10
5.241000000043369
 20
-3.375
 30
0.0
 40
0.5
  1
9.25
100
AcDbAttributeDefinition
  3

  2
B
 70
     8
280
     0
  0
ATTDEF
  5
1F4
330
1DF
100
AcDbEntity
  8
AM_6
100
AcDbText
 10
5.241000000043369
 20
-3.875
 30
0.0
 40
0.5
  1
9.250000
100
AcDbAttributeDefinition
  3

  2
B1
 70
     8
280
     0
  0
ATTDEF
  5
1F5
330
1DF
100
AcDbEntity
  8
AM_6
100
AcDbText
 10
5.241000000043369
 20
-4.375
 30
0.0
 40
0.5
  1
5.4
100
AcDbAttributeDefinition
  3

  2
C
 70
     8
280
     0
  0
ATTDEF
  5
1F6
330
1DF
100
AcDbEntity
  8
AM_6
100
AcDbText
 10
5.241000000043369
 20
-4.875
 30
0.0
 40
0.5
  1
5.400000
100
AcDbAttributeDefinition
  3

  2
C1
 70
     8
280
     0
  0
ATTDEF
  5
1F7
330
1DF
100
AcDbEntity
  8
AM_6
100
AcDbText
 10
5.241000000043369
 20
-5.375
 30
0.0
 40
0.5
  1
7.00
100
AcDbAttributeDefinition
  3

  2
D
 70
     8
280
     0
  0
ATTDEF
  5
1F8
330
1DF
100
AcDbEntity
  8
AM_6
100
AcDbText
 10
5.241000000043369
 20
-5.875
 30
0.0
 40
0.5
  1
7.000000
100
AcDbAttributeDefinition
  3

  2
D1
 70
     8
280
     0
  0
ATTDEF
  5
1F9
330
1DF
100
AcDbEntity
  8
AM_6
100
AcDbText
 10
5.241000000043369
 20
-6.375
 30
0.0
 40
0.5
  1
3/4
100
AcDbAttributeDefinition
  3

  2
F
 70
     8
280
     0
  0
ATTDEF
  5
1FA
330
1DF
100
AcDbEntity
  8
AM_6
100
AcDbText
 10
5.241000000043369
 20
-6.875
 30
0.0
 40
0.5
  1
0.750
100
AcDbAttributeDefinition
  3

  2
F1
 70
     8
280
     0
  0
ATTDEF
  5
1FB
330
1DF
100
AcDbEntity
  8
AM_6
100
AcDbText
 10
5.241000000043369
 20
-7.375
 30
0.0
 40
0.5
  1
1.12
100
AcDbAttributeDefinition
  3

  2
G
 70
     8
280
     0
  0
ATTDEF
  5
1FC
330
1DF
100
AcDbEntity
  8
AM_6
100
AcDbText
 10
5.241000000043369
 20
-7.875
 30
0.0
 40
0.5
  1
1.120000
100
AcDbAttributeDefinition
  3

  2
G1
 70
     8
280
     0
  0
ATTDEF
  5
1FD
330
1DF
100
AcDbEntity
  8
AM_6
100
AcDbText
 10
5.241000000043369
 20
-8.375
 30
0.0
 40
0.5
  1
1.88
100
AcDbAttributeDefinition
  3

  2
H
 70
     8
280
     0
  0
ATTDEF
  5
1FE
330
1DF
100
AcDbEntity
  8
AM_6
100
AcDbText
 10
5.241000000043369
 20
-8.875
 30
0.0
 40
0.5
  1
1.880000
100
AcDbAttributeDefinition
  3

  2
H1
 70
     8
280
     0
  0
ATTDEF
  5
1FF
330
1DF
100
AcDbEntity
  8
AM_6
100
AcDbText
 10
5.241000000043369
 20
-9.375
 30
0.0
 40
0.5
  1
7.44
100
AcDbAttributeDefinition
  3

  2
J
 70
     8
280
     0
  0
ATTDEF
  5
200
330
1DF
100
AcDbEntity
  8
AM_6
100
AcDbText
 10
5.241000000043369
 20
-9.875
 30
0.0
 40
0.5
  1
7.440000
100
AcDbAttributeDefinition
  3

  2
J1
 70
     8
280
     0
  0
ATTDEF
  5
201
330
1DF
100
AcDbEntity
  8
AM_6
100
AcDbText
 10
5.241000000043369
 20
-10.375
 30
0.0
 40
0.5
  1
9-1/2
100
AcDbAttributeDefinition
  3

  2
K
 70
     8
280
     0
  0
ATTDEF
  5
202
330
1DF
100
AcDbEntity
  8
AM_6
100
AcDbText
 10
5.241000000043369
 20
-10.875
 30
0.0
 40
0.5
  1
9.500
100
AcDbAttributeDefinition
  3

  2
K1
 70
     8
280
     0
  0
ATTDEF
  5
203
330
1DF
100
AcDbEntity
  8
AM_6
100
AcDbText
 10
5.241000000043369
 20
-11.375
 30
0.0
 40
0.5
  1
5.00
100
AcDbAttributeDefinition
  3

  2
L
 70
     8
280
     0
  0
ATTDEF
  5
204
330
1DF
100
AcDbEntity
  8
AM_6
100
AcDbText
 10
5.241000000043369
 20
-11.875
 30
0.0
 40
0.5
  1
5.00000
100
AcDbAttributeDefinition
  3

  2
L1
 70
     8
280
     0
  0
ATTDEF
  5
205
330
1DF
100
AcDbEntity
  8
AM_6
100
AcDbText
 10
5.241000000043369
 20
-12.375
 30
0.0
 40
0.5
  1
4.15
100
AcDbAttributeDefinition
  3

  2
N
 70
     8
280
     0
  0
ATTDEF
  5
206
330
1DF
100
AcDbEntity
  8
AM_6
100
AcDbText
 10
5.241000000043369
 20
-12.875
 30
0.0
 40
0.5
  1
4.150000
100
AcDbAttributeDefinition
  3

  2
N1
 70
     8
280
     0
  0
ATTDEF
  5
207
330
1DF
100
AcDbEntity
  8
AM_6
100
AcDbText
 10
5.241000000043369
 20
-13.375
 30
0.0
 40
0.5
  1
1.24
100
AcDbAttributeDefinition
  3

  2
P
 70
     8
280
     0
  0
ATTDEF
  5
208
330
1DF
100
AcDbEntity
  8
AM_6
100
AcDbText
 10
5.241000000043369
 20
-13.875
 30
0.0
 40
0.5
  1
1.240000
100
AcDbAttributeDefinition
  3

  2
P1
 70
     8
280
     0
  0
ATTDEF
  5
209
330
1DF
100
AcDbEntity
  8
AM_6
100
AcDbText
 10
5.241000000043369
 20
-14.375
 30
0.0
 40
0.5
  1
0.25
100
AcDbAttributeDefinition
  3

  2
X
 70
     8
280
     0
  0
ATTDEF
  5
20A
330
1DF
100
AcDbEntity
  8
AM_6
100
AcDbText
 10
5.241000000043369
 20
-14.875
 30
0.0
 40
0.5
  1
0.2500
100
AcDbAttributeDefinition
  3

  2
X1
 70
     8
280
     0
  0
ATTDEF
  5
20B
330
1DF
100
AcDbEntity
  8
AM_6
100
AcDbText
 10
5.241000000043369
 20
-15.375
 30
0.0
 40
0.5
  1
0.025
100
AcDbAttributeDefinition
  3

  2
Y
 70
     8
280
     0
  0
ATTDEF
  5
20C
330
1DF
100
AcDbEntity
  8
AM_6
100
AcDbText
 10
5.241000000043369
 20
-15.875
 30
0.0
 40
0.5
  1
4.05
100
AcDbAttributeDefinition
  3

  2
Z
 70
     8
280
     0
  0
ATTDEF
  5
20D
330
1DF
100
AcDbEntity
  8
AM_6
100
AcDbText
 10
5.241000000043369
 20
-16.375
 30
0.0
 40
0.5
  1
4.050000
100
AcDbAttributeDefinition
  3

  2
Z1
 70
     8
280
     0
  0
ATTDEF
  5
20E
330
1DF
100
AcDbEntity
  8
AM_6
100
AcDbText
 10
5.241000000043369
 20
-16.875
 30
0.0
 40
0.5
  1
071307
100
AcDbAttributeDefinition
  3

  2
PN1
 70
     8
280
     0
  0
ATTDEF
  5
20F
330
1DF
100
AcDbEntity
  8
AM_6
100
AcDbText
 10
5.241000000043369
 20
-17.375
 30
0.0
 40
0.5
  1
071332
100
AcDbAttributeDefinition
  3

  2
PN2
 70
     8
280
     0
  0
ATTDEF
  5
210
330
1DF
100
AcDbEntity
  8
AM_6
100
AcDbText
 10
5.241000000043369
 20
-17.875
 30
0.0
 40
0.5
  1
baldor
100
AcDbAttributeDefinition
  3

  2
COMPANY
 70
     8
280
     0
  0
LINE
  5
211
330
1DF
100
AcDbEntity
  8
AM_9
100
AcDbLine
 10
-1.074285714285714
 20
4.625
 30
0.0
 11
-1.074285714285714
 21
2.272727272727272
 31
0.0
  0
LINE
  5
212
330
1DF
100
AcDbEntity
  8
AM_9
100
AcDbLine
 10
-1.074285714285714
 20
-2.272727272727272
 30
0.0
 11
-1.074285714285714
 21
-4.625
 31
0.0
  0
LINE
  5
213
330
1DF
100
AcDbEntity
  8
AM_9
100
AcDbLine
 10
-1.692
 20
-4.519953074517033
 30
0.0
 11
-1.88
 21
-4.519953074517033
 31
0.0
  0
LINE
  5
214
330
1DF
100
AcDbEntity
  8
AM_9
100
AcDbLine
 10
-1.692
 20
4.519953074517034
 30
0.0
 11
-1.88
 21
4.519953074517034
 31
0.0
  0
LINE
  5
215
330
1DF
100
AcDbEntity
  8
AM_9
100
AcDbLine
 10
-1.692
 20
4.625
 30
0.0
 11
-1.692
 21
3.470234553584403
 31
0.0
  0
LINE
  5
216
330
1DF
100
AcDbEntity
  8
AM_9
100
AcDbLine
 10
-1.074285714285714
 20
3.1496
 30
0.0
 11
-4.29
 21
3.1496
 31
0.0
  0
LINE
  5
217
330
1DF
100
AcDbEntity
  8
AM_9
100
AcDbLine
 10
-4.29
 20
-3.1496
 30
0.0
 11
-1.074285714285714
 21
-3.1496
 31
0.0
  0
LINE
  5
218
330
1DF
100
AcDbEntity
  8
AM_9
100
AcDbLine
 10
-1.692
 20
-3.470234553584373
 30
0.0
 11
-1.692
 21
-4.625
 31
0.0
  0
LINE
  5
219
330
1DF
100
AcDbEntity
  8
AM_9
100
AcDbLine
 10
-1.88
 20
3.422669177051593
 30
0.0
 11
-1.692
 21
3.422669177051593
 31
0.0
  0
LINE
  5
21A
330
1DF
100
AcDbEntity
  8
AM_9
100
AcDbLine
 10
-1.692
 20
-3.422669177051596
 30
0.0
 11
-1.88
 21
-3.422669177051595
 31
0.0
  0
LINE
  5
21B
330
1DF
100
AcDbEntity
  8
AM_9
100
AcDbLine
 10
-1.692
 20
3.72
 30
0.0
 11
-1.88
 21
3.72
 31
0.0
  0
LINE
  5
21C
330
1DF
100
AcDbEntity
  8
AM_9
100
AcDbLine
 10
-1.88
 20
-3.72
 30
0.0
 11
-1.692
 21
-3.72
 31
0.0
  0
LINE
  5
21D
330
1DF
100
AcDbEntity
  8
AM_9
100
AcDbLine
 10
-1.88
 20
-3.875
 30
0.0
 11
0.0000000000000002
 21
-3.875
 31
0.0
  0
LINE
  5
21E
330
1DF
100
AcDbEntity
  8
AM_9
100
AcDbLine
 10
0.0000000000000002
 20
-3.125
 30
0.0
 11
-1.88
 21
-3.125
 31
0.0
  0
LINE
  5
21F
330
1DF
100
AcDbEntity
  8
AM_9
100
AcDbLine
 10
-1.88
 20
3.125
 30
0.0
 11
0.0000000000000002
 21
3.125
 31
0.0
  0
LINE
  5
220
330
1DF
100
AcDbEntity
  8
AM_9
100
AcDbLine
 10
0.0000000000000002
 20
3.875
 30
0.0
 11
-1.88
 21
3.875
 31
0.0
  0
LINE
  5
221
330
1DF
100
AcDbEntity
  8
AM_7
100
AcDbLine
 10
0.2410000000433698
 20
0.0
 30
0.0
 11
-5.369750000000001
 21
0.0
 31
0.0
  0
LINE
  5
222
330
1DF
100
AcDbEntity
  8
AM_7
100
AcDbLine
 10
0.1127999999999998
 20
3.5
 30
0.0
 11
-2.3688
 21
3.5
 31
0.0
  0
LINE
  5
223
330
1DF
100
AcDbEntity
  8
AM_7
100
AcDbLine
 10
0.1127999999999998
 20
-3.5
 30
0.0
 11
-2.3688
 21
-3.5
 31
0.0
  0
LINE
  5
224
330
1DF
100
AcDbEntity
  8
AM_4
100
AcDbLine
 10
-2.68
 20
3.775
 30
0.0
 11
-3.479999999952909
 21
3.775
 31
0.0
  0
ARC
  5
225
330
1DF
100
AcDbEntity
  8
AM_4
100
AcDbCircle
 10
-3.480000000000002
 20
3.675000000000002
 30
0.0
 40
0.0999999999999983
100
AcDbArc
 50
90.0
 51
152.9669337809176
  0
ARC
  5
226
330
1DF
100
AcDbEntity
  8
AM_4
100
AcDbCircle
 10
-2.679999999999998
 20
3.675000000000003
 30
0.0
 40
0.099999999999997
100
AcDbArc
 50
27.1984987235657
 51
90.0
  0
LINE
  5
227
330
1DF
100
AcDbEntity
  8
AM_4
100
AcDbLine
 10
-1.88
 20
3.72
 30
0.0
 11
-2.592418755029589
 21
3.72
 31
0.0
  0
LINE
  5
228
330
1DF
100
AcDbEntity
  8
AM_4
100
AcDbLine
 10
-3.567990542179611
 20
3.72
 30
0.0
 11
-4.177999998331068
 21
3.72
 31
0.0
  0
LINE
  5
229
330
1DF
100
AcDbEntity
  8
AM_4
100
AcDbLine
 10
-4.177999998331068
 20
-3.72
 30
0.0
 11
-1.88
 21
-3.72
 31
0.0
  0
LWPOLYLINE
  5
22A
330
1DF
100
AcDbEntity
  8
AM_4
100
AcDbPolyline
 90
       21
 70
     0
 43
0.0
 10
-3.569302855496481
 20
3.719999999999863
 10
-3.568845997467999
 20
3.71993567585809
 10
-3.557994533669293
 20
3.718427388268195
 10
-3.53322510631604
 20
3.715123822880518
 10
-3.493551499811944
 20
3.710228350517586
 10
-3.443666899237871
 20
3.70474836187765
 10
-3.380987025964144
 20
3.698903023091721
 10
-3.313473228035872
 20
3.693873816672203
 10
-3.23715878785884
 20
3.689741206995505
 10
-3.159291207848946
 20
3.687198577930326
 10
-3.076954508079603
 20
3.686333293833057
 10
-2.996517679832185
 20
3.687292658009188
 10
-2.916168359189999
 20
3.690037480509107
 10
-2.84267616123514
 20
3.694125770880255
 10
-2.773928033474166
 20
3.699334680421376
 10
-2.716049736033149
 20
3.704777399030235
 10
-2.666844058763901
 20
3.710181959992516
 10
-2.629912226541632
 20
3.714719063057756
 10
-2.604427254396866
 20
3.718095878564323
 10
-2.591961244097508
 20
3.71982218201726
 10
-2.590697144502716
 20
3.719999999999976
  0
LINE
  5
22B
330
1DF
100
AcDbEntity
  8
AM_4
100
AcDbLine
 10
-4.177999998331068
 20
-3.72
 30
0.0
 11
-4.177999998331068
 21
3.72
 31
0.0
  0
LINE
  5
22C
330
1DF
100
AcDbEntity
  8
AM_4
100
AcDbLine
 10
-4.29
 20
-3.607999999999999
 30
0.0
 11
-4.29
 21
3.607999999999999
 31
0.0
  0
ARC
  5
22D
330
1DF
100
AcDbEntity
  8
AM_4
100
AcDbCircle
 10
-4.177999999999997
 20
3.607999999999998
 30
0.0
 40
0.1120000000000023
100
AcDbArc
 50
89.9999991462269
 51
180.0
  0
ARC
  5
22E
330
1DF
100
AcDbEntity
  8
AM_4
100
AcDbCircle
 10
-4.177999999999997
 20
-3.607999999999998
 30
0.0
 40
0.1120000000000028
100
AcDbArc
 50
180.0
 51
270.0000008537731
  0
LINE
  5
22F
330
1DF
100
AcDbEntity
  8
AM_4
100
AcDbLine
 10
-1.88
 20
1.457304259398484
 30
0.0
 11
-1.88
 21
4.625
 31
0.0
  0
LINE
  5
230
330
1DF
100
AcDbEntity
  8
AM_4
100
AcDbLine
 10
-1.692
 20
1.457304259398484
 30
0.0
 11
-1.88
 21
1.457304259398484
 31
0.0
  0
LINE
  5
231
330
1DF
100
AcDbEntity
  8
AM_4
100
AcDbLine
 10
-1.88
 20
-4.625
 30
0.0
 11
-1.88
 21
-1.457304259398485
 31
0.0
  0
LINE
  5
232
330
1DF
100
AcDbEntity
  8
AM_4
100
AcDbLine
 10
-1.88
 20
-1.457304259398485
 30
0.0
 11
-1.692
 21
-1.457304259398485
 31
0.0
  0
LINE
  5
233
330
1DF
100
AcDbEntity
  8
AM_4
100
AcDbLine
 10
0.0000000000000003
 20
2.272727272727272
 30
0.0
 11
0.0000000000000002
 21
4.625
 31
0.0
  0
LINE
  5
234
330
1DF
100
AcDbEntity
  8
AM_4
100
AcDbLine
 10
-1.88
 20
4.625
 30
0.0
 11
0.0000000000000002
 21
4.625
 31
0.0
  0
LINE
  5
235
330
1DF
100
AcDbEntity
  8
AM_4
100
AcDbLine
 10
0.0000000000000002
 20
-4.625
 30
0.0
 11
0.0000000000000003
 21
-2.272727272727272
 31
0.0
  0
LINE
  5
236
330
1DF
100
AcDbEntity
  8
AM_4
100
AcDbLine
 10
-1.88
 20
-4.625
 30
0.0
 11
0.0000000000000002
 21
-4.625
 31
0.0
  0
LINE
  5
237
330
1DF
100
AcDbEntity
  8
AM_4
100
AcDbLine
 10
-1.074285714285714
 20
2.272727272727272
 30
0.0
 11
-1.074285714285714
 21
-2.272727272727272
 31
0.0
  0
LINE
  5
238
330
1DF
100
AcDbEntity
  8
AM_4
100
AcDbLine
 10
0.0000000000000003
 20
2.272727272727272
 30
0.0
 11
-1.074285714285714
 21
2.272727272727272
 31
0.0
  0
LINE
  5
239
330
1DF
100
AcDbEntity
  8
AM_4
100
AcDbLine
 10
-1.074285714285714
 20
-2.272727272727272
 30
0.0
 11
0.0000000000000003
 21
-2.272727272727272
 31
0.0
  0
LINE
  5
23A
330
1DF
100
AcDbEntity
  8
AM_4
100
AcDbLine
 10
-1.692
 20
-3.470234553584373
 30
0.0
 11
-1.692
 21
3.470234553584403
 31
0.0
  0
LINE
  5
23B
330
1DF
100
AcDbEntity
  8
AM_4
100
AcDbLine
 10
-1.88
 20
3.5
 30
0.0
 11
0.0000000000000003
 21
3.5
 31
0.0
  0
LINE
  5
23C
330
1DF
100
AcDbEntity
  8
AM_4
100
AcDbLine
 10
-1.88
 20
-3.499999999999999
 30
0.0
 11
0.0000000000000003
 21
-3.499999999999999
 31
0.0
  0
LINE
  5
23D
330
1DF
100
AcDbEntity
  8
AM_4
100
AcDbLine
 10
-1.692
 20
3.470234553584403
 30
0.0
 11
-1.88
 21
3.470234553584403
 31
0.0
  0
LINE
  5
23E
330
1DF
100
AcDbEntity
  8
AM_4
100
AcDbLine
 10
-1.692
 20
3.024388070393972
 30
0.0
 11
-1.88
 21
3.024388070393972
 31
0.0
  0
LINE
  5
23F
330
1DF
100
AcDbEntity
  8
AM_4
100
AcDbLine
 10
-1.88
 20
-3.470234553584373
 30
0.0
 11
-1.692
 21
-3.470234553584373
 31
0.0
  0
LINE
  5
240
330
1DF
100
AcDbEntity
  8
AM_4
100
AcDbLine
 10
-1.692
 20
-3.024388070393977
 30
0.0
 11
-1.88
 21
-3.024388070393977
 31
0.0
  0
ENDBLK
  5
1E2
330
1DF
100
AcDbEntity
  8
0
100
AcDbBlockEnd
  0
ENDSEC
  0
SECTION
  2
ENTITIES
  0
INSERT
  5
6F
330
1F
100
AcDbEntity
  8
0
100
AcDbBlockReference
  2
1_071332_2
 10
0.0
 20
0.0
 30
0.0
  0
POINT
  5
242
330
1F
100
AcDbEntity
  8
ConnectionPoints
100
AcDbPoint
 10
-4.912833333333333
 20
2.204861111111111
 30
0.0000000000000003
  0
POINT
  5
243
330
1F
100
AcDbEntity
  8
ConnectionPoints
100
AcDbPoint
 10
-4.842833333333333
 20
0.0
 30
0.0000000000000003
  0
POINT
  5
244
330
1F
100
AcDbEntity
  8
ConnectionPoints
100
AcDbPoint
 10
-5.16
 20
0.0
 30
0.0000000000000003
  0
POINT
  5
245
330
1F
100
AcDbEntity
  8
ConnectionPoints
100
AcDbPoint
 10
-5.041833333333333
 20
0.0
 30
0.0000000000000003
  0
POINT
  5
246
330
1F
100
AcDbEntity
  8
ConnectionPoints
100
AcDbPoint
 10
-4.842833333333333
 20
2.204861111111111
 30
0.0000000000000003
  0
POINT
  5
247
330
1F
100
AcDbEntity
  8
ConnectionPoints
100
AcDbPoint
 10
-4.842833333333333
 20
-2.204861111111111
 30
0.0000000000000003
  0
POINT
  5
248
330
1F
100
AcDbEntity
  8
ConnectionPoints
100
AcDbPoint
 10
-4.842833333333333
 20
0.0
 30
0.0000000000000003
  0
POINT
  5
249
330
1F
100
AcDbEntity
  8
ConnectionPoints
100
AcDbPoint
 10
-3.08
 20
3.775
 30
0.0000000000000002
  0
POINT
  5
24A
330
1F
100
AcDbEntity
  8
ConnectionPoints
100
AcDbPoint
 10
-3.08
 20
3.775
 30
0.0000000000000002
  0
POINT
  5
24B
330
1F
100
AcDbEntity
  8
ConnectionPoints
100
AcDbPoint
 10
-5.16
 20
0.0
 30
0.0000000000000003
  0
POINT
  5
24C
330
1F
100
AcDbEntity
  8
ConnectionPoints
100
AcDbPoint
 10
-5.41
 20
0.0
 30
0.0000000000000003
  0
ENDSEC
  0
SECTION
  2
OBJECTS
  0
DICTIONARY
  5
C
330
0
100
AcDbDictionary
281
     1
  3
ACAD_DETAILVIEWSTYLE
350
254
  3
ACAD_GROUP
350
D
  3
ACAD_LAYOUT
350
1A
  3
ACAD_MATERIAL
350
43
  3
ACAD_MLEADERSTYLE
350
6B
  3
ACAD_MLINESTYLE
350
17
  3
ACAD_PLOTSETTINGS
350
19
  3
ACAD_PLOTSTYLENAME
350
E
  3
ACAD_SCALELIST
350
47
  3
ACAD_SECTIONVIEWSTYLE
350
255
  3
ACAD_TABLESTYLE
350
69
  3
ACAD_VISUALSTYLE
350
2A
  3
ACDB_RECOMPOSE_DATA
350
251
  3
AcDbVariableDictionary
350
24D
  0
SUN
  5
6D
330
29
100
AcDbSun
 90
        1
290
     0
 63
     7
421
 16777215
 40
1.0
291
     1
 91
  2455826
 92
 54000000
292
     0
 70
     2
 71
   256
280
     1
  0
DICTIONARY
  5
254
102
{ACAD_REACTORS
330
C
102
}
330
C
100
AcDbDictionary
281
     1
  0
DICTIONARY
  5
D
102
{ACAD_REACTORS
330
C
102
}
330
C
100
AcDbDictionary
281
     1
  0
DICTIONARY
  5
1A
102
{ACAD_REACTORS
330
C
102
}
330
C
100
AcDbDictionary
281
     1
  3
Layout1
350
1E
  3
Layout2
350
26
  3
Model
350
22
  0
DICTIONARY
  5
43
102
{ACAD_REACTORS
330
C
102
}
330
C
100
AcDbDictionary
281
     1
  3
ByBlock
350
45
  3
ByLayer
350
44
  3
Global
350
46
  0
DICTIONARY
  5
6B
102
{ACAD_REACTORS
330
C
102
}
330
C
100
AcDbDictionary
281
     1
  3
Standard
350
6C
  0
DICTIONARY
  5
17
102
{ACAD_REACTORS
330
C
102
}
330
C
100
AcDbDictionary
281
     1
  3
Standard
350
18
  0
DICTIONARY
  5
19
102
{ACAD_REACTORS
330
C
102
}
330
C
100
AcDbDictionary
281
     1
  0
ACDBDICTIONARYWDFLT
  5
E
102
{ACAD_REACTORS
330
C
102
}
330
C
100
AcDbDictionary
281
     1
  3
Normal
350
F
100
AcDbDictionaryWithDefault
340
F
  0
DICTIONARY
  5
47
102
{ACAD_REACTORS
330
C
102
}
330
C
100
AcDbDictionary
281
     1
  3
A0
350
48
  3
A1
350
49
  3
A2
350
4A
  3
A3
350
4B
  3
A4
350
4C
  3
A5
350
4D
  3
A6
350
4E
  3
A7
350
4F
  3
A8
350
50
  3
A9
350
51
  3
B0
350
52
  3
B1
350
53
  3
B2
350
54
  3
B3
350
55
  3
B4
350
56
  3
B5
350
57
  3
B6
350
58
  3
B7
350
59
  3
B8
350
5A
  3
B9
350
5B
  3
C0
350
5C
  3
C1
350
5D
  3
C2
350
5E
  3
C3
350
5F
  3
C4
350
60
  3
C5
350
61
  3
C6
350
62
  3
C7
350
63
  3
C8
350
64
  3
C9
350
65
  3
D0
350
66
  3
D1
350
67
  3
D2
350
68
  0
DICTIONARY
  5
255
102
{ACAD_REACTORS
330
C
102
}
330
C
100
AcDbDictionary
281
     1
  0
DICTIONARY
  5
69
102
{ACAD_REACTORS
330
C
102
}
330
C
100
AcDbDictionary
281
     1
  3
Standard
350
6A
  0
DICTIONARY
  5
2A
102
{ACAD_REACTORS
330
C
102
}
330
C
100
AcDbDictionary
281
     1
  3
2dWireframe
350
2F
  3
Basic
350
32
  3
Brighten
350
36
  3
ColorChange
350
3A
  3
Conceptual
350
34
  3
Dim
350
35
  3
EdgeColorOff
350
3D
  3
Facepattern
350
39
  3
Flat
350
2B
  3
FlatWithEdges
350
2C
  3
Gouraud
350
2D
  3
GouraudWithEdges
350
2E
  3
Hidden
350
31
  3
JitterOff
350
3B
  3
Linepattern
350
38
  3
OverhangOff
350
3C
  3
Realistic
350
33
  3
Shaded
350
42
  3
Shaded with edges
350
41
  3
Shades of Gray
350
3E
  3
Sketchy
350
3F
  3
Thicken
350
37
  3
Wireframe
350
30
  3
X-Ray
350
40
  0
XRECORD
  5
251
102
{ACAD_REACTORS
330
C
102
}
330
C
100
AcDbXrecord
280
     1
 90
        1
330
6A
  0
DICTIONARY
  5
24D
102
{ACAD_REACTORS
330
C
102
}
330
C
100
AcDbDictionary
281
     1
  3
CANNOSCALE
350
24E
  3
CMLEADERSTYLE
350
253
  3
CTABLESTYLE
350
252
  0
LAYOUT
  5
1E
102
{ACAD_REACTORS
330
1A
102
}
330
1A
100
AcDbPlotSettings
  1

  2
none_device
  4

  6

 40
0.0
 41
0.0
 42
0.0
 43
0.0
 44
0.0
 45
0.0
 46
0.0
 47
0.0
 48
0.0
 49
0.0
140
0.0
141
0.0
142
1.0
143
1.0
 70
   688
 72
     0
 73
     0
 74
     5
  7

 75
    16
 76
     0
 77
     2
 78
   300
147
1.0
148
0.0
149
0.0
100
AcDbLayout
  1
Layout1
 70
     1
 71
     1
 10
0.0
 20
0.0
 11
12.0
 21
9.0
 12
0.0
 22
0.0
 32
0.0
 14
1.000000000000000E+20
 24
1.000000000000000E+20
 34
1.000000000000000E+20
 15
-1.000000000000000E+20
 25
-1.000000000000000E+20
 35
-1.000000000000000E+20
146
0.0
 13
0.0
 23
0.0
 33
0.0
 16
1.0
 26
0.0
 36
0.0
 17
0.0
 27
1.0
 37
0.0
 76
     0
330
1B
  0
LAYOUT
  5
26
102
{ACAD_REACTORS
330
1A
102
}
330
1A
100
AcDbPlotSettings
  1

  2
none_device
  4

  6

 40
0.0
 41
0.0
 42
0.0
 43
0.0
 44
0.0
 45
0.0
 46
0.0
 47
0.0
 48
0.0
 49
0.0
140
0.0
141
0.0
142
1.0
143
1.0
 70
   688
 72
     0
 73
     0
 74
     5
  7

 75
    16
 76
     0
 77
     2
 78
   300
147
1.0
148
0.0
149
0.0
100
AcDbLayout
  1
Layout2
 70
     1
 71
     2
 10
0.0
 20
0.0
 11
0.0
 21
0.0
 12
0.0
 22
0.0
 32
0.0
 14
0.0
 24
0.0
 34
0.0
 15
0.0
 25
0.0
 35
0.0
146
0.0
 13
0.0
 23
0.0
 33
0.0
 16
1.0
 26
0.0
 36
0.0
 17
0.0
 27
1.0
 37
0.0
 76
     0
330
23
  0
LAYOUT
  5
22
102
{ACAD_REACTORS
330
1A
102
}
330
1A
100
AcDbPlotSettings
  1

  2
none_device
  4
Letter_(8.50_x_11.00_Inches)
  6

 40
6.35
 41
6.35
 42
6.35000508
 43
6.35000508
 44
215.9
 45
279.4
 46
0.0
 47
0.0
 48
0.0
 49
0.0
140
0.0
141
0.0
142
1.0
143
1.0
 70
  1712
 72
     0
 73
     0
 74
     0
  7

 75
     0
 76
     0
 77
     2
 78
   300
147
1.0
148
0.0
149
0.0
100
AcDbLayout
  1
Model
 70
     1
 71
     0
 10
0.0
 20
0.0
 11
12.0
 21
9.0
 12
0.0
 22
0.0
 32
0.0
 14
1.000000000000000E+20
 24
1.000000000000000E+20
 34
1.000000000000000E+20
 15
-1.000000000000000E+20
 25
-1.000000000000000E+20
 35
-1.000000000000000E+20
146
0.0
 13
0.0
 23
0.0
 33
0.0
 16
1.0
 26
0.0
 36
0.0
 17
0.0
 27
1.0
 37
0.0
 76
     0
330
1F
331
29
  0
MATERIAL
  5
45
102
{ACAD_REACTORS
330
43
102
}
330
43
100
AcDbMaterial
  1
ByBlock
 72
     1
 94
      127
  0
MATERIAL
  5
44
102
{ACAD_REACTORS
330
43
102
}
330
43
100
AcDbMaterial
  1
ByLayer
 72
     1
 94
      127
  0
MATERIAL
  5
46
102
{ACAD_REACTORS
330
43
102
}
330
43
100
AcDbMaterial
  1
Global
 72
     1
 94
      127
  0
MLEADERSTYLE
  5
6C
102
{ACAD_REACTORS
330
6B
102
}
330
6B
100
AcDbMLeaderStyle
179
     2
170
     2
171
     1
172
     0
 90
        2
 40
0.0
 41
0.0
173
     1
 91
-1056964608
340
14
 92
       -2
290
     1
 42
0.09
291
     1
 43
0.36
  3
Standard
341
0
 44
0.18
300

342
11
174
     1
178
     6
175
     1
176
     0
 93
-1056964608
 45
0.18
292
     0
297
     0
 46
0.18
343
0
 94
-1056964608
 47
1.0
 49
1.0
140
1.0
293
     1
141
0.0
294
     1
177
     0
142
1.0
295
     0
296
     0
143
0.125
271
     0
272
     9
273
     9
298
     0
  0
MLINESTYLE
  5
18
102
{ACAD_REACTORS
330
17
102
}
330
17
100
AcDbMlineStyle
  2
Standard
 70
     0
  3

 62
   256
 51
90.0
 52
90.0
 71
     2
 49
0.5
 62
   256
  6
BYLAYER
 49
-0.5
 62
   256
  6
BYLAYER
  0
ACDBPLACEHOLDER
  5
F
102
{ACAD_REACTORS
330
E
102
}
330
E
  0
SCALE
  5
48
102
{ACAD_REACTORS
330
47
102
}
330
47
100
AcDbScale
 70
     0
300
1:1
140
1.0
141
1.0
290
     1
  0
SCALE
  5
49
102
{ACAD_REACTORS
330
47
102
}
330
47
100
AcDbScale
 70
     0
300
1:2
140
1.0
141
2.0
290
     0
  0
SCALE
  5
4A
102
{ACAD_REACTORS
330
47
102
}
330
47
100
AcDbScale
 70
     0
300
1:4
140
1.0
141
4.0
290
     0
  0
SCALE
  5
4B
102
{ACAD_REACTORS
330
47
102
}
330
47
100
AcDbScale
 70
     0
300
1:5
140
1.0
141
5.0
290
     0
  0
SCALE
  5
4C
102
{ACAD_REACTORS
330
47
102
}
330
47
100
AcDbScale
 70
     0
300
1:8
140
1.0
141
8.0
290
     0
  0
SCALE
  5
4D
102
{ACAD_REACTORS
330
47
102
}
330
47
100
AcDbScale
 70
     0
300
1:10
140
1.0
141
10.0
290
     0
  0
SCALE
  5
4E
102
{ACAD_REACTORS
330
47
102
}
330
47
100
AcDbScale
 70
     0
300
1:16
140
1.0
141
16.0
290
     0
  0
SCALE
  5
4F
102
{ACAD_REACTORS
330
47
102
}
330
47
100
AcDbScale
 70
     0
300
1:20
140
1.0
141
20.0
290
     0
  0
SCALE
  5
50
102
{ACAD_REACTORS
330
47
102
}
330
47
100
AcDbScale
 70
     0
300
1:30
140
1.0
141
30.0
290
     0
  0
SCALE
  5
51
102
{ACAD_REACTORS
330
47
102
}
330
47
100
AcDbScale
 70
     0
300
1:40
140
1.0
141
40.0
290
     0
  0
SCALE
  5
52
102
{ACAD_REACTORS
330
47
102
}
330
47
100
AcDbScale
 70
     0
300
1:50
140
1.0
141
50.0
290
     0
  0
SCALE
  5
53
102
{ACAD_REACTORS
330
47
102
}
330
47
100
AcDbScale
 70
     0
300
1:100
140
1.0
141
100.0
290
     0
  0
SCALE
  5
54
102
{ACAD_REACTORS
330
47
102
}
330
47
100
AcDbScale
 70
     0
300
2:1
140
2.0
141
1.0
290
     0
  0
SCALE
  5
55
102
{ACAD_REACTORS
330
47
102
}
330
47
100
AcDbScale
 70
     0
300
4:1
140
4.0
141
1.0
290
     0
  0
SCALE
  5
56
102
{ACAD_REACTORS
330
47
102
}
330
47
100
AcDbScale
 70
     0
300
8:1
140
8.0
141
1.0
290
     0
  0
SCALE
  5
57
102
{ACAD_REACTORS
330
47
102
}
330
47
100
AcDbScale
 70
     0
300
10:1
140
10.0
141
1.0
290
     0
  0
SCALE
  5
58
102
{ACAD_REACTORS
330
47
102
}
330
47
100
AcDbScale
 70
     0
300
100:1
140
100.0
141
1.0
290
     0
  0
SCALE
  5
59
102
{ACAD_REACTORS
330
47
102
}
330
47
100
AcDbScale
 70
     0
300
1/128" = 1'-0"
140
0.0078125
141
12.0
290
     0
  0
SCALE
  5
5A
102
{ACAD_REACTORS
330
47
102
}
330
47
100
AcDbScale
 70
     0
300
1/64" = 1'-0"
140
0.015625
141
12.0
290
     0
  0
SCALE
  5
5B
102
{ACAD_REACTORS
330
47
102
}
330
47
100
AcDbScale
 70
     0
300
1/32" = 1'-0"
140
0.03125
141
12.0
290
     0
  0
SCALE
  5
5C
102
{ACAD_REACTORS
330
47
102
}
330
47
100
AcDbScale
 70
     0
300
1/16" = 1'-0"
140
0.0625
141
12.0
290
     0
  0
SCALE
  5
5D
102
{ACAD_REACTORS
330
47
102
}
330
47
100
AcDbScale
 70
     0
300
3/32" = 1'-0"
140
0.09375
141
12.0
290
     0
  0
SCALE
  5
5E
102
{ACAD_REACTORS
330
47
102
}
330
47
100
AcDbScale
 70
     0
300
1/8" = 1'-0"
140
0.125
141
12.0
290
     0
  0
SCALE
  5
5F
102
{ACAD_REACTORS
330
47
102
}
330
47
100
AcDbScale
 70
     0
300
3/16" = 1'-0"
140
0.1875
141
12.0
290
     0
  0
SCALE
  5
60
102
{ACAD_REACTORS
330
47
102
}
330
47
100
AcDbScale
 70
     0
300
1/4" = 1'-0"
140
0.25
141
12.0
290
     0
  0
SCALE
  5
61
102
{ACAD_REACTORS
330
47
102
}
330
47
100
AcDbScale
 70
     0
300
3/8" = 1'-0"
140
0.375
141
12.0
290
     0
  0
SCALE
  5
62
102
{ACAD_REACTORS
330
47
102
}
330
47
100
AcDbScale
 70
     0
300
1/2" = 1'-0"
140
0.5
141
12.0
290
     0
  0
SCALE
  5
63
102
{ACAD_REACTORS
330
47
102
}
330
47
100
AcDbScale
 70
     0
300
3/4" = 1'-0"
140
0.75
141
12.0
290
     0
  0
SCALE
  5
64
102
{ACAD_REACTORS
330
47
102
}
330
47
100
AcDbScale
 70
     0
300
1" = 1'-0"
140
1.0
141
12.0
290
     0
  0
SCALE
  5
65
102
{ACAD_REACTORS
330
47
102
}
330
47
100
AcDbScale
 70
     0
300
1-1/2" = 1'-0"
140
1.5
141
12.0
290
     0
  0
SCALE
  5
66
102
{ACAD_REACTORS
330
47
102
}
330
47
100
AcDbScale
 70
     0
300
3" = 1'-0"
140
3.0
141
12.0
290
     0
  0
SCALE
  5
67
102
{ACAD_REACTORS
330
47
102
}
330
47
100
AcDbScale
 70
     0
300
6" = 1'-0"
140
6.0
141
12.0
290
     0
  0
SCALE
  5
68
102
{ACAD_REACTORS
330
47
102
}
330
47
100
AcDbScale
 70
     0
300
1'-0" = 1'-0"
140
12.0
141
12.0
290
     0
  0
TABLESTYLE
  5
6A
102
{ACAD_REACTORS
330
69
102
}
102
{ACAD_XDICTIONARY
360
24F
102
}
330
69
100
AcDbTableStyle
  3
Standard
 70
     0
 71
     0
 40
0.06
 41
0.06
280
     0
281
     0
  7
Standard
140
0.18
170
     2
 62
     0
 63
   257
283
     0
 90
        4
 91
        0
  1

274
    -2
284
     1
 64
     0
275
    -2
285
     1
 65
     0
276
    -2
286
     1
 66
     0
277
    -2
287
     1
 67
     0
278
    -2
288
     1
 68
     0
279
    -2
289
     1
 69
     0
  7
Standard
140
0.25
170
     5
 62
     0
 63
   257
283
     0
 90
        4
 91
        0
  1

274
    -2
284
     1
 64
     0
275
    -2
285
     1
 65
     0
276
    -2
286
     1
 66
     0
277
    -2
287
     1
 67
     0
278
    -2
288
     1
 68
     0
279
    -2
289
     1
 69
     0
  7
Standard
140
0.18
170
     5
 62
     0
 63
   257
283
     0
 90
        4
 91
        0
  1

274
    -2
284
     1
 64
     0
275
    -2
285
     1
 65
     0
276
    -2
286
     1
 66
     0
277
    -2
287
     1
 67
     0
278
    -2
288
     1
 68
     0
279
    -2
289
     1
 69
     0
  0
VISUALSTYLE
  5
2F
102
{ACAD_REACTORS
330
2A
102
}
330
2A
100
AcDbVisualStyle
  2
2dWireframe
 70
     4
177
     3
291
     0
 70
    58
 90
        0
176
     1
 90
        2
176
     1
 90
        0
176
     1
 90
        0
176
     1
 40
0.6
176
     1
 40
30.0
176
     1
 62
     7
420
 16777215
176
     1
 90
        1
176
     1
 90
        4
176
     1
 62
     7
176
     1
 62
   257
176
     1
 90
        1
176
     1
 90
        1
176
     1
 40
1.0
176
     1
 90
        0
176
     1
 62
   257
176
     1
 40
1.0
176
     1
 90
        1
176
     1
 90
        6
176
     1
 90
        2
176
     1
 62
     7
176
     1
 90
        5
176
     1
 90
        0
176
     1
 90
        0
176
     1
290
     0
176
     1
 90
        1
176
     1
 40
0.0
176
     1
 90
        0
176
     1
290
     1
176
     1
290
     1
176
     1
290
     0
176
     1
290
     0
176
     1
290
     0
176
     1
290
     0
176
     1
290
     0
176
     1
290
     0
176
     1
290
     0
176
     1
 90
       50
176
     1
 40
0.0
176
     1
 40
1.0
176
     1
 90
        0
176
     1
 62
    18
420
        0
176
     1
 90
       50
176
     1
 90
        3
176
     1
 62
     5
420
      255
176
     1
290
     0
176
     1
 90
       50
176
     1
 90
       50
176
     1
 90
       50
176
     1
290
     0
176
     1
 90
       50
176
     1
 62
   256
176
     0
 40
1.0
176
     0
 90
        2
176
     1
  1
strokes_ogs.tif
176
     1
290
     0
176
     1
 40
1.0
176
     1
 40
1.0
176
     1
  0
VISUALSTYLE
  5
32
102
{ACAD_REACTORS
330
2A
102
}
330
2A
100
AcDbVisualStyle
  2
Basic
 70
     7
177
     3
291
     1
 70
    58
 90
        1
176
     1
 90
        0
176
     1
 90
        1
176
     1
 90
        0
176
     1
 40
0.6
176
     1
 40
30.0
176
     1
 62
     7
420
 16777215
176
     1
 90
        0
176
     1
 90
        4
176
     1
 62
     7
176
     1
 62
   257
176
     1
 90
        1
176
     1
 90
        1
176
     1
 40
1.0
176
     1
 90
        8
176
     1
 62
     7
176
     1
 40
1.0
176
     1
 90
        1
176
     1
 90
        6
176
     1
 90
        2
176
     1
 62
     7
176
     1
 90
        5
176
     1
 90
        0
176
     1
 90
        0
176
     1
290
     0
176
     1
 90
        1
176
     1
 40
0.0
176
     1
 90
        0
176
     1
290
     0
176
     1
290
     1
176
     1
290
     1
176
     1
290
     0
176
     1
290
     0
176
     1
290
     0
176
     1
290
     0
176
     1
290
     0
176
     1
290
     0
176
     1
 90
       50
176
     1
 40
0.0
176
     1
 40
1.0
176
     1
 90
        0
176
     1
 62
    18
420
        0
176
     1
 90
       50
176
     1
 90
        3
176
     1
 62
     5
420
      255
176
     1
290
     0
176
     1
 90
       50
176
     1
 90
       50
176
     1
 90
       50
176
     1
290
     0
176
     1
 90
       50
176
     1
 62
   256
176
     0
 40
1.0
176
     0
 90
        2
176
     1
  1
strokes_ogs.tif
176
     1
290
     0
176
     1
 40
1.0
176
     1
 40
1.0
176
     1
  0
VISUALSTYLE
  5
36
102
{ACAD_REACTORS
330
2A
102
}
330
2A
100
AcDbVisualStyle
  2
Brighten
 70
    12
177
     3
291
     1
 70
    58
 90
        2
176
     1
 90
        2
176
     1
 90
        0
176
     1
 90
        0
176
     1
 40
0.6
176
     1
 40
30.0
176
     1
 62
     7
420
 16777215
176
     1
 90
        1
176
     1
 90
        4
176
     1
 62
     7
176
     1
 62
   257
176
     1
 90
        1
176
     1
 90
        1
176
     1
 40
1.0
176
     1
 90
        8
176
     1
 62
     7
176
     1
 40
1.0
176
     1
 90
        1
176
     1
 90
        6
176
     1
 90
        2
176
     1
 62
     7
176
     1
 90
        5
176
     1
 90
        0
176
     1
 90
        0
176
     1
290
     0
176
     1
 90
        1
176
     1
 40
50.0
176
     1
 90
        0
176
     1
290
     0
176
     1
290
     1
176
     1
290
     1
176
     1
290
     0
176
     1
290
     0
176
     1
290
     0
176
     1
290
     0
176
     1
290
     0
176
     1
290
     0
176
     1
 90
       50
176
     1
 40
0.0
176
     1
 40
1.0
176
     1
 90
        0
176
     1
 62
    18
420
        0
176
     1
 90
       50
176
     1
 90
        3
176
     1
 62
     5
420
      255
176
     1
290
     0
176
     1
 90
       50
176
     1
 90
       50
176
     1
 90
       50
176
     1
290
     0
176
     1
 90
       50
176
     1
 62
   256
176
     0
 40
1.0
176
     0
 90
        2
176
     1
  1
strokes_ogs.tif
176
     1
290
     0
176
     1
 40
1.0
176
     1
 40
1.0
176
     1
  0
VISUALSTYLE
  5
3A
102
{ACAD_REACTORS
330
2A
102
}
330
2A
100
AcDbVisualStyle
  2
ColorChange
 70
    16
177
     3
291
     1
 70
    58
 90
        2
176
     1
 90
        2
176
     1
 90
        3
176
     1
 90
        0
176
     1
 40
0.6
176
     1
 40
30.0
176
     1
 62
     8
420
  8421504
176
     1
 90
        1
176
     1
 90
        4
176
     1
 62
     7
176
     1
 62
   257
176
     1
 90
        1
176
     1
 90
        1
176
     1
 40
1.0
176
     1
 90
        8
176
     1
 62
     8
420
  8421504
176
     1
 40
1.0
176
     1
 90
        1
176
     1
 90
        6
176
     1
 90
        2
176
     1
 62
     7
176
     1
 90
        5
176
     1
 90
        0
176
     1
 90
        0
176
     1
290
     0
176
     1
 90
        1
176
     1
 40
0.0
176
     1
 90
        0
176
     1
290
     0
176
     1
290
     1
176
     1
290
     1
176
     1
290
     0
176
     1
290
     0
176
     1
290
     0
176
     1
290
     0
176
     1
290
     0
176
     1
290
     0
176
     1
 90
       50
176
     1
 40
0.0
176
     1
 40
1.0
176
     1
 90
        0
176
     1
 62
    18
420
        0
176
     1
 90
       50
176
     1
 90
        3
176
     1
 62
     5
420
      255
176
     1
290
     0
176
     1
 90
       50
176
     1
 90
       50
176
     1
 90
       50
176
     1
290
     0
176
     1
 90
       50
176
     1
 62
   256
176
     0
 40
1.0
176
     0
 90
        2
176
     1
  1
strokes_ogs.tif
176
     1
290
     0
176
     1
 40
1.0
176
     1
 40
1.0
176
     1
  0
VISUALSTYLE
  5
34
102
{ACAD_REACTORS
330
2A
102
}
330
2A
100
AcDbVisualStyle
  2
Conceptual
 70
     9
177
     3
291
     0
 70
    58
 90
        3
176
     1
 90
        2
176
     1
 90
        0
176
     1
 90
        0
176
     1
 40
0.6
176
     1
 40
30.0
176
     1
 62
     7
420
 16777215
176
     1
 90
        2
176
     1
 90
        2
176
     1
 62
     7
176
     1
 62
   257
176
     1
 90
        1
176
     1
 90
        1
176
     1
 40
179.0
176
     1
 90
        8
176
     1
 62
     7
176
     1
 40
1.0
176
     1
 90
        1
176
     1
 90
        6
176
     1
 90
        2
176
     1
 62
     7
176
     1
 90
        3
176
     1
 90
        0
176
     1
 90
        0
176
     1
290
     0
176
     1
 90
        1
176
     1
 40
0.0
176
     1
 90
        0
176
     1
290
     0
176
     1
290
     1
176
     1
290
     1
176
     1
290
     0
176
     1
290
     0
176
     1
290
     0
176
     1
290
     0
176
     1
290
     0
176
     1
290
     0
176
     1
 90
       50
176
     1
 40
0.0
176
     1
 40
1.0
176
     1
 90
        0
176
     1
 62
    18
420
        0
176
     1
 90
       50
176
     1
 90
        3
176
     1
 62
     5
420
      255
176
     1
290
     0
176
     1
 90
       50
176
     1
 90
       50
176
     1
 90
       50
176
     1
290
     0
176
     1
 90
       50
176
     1
 62
   256
176
     0
 40
1.0
176
     0
 90
        2
176
     1
  1
strokes_ogs.tif
176
     1
290
     0
176
     1
 40
1.0
176
     1
 40
1.0
176
     1
  0
VISUALSTYLE
  5
35
102
{ACAD_REACTORS
330
2A
102
}
330
2A
100
AcDbVisualStyle
  2
Dim
 70
    11
177
     3
291
     1
 70
    58
 90
        2
176
     1
 90
        2
176
     1
 90
        0
176
     1
 90
        0
176
     1
 40
0.6
176
     1
 40
30.0
176
     1
 62
     7
420
 16777215
176
     1
 90
        1
176
     1
 90
        4
176
     1
 62
     7
176
     1
 62
   257
176
     1
 90
        1
176
     1
 90
        1
176
     1
 40
1.0
176
     1
 90
        8
176
     1
 62
     7
176
     1
 40
1.0
176
     1
 90
        1
176
     1
 90
        6
176
     1
 90
        2
176
     1
 62
     7
176
     1
 90
        5
176
     1
 90
        0
176
     1
 90
        0
176
     1
290
     0
176
     1
 90
        1
176
     1
 40
-50.0
176
     1
 90
        0
176
     1
290
     0
176
     1
290
     1
176
     1
290
     1
176
     1
290
     0
176
     1
290
     0
176
     1
290
     0
176
     1
290
     0
176
     1
290
     0
176
     1
290
     0
176
     1
 90
       50
176
     1
 40
0.0
176
     1
 40
1.0
176
     1
 90
        0
176
     1
 62
    18
420
        0
176
     1
 90
       50
176
     1
 90
        3
176
     1
 62
     5
420
      255
176
     1
290
     0
176
     1
 90
       50
176
     1
 90
       50
176
     1
 90
       50
176
     1
290
     0
176
     1
 90
       50
176
     1
 62
   256
176
     0
 40
1.0
176
     0
 90
        2
176
     1
  1
strokes_ogs.tif
176
     1
290
     0
176
     1
 40
1.0
176
     1
 40
1.0
176
     1
  0
VISUALSTYLE
  5
3D
102
{ACAD_REACTORS
330
2A
102
}
330
2A
100
AcDbVisualStyle
  2
EdgeColorOff
 70
    22
177
     3
291
     1
 70
    58
 90
        2
176
     0
 90
        2
176
     0
 90
        0
176
     0
 90
        0
176
     0
 40
0.6
176
     0
 40
30.0
176
     0
 62
     7
420
 16777215
176
     0
 90
        1
176
     0
 90
        4
176
     0
 62
     7
176
     0
 62
   257
176
     0
 90
        1
176
     0
 90
        1
176
     0
 40
1.0
176
     0
 90
        8
176
     2
 62
     7
176
     0
 40
1.0
176
     0
 90
        1
176
     0
 90
        6
176
     0
 90
        2
176
     0
 62
     7
176
     0
 90
        5
176
     0
 90
        0
176
     0
 90
        0
176
     0
290
     0
176
     0
 90
        1
176
     0
 40
0.0
176
     0
 90
        0
176
     0
290
     0
176
     0
290
     1
176
     0
290
     1
176
     0
290
     0
176
     0
290
     0
176
     0
290
     0
176
     0
290
     0
176
     0
290
     0
176
     0
290
     0
176
     0
 90
       50
176
     0
 40
0.0
176
     0
 40
1.0
176
     0
 90
        0
176
     0
 62
    18
420
        0
176
     0
 90
       50
176
     0
 90
        3
176
     0
 62
     5
420
      255
176
     0
290
     0
176
     0
 90
       50
176
     0
 90
       50
176
     0
 90
       50
176
     0
290
     0
176
     0
 90
       50
176
     0
 62
   256
176
     0
 40
1.0
176
     0
 90
        2
176
     0
  1
strokes_ogs.tif
176
     0
290
     0
176
     0
 40
1.0
176
     0
 40
1.0
176
     0
  0
VISUALSTYLE
  5
39
102
{ACAD_REACTORS
330
2A
102
}
330
2A
100
AcDbVisualStyle
  2
Facepattern
 70
    15
177
     3
291
     1
 70
    58
 90
        2
176
     1
 90
        2
176
     1
 90
        0
176
     1
 90
        0
176
     1
 40
0.6
176
     1
 40
30.0
176
     1
 62
     7
420
 16777215
176
     1
 90
        1
176
     1
 90
        4
176
     1
 62
     7
176
     1
 62
   257
176
     1
 90
        1
176
     1
 90
        1
176
     1
 40
1.0
176
     1
 90
        8
176
     1
 62
     7
176
     1
 40
1.0
176
     1
 90
        1
176
     1
 90
        6
176
     1
 90
        2
176
     1
 62
     7
176
     1
 90
        5
176
     1
 90
        0
176
     1
 90
        0
176
     1
290
     0
176
     1
 90
        1
176
     1
 40
0.0
176
     1
 90
        0
176
     1
290
     0
176
     1
290
     1
176
     1
290
     1
176
     1
290
     0
176
     1
290
     0
176
     1
290
     0
176
     1
290
     0
176
     1
290
     0
176
     1
290
     0
176
     1
 90
       50
176
     1
 40
0.0
176
     1
 40
1.0
176
     1
 90
        0
176
     1
 62
    18
420
        0
176
     1
 90
       50
176
     1
 90
        3
176
     1
 62
     5
420
      255
176
     1
290
     0
176
     1
 90
       50
176
     1
 90
       50
176
     1
 90
       50
176
     1
290
     0
176
     1
 90
       50
176
     1
 62
   256
176
     0
 40
1.0
176
     0
 90
        2
176
     1
  1
strokes_ogs.tif
176
     1
290
     0
176
     1
 40
1.0
176
     1
 40
1.0
176
     1
  0
VISUALSTYLE
  5
2B
102
{ACAD_REACTORS
330
2A
102
}
330
2A
100
AcDbVisualStyle
  2
Flat
 70
     0
177
     3
291
     1
 70
    58
 90
        2
176
     1
 90
        1
176
     1
 90
        1
176
     1
 90
        2
176
     1
 40
0.6
176
     1
 40
30.0
176
     1
 62
     7
420
 16777215
176
     1
 90
        0
176
     1
 90
        0
176
     1
 62
     7
176
     1
 62
   257
176
     1
 90
        1
176
     1
 90
        1
176
     1
 40
1.0
176
     1
 90
        8
176
     1
 62
     7
176
     1
 40
1.0
176
     1
 90
        1
176
     1
 90
        6
176
     1
 90
        2
176
     1
 62
     7
176
     1
 90
        5
176
     1
 90
        0
176
     1
 90
        0
176
     1
290
     0
176
     1
 90
       13
176
     1
 40
0.0
176
     1
 90
        0
176
     1
290
     0
176
     1
290
     1
176
     1
290
     1
176
     1
290
     0
176
     1
290
     0
176
     1
290
     0
176
     1
290
     0
176
     1
290
     0
176
     1
290
     0
176
     1
 90
       50
176
     1
 40
0.0
176
     1
 40
1.0
176
     1
 90
        0
176
     1
 62
    18
420
        0
176
     1
 90
       50
176
     1
 90
        3
176
     1
 62
     5
420
      255
176
     1
290
     0
176
     1
 90
       50
176
     1
 90
       50
176
     1
 90
       50
176
     1
290
     0
176
     1
 90
       50
176
     1
 62
   256
176
     0
 40
1.0
176
     0
 90
        2
176
     1
  1
strokes_ogs.tif
176
     1
290
     0
176
     1
 40
1.0
176
     1
 40
1.0
176
     1
  0
VISUALSTYLE
  5
2C
102
{ACAD_REACTORS
330
2A
102
}
330
2A
100
AcDbVisualStyle
  2
FlatWithEdges
 70
     1
177
     3
291
     1
 70
    58
 90
        2
176
     1
 90
        1
176
     1
 90
        1
176
     1
 90
        2
176
     1
 40
0.6
176
     1
 40
30.0
176
     1
 62
     7
420
 16777215
176
     1
 90
        1
176
     1
 90
        0
176
     1
 62
     7
176
     1
 62
   257
176
     1
 90
        1
176
     1
 90
        1
176
     1
 40
1.0
176
     1
 90
        0
176
     1
 62
   257
176
     1
 40
1.0
176
     1
 90
        1
176
     1
 90
        6
176
     1
 90
        2
176
     1
 62
     7
176
     1
 90
        5
176
     1
 90
        0
176
     1
 90
        0
176
     1
290
     0
176
     1
 90
       13
176
     1
 40
0.0
176
     1
 90
        0
176
     1
290
     0
176
     1
290
     1
176
     1
290
     1
176
     1
290
     0
176
     1
290
     0
176
     1
290
     0
176
     1
290
     0
176
     1
290
     0
176
     1
290
     0
176
     1
 90
       50
176
     1
 40
0.0
176
     1
 40
1.0
176
     1
 90
        0
176
     1
 62
    18
420
        0
176
     1
 90
       50
176
     1
 90
        3
176
     1
 62
     5
420
      255
176
     1
290
     0
176
     1
 90
       50
176
     1
 90
       50
176
     1
 90
       50
176
     1
290
     0
176
     1
 90
       50
176
     1
 62
   256
176
     0
 40
1.0
176
     0
 90
        2
176
     1
  1
strokes_ogs.tif
176
     1
290
     0
176
     1
 40
1.0
176
     1
 40
1.0
176
     1
  0
VISUALSTYLE
  5
2D
102
{ACAD_REACTORS
330
2A
102
}
330
2A
100
AcDbVisualStyle
  2
Gouraud
 70
     2
177
     3
291
     1
 70
    58
 90
        2
176
     1
 90
        2
176
     1
 90
        1
176
     1
 90
        2
176
     1
 40
0.6
176
     1
 40
30.0
176
     1
 62
     7
420
 16777215
176
     1
 90
        0
176
     1
 90
        0
176
     1
 62
     7
176
     1
 62
   257
176
     1
 90
        1
176
     1
 90
        1
176
     1
 40
1.0
176
     1
 90
        0
176
     1
 62
     7
176
     1
 40
1.0
176
     1
 90
        1
176
     1
 90
        6
176
     1
 90
        2
176
     1
 62
     7
176
     1
 90
        5
176
     1
 90
        0
176
     1
 90
        0
176
     1
290
     0
176
     1
 90
       13
176
     1
 40
0.0
176
     1
 90
        0
176
     1
290
     0
176
     1
290
     1
176
     1
290
     1
176
     1
290
     0
176
     1
290
     0
176
     1
290
     0
176
     1
290
     0
176
     1
290
     0
176
     1
290
     0
176
     1
 90
       50
176
     1
 40
0.0
176
     1
 40
1.0
176
     1
 90
        0
176
     1
 62
    18
420
        0
176
     1
 90
       50
176
     1
 90
        3
176
     1
 62
     5
420
      255
176
     1
290
     0
176
     1
 90
       50
176
     1
 90
       50
176
     1
 90
       50
176
     1
290
     0
176
     1
 90
       50
176
     1
 62
   256
176
     0
 40
1.0
176
     0
 90
        2
176
     1
  1
strokes_ogs.tif
176
     1
290
     0
176
     1
 40
1.0
176
     1
 40
1.0
176
     1
  0
VISUALSTYLE
  5
2E
102
{ACAD_REACTORS
330
2A
102
}
330
2A
100
AcDbVisualStyle
  2
GouraudWithEdges
 70
     3
177
     3
291
     1
 70
    58
 90
        2
176
     1
 90
        2
176
     1
 90
        1
176
     1
 90
        2
176
     1
 40
0.6
176
     1
 40
30.0
176
     1
 62
     7
420
 16777215
176
     1
 90
        1
176
     1
 90
        0
176
     1
 62
     7
176
     1
 62
   257
176
     1
 90
        1
176
     1
 90
        1
176
     1
 40
1.0
176
     1
 90
        0
176
     1
 62
   257
176
     1
 40
1.0
176
     1
 90
        1
176
     1
 90
        6
176
     1
 90
        2
176
     1
 62
     7
176
     1
 90
        5
176
     1
 90
        0
176
     1
 90
        0
176
     1
290
     0
176
     1
 90
       13
176
     1
 40
0.0
176
     1
 90
        0
176
     1
290
     0
176
     1
290
     1
176
     1
290
     1
176
     1
290
     0
176
     1
290
     0
176
     1
290
     0
176
     1
290
     0
176
     1
290
     0
176
     1
290
     0
176
     1
 90
       50
176
     1
 40
0.0
176
     1
 40
1.0
176
     1
 90
        0
176
     1
 62
    18
420
        0
176
     1
 90
       50
176
     1
 90
        3
176
     1
 62
     5
420
      255
176
     1
290
     0
176
     1
 90
       50
176
     1
 90
       50
176
     1
 90
       50
176
     1
290
     0
176
     1
 90
       50
176
     1
 62
   256
176
     0
 40
1.0
176
     0
 90
        2
176
     1
  1
strokes_ogs.tif
176
     1
290
     0
176
     1
 40
1.0
176
     1
 40
1.0
176
     1
  0
VISUALSTYLE
  5
31
102
{ACAD_REACTORS
330
2A
102
}
330
2A
100
AcDbVisualStyle
  2
Hidden
 70
     6
177
     3
291
     0
 70
    58
 90
        1
176
     1
 90
        2
176
     1
 90
        2
176
     1
 90
        0
176
     1
 40
0.6
176
     1
 40
30.0
176
     1
 62
     7
420
 16777215
176
     1
 90
        2
176
     1
 90
        2
176
     1
 62
     7
176
     1
 62
   257
176
     1
 90
        2
176
     1
 90
        1
176
     1
 40
40.0
176
     1
 90
        0
176
     1
 62
   257
176
     1
 40
1.0
176
     1
 90
        1
176
     1
 90
        6
176
     1
 90
        2
176
     1
 62
     7
176
     1
 90
        3
176
     1
 90
        0
176
     1
 90
        0
176
     1
290
     0
176
     1
 90
        1
176
     1
 40
0.0
176
     1
 90
        0
176
     1
290
     0
176
     1
290
     1
176
     1
290
     1
176
     1
290
     0
176
     1
290
     0
176
     1
290
     0
176
     1
290
     0
176
     1
290
     0
176
     1
290
     0
176
     1
 90
       50
176
     1
 40
0.0
176
     1
 40
1.0
176
     1
 90
        0
176
     1
 62
    18
420
        0
176
     1
 90
       50
176
     1
 90
        3
176
     1
 62
     5
420
      255
176
     1
290
     0
176
     1
 90
       50
176
     1
 90
       50
176
     1
 90
       50
176
     1
290
     0
176
     1
 90
       50
176
     1
 62
   256
176
     0
 40
1.0
176
     0
 90
        2
176
     1
  1
strokes_ogs.tif
176
     1
290
     0
176
     1
 40
1.0
176
     1
 40
1.0
176
     1
  0
VISUALSTYLE
  5
3B
102
{ACAD_REACTORS
330
2A
102
}
330
2A
100
AcDbVisualStyle
  2
JitterOff
 70
    20
177
     3
291
     1
 70
    58
 90
        2
176
     0
 90
        2
176
     0
 90
        0
176
     0
 90
        0
176
     0
 40
0.6
176
     0
 40
30.0
176
     0
 62
     7
420
 16777215
176
     0
 90
        1
176
     0
 90
        4
176
     0
 62
     7
176
     0
 62
   257
176
     0
 90
        1
176
     0
 90
        1
176
     0
 40
1.0
176
     0
 90
       10
176
     2
 62
     7
176
     0
 40
1.0
176
     0
 90
        1
176
     0
 90
        6
176
     0
 90
        2
176
     0
 62
     7
176
     0
 90
        5
176
     0
 90
        0
176
     0
 90
        0
176
     0
290
     0
176
     0
 90
        1
176
     0
 40
0.0
176
     0
 90
        0
176
     0
290
     0
176
     0
290
     1
176
     0
290
     1
176
     0
290
     0
176
     0
290
     0
176
     0
290
     0
176
     0
290
     0
176
     0
290
     0
176
     0
290
     0
176
     0
 90
       50
176
     0
 40
0.0
176
     0
 40
1.0
176
     0
 90
        0
176
     0
 62
    18
420
        0
176
     0
 90
       50
176
     0
 90
        3
176
     0
 62
     5
420
      255
176
     0
290
     0
176
     0
 90
       50
176
     0
 90
       50
176
     0
 90
       50
176
     0
290
     0
176
     0
 90
       50
176
     0
 62
   256
176
     0
 40
1.0
176
     0
 90
        2
176
     0
  1
strokes_ogs.tif
176
     0
290
     0
176
     0
 40
1.0
176
     0
 40
1.0
176
     0
  0
VISUALSTYLE
  5
38
102
{ACAD_REACTORS
330
2A
102
}
330
2A
100
AcDbVisualStyle
  2
Linepattern
 70
    14
177
     3
291
     1
 70
    58
 90
        2
176
     1
 90
        2
176
     1
 90
        0
176
     1
 90
        0
176
     1
 40
0.6
176
     1
 40
30.0
176
     1
 62
     7
420
 16777215
176
     1
 90
        1
176
     1
 90
        4
176
     1
 62
     7
176
     1
 62
   257
176
     1
 90
        7
176
     1
 90
        7
176
     1
 40
1.0
176
     1
 90
        8
176
     1
 62
     7
176
     1
 40
1.0
176
     1
 90
        1
176
     1
 90
        6
176
     1
 90
        2
176
     1
 62
     7
176
     1
 90
        5
176
     1
 90
        0
176
     1
 90
        0
176
     1
290
     0
176
     1
 90
        1
176
     1
 40
0.0
176
     1
 90
        0
176
     1
290
     0
176
     1
290
     1
176
     1
290
     1
176
     1
290
     0
176
     1
290
     0
176
     1
290
     0
176
     1
290
     0
176
     1
290
     0
176
     1
290
     0
176
     1
 90
       50
176
     1
 40
0.0
176
     1
 40
1.0
176
     1
 90
        0
176
     1
 62
    18
420
        0
176
     1
 90
       50
176
     1
 90
        3
176
     1
 62
     5
420
      255
176
     1
290
     0
176
     1
 90
       50
176
     1
 90
       50
176
     1
 90
       50
176
     1
290
     0
176
     1
 90
       50
176
     1
 62
   256
176
     0
 40
1.0
176
     0
 90
        2
176
     1
  1
strokes_ogs.tif
176
     1
290
     0
176
     1
 40
1.0
176
     1
 40
1.0
176
     1
  0
VISUALSTYLE
  5
3C
102
{ACAD_REACTORS
330
2A
102
}
330
2A
100
AcDbVisualStyle
  2
OverhangOff
 70
    21
177
     3
291
     1
 70
    58
 90
        2
176
     0
 90
        2
176
     0
 90
        0
176
     0
 90
        0
176
     0
 40
0.6
176
     0
 40
30.0
176
     0
 62
     7
420
 16777215
176
     0
 90
        1
176
     0
 90
        4
176
     0
 62
     7
176
     0
 62
   257
176
     0
 90
        1
176
     0
 90
        1
176
     0
 40
1.0
176
     0
 90
        9
176
     2
 62
     7
176
     0
 40
1.0
176
     0
 90
        1
176
     0
 90
        6
176
     0
 90
        2
176
     0
 62
     7
176
     0
 90
        5
176
     0
 90
        0
176
     0
 90
        0
176
     0
290
     0
176
     0
 90
        1
176
     0
 40
0.0
176
     0
 90
        0
176
     0
290
     0
176
     0
290
     1
176
     0
290
     1
176
     0
290
     0
176
     0
290
     0
176
     0
290
     0
176
     0
290
     0
176
     0
290
     0
176
     0
290
     0
176
     0
 90
       50
176
     0
 40
0.0
176
     0
 40
1.0
176
     0
 90
        0
176
     0
 62
    18
420
        0
176
     0
 90
       50
176
     0
 90
        3
176
     0
 62
     5
420
      255
176
     0
290
     0
176
     0
 90
       50
176
     0
 90
       50
176
     0
 90
       50
176
     0
290
     0
176
     0
 90
       50
176
     0
 62
   256
176
     0
 40
1.0
176
     0
 90
        2
176
     0
  1
strokes_ogs.tif
176
     0
290
     0
176
     0
 40
1.0
176
     0
 40
1.0
176
     0
  0
VISUALSTYLE
  5
33
102
{ACAD_REACTORS
330
2A
102
}
330
2A
100
AcDbVisualStyle
  2
Realistic
 70
     8
177
     3
291
     0
 70
    58
 90
        2
176
     1
 90
        3
176
     1
 90
        0
176
     1
 90
        2
176
     1
 40
0.6
176
     1
 40
30.0
176
     1
 62
     7
420
 16777215
176
     1
 90
        0
176
     1
 90
        0
176
     1
 62
     7
176
     1
 62
   257
176
     1
 90
        1
176
     1
 90
        1
176
     1
 40
1.0
176
     1
 90
        8
176
     1
 62
   257
176
     1
 40
1.0
176
     1
 90
        1
176
     1
 90
        6
176
     1
 90
        2
176
     1
 62
     7
176
     1
 90
        3
176
     1
 90
        0
176
     1
 90
        0
176
     1
290
     0
176
     1
 90
       13
176
     1
 40
0.0
176
     1
 90
        0
176
     1
290
     0
176
     1
290
     1
176
     1
290
     1
176
     1
290
     0
176
     1
290
     0
176
     1
290
     0
176
     1
290
     0
176
     1
290
     0
176
     1
290
     0
176
     1
 90
       50
176
     1
 40
0.0
176
     1
 40
1.0
176
     1
 90
        0
176
     1
 62
    18
420
        0
176
     1
 90
       50
176
     1
 90
        3
176
     1
 62
     5
420
      255
176
     1
290
     0
176
     1
 90
       50
176
     1
 90
       50
176
     1
 90
       50
176
     1
290
     0
176
     1
 90
       50
176
     1
 62
   256
176
     0
 40
1.0
176
     0
 90
        2
176
     1
  1
strokes_ogs.tif
176
     1
290
     0
176
     1
 40
1.0
176
     1
 40
1.0
176
     1
  0
VISUALSTYLE
  5
42
102
{ACAD_REACTORS
330
2A
102
}
330
2A
100
AcDbVisualStyle
  2
Shaded
 70
    27
177
     3
291
     0
 70
    58
 90
        2
176
     1
 90
        2
176
     1
 90
        1
176
     1
 90
        2
176
     1
 40
0.6
176
     1
 40
30.0
176
     1
 62
     7
420
 16777215
176
     1
 90
        0
176
     1
 90
        4
176
     1
 62
     7
176
     1
 62
   257
176
     1
 90
        1
176
     1
 90
        1
176
     1
 40
1.0
176
     1
 90
        8
176
     1
 62
   257
176
     1
 40
1.0
176
     1
 90
        1
176
     1
 90
        6
176
     1
 90
        2
176
     1
 62
     8
420
  7895160
176
     1
 90
        3
176
     1
 90
        0
176
     1
 90
        0
176
     1
290
     0
176
     1
 90
        5
176
     1
 40
0.0
176
     1
 90
        0
176
     1
290
     0
176
     1
290
     1
176
     1
290
     1
176
     1
290
     0
176
     1
290
     0
176
     1
290
     0
176
     1
290
     0
176
     1
290
     0
176
     1
290
     0
176
     1
 90
       50
176
     1
 40
0.0
176
     1
 40
1.0
176
     1
 90
        0
176
     1
 62
    18
420
        0
176
     1
 90
       50
176
     1
 90
        3
176
     1
 62
     5
420
      255
176
     1
290
     0
176
     1
 90
       50
176
     1
 90
       50
176
     1
 90
       50
176
     1
290
     0
176
     1
 90
       50
176
     1
 62
   256
176
     0
 40
1.0
176
     0
 90
        2
176
     1
  1
strokes_ogs.tif
176
     1
290
     0
176
     1
 40
1.0
176
     1
 40
1.0
176
     1
  0
VISUALSTYLE
  5
41
102
{ACAD_REACTORS
330
2A
102
}
330
2A
100
AcDbVisualStyle
  2
Shaded with edges
 70
    26
177
     3
291
     0
 70
    58
 90
        2
176
     1
 90
        2
176
     1
 90
        1
176
     1
 90
        2
176
     1
 40
0.6
176
     1
 40
30.0
176
     1
 62
     7
420
 16777215
176
     1
 90
        1
176
     1
 90
       10
176
     1
 62
     7
176
     1
 62
   257
176
     1
 90
        2
176
     1
 90
        1
176
     1
 40
1.0
176
     1
 90
        8
176
     1
 62
   257
176
     1
 40
1.0
176
     1
 90
        1
176
     1
 90
        6
176
     1
 90
        2
176
     1
 62
     7
176
     1
 90
        3
176
     1
 90
        0
176
     1
 90
        0
176
     1
290
     0
176
     1
 90
        5
176
     1
 40
0.0
176
     1
 90
        0
176
     1
290
     0
176
     1
290
     1
176
     1
290
     1
176
     1
290
     0
176
     1
290
     0
176
     1
290
     0
176
     1
290
     0
176
     1
290
     0
176
     1
290
     0
176
     1
 90
       50
176
     1
 40
0.0
176
     1
 40
1.0
176
     1
 90
        0
176
     1
 62
    18
420
        0
176
     1
 90
       50
176
     1
 90
        3
176
     1
 62
     5
420
      255
176
     1
290
     0
176
     1
 90
       50
176
     1
 90
       50
176
     1
 90
       50
176
     1
290
     0
176
     1
 90
       50
176
     1
 62
   256
176
     0
 40
1.0
176
     0
 90
        2
176
     1
  1
strokes_ogs.tif
176
     1
290
     0
176
     1
 40
1.0
176
     1
 40
1.0
176
     1
  0
VISUALSTYLE
  5
3E
102
{ACAD_REACTORS
330
2A
102
}
330
2A
100
AcDbVisualStyle
  2
Shades of Gray
 70
    23
177
     3
291
     0
 70
    58
 90
        2
176
     1
 90
        2
176
     1
 90
        3
176
     1
 90
        0
176
     1
 40
0.6
176
     1
 40
30.0
176
     1
 62
     7
420
 16777215
176
     1
 90
        2
176
     1
 90
        2
176
     1
 62
     7
176
     1
 62
     7
176
     1
 90
        1
176
     1
 90
        1
176
     1
 40
40.0
176
     1
 90
        8
176
     1
 62
     7
176
     1
 40
1.0
176
     1
 90
        1
176
     1
 90
        6
176
     1
 90
        2
176
     1
 62
     7
176
     1
 90
        3
176
     1
 90
        0
176
     1
 90
        0
176
     1
290
     0
176
     1
 90
        1
176
     1
 40
0.0
176
     1
 90
        0
176
     1
290
     0
176
     1
290
     1
176
     1
290
     1
176
     1
290
     0
176
     1
290
     0
176
     1
290
     0
176
     1
290
     0
176
     1
290
     0
176
     1
290
     0
176
     1
 90
       50
176
     1
 40
0.0
176
     1
 40
1.0
176
     1
 90
        0
176
     1
 62
    18
420
        0
176
     1
 90
       50
176
     1
 90
        3
176
     1
 62
     5
420
      255
176
     1
290
     0
176
     1
 90
       50
176
     1
 90
       50
176
     1
 90
       50
176
     1
290
     0
176
     1
 90
       50
176
     1
 62
   256
176
     0
 40
1.0
176
     0
 90
        2
176
     1
  1
strokes_ogs.tif
176
     1
290
     0
176
     1
 40
1.0
176
     1
 40
1.0
176
     1
  0
VISUALSTYLE
  5
3F
102
{ACAD_REACTORS
330
2A
102
}
330
2A
100
AcDbVisualStyle
  2
Sketchy
 70
    24
177
     3
291
     0
 70
    58
 90
        1
176
     1
 90
        2
176
     1
 90
        2
176
     1
 90
        0
176
     1
 40
0.6
176
     1
 40
30.0
176
     1
 62
     7
420
 16777215
176
     1
 90
        2
176
     1
 90
        2
176
     1
 62
     7
176
     1
 62
     7
176
     1
 90
        1
176
     1
 90
        1
176
     1
 40
40.0
176
     1
 90
       11
176
     1
 62
     7
176
     1
 40
1.0
176
     1
 90
        1
176
     1
 90
        6
176
     1
 90
        2
176
     1
 62
     7
176
     1
 90
        6
176
     1
 90
        0
176
     1
 90
        0
176
     1
290
     0
176
     1
 90
        1
176
     1
 40
0.0
176
     1
 90
        0
176
     1
290
     0
176
     1
290
     1
176
     1
290
     1
176
     1
290
     0
176
     1
290
     0
176
     1
290
     0
176
     1
290
     0
176
     1
290
     0
176
     1
290
     0
176
     1
 90
       50
176
     1
 40
0.0
176
     1
 40
1.0
176
     1
 90
        0
176
     1
 62
    18
420
        0
176
     1
 90
       50
176
     1
 90
        3
176
     1
 62
     5
420
      255
176
     1
290
     0
176
     1
 90
       50
176
     1
 90
       50
176
     1
 90
       50
176
     1
290
     0
176
     1
 90
       50
176
     1
 62
   256
176
     0
 40
1.0
176
     0
 90
        2
176
     1
  1
strokes_ogs.tif
176
     1
290
     0
176
     1
 40
1.0
176
     1
 40
1.0
176
     1
  0
VISUALSTYLE
  5
37
102
{ACAD_REACTORS
330
2A
102
}
330
2A
100
AcDbVisualStyle
  2
Thicken
 70
    13
177
     3
291
     1
 70
    58
 90
        2
176
     1
 90
        2
176
     1
 90
        0
176
     1
 90
        0
176
     1
 40
0.6
176
     1
 40
30.0
176
     1
 62
     7
420
 16777215
176
     1
 90
        1
176
     1
 90
        4
176
     1
 62
     7
176
     1
 62
   257
176
     1
 90
        1
176
     1
 90
        1
176
     1
 40
1.0
176
     1
 90
       12
176
     1
 62
     7
176
     1
 40
1.0
176
     1
 90
        1
176
     1
 90
        6
176
     1
 90
        2
176
     1
 62
     7
176
     1
 90
        5
176
     1
 90
        0
176
     1
 90
        0
176
     1
290
     0
176
     1
 90
        1
176
     1
 40
0.0
176
     1
 90
        0
176
     1
290
     0
176
     1
290
     1
176
     1
290
     1
176
     1
290
     0
176
     1
290
     0
176
     1
290
     0
176
     1
290
     0
176
     1
290
     0
176
     1
290
     0
176
     1
 90
       50
176
     1
 40
0.0
176
     1
 40
1.0
176
     1
 90
        0
176
     1
 62
    18
420
        0
176
     1
 90
       50
176
     1
 90
        3
176
     1
 62
     5
420
      255
176
     1
290
     0
176
     1
 90
       50
176
     1
 90
       50
176
     1
 90
       50
176
     1
290
     0
176
     1
 90
       50
176
     1
 62
   256
176
     0
 40
1.0
176
     0
 90
        2
176
     1
  1
strokes_ogs.tif
176
     1
290
     0
176
     1
 40
1.0
176
     1
 40
1.0
176
     1
  0
VISUALSTYLE
  5
30
102
{ACAD_REACTORS
330
2A
102
}
330
2A
100
AcDbVisualStyle
  2
Wireframe
 70
     5
177
     3
291
     0
 70
    58
 90
        0
176
     1
 90
        2
176
     1
 90
        0
176
     1
 90
        0
176
     1
 40
0.6
176
     1
 40
30.0
176
     1
 62
     7
420
 16777215
176
     1
 90
        1
176
     1
 90
        4
176
     1
 62
     7
176
     1
 62
   257
176
     1
 90
        1
176
     1
 90
        1
176
     1
 40
1.0
176
     1
 90
        0
176
     1
 62
   257
176
     1
 40
1.0
176
     1
 90
        1
176
     1
 90
        6
176
     1
 90
        2
176
     1
 62
     7
176
     1
 90
        3
176
     1
 90
        0
176
     1
 90
        0
176
     1
290
     0
176
     1
 90
        1
176
     1
 40
0.0
176
     1
 90
        0
176
     1
290
     0
176
     1
290
     1
176
     1
290
     1
176
     1
290
     0
176
     1
290
     0
176
     1
290
     0
176
     1
290
     0
176
     1
290
     0
176
     1
290
     0
176
     1
 90
       50
176
     1
 40
0.0
176
     1
 40
1.0
176
     1
 90
        0
176
     1
 62
    18
420
        0
176
     1
 90
       50
176
     1
 90
        3
176
     1
 62
     5
420
      255
176
     1
290
     0
176
     1
 90
       50
176
     1
 90
       50
176
     1
 90
       50
176
     1
290
     0
176
     1
 90
       50
176
     1
 62
   256
176
     0
 40
1.0
176
     0
 90
        2
176
     1
  1
strokes_ogs.tif
176
     1
290
     0
176
     1
 40
1.0
176
     1
 40
1.0
176
     1
  0
VISUALSTYLE
  5
40
102
{ACAD_REACTORS
330
2A
102
}
330
2A
100
AcDbVisualStyle
  2
X-Ray
 70
    25
177
     3
291
     0
 70
    58
 90
        2
176
     1
 90
        2
176
     1
 90
        1
176
     1
 90
        1
176
     1
 40
0.5
176
     1
 40
30.0
176
     1
 62
     7
420
 16777215
176
     1
 90
        1
176
     1
 90
        0
176
     1
 62
     7
176
     1
 62
   257
176
     1
 90
        1
176
     1
 90
        1
176
     1
 40
1.0
176
     1
 90
        8
176
     1
 62
     7
176
     1
 40
1.0
176
     1
 90
        1
176
     1
 90
        6
176
     1
 90
        2
176
     1
 62
     7
176
     1
 90
        3
176
     1
 90
        0
176
     1
 90
        0
176
     1
290
     0
176
     1
 90
       13
176
     1
 40
0.0
176
     1
 90
        0
176
     1
290
     0
176
     1
290
     1
176
     1
290
     1
176
     1
290
     0
176
     1
290
     0
176
     1
290
     0
176
     1
290
     0
176
     1
290
     0
176
     1
290
     0
176
     1
 90
       50
176
     1
 40
0.0
176
     1
 40
1.0
176
     1
 90
        0
176
     1
 62
    18
420
        0
176
     1
 90
       50
176
     1
 90
        3
176
     1
 62
     5
420
      255
176
     1
290
     0
176
     1
 90
       50
176
     1
 90
       50
176
     1
 90
       50
176
     1
290
     0
176
     1
 90
       50
176
     1
 62
   256
176
     0
 40
1.0
176
     0
 90
        2
176
     1
  1
strokes_ogs.tif
176
     1
290
     0
176
     1
 40
1.0
176
     1
 40
1.0
176
     1
  0
DICTIONARYVAR
  5
24E
102
{ACAD_REACTORS
330
24D
102
}
330
24D
100
DictionaryVariables
280
     0
  1
1:1
  0
DICTIONARYVAR
  5
253
102
{ACAD_REACTORS
330
24D
102
}
330
24D
100
DictionaryVariables
280
     0
  1
Standard
  0
DICTIONARYVAR
  5
252
102
{ACAD_REACTORS
330
24D
102
}
330
24D
100
DictionaryVariables
280
     0
  1
Standard
  0
DICTIONARY
  5
24F
330
6A
100
AcDbDictionary
280
     1
281
     1
  3
ACAD_ROUNDTRIP_2008_TABLESTYLE_CELLSTYLEMAP
360
250
  0
CELLSTYLEMAP
  5
250
102
{ACAD_REACTORS
330
24F
102
}
330
24F
100
AcDbCellStyleMap
 90
        3
300
CELLSTYLE
  1
TABLEFORMAT_BEGIN
 90
        5
170
     1
 91
        0
 92
    32768
 62
   257
 93
        1
300
CONTENTFORMAT
  1
CONTENTFORMAT_BEGIN
 90
        0
 91
        0
 92
        4
 93
        0
300

 40
0.0
140
1.0
 94
        5
 62
     0
340
11
144
0.25
309
CONTENTFORMAT_END
171
     1
301
MARGIN
  1
CELLMARGIN_BEGIN
 40
0.06
 40
0.06
 40
0.06
 40
0.06
 40
0.06
 40
0.06
309
CELLMARGIN_END
 94
        6
 95
        1
302
GRIDFORMAT
  1
GRIDFORMAT_BEGIN
 90
        0
 91
        1
 62
     0
 92
       -2
340
14
 93
        0
 40
0.045
309
GRIDFORMAT_END
 95
        2
302
GRIDFORMAT
  1
GRIDFORMAT_BEGIN
 90
        0
 91
        1
 62
     0
 92
       -2
340
14
 93
        0
 40
0.045
309
GRIDFORMAT_END
 95
        4
302
GRIDFORMAT
  1
GRIDFORMAT_BEGIN
 90
        0
 91
        1
 62
     0
 92
       -2
340
14
 93
        0
 40
0.045
309
GRIDFORMAT_END
 95
        8
302
GRIDFORMAT
  1
GRIDFORMAT_BEGIN
 90
        0
 91
        1
 62
     0
 92
       -2
340
14
 93
        0
 40
0.045
309
GRIDFORMAT_END
 95
       16
302
GRIDFORMAT
  1
GRIDFORMAT_BEGIN
 90
        0
 91
        1
 62
     0
 92
       -2
340
14
 93
        0
 40
0.045
309
GRIDFORMAT_END
 95
       32
302
GRIDFORMAT
  1
GRIDFORMAT_BEGIN
 90
        0
 91
        1
 62
     0
 92
       -2
340
14
 93
        0
 40
0.045
309
GRIDFORMAT_END
309
TABLEFORMAT_END
  1
CELLSTYLE_BEGIN
 90
        1
 91
        1
300
_TITLE
309
CELLSTYLE_END
300
CELLSTYLE
  1
TABLEFORMAT_BEGIN
 90
        5
170
     1
 91
        0
 92
        0
 62
   257
 93
        1
300
CONTENTFORMAT
  1
CONTENTFORMAT_BEGIN
 90
        0
 91
        0
 92
        4
 93
        0
300

 40
0.0
140
1.0
 94
        5
 62
     0
340
11
144
0.18
309
CONTENTFORMAT_END
171
     1
301
MARGIN
  1
CELLMARGIN_BEGIN
 40
0.06
 40
0.06
 40
0.06
 40
0.06
 40
0.06
 40
0.06
309
CELLMARGIN_END
 94
        6
 95
        1
302
GRIDFORMAT
  1
GRIDFORMAT_BEGIN
 90
        0
 91
        1
 62
     0
 92
       -2
340
14
 93
        0
 40
0.045
309
GRIDFORMAT_END
 95
        2
302
GRIDFORMAT
  1
GRIDFORMAT_BEGIN
 90
        0
 91
        1
 62
     0
 92
       -2
340
14
 93
        0
 40
0.045
309
GRIDFORMAT_END
 95
        4
302
GRIDFORMAT
  1
GRIDFORMAT_BEGIN
 90
        0
 91
        1
 62
     0
 92
       -2
340
14
 93
        0
 40
0.045
309
GRIDFORMAT_END
 95
        8
302
GRIDFORMAT
  1
GRIDFORMAT_BEGIN
 90
        0
 91
        1
 62
     0
 92
       -2
340
14
 93
        0
 40
0.045
309
GRIDFORMAT_END
 95
       16
302
GRIDFORMAT
  1
GRIDFORMAT_BEGIN
 90
        0
 91
        1
 62
     0
 92
       -2
340
14
 93
        0
 40
0.045
309
GRIDFORMAT_END
 95
       32
302
GRIDFORMAT
  1
GRIDFORMAT_BEGIN
 90
        0
 91
        1
 62
     0
 92
       -2
340
14
 93
        0
 40
0.045
309
GRIDFORMAT_END
309
TABLEFORMAT_END
  1
CELLSTYLE_BEGIN
 90
        2
 91
        1
300
_HEADER
309
CELLSTYLE_END
300
CELLSTYLE
  1
TABLEFORMAT_BEGIN
 90
        5
170
     1
 91
        0
 92
        0
 62
   257
 93
        1
300
CONTENTFORMAT
  1
CONTENTFORMAT_BEGIN
 90
        0
 91
        0
 92
        4
 93
        0
300

 40
0.0
140
1.0
 94
        2
 62
     0
340
11
144
0.18
309
CONTENTFORMAT_END
171
     1
301
MARGIN
  1
CELLMARGIN_BEGIN
 40
0.06
 40
0.06
 40
0.06
 40
0.06
 40
0.06
 40
0.06
309
CELLMARGIN_END
 94
        6
 95
        1
302
GRIDFORMAT
  1
GRIDFORMAT_BEGIN
 90
        0
 91
        1
 62
     0
 92
       -2
340
14
 93
        0
 40
0.045
309
GRIDFORMAT_END
 95
        2
302
GRIDFORMAT
  1
GRIDFORMAT_BEGIN
 90
        0
 91
        1
 62
     0
 92
       -2
340
14
 93
        0
 40
0.045
309
GRIDFORMAT_END
 95
        4
302
GRIDFORMAT
  1
GRIDFORMAT_BEGIN
 90
        0
 91
        1
 62
     0
 92
       -2
340
14
 93
        0
 40
0.045
309
GRIDFORMAT_END
 95
        8
302
GRIDFORMAT
  1
GRIDFORMAT_BEGIN
 90
        0
 91
        1
 62
     0
 92
       -2
340
14
 93
        0
 40
0.045
309
GRIDFORMAT_END
 95
       16
302
GRIDFORMAT
  1
GRIDFORMAT_BEGIN
 90
        0
 91
        1
 62
     0
 92
       -2
340
14
 93
        0
 40
0.045
309
GRIDFORMAT_END
 95
       32
302
GRIDFORMAT
  1
GRIDFORMAT_BEGIN
 90
        0
 91
        1
 62
     0
 92
       -2
340
14
 93
        0
 40
0.045
309
GRIDFORMAT_END
309
TABLEFORMAT_END
  1
CELLSTYLE_BEGIN
 90
        3
 91
        2
300
_DATA
309
CELLSTYLE_END
  0
ENDSEC
  0
EOF