0
SECTION
  2
HEADER
  9
$ACADVER
  1
AC1027
  9
$ACADMAINTVER
 70
     8
  9
$DWGCODEPAGE
  3
ANSI_1252
  9
$REQUIREDVERSIONS
160
                 0
  9
$COMMENTS
  1
File was created by Cadenas
  9
$CUSTOMPROPERTYTAG
  1
NN
  9
$CUSTOMPROPERTY
  1
Imperial - IP Flange - Square with Type E Dimensions 1-3/8 thru 2-3/16 inch Trident Seal Expansion
  9
$CUSTOMPROPERTYTAG
  1
NT
  9
$CUSTOMPROPERTY
  1
Imperial/E 4 Bolt Flange Bearings
  9
$CUSTOMPROPERTYTAG
  1
NB
  9
$CUSTOMPROPERTY
  1
071319
  9
$CUSTOMPROPERTYTAG
  1
NBSYN
  9
$CUSTOMPROPERTY
  1
$PN.
  9
$CUSTOMPROPERTYTAG
  1
LINA
  9
$CUSTOMPROPERTY
  1
071319
  9
$CUSTOMPROPERTYTAG
  1
SS
  9
$CUSTOMPROPERTY
  1
1-7/8
  9
$CUSTOMPROPERTYTAG
  1
TYPE
  9
$CUSTOMPROPERTY
  1
Expansion
  9
$CUSTOMPROPERTYTAG
  1
PN
  9
$CUSTOMPROPERTY
  1
071319
  9
$CUSTOMPROPERTYTAG
  1
DESCRIPTION
  9
$CUSTOMPROPERTY
  1
EF4B-IP-114RE
  9
$CUSTOMPROPERTYTAG
  1
ST
  9
$CUSTOMPROPERTY
  1
Contact Seal
  9
$CUSTOMPROPERTYTAG
  1
A
  9
$CUSTOMPROPERTY
  1
2.86
  9
$CUSTOMPROPERTYTAG
  1
B
  9
$CUSTOMPROPERTY
  1
5.63
  9
$CUSTOMPROPERTYTAG
  1
C
  9
$CUSTOMPROPERTY
  1
3.64
  9
$CUSTOMPROPERTYTAG
  1
D
  9
$CUSTOMPROPERTY
  1
4.38
  9
$CUSTOMPROPERTYTAG
  1
DD
  9
$CUSTOMPROPERTY
  1
6.188
  9
$CUSTOMPROPERTYTAG
  1
F
  9
$CUSTOMPROPERTY
  1
1/2
  9
$CUSTOMPROPERTYTAG
  1
G
  9
$CUSTOMPROPERTY
  1
0.65
  9
$CUSTOMPROPERTYTAG
  1
H
  9
$CUSTOMPROPERTY
  1
1.18
  9
$CUSTOMPROPERTYTAG
  1
J
  9
$CUSTOMPROPERTY
  1
4.36
  9
$CUSTOMPROPERTYTAG
  1
L
  9
$CUSTOMPROPERTY
  1
3.28
  9
$CUSTOMPROPERTYTAG
  1
N
  9
$CUSTOMPROPERTY
  1
2.60
  9
$CUSTOMPROPERTYTAG
  1
P
  9
$CUSTOMPROPERTY
  1
0.79
  9
$CUSTOMPROPERTYTAG
  1
X
  9
$CUSTOMPROPERTY
  1
0.22
  9
$CUSTOMPROPERTYTAG
  1
Y
  9
$CUSTOMPROPERTY
  1
0.020
  9
$CUSTOMPROPERTYTAG
  1
Z
  9
$CUSTOMPROPERTY
  1
2.3
  9
$CUSTOMPROPERTYTAG
  1
COMPANY
  9
$CUSTOMPROPERTY
  1
baldor
  9
$INSBASE
 10
0.0
 20
0.0
 30
0.0
  9
$EXTMIN
 10
1.000000000000000E+20
 20
1.000000000000000E+20
 30
1.000000000000000E+20
  9
$EXTMAX
 10
-1.000000000000000E+20
 20
-1.000000000000000E+20
 30
-1.000000000000000E+20
  9
$LIMMIN
 10
0.0
 20
0.0
  9
$LIMMAX
 10
12.0
 20
9.0
  9
$ORTHOMODE
 70
     0
  9
$REGENMODE
 70
     1
  9
$FILLMODE
 70
     1
  9
$QTEXTMODE
 70
     0
  9
$MIRRTEXT
 70
     1
  9
$LTSCALE
 40
1.0
  9
$ATTMODE
 70
     1
  9
$TEXTSIZE
 40
0.2
  9
$TRACEWID
 40
0.05
  9
$TEXTSTYLE
  7
Standard
  9
$CLAYER
  8
0
  9
$CELTYPE
  6
ByLayer
  9
$CECOLOR
 62
   256
  9
$CELTSCALE
 40
1.0
  9
$DISPSILH
 70
     0
  9
$DIMSCALE
 40
1.0
  9
$DIMASZ
 40
0.18
  9
$DIMEXO
 40
0.0625
  9
$DIMDLI
 40
0.38
  9
$DIMRND
 40
0.0
  9
$DIMDLE
 40
0.0
  9
$DIMEXE
 40
0.18
  9
$DIMTP
 40
0.0
  9
$DIMTM
 40
0.0
  9
$DIMTXT
 40
0.18
  9
$DIMCEN
 40
0.09
  9
$DIMTSZ
 40
0.0
  9
$DIMTOL
 70
     0
  9
$DIMLIM
 70
     0
  9
$DIMTIH
 70
     1
  9
$DIMTOH
 70
     1
  9
$DIMSE1
 70
     0
  9
$DIMSE2
 70
     0
  9
$DIMTAD
 70
     0
  9
$DIMZIN
 70
     0
  9
$DIMBLK
  1

  9
$DIMASO
 70
     1
  9
$DIMSHO
 70
     1
  9
$DIMPOST
  1

  9
$DIMAPOST
  1

  9
$DIMALT
 70
     0
  9
$DIMALTD
 70
     2
  9
$DIMALTF
 40
25.4
  9
$DIMLFAC
 40
1.0
  9
$DIMTOFL
 70
     0
  9
$DIMTVP
 40
0.0
  9
$DIMTIX
 70
     0
  9
$DIMSOXD
 70
     0
  9
$DIMSAH
 70
     0
  9
$DIMBLK1
  1

  9
$DIMBLK2
  1

  9
$DIMSTYLE
  2
Standard
  9
$DIMCLRD
 70
     0
  9
$DIMCLRE
 70
     0
  9
$DIMCLRT
 70
     0
  9
$DIMTFAC
 40
1.0
  9
$DIMGAP
 40
0.09
  9
$DIMJUST
 70
     0
  9
$DIMSD1
 70
     0
  9
$DIMSD2
 70
     0
  9
$DIMTOLJ
 70
     1
  9
$DIMTZIN
 70
     0
  9
$DIMALTZ
 70
     0
  9
$DIMALTTZ
 70
     0
  9
$DIMUPT
 70
     0
  9
$DIMDEC
 70
     4
  9
$DIMTDEC
 70
     4
  9
$DIMALTU
 70
     2
  9
$DIMALTTD
 70
     2
  9
$DIMTXSTY
  7
Standard
  9
$DIMAUNIT
 70
     0
  9
$DIMADEC
 70
     0
  9
$DIMALTRND
 40
0.0
  9
$DIMAZIN
 70
     0
  9
$DIMDSEP
 70
    46
  9
$DIMATFIT
 70
     3
  9
$DIMFRAC
 70
     0
  9
$DIMLDRBLK
  1

  9
$DIMLUNIT
 70
     2
  9
$DIMLWD
 70
    -2
  9
$DIMLWE
 70
    -2
  9
$DIMTMOVE
 70
     0
  9
$DIMFXL
 40
1.0
  9
$DIMFXLON
 70
     0
  9
$DIMJOGANG
 40
0.7853981633974483
  9
$DIMTFILL
 70
     0
  9
$DIMTFILLCLR
 70
     0
  9
$DIMARCSYM
 70
     0
  9
$DIMLTYPE
  6

  9
$DIMLTEX1
  6

  9
$DIMLTEX2
  6

  9
$DIMTXTDIRECTION
 70
     0
  9
$LUNITS
 70
     2
  9
$LUPREC
 70
     4
  9
$SKETCHINC
 40
0.1
  9
$FILLETRAD
 40
0.5
  9
$AUNITS
 70
     0
  9
$AUPREC
 70
     0
  9
$MENU
  1
.
  9
$ELEVATION
 40
0.0
  9
$PELEVATION
 40
0.0
  9
$THICKNESS
 40
0.0
  9
$LIMCHECK
 70
     0
  9
$CHAMFERA
 40
0.0
  9
$CHAMFERB
 40
0.0
  9
$CHAMFERC
 40
0.0
  9
$CHAMFERD
 40
0.0
  9
$SKPOLY
 70
     0
  9
$TDCREATE
 40
2458168.983671643
  9
$TDUCREATE
 40
2458168.942004977
  9
$TDUPDATE
 40
2458168.983671829
  9
$TDUUPDATE
 40
2458168.942005162
  9
$TDINDWG
 40
0.0000000116
  9
$TDUSRTIMER
 40
0.0000000116
  9
$USRTIMER
 70
     1
  9
$ANGBASE
 50
0.0
  9
$ANGDIR
 70
     0
  9
$PDMODE
 70
     0
  9
$PDSIZE
 40
0.0
  9
$PLINEWID
 40
0.0
  9
$SPLFRAME
 70
     0
  9
$SPLINETYPE
 70
     6
  9
$SPLINESEGS
 70
     8
  9
$HANDSEED
  5
25C
  9
$SURFTAB1
 70
     6
  9
$SURFTAB2
 70
     6
  9
$SURFTYPE
 70
     6
  9
$SURFU
 70
     6
  9
$SURFV
 70
     6
  9
$UCSBASE
  2

  9
$UCSNAME
  2

  9
$UCSORG
 10
0.0
 20
0.0
 30
0.0
  9
$UCSXDIR
 10
1.0
 20
0.0
 30
0.0
  9
$UCSYDIR
 10
0.0
 20
1.0
 30
0.0
  9
$UCSORTHOREF
  2

  9
$UCSORTHOVIEW
 70
     0
  9
$UCSORGTOP
 10
0.0
 20
0.0
 30
0.0
  9
$UCSORGBOTTOM
 10
0.0
 20
0.0
 30
0.0
  9
$UCSORGLEFT
 10
0.0
 20
0.0
 30
0.0
  9
$UCSORGRIGHT
 10
0.0
 20
0.0
 30
0.0
  9
$UCSORGFRONT
 10
0.0
 20
0.0
 30
0.0
  9
$UCSORGBACK
 10
0.0
 20
0.0
 30
0.0
  9
$PUCSBASE
  2

  9
$PUCSNAME
  2

  9
$PUCSORG
 10
0.0
 20
0.0
 30
0.0
  9
$PUCSXDIR
 10
1.0
 20
0.0
 30
0.0
  9
$PUCSYDIR
 10
0.0
 20
1.0
 30
0.0
  9
$PUCSORTHOREF
  2

  9
$PUCSORTHOVIEW
 70
     0
  9
$PUCSORGTOP
 10
0.0
 20
0.0
 30
0.0
  9
$PUCSORGBOTTOM
 10
0.0
 20
0.0
 30
0.0
  9
$PUCSORGLEFT
 10
0.0
 20
0.0
 30
0.0
  9
$PUCSORGRIGHT
 10
0.0
 20
0.0
 30
0.0
  9
$PUCSORGFRONT
 10
0.0
 20
0.0
 30
0.0
  9
$PUCSORGBACK
 10
0.0
 20
0.0
 30
0.0
  9
$USERI1
 70
     0
  9
$USERI2
 70
     0
  9
$USERI3
 70
     0
  9
$USERI4
 70
     0
  9
$USERI5
 70
     0
  9
$USERR1
 40
0.0
  9
$USERR2
 40
0.0
  9
$USERR3
 40
0.0
  9
$USERR4
 40
0.0
  9
$USERR5
 40
0.0
  9
$WORLDVIEW
 70
     1
  9
$SHADEDGE
 70
     3
  9
$SHADEDIF
 70
    70
  9
$TILEMODE
 70
     1
  9
$MAXACTVP
 70
    64
  9
$PINSBASE
 10
0.0
 20
0.0
 30
0.0
  9
$PLIMCHECK
 70
     0
  9
$PEXTMIN
 10
1.000000000000000E+20
 20
1.000000000000000E+20
 30
1.000000000000000E+20
  9
$PEXTMAX
 10
-1.000000000000000E+20
 20
-1.000000000000000E+20
 30
-1.000000000000000E+20
  9
$PLIMMIN
 10
0.0
 20
0.0
  9
$PLIMMAX
 10
12.0
 20
9.0
  9
$UNITMODE
 70
     0
  9
$VISRETAIN
 70
     1
  9
$PLINEGEN
 70
     0
  9
$PSLTSCALE
 70
     1
  9
$TREEDEPTH
 70
  3020
  9
$CMLSTYLE
  2
Standard
  9
$CMLJUST
 70
     0
  9
$CMLSCALE
 40
1.0
  9
$PROXYGRAPHICS
 70
     1
  9
$MEASUREMENT
 70
     0
  9
$CELWEIGHT
370
    -1
  9
$ENDCAPS
280
     0
  9
$JOINSTYLE
280
     0
  9
$LWDISPLAY
290
     0
  9
$INSUNITS
 70
     1
  9
$HYPERLINKBASE
  1

  9
$STYLESHEET
  1

  9
$XEDIT
290
     1
  9
$CEPSNTYPE
380
     0
  9
$PSTYLEMODE
290
     1
  9
$FINGERPRINTGUID
  2
{B050A39A-56D1-4DD2-9FDD-A63DF7FBC0BD}
  9
$VERSIONGUID
  2
{FAEB1C32-E019-11D5-929B-00C0DF256EC4}
  9
$EXTNAMES
290
     1
  9
$PSVPSCALE
 40
0.0
  9
$OLESTARTUP
290
     0
  9
$SORTENTS
280
   127
  9
$INDEXCTL
280
     0
  9
$HIDETEXT
280
     1
  9
$XCLIPFRAME
280
     2
  9
$HALOGAP
280
     0
  9
$OBSCOLOR
 70
   257
  9
$OBSLTYPE
280
     0
  9
$INTERSECTIONDISPLAY
280
     0
  9
$INTERSECTIONCOLOR
 70
   257
  9
$DIMASSOC
280
     2
  9
$PROJECTNAME
  1

  9
$CAMERADISPLAY
290
     0
  9
$LENSLENGTH
 40
50.0
  9
$CAMERAHEIGHT
 40
0.0
  9
$STEPSPERSEC
 40
2.0
  9
$STEPSIZE
 40
6.0
  9
$3DDWFPREC
 40
2.0
  9
$PSOLWIDTH
 40
0.25
  9
$PSOLHEIGHT
 40
4.0
  9
$LOFTANG1
 40
1.570796326794897
  9
$LOFTANG2
 40
1.570796326794897
  9
$LOFTMAG1
 40
0.0
  9
$LOFTMAG2
 40
0.0
  9
$LOFTPARAM
 70
     7
  9
$LOFTNORMALS
280
     1
  9
$LATITUDE
 40
37.795
  9
$LONGITUDE
 40
-122.394
  9
$NORTHDIRECTION
 40
0.0
  9
$TIMEZONE
 70
 -8000
  9
$LIGHTGLYPHDISPLAY
280
     1
  9
$TILEMODELIGHTSYNCH
280
     1
  9
$CMATERIAL
347
44
  9
$SOLIDHIST
280
     0
  9
$SHOWHIST
280
     1
  9
$DWFFRAME
280
     2
  9
$DGNFRAME
280
     2
  9
$REALWORLDSCALE
290
     1
  9
$INTERFERECOLOR
 62
   256
  9
$CSHADOW
280
     0
  9
$SHADOWPLANELOCATION
 40
0.0
  0
ENDSEC
  0
SECTION
  2
CLASSES
  0
CLASS
  1
ACDBDICTIONARYWDFLT
  2
AcDbDictionaryWithDefault
  3
ObjectDBX Classes
 90
        0
 91
        4
280
     0
281
     0
  0
CLASS
  1
VISUALSTYLE
  2
AcDbVisualStyle
  3
ObjectDBX Classes
 90
     4095
 91
        4
280
     0
281
     0
  0
CLASS
  1
MATERIAL
  2
AcDbMaterial
  3
ObjectDBX Classes
 90
     1153
 91
        4
280
     0
281
     0
  0
CLASS
  1
SCALE
  2
AcDbScale
  3
ObjectDBX Classes
 90
     1153
 91
        4
280
     0
281
     0
  0
CLASS
  1
TABLESTYLE
  2
AcDbTableStyle
  3
ObjectDBX Classes
 90
     4095
 91
        4
280
     0
281
     0
  0
CLASS
  1
MLEADERSTYLE
  2
AcDbMLeaderStyle
  3
ACDB_MLEADERSTYLE_CLASS
 90
     4095
 91
        4
280
     0
281
     0
  0
CLASS
  1
SUN
  2
AcDbSun
  3
SCENEOE
 90
     1153
 91
        4
280
     0
281
     0
  0
CLASS
  1
DICTIONARYVAR
  2
AcDbDictionaryVar
  3
ObjectDBX Classes
 90
        0
 91
        4
280
     0
281
     0
  0
CLASS
  1
CELLSTYLEMAP
  2
AcDbCellStyleMap
  3
ObjectDBX Classes
 90
     1152
 91
        4
280
     0
281
     0
  0
ENDSEC
  0
SECTION
  2
TABLES
  0
TABLE
  2
VPORT
  5
8
330
0
100
AcDbSymbolTable
 70
     1
  0
VPORT
  5
29
330
8
100
AcDbSymbolTableRecord
100
AcDbViewportTableRecord
  2
*Active
 70
     0
 10
0.0
 20
0.0
 11
1.0
 21
1.0
 12
-1.741149999985382
 22
0.0
 13
0.0
 23
0.0
 14
0.5
 24
0.5
 15
0.5
 25
0.5
 16
0.0
 26
0.0
 36
1.0
 17
0.0
 27
0.0
 37
0.0
 40
5.742599999999999
 41
0.6780994671455123
 42
50.0
 43
0.0
 44
0.0
 50
0.0
 51
0.0
 71
     0
 72
   100
 73
     1
 74
     3
 75
     0
 76
     0
 77
     0
 78
     0
281
     0
 65
     1
110
0.0
120
0.0
130
0.0
111
1.0
121
0.0
131
0.0
112
0.0
122
1.0
132
0.0
 79
     0
146
0.0
348
2F
 60
     3
 61
     5
292
     1
282
     1
141
0.0
142
0.0
 63
   250
361
6D
  0
ENDTAB
  0
TABLE
  2
LTYPE
  5
5
330
0
100
AcDbSymbolTable
 70
     3
  0
LTYPE
  5
14
330
5
100
AcDbSymbolTableRecord
100
AcDbLinetypeTableRecord
  2
ByBlock
 70
     0
  3

 72
    65
 73
     0
 40
0.0
  0
LTYPE
  5
15
330
5
100
AcDbSymbolTableRecord
100
AcDbLinetypeTableRecord
  2
ByLayer
 70
     0
  3

 72
    65
 73
     0
 40
0.0
  0
LTYPE
  5
16
330
5
100
AcDbSymbolTableRecord
100
AcDbLinetypeTableRecord
  2
Continuous
 70
     0
  3
Solid line
 72
    65
 73
     0
 40
0.0
  0
LTYPE
  5
9D
330
5
100
AcDbSymbolTableRecord
100
AcDbLinetypeTableRecord
  2
Dashed
 70
     0
  3

 72
    65
 73
     2
 40
2.0
 49
1.0
 74
     0
 49
-1.0
 74
     0
  0
LTYPE
  5
190
330
5
100
AcDbSymbolTableRecord
100
AcDbLinetypeTableRecord
  2
Center
 70
     0
  3

 72
    65
 73
     4
 40
1.5
 49
0.45
 74
     0
 49
-0.5
 74
     0
 49
0.05
 74
     0
 49
-0.5
 74
     0
  0
ENDTAB
  0
TABLE
  2
LAYER
  5
2
330
0
100
AcDbSymbolTable
 70
     7
  0
LAYER
  5
10
330
2
100
AcDbSymbolTableRecord
100
AcDbLayerTableRecord
  2
0
 70
     0
 62
     7
  6
Continuous
370
    -3
390
F
347
46
348
0
  0
LAYER
  5
72
330
2
100
AcDbSymbolTableRecord
100
AcDbLayerTableRecord
  2
AM_6
 70
     0
 62
    -2
  6
Continuous
370
    35
390
F
347
46
348
0
  0
LAYER
  5
9E
330
2
100
AcDbSymbolTableRecord
100
AcDbLayerTableRecord
  2
AM_9
 70
     0
 62
     6
  6
Dashed
370
    25
390
F
347
46
348
0
  0
LAYER
  5
AA
330
2
100
AcDbSymbolTableRecord
100
AcDbLayerTableRecord
  2
AM_5
 70
     0
 62
     3
  6
Continuous
370
    25
390
F
347
46
348
0
  0
LAYER
  5
AE
330
2
100
AcDbSymbolTableRecord
100
AcDbLayerTableRecord
  2
AM_4
 70
     0
 62
     7
  6
Continuous
370
    50
390
F
347
46
348
0
  0
LAYER
  5
191
330
2
100
AcDbSymbolTableRecord
100
AcDbLayerTableRecord
  2
AM_7
 70
     0
 62
     7
  6
Center
370
    25
390
F
347
46
348
0
  0
LAYER
  5
247
330
2
100
AcDbSymbolTableRecord
100
AcDbLayerTableRecord
  2
ConnectionPoints
 70
     0
 62
     7
  6
Continuous
370
    50
390
F
347
46
348
0
  0
ENDTAB
  0
TABLE
  2
STYLE
  5
3
330
0
100
AcDbSymbolTable
 70
     1
  0
STYLE
  5
11
330
3
100
AcDbSymbolTableRecord
100
AcDbTextStyleTableRecord
  2
Standard
 70
     0
 40
0.0
 41
1.0
 50
0.0
 71
     0
 42
0.2
  3
txt
  4

  0
ENDTAB
  0
TABLE
  2
VIEW
  5
6
330
0
100
AcDbSymbolTable
 70
     0
  0
ENDTAB
  0
TABLE
  2
UCS
  5
7
330
0
100
AcDbSymbolTable
 70
     0
  0
ENDTAB
  0
TABLE
  2
APPID
  5
9
330
0
100
AcDbSymbolTable
 70
     1
  0
APPID
  5
12
330
9
100
AcDbSymbolTableRecord
100
AcDbRegAppTableRecord
  2
ACAD
 70
     0
  0
ENDTAB
  0
TABLE
  2
DIMSTYLE
  5
A
330
0
100
AcDbSymbolTable
 70
     1
100
AcDbDimStyleTable
  0
DIMSTYLE
105
27
330
A
100
AcDbSymbolTableRecord
100
AcDbDimStyleTableRecord
  2
Standard
 70
     0
178
     0
340
11
  0
ENDTAB
  0
TABLE
  2
BLOCK_RECORD
  5
1
330
0
100
AcDbSymbolTable
 70
     8
  0
BLOCK_RECORD
  5
1F
330
1
100
AcDbSymbolTableRecord
100
AcDbBlockTableRecord
  2
*Model_Space
340
22
 70
     0
280
     1
281
     0
  0
BLOCK_RECORD
  5
1B
330
1
100
AcDbSymbolTableRecord
100
AcDbBlockTableRecord
  2
*Paper_Space
340
1E
 70
     0
280
     1
281
     0
  0
BLOCK_RECORD
  5
23
330
1
100
AcDbSymbolTableRecord
100
AcDbBlockTableRecord
  2
*Paper_Space0
340
26
 70
     0
280
     1
281
     0
  0
BLOCK_RECORD
  5
6E
330
1
100
AcDbSymbolTableRecord
100
AcDbBlockTableRecord
  2
1_071319_2
340
0
102
{BLKREFS
331
6F
102
}
 70
     0
280
     1
281
     0
  0
BLOCK_RECORD
  5
8D
330
1
100
AcDbSymbolTableRecord
100
AcDbBlockTableRecord
  2
2_ASME_B18_3_10_1_0_in_071319_2
340
0
102
{BLKREFS
331
8E
102
}
 70
     0
280
     1
281
     0
  0
BLOCK_RECORD
  5
B5
330
1
100
AcDbSymbolTableRecord
100
AcDbBlockTableRecord
  2
3_ASME_B18_3_10_2_0_in_071319_2
340
0
102
{BLKREFS
331
B6
102
}
 70
     0
280
     1
281
     0
  0
BLOCK_RECORD
  5
D8
330
1
100
AcDbSymbolTableRecord
100
AcDbBlockTableRecord
  2
4_070889LWE_0_in_071319_2
340
0
102
{BLKREFS
331
D9
102
}
 70
     0
280
     1
281
     0
  0
BLOCK_RECORD
  5
112
330
1
100
AcDbSymbolTableRecord
100
AcDbBlockTableRecord
  2
5_070889E_0_in_071319_2
340
0
102
{BLKREFS
331
113
102
}
 70
     0
280
     1
281
     0
  0
BLOCK_RECORD
  5
1A3
330
1
100
AcDbSymbolTableRecord
100
AcDbBlockTableRecord
  2
6_405015E_Inch_0_in_071319_2
340
0
102
{BLKREFS
331
1A4
102
}
 70
     0
280
     1
281
     0
  0
BLOCK_RECORD
  5
1E2
330
1
100
AcDbSymbolTableRecord
100
AcDbBlockTableRecord
  2
7_071319H_0_in_071319_2
340
0
102
{BLKREFS
331
1E3
102
}
 70
     0
280
     1
281
     0
  0
ENDTAB
  0
ENDSEC
  0
SECTION
  2
BLOCKS
  0
BLOCK
  5
20
330
1F
100
AcDbEntity
  8
0
100
AcDbBlockBegin
  2
*Model_Space
 70
     0
 10
0.0
 20
0.0
 30
0.0
  3
*Model_Space
  1

  0
ENDBLK
  5
21
330
1F
100
AcDbEntity
  8
0
100
AcDbBlockEnd
  0
BLOCK
  5
1C
330
1B
100
AcDbEntity
 67
     1
  8
0
100
AcDbBlockBegin
  2
*Paper_Space
 70
     0
 10
0.0
 20
0.0
 30
0.0
  3
*Paper_Space
  1

  0
ENDBLK
  5
1D
330
1B
100
AcDbEntity
 67
     1
  8
0
100
AcDbBlockEnd
  0
BLOCK
  5
24
330
23
100
AcDbEntity
  8
0
100
AcDbBlockBegin
  2
*Paper_Space0
 70
     0
 10
0.0
 20
0.0
 30
0.0
  3
*Paper_Space0
  1

  0
ENDBLK
  5
25
330
23
100
AcDbEntity
  8
0
100
AcDbBlockEnd
  0
BLOCK
  5
70
330
6E
100
AcDbEntity
  8
0
100
AcDbBlockBegin
  2
1_071319_2
 70
     2
 10
0.0
 20
0.0
 30
0.0
  3
1_071319_2
  1

  0
ATTDEF
  5
73
330
6E
100
AcDbEntity
  8
AM_6
100
AcDbText
 10
5.167700000029234
 20
2.815
 30
0.0
 40
0.5
  1
Imperial - IP Flange - Square with Type E Dimensions 1-3/8 thru 2-3/16 inch Trident Seal Expansion
100
AcDbAttributeDefinition
  3

  2
NN
 70
     8
280
     0
  0
ATTDEF
  5
74
330
6E
100
AcDbEntity
  8
AM_6
100
AcDbText
 10
5.167700000029234
 20
2.315
 30
0.0
 40
0.5
  1
Imperial/E 4 Bolt Flange Bearings
100
AcDbAttributeDefinition
  3

  2
NT
 70
     8
280
     0
  0
ATTDEF
  5
75
330
6E
100
AcDbEntity
  8
AM_6
100
AcDbText
 10
5.167700000029234
 20
1.815
 30
0.0
 40
0.5
  1
071319
100
AcDbAttributeDefinition
  3

  2
NB
 70
     8
280
     0
  0
ATTDEF
  5
76
330
6E
100
AcDbEntity
  8
AM_6
100
AcDbText
 10
5.167700000029234
 20
1.315
 30
0.0
 40
0.5
  1
$PN.
100
AcDbAttributeDefinition
  3

  2
NBSYN
 70
     8
280
     0
  0
ATTDEF
  5
77
330
6E
100
AcDbEntity
  8
AM_6
100
AcDbText
 10
5.167700000029234
 20
0.815
 30
0.0
 40
0.5
  1
071319
100
AcDbAttributeDefinition
  3

  2
LINA
 70
     8
280
     0
  0
ATTDEF
  5
78
330
6E
100
AcDbEntity
  8
AM_6
100
AcDbText
 10
5.167700000029234
 20
0.3149999999999999
 30
0.0
 40
0.5
  1
1-7/8
100
AcDbAttributeDefinition
  3

  2
SS
 70
     8
280
     0
  0
ATTDEF
  5
79
330
6E
100
AcDbEntity
  8
AM_6
100
AcDbText
 10
5.167700000029234
 20
-0.1850000000000001
 30
0.0
 40
0.5
  1
Expansion
100
AcDbAttributeDefinition
  3

  2
TYPE
 70
     8
280
     0
  0
ATTDEF
  5
7A
330
6E
100
AcDbEntity
  8
AM_6
100
AcDbText
 10
5.167700000029234
 20
-0.685
 30
0.0
 40
0.5
  1
071319
100
AcDbAttributeDefinition
  3

  2
PN
 70
     8
280
     0
  0
ATTDEF
  5
7B
330
6E
100
AcDbEntity
  8
AM_6
100
AcDbText
 10
5.167700000029234
 20
-1.185
 30
0.0
 40
0.5
  1
EF4B-IP-114RE
100
AcDbAttributeDefinition
  3

  2
DESCRIPTION
 70
     8
280
     0
  0
ATTDEF
  5
7C
330
6E
100
AcDbEntity
  8
AM_6
100
AcDbText
 10
5.167700000029234
 20
-1.685
 30
0.0
 40
0.5
  1
Contact Seal
100
AcDbAttributeDefinition
  3

  2
ST
 70
     8
280
     0
  0
ATTDEF
  5
7D
330
6E
100
AcDbEntity
  8
AM_6
100
AcDbText
 10
5.167700000029234
 20
-2.185
 30
0.0
 40
0.5
  1
2.86
100
AcDbAttributeDefinition
  3

  2
A
 70
     8
280
     0
  0
ATTDEF
  5
7E
330
6E
100
AcDbEntity
  8
AM_6
100
AcDbText
 10
5.167700000029234
 20
-2.685
 30
0.0
 40
0.5
  1
5.63
100
AcDbAttributeDefinition
  3

  2
B
 70
     8
280
     0
  0
ATTDEF
  5
7F
330
6E
100
AcDbEntity
  8
AM_6
100
AcDbText
 10
5.167700000029234
 20
-3.185
 30
0.0
 40
0.5
  1
3.64
100
AcDbAttributeDefinition
  3

  2
C
 70
     8
280
     0
  0
ATTDEF
  5
80
330
6E
100
AcDbEntity
  8
AM_6
100
AcDbText
 10
5.167700000029234
 20
-3.685
 30
0.0
 40
0.5
  1
4.38
100
AcDbAttributeDefinition
  3

  2
D
 70
     8
280
     0
  0
ATTDEF
  5
81
330
6E
100
AcDbEntity
  8
AM_6
100
AcDbText
 10
5.167700000029234
 20
-4.185
 30
0.0
 40
0.5
  1
6.188
100
AcDbAttributeDefinition
  3

  2
DD
 70
     8
280
     0
  0
ATTDEF
  5
82
330
6E
100
AcDbEntity
  8
AM_6
100
AcDbText
 10
5.167700000029234
 20
-4.685
 30
0.0
 40
0.5
  1
1/2
100
AcDbAttributeDefinition
  3

  2
F
 70
     8
280
     0
  0
ATTDEF
  5
83
330
6E
100
AcDbEntity
  8
AM_6
100
AcDbText
 10
5.167700000029234
 20
-5.185
 30
0.0
 40
0.5
  1
0.65
100
AcDbAttributeDefinition
  3

  2
G
 70
     8
280
     0
  0
ATTDEF
  5
84
330
6E
100
AcDbEntity
  8
AM_6
100
AcDbText
 10
5.167700000029234
 20
-5.685
 30
0.0
 40
0.5
  1
1.18
100
AcDbAttributeDefinition
  3

  2
H
 70
     8
280
     0
  0
ATTDEF
  5
85
330
6E
100
AcDbEntity
  8
AM_6
100
AcDbText
 10
5.167700000029234
 20
-6.185
 30
0.0
 40
0.5
  1
4.36
100
AcDbAttributeDefinition
  3

  2
J
 70
     8
280
     0
  0
ATTDEF
  5
86
330
6E
100
AcDbEntity
  8
AM_6
100
AcDbText
 10
5.167700000029234
 20
-6.685
 30
0.0
 40
0.5
  1
3.28
100
AcDbAttributeDefinition
  3

  2
L
 70
     8
280
     0
  0
ATTDEF
  5
87
330
6E
100
AcDbEntity
  8
AM_6
100
AcDbText
 10
5.167700000029234
 20
-7.185
 30
0.0
 40
0.5
  1
2.60
100
AcDbAttributeDefinition
  3

  2
N
 70
     8
280
     0
  0
ATTDEF
  5
88
330
6E
100
AcDbEntity
  8
AM_6
100
AcDbText
 10
5.167700000029234
 20
-7.685
 30
0.0
 40
0.5
  1
0.79
100
AcDbAttributeDefinition
  3

  2
P
 70
     8
280
     0
  0
ATTDEF
  5
89
330
6E
100
AcDbEntity
  8
AM_6
100
AcDbText
 10
5.167700000029234
 20
-8.185
 30
0.0
 40
0.5
  1
0.22
100
AcDbAttributeDefinition
  3

  2
X
 70
     8
280
     0
  0
ATTDEF
  5
8A
330
6E
100
AcDbEntity
  8
AM_6
100
AcDbText
 10
5.167700000029234
 20
-8.685
 30
0.0
 40
0.5
  1
0.020
100
AcDbAttributeDefinition
  3

  2
Y
 70
     8
280
     0
  0
ATTDEF
  5
8B
330
6E
100
AcDbEntity
  8
AM_6
100
AcDbText
 10
5.167700000029234
 20
-9.185
 30
0.0
 40
0.5
  1
2.3
100
AcDbAttributeDefinition
  3

  2
Z
 70
     8
280
     0
  0
ATTDEF
  5
8C
330
6E
100
AcDbEntity
  8
AM_6
100
AcDbText
 10
5.167700000029234
 20
-9.685
 30
0.0
 40
0.5
  1
baldor
100
AcDbAttributeDefinition
  3

  2
COMPANY
 70
     8
280
     0
  0
INSERT
  5
8E
330
6E
100
AcDbEntity
  8
0
100
AcDbBlockReference
  2
2_ASME_B18_3_10_1_0_in_071319_2
 10
0.0
 20
0.0
 30
0.0
  0
INSERT
  5
B6
330
6E
100
AcDbEntity
  8
0
100
AcDbBlockReference
  2
3_ASME_B18_3_10_2_0_in_071319_2
 10
0.0
 20
0.0
 30
0.0
  0
INSERT
  5
D9
330
6E
100
AcDbEntity
  8
0
100
AcDbBlockReference
  2
4_070889LWE_0_in_071319_2
 10
0.0
 20
0.0
 30
0.0
  0
INSERT
  5
113
330
6E
100
AcDbEntity
  8
0
100
AcDbBlockReference
  2
5_070889E_0_in_071319_2
 10
0.0
 20
0.0
 30
0.0
  0
INSERT
  5
1A4
330
6E
100
AcDbEntity
  8
0
100
AcDbBlockReference
  2
6_405015E_Inch_0_in_071319_2
 10
0.0
 20
0.0
 30
0.0
  0
INSERT
  5
1E3
330
6E
100
AcDbEntity
  8
0
100
AcDbBlockReference
  2
7_071319H_0_in_071319_2
 10
0.0
 20
0.0
 30
0.0
  0
ENDBLK
  5
71
330
6E
100
AcDbEntity
  8
0
100
AcDbBlockEnd
  0
BLOCK
  5
8F
330
8D
100
AcDbEntity
  8
0
100
AcDbBlockBegin
  2
2_ASME_B18_3_10_1_0_in_071319_2
 70
     2
 10
0.0
 20
0.0
 30
0.0
  3
2_ASME_B18_3_10_1_0_in_071319_2
  1

  0
ATTDEF
  5
91
330
8D
100
AcDbEntity
  8
AM_6
100
AcDbText
 10
2.532833333333334
 20
-1.160645833333334
 30
0.0
 40
0.5
  1
ANSI/ASME B18.3-1998
100
AcDbAttributeDefinition
  3

  2
NN
 70
     8
280
     0
  0
ATTDEF
  5
92
330
8D
100
AcDbEntity
  8
AM_6
100
AcDbText
 10
2.532833333333334
 20
-1.660645833333334
 30
0.0
 40
0.5
  1
Socket Button Head Cap Screws
100
AcDbAttributeDefinition
  3

  2
NT
 70
     8
280
     0
  0
ATTDEF
  5
93
330
8D
100
AcDbEntity
  8
AM_6
100
AcDbText
 10
2.532833333333334
 20
-2.160645833333334
 30
0.0
 40
0.5
  1
ASME B18.3-10
100
AcDbAttributeDefinition
  3

  2
NB
 70
     8
280
     0
  0
ATTDEF
  5
94
330
8D
100
AcDbEntity
  8
AM_6
100
AcDbText
 10
2.532833333333334
 20
-2.660645833333334
 30
0.0
 40
0.5
  1
ASME B18.3-$NS.
100
AcDbAttributeDefinition
  3

  2
NBSYN
 70
     8
280
     0
  0
ATTDEF
  5
95
330
8D
100
AcDbEntity
  8
AM_6
100
AcDbText
 10
2.532833333333334
 20
-3.160645833333334
 30
0.0
 40
0.5
  1
ASME B18.3-10
100
AcDbAttributeDefinition
  3

  2
LINA
 70
     8
280
     0
  0
ATTDEF
  5
96
330
8D
100
AcDbEntity
  8
AM_6
100
AcDbText
 10
2.532833333333334
 20
-3.660645833333334
 30
0.0
 40
0.5
  1
10
100
AcDbAttributeDefinition
  3

  2
NS
 70
     8
280
     0
  0
ATTDEF
  5
97
330
8D
100
AcDbEntity
  8
AM_6
100
AcDbText
 10
2.532833333333334
 20
-4.160645833333334
 30
0.0
 40
0.5
  1
0.361
100
AcDbAttributeDefinition
  3

  2
A
 70
     8
280
     0
  0
ATTDEF
  5
98
330
8D
100
AcDbEntity
  8
AM_6
100
AcDbText
 10
2.532833333333334
 20
-4.660645833333334
 30
0.0
 40
0.5
  1
0.101
100
AcDbAttributeDefinition
  3

  2
H
 70
     8
280
     0
  0
ATTDEF
  5
99
330
8D
100
AcDbEntity
  8
AM_6
100
AcDbText
 10
2.532833333333334
 20
-5.160645833333334
 30
0.0
 40
0.5
  1
0.800
100
AcDbAttributeDefinition
  3

  2
L
 70
     8
280
     0
  0
ATTDEF
  5
9A
330
8D
100
AcDbEntity
  8
AM_6
100
AcDbText
 10
2.532833333333334
 20
-5.660645833333334
 30
0.0
 40
0.5
  1
0.020
100
AcDbAttributeDefinition
  3

  2
S
 70
     8
280
     0
  0
ATTDEF
  5
9B
330
8D
100
AcDbEntity
  8
AM_6
100
AcDbText
 10
2.532833333333334
 20
-6.160645833333334
 30
0.0
 40
0.5
  1
0.125000
100
AcDbAttributeDefinition
  3

  2
J
 70
     8
280
     0
  0
ATTDEF
  5
9C
330
8D
100
AcDbEntity
  8
AM_6
100
AcDbText
 10
2.532833333333334
 20
-6.660645833333334
 30
0.0
 40
0.5
  1
baldor
100
AcDbAttributeDefinition
  3

  2
COMPANY
 70
     8
280
     0
  0
LINE
  5
9F
330
8D
100
AcDbEntity
  8
AM_9
100
AcDbLine
 10
-3.307166666666666
 20
-1.26897704968463
 30
0.0
 11
-3.368166666666665
 21
-1.26897704968463
 31
0.0
  0
LINE
  5
A0
330
8D
100
AcDbEntity
  8
AM_9
100
AcDbLine
 10
-3.307166666666666
 20
-1.413314616982037
 30
0.0
 11
-3.368166666666665
 21
-1.413314616982037
 31
0.0
  0
LINE
  5
A1
330
8D
100
AcDbEntity
  8
AM_9
100
AcDbLine
 10
-3.307166666666666
 20
-1.26897704968463
 30
0.0
 11
-3.307166666666666
 21
-1.413314616982037
 31
0.0
  0
LINE
  5
A2
330
8D
100
AcDbEntity
  8
AM_9
100
AcDbLine
 10
-3.307166666666666
 20
-1.377230225157685
 30
0.0
 11
-3.368166666666665
 21
-1.377230225157685
 31
0.0
  0
LINE
  5
A3
330
8D
100
AcDbEntity
  8
AM_9
100
AcDbLine
 10
-3.307166666666666
 20
-1.305061441508982
 30
0.0
 11
-3.368166666666665
 21
-1.305061441508982
 31
0.0
  0
LINE
  5
A4
330
8D
100
AcDbEntity
  8
AM_9
100
AcDbLine
 10
-2.467166666666666
 20
-1.264745833333333
 30
0.0
 11
-2.467166666666666
 21
-1.417545833333334
 31
0.0
  0
LINE
  5
A5
330
8D
100
AcDbEntity
  8
AM_9
100
AcDbLine
 10
-2.467166666666666
 20
-1.264745833333333
 30
0.0
 11
-2.485766666666666
 21
-1.246145833333334
 31
0.0
  0
LINE
  5
A6
330
8D
100
AcDbEntity
  8
AM_9
100
AcDbLine
 10
-2.485766666666666
 20
-1.436145833333333
 30
0.0
 11
-2.467166666666666
 21
-1.417545833333334
 31
0.0
  0
LINE
  5
A7
330
8D
100
AcDbEntity
  8
AM_9
100
AcDbLine
 10
-2.485766666666666
 20
-1.246145833333334
 30
0.0
 11
-2.485766666666666
 21
-1.436145833333333
 31
0.0
  0
LINE
  5
A8
330
8D
100
AcDbEntity
  8
AM_9
100
AcDbLine
 10
-3.267166666666666
 20
-1.436145833333333
 30
0.0
 11
-2.485766666666666
 21
-1.436145833333333
 31
0.0
  0
LINE
  5
A9
330
8D
100
AcDbEntity
  8
AM_9
100
AcDbLine
 10
-2.485766666666666
 20
-1.246145833333334
 30
0.0
 11
-3.267166666666666
 21
-1.246145833333334
 31
0.0
  0
LINE
  5
AB
330
8D
100
AcDbEntity
  8
AM_5
100
AcDbLine
 10
-3.187166666666666
 20
-1.417545833333334
 30
0.0
 11
-3.219382811687447
 21
-1.436145833333333
 31
0.0
  0
LINE
  5
AC
330
8D
100
AcDbEntity
  8
AM_5
100
AcDbLine
 10
-3.187166666666666
 20
-1.246145833333333
 30
0.0
 11
-3.187166666666666
 21
-1.436145833333327
 31
0.0
  0
LINE
  5
AD
330
8D
100
AcDbEntity
  8
AM_5
100
AcDbLine
 10
-3.187166666666666
 20
-1.264745833333333
 30
0.0
 11
-3.219382811687447
 21
-1.246145833333333
 31
0.0
  0
LINE
  5
AF
330
8D
100
AcDbEntity
  8
AM_4
100
AcDbLine
 10
-3.368166666666665
 20
-1.241645833333334
 30
0.0
 11
-3.368166666666665
 21
-1.440645833333334
 31
0.0
  0
ARC
  5
B0
330
8D
100
AcDbEntity
  8
AM_4
100
AcDbCircle
 10
-3.287166666666665
 20
-1.440645833333334
 30
0.0
 40
0.081
100
AcDbArc
 50
179.9999991462263
 51
270.0
  0
ARC
  5
B1
330
8D
100
AcDbEntity
  8
AM_4
100
AcDbCircle
 10
-3.287166666666665
 20
-1.241645833333334
 30
0.0
 40
0.0810000000000002
100
AcDbArc
 50
90.0
 51
179.9999991462263
  0
LINE
  5
B2
330
8D
100
AcDbEntity
  8
AM_4
100
AcDbLine
 10
-3.287166666666665
 20
-1.160645833333334
 30
0.0
 11
-3.287166666666665
 21
-1.521645833333334
 31
0.0
  0
LINE
  5
B3
330
8D
100
AcDbEntity
  8
AM_4
100
AcDbLine
 10
-3.287166666666665
 20
-1.521645833333334
 30
0.0
 11
-3.267166666666666
 21
-1.521645833333334
 31
0.0
  0
LINE
  5
B4
330
8D
100
AcDbEntity
  8
AM_4
100
AcDbLine
 10
-3.267166666666666
 20
-1.160645833333334
 30
0.0
 11
-3.287166666666665
 21
-1.160645833333334
 31
0.0
  0
ENDBLK
  5
90
330
8D
100
AcDbEntity
  8
0
100
AcDbBlockEnd
  0
BLOCK
  5
B7
330
B5
100
AcDbEntity
  8
0
100
AcDbBlockBegin
  2
3_ASME_B18_3_10_2_0_in_071319_2
 70
     2
 10
0.0
 20
0.0
 30
0.0
  3
3_ASME_B18_3_10_2_0_in_071319_2
  1

  0
ATTDEF
  5
B9
330
B5
100
AcDbEntity
  8
AM_6
100
AcDbText
 10
2.532833333333334
 20
1.521645833333334
 30
0.0
 40
0.5
  1
ANSI/ASME B18.3-1998
100
AcDbAttributeDefinition
  3

  2
NN
 70
     8
280
     0
  0
ATTDEF
  5
BA
330
B5
100
AcDbEntity
  8
AM_6
100
AcDbText
 10
2.532833333333334
 20
1.021645833333334
 30
0.0
 40
0.5
  1
Socket Button Head Cap Screws
100
AcDbAttributeDefinition
  3

  2
NT
 70
     8
280
     0
  0
ATTDEF
  5
BB
330
B5
100
AcDbEntity
  8
AM_6
100
AcDbText
 10
2.532833333333334
 20
0.5216458333333336
 30
0.0
 40
0.5
  1
ASME B18.3-10
100
AcDbAttributeDefinition
  3

  2
NB
 70
     8
280
     0
  0
ATTDEF
  5
BC
330
B5
100
AcDbEntity
  8
AM_6
100
AcDbText
 10
2.532833333333334
 20
0.0216458333333336
 30
0.0
 40
0.5
  1
ASME B18.3-$NS.
100
AcDbAttributeDefinition
  3

  2
NBSYN
 70
     8
280
     0
  0
ATTDEF
  5
BD
330
B5
100
AcDbEntity
  8
AM_6
100
AcDbText
 10
2.532833333333334
 20
-0.4783541666666664
 30
0.0
 40
0.5
  1
ASME B18.3-10
100
AcDbAttributeDefinition
  3

  2
LINA
 70
     8
280
     0
  0
ATTDEF
  5
BE
330
B5
100
AcDbEntity
  8
AM_6
100
AcDbText
 10
2.532833333333334
 20
-0.9783541666666664
 30
0.0
 40
0.5
  1
10
100
AcDbAttributeDefinition
  3

  2
NS
 70
     8
280
     0
  0
ATTDEF
  5
BF
330
B5
100
AcDbEntity
  8
AM_6
100
AcDbText
 10
2.532833333333334
 20
-1.478354166666666
 30
0.0
 40
0.5
  1
0.361
100
AcDbAttributeDefinition
  3

  2
A
 70
     8
280
     0
  0
ATTDEF
  5
C0
330
B5
100
AcDbEntity
  8
AM_6
100
AcDbText
 10
2.532833333333334
 20
-1.978354166666666
 30
0.0
 40
0.5
  1
0.101
100
AcDbAttributeDefinition
  3

  2
H
 70
     8
280
     0
  0
ATTDEF
  5
C1
330
B5
100
AcDbEntity
  8
AM_6
100
AcDbText
 10
2.532833333333334
 20
-2.478354166666667
 30
0.0
 40
0.5
  1
0.800
100
AcDbAttributeDefinition
  3

  2
L
 70
     8
280
     0
  0
ATTDEF
  5
C2
330
B5
100
AcDbEntity
  8
AM_6
100
AcDbText
 10
2.532833333333334
 20
-2.978354166666667
 30
0.0
 40
0.5
  1
0.020
100
AcDbAttributeDefinition
  3

  2
S
 70
     8
280
     0
  0
ATTDEF
  5
C3
330
B5
100
AcDbEntity
  8
AM_6
100
AcDbText
 10
2.532833333333334
 20
-3.478354166666667
 30
0.0
 40
0.5
  1
0.125000
100
AcDbAttributeDefinition
  3

  2
J
 70
     8
280
     0
  0
ATTDEF
  5
C4
330
B5
100
AcDbEntity
  8
AM_6
100
AcDbText
 10
2.532833333333334
 20
-3.978354166666667
 30
0.0
 40
0.5
  1
baldor
100
AcDbAttributeDefinition
  3

  2
COMPANY
 70
     8
280
     0
  0
LINE
  5
C5
330
B5
100
AcDbEntity
  8
AM_9
100
AcDbLine
 10
-3.307166666666666
 20
1.413314616982037
 30
0.0
 11
-3.368166666666665
 21
1.413314616982037
 31
0.0
  0
LINE
  5
C6
330
B5
100
AcDbEntity
  8
AM_9
100
AcDbLine
 10
-3.307166666666666
 20
1.26897704968463
 30
0.0
 11
-3.368166666666665
 21
1.26897704968463
 31
0.0
  0
LINE
  5
C7
330
B5
100
AcDbEntity
  8
AM_9
100
AcDbLine
 10
-3.307166666666666
 20
1.413314616982037
 30
0.0
 11
-3.307166666666666
 21
1.26897704968463
 31
0.0
  0
LINE
  5
C8
330
B5
100
AcDbEntity
  8
AM_9
100
AcDbLine
 10
-3.307166666666666
 20
1.377230225157685
 30
0.0
 11
-3.368166666666665
 21
1.377230225157685
 31
0.0
  0
LINE
  5
C9
330
B5
100
AcDbEntity
  8
AM_9
100
AcDbLine
 10
-3.307166666666666
 20
1.305061441508982
 30
0.0
 11
-3.368166666666665
 21
1.305061441508982
 31
0.0
  0
LINE
  5
CA
330
B5
100
AcDbEntity
  8
AM_9
100
AcDbLine
 10
-2.467166666666666
 20
1.417545833333334
 30
0.0
 11
-2.467166666666666
 21
1.264745833333333
 31
0.0
  0
LINE
  5
CB
330
B5
100
AcDbEntity
  8
AM_9
100
AcDbLine
 10
-2.467166666666666
 20
1.417545833333334
 30
0.0
 11
-2.485766666666666
 21
1.436145833333333
 31
0.0
  0
LINE
  5
CC
330
B5
100
AcDbEntity
  8
AM_9
100
AcDbLine
 10
-2.485766666666666
 20
1.246145833333334
 30
0.0
 11
-2.467166666666666
 21
1.264745833333333
 31
0.0
  0
LINE
  5
CD
330
B5
100
AcDbEntity
  8
AM_9
100
AcDbLine
 10
-2.485766666666666
 20
1.436145833333333
 30
0.0
 11
-2.485766666666666
 21
1.246145833333334
 31
0.0
  0
LINE
  5
CE
330
B5
100
AcDbEntity
  8
AM_9
100
AcDbLine
 10
-3.267166666666666
 20
1.246145833333334
 30
0.0
 11
-2.485766666666666
 21
1.246145833333334
 31
0.0
  0
LINE
  5
CF
330
B5
100
AcDbEntity
  8
AM_9
100
AcDbLine
 10
-2.485766666666666
 20
1.436145833333333
 30
0.0
 11
-3.267166666666666
 21
1.436145833333333
 31
0.0
  0
LINE
  5
D0
330
B5
100
AcDbEntity
  8
AM_5
100
AcDbLine
 10
-3.187166666666666
 20
1.264745833333333
 30
0.0
 11
-3.219382811687447
 21
1.246145833333333
 31
0.0
  0
LINE
  5
D1
330
B5
100
AcDbEntity
  8
AM_5
100
AcDbLine
 10
-3.187166666666666
 20
1.436145833333328
 30
0.0
 11
-3.187166666666666
 21
1.246145833333334
 31
0.0
  0
LINE
  5
D2
330
B5
100
AcDbEntity
  8
AM_4
100
AcDbLine
 10
-3.368166666666665
 20
1.440645833333334
 30
0.0
 11
-3.368166666666665
 21
1.241645833333334
 31
0.0
  0
ARC
  5
D3
330
B5
100
AcDbEntity
  8
AM_4
100
AcDbCircle
 10
-3.287166666666665
 20
1.241645833333334
 30
0.0
 40
0.081
100
AcDbArc
 50
179.9999991462263
 51
270.0
  0
ARC
  5
D4
330
B5
100
AcDbEntity
  8
AM_4
100
AcDbCircle
 10
-3.287166666666665
 20
1.440645833333334
 30
0.0
 40
0.081
100
AcDbArc
 50
90.0
 51
179.9999991462263
  0
LINE
  5
D5
330
B5
100
AcDbEntity
  8
AM_4
100
AcDbLine
 10
-3.287166666666665
 20
1.521645833333334
 30
0.0
 11
-3.287166666666665
 21
1.160645833333334
 31
0.0
  0
LINE
  5
D6
330
B5
100
AcDbEntity
  8
AM_4
100
AcDbLine
 10
-3.287166666666665
 20
1.160645833333334
 30
0.0
 11
-3.267166666666666
 21
1.160645833333334
 31
0.0
  0
LINE
  5
D7
330
B5
100
AcDbEntity
  8
AM_4
100
AcDbLine
 10
-3.267166666666666
 20
1.521645833333334
 30
0.0
 11
-3.287166666666665
 21
1.521645833333334
 31
0.0
  0
ENDBLK
  5
B8
330
B5
100
AcDbEntity
  8
0
100
AcDbBlockEnd
  0
BLOCK
  5
DA
330
D8
100
AcDbEntity
  8
0
100
AcDbBlockBegin
  2
4_070889LWE_0_in_071319_2
 70
     2
 10
0.0
 20
0.0
 30
0.0
  3
4_070889LWE_0_in_071319_2
  1

  0
ATTDEF
  5
DC
330
D8
100
AcDbEntity
  8
AM_6
100
AcDbText
 10
2.172833333333335
 20
1.64
 30
0.0
 40
0.5
  1
Imperial/E Insert Lockwasher -Inch
100
AcDbAttributeDefinition
  3

  2
NN
 70
     8
280
     0
  0
ATTDEF
  5
DD
330
D8
100
AcDbEntity
  8
AM_6
100
AcDbText
 10
2.172833333333335
 20
1.14
 30
0.0
 40
0.5
  1
Imperial/E Bearings
100
AcDbAttributeDefinition
  3

  2
NT
 70
     8
280
     0
  0
ATTDEF
  5
DE
330
D8
100
AcDbEntity
  8
AM_6
100
AcDbText
 10
2.172833333333335
 20
0.6400000000000003
 30
0.0
 40
0.5
  1
070889LWE
100
AcDbAttributeDefinition
  3

  2
NB
 70
     8
280
     0
  0
ATTDEF
  5
DF
330
D8
100
AcDbEntity
  8
AM_6
100
AcDbText
 10
2.172833333333335
 20
0.1400000000000003
 30
0.0
 40
0.5
  1
$PN.LWE
100
AcDbAttributeDefinition
  3

  2
NBSYN
 70
     8
280
     0
  0
ATTDEF
  5
E0
330
D8
100
AcDbEntity
  8
AM_6
100
AcDbText
 10
2.172833333333335
 20
-0.3599999999999997
 30
0.0
 40
0.5
  1
070889
100
AcDbAttributeDefinition
  3

  2
LINA
 70
     8
280
     0
  0
ATTDEF
  5
E1
330
D8
100
AcDbEntity
  8
AM_6
100
AcDbText
 10
2.172833333333335
 20
-0.8599999999999997
 30
0.0
 40
0.5
  1
1-7/8
100
AcDbAttributeDefinition
  3

  2
SS
 70
     8
280
     0
  0
ATTDEF
  5
E2
330
D8
100
AcDbEntity
  8
AM_6
100
AcDbText
 10
2.172833333333335
 20
-1.36
 30
0.0
 40
0.5
  1
3.280000
100
AcDbAttributeDefinition
  3

  2
E1
 70
     8
280
     0
  0
ATTDEF
  5
E3
330
D8
100
AcDbEntity
  8
AM_6
100
AcDbText
 10
2.172833333333335
 20
-1.86
 30
0.0
 40
0.5
  1
1.875000
100
AcDbAttributeDefinition
  3

  2
SS1
 70
     8
280
     0
  0
ATTDEF
  5
E4
330
D8
100
AcDbEntity
  8
AM_6
100
AcDbText
 10
2.172833333333335
 20
-2.359999999999999
 30
0.0
 40
0.5
  1
070889
100
AcDbAttributeDefinition
  3

  2
PN
 70
     8
280
     0
  0
ATTDEF
  5
E5
330
D8
100
AcDbEntity
  8
AM_6
100
AcDbText
 10
2.172833333333335
 20
-2.859999999999999
 30
0.0
 40
0.5
  1
INS-IP-114R
100
AcDbAttributeDefinition
  3

  2
DESCRIPTION
 70
     8
280
     0
  0
ATTDEF
  5
E6
330
D8
100
AcDbEntity
  8
AM_6
100
AcDbText
 10
2.172833333333335
 20
-3.359999999999999
 30
0.0
 40
0.5
  1
3.5433
100
AcDbAttributeDefinition
  3

  2
A
 70
     8
280
     0
  0
ATTDEF
  5
E7
330
D8
100
AcDbEntity
  8
AM_6
100
AcDbText
 10
2.172833333333335
 20
-3.859999999999999
 30
0.0
 40
0.5
  1
61/64
100
AcDbAttributeDefinition
  3

  2
B
 70
     8
280
     0
  0
ATTDEF
  5
E8
330
D8
100
AcDbEntity
  8
AM_6
100
AcDbText
 10
2.172833333333335
 20
-4.359999999999999
 30
0.0
 40
0.5
  1
0.953125
100
AcDbAttributeDefinition
  3

  2
B1
 70
     8
280
     0
  0
ATTDEF
  5
E9
330
D8
100
AcDbEntity
  8
AM_6
100
AcDbText
 10
2.172833333333335
 20
-4.859999999999999
 30
0.0
 40
0.5
  1
2-55/64
100
AcDbAttributeDefinition
  3

  2
C
 70
     8
280
     0
  0
ATTDEF
  5
EA
330
D8
100
AcDbEntity
  8
AM_6
100
AcDbText
 10
2.172833333333335
 20
-5.359999999999999
 30
0.0
 40
0.5
  1
2.859375
100
AcDbAttributeDefinition
  3

  2
C1
 70
     8
280
     0
  0
ATTDEF
  5
EB
330
D8
100
AcDbEntity
  8
AM_6
100
AcDbText
 10
2.172833333333335
 20
-5.859999999999999
 30
0.0
 40
0.5
  1
0.977
100
AcDbAttributeDefinition
  3

  2
D
 70
     8
280
     0
  0
ATTDEF
  5
EC
330
D8
100
AcDbEntity
  8
AM_6
100
AcDbText
 10
2.172833333333335
 20
-6.359999999999999
 30
0.0
 40
0.5
  1
3-9/32
100
AcDbAttributeDefinition
  3

  2
E
 70
     8
280
     0
  0
ATTDEF
  5
ED
330
D8
100
AcDbEntity
  8
AM_6
100
AcDbText
 10
2.172833333333335
 20
-6.859999999999999
 30
0.0
 40
0.5
  1
0.1900
100
AcDbAttributeDefinition
  3

  2
NDM
 70
     8
280
     0
  0
ATTDEF
  5
EE
330
D8
100
AcDbEntity
  8
AM_6
100
AcDbText
 10
2.172833333333335
 20
-7.359999999999999
 30
0.0
 40
0.5
  1
0.1450
100
AcDbAttributeDefinition
  3

  2
KDM
 70
     8
280
     0
  0
ATTDEF
  5
EF
330
D8
100
AcDbEntity
  8
AM_6
100
AcDbText
 10
2.172833333333335
 20
-7.859999999999999
 30
0.0
 40
0.5
  1
2.67
100
AcDbAttributeDefinition
  3

  2
AL
 70
     8
280
     0
  0
ATTDEF
  5
F0
330
D8
100
AcDbEntity
  8
AM_6
100
AcDbText
 10
2.172833333333335
 20
-8.36
 30
0.0
 40
0.5
  1
0.38
100
AcDbAttributeDefinition
  3

  2
BL
 70
     8
280
     0
  0
ATTDEF
  5
F1
330
D8
100
AcDbEntity
  8
AM_6
100
AcDbText
 10
2.172833333333335
 20
-8.86
 30
0.0
 40
0.5
  1
0.07
100
AcDbAttributeDefinition
  3

  2
CL
 70
     8
280
     0
  0
ATTDEF
  5
F2
330
D8
100
AcDbEntity
  8
AM_6
100
AcDbText
 10
2.172833333333335
 20
-9.36
 30
0.0
 40
0.5
  1
0.44
100
AcDbAttributeDefinition
  3

  2
DL
 70
     8
280
     0
  0
ATTDEF
  5
F3
330
D8
100
AcDbEntity
  8
AM_6
100
AcDbText
 10
2.172833333333335
 20
-9.86
 30
0.0
 40
0.5
  1
baldor
100
AcDbAttributeDefinition
  3

  2
COMPANY
 70
     8
280
     0
  0
LINE
  5
F4
330
D8
100
AcDbEntity
  8
AM_9
100
AcDbLine
 10
-3.197166666666666
 20
0.8958869703731722
 30
0.0
 11
-3.267166666666666
 21
0.8958869703731722
 31
0.0
  0
LINE
  5
F5
330
D8
100
AcDbEntity
  8
AM_9
100
AcDbLine
 10
-2.827166666666665
 20
0.8711338704268436
 30
0.0
 11
-3.197166666666666
 21
0.8711338704268436
 31
0.0
  0
LINE
  5
F6
330
D8
100
AcDbEntity
  8
AM_9
100
AcDbLine
 10
-2.827166666666665
 20
0.8253237207252796
 30
0.0
 11
-3.267166666666666
 21
0.8253237207252796
 31
0.0
  0
LINE
  5
F7
330
D8
100
AcDbEntity
  8
AM_9
100
AcDbLine
 10
-3.197166666666666
 20
0.9438437225762107
 30
0.0
 11
-2.827166666666665
 21
0.9438437225762107
 31
0.0
  0
LINE
  5
F8
330
D8
100
AcDbEntity
  8
AM_9
100
AcDbLine
 10
-2.827166666666665
 20
0.8980335728746464
 30
0.0
 11
-3.267166666666666
 21
0.8980335728746464
 31
0.0
  0
LINE
  5
F9
330
D8
100
AcDbEntity
  8
AM_9
100
AcDbLine
 10
-2.827166666666665
 20
0.8253237207252796
 30
0.0
 11
-2.827166666666665
 21
0.9438437225762107
 31
0.0
  0
LINE
  5
FA
330
D8
100
AcDbEntity
  8
AM_9
100
AcDbLine
 10
-3.197166666666666
 20
0.9685968225225395
 30
0.0
 11
-3.267166666666666
 21
0.9685968225225395
 31
0.0
  0
LINE
  5
FB
330
D8
100
AcDbEntity
  8
AM_9
100
AcDbLine
 10
-3.197166666666666
 20
1.340833333333333
 30
0.0
 11
-3.267166666666666
 21
1.340833333333333
 31
0.0
  0
LINE
  5
FC
330
D8
100
AcDbEntity
  8
AM_9
100
AcDbLine
 10
-3.197166666666666
 20
1.432523397721421
 30
0.0
 11
-3.267166666666666
 21
1.432523397721421
 31
0.0
  0
LINE
  5
FD
330
D8
100
AcDbEntity
  8
AM_9
100
AcDbLine
 10
-3.197166666666666
 20
-1.340833333333333
 30
0.0
 11
-3.267166666666666
 21
-1.340833333333333
 31
0.0
  0
LINE
  5
FE
330
D8
100
AcDbEntity
  8
AM_9
100
AcDbLine
 10
-3.267166666666666
 20
-1.43926275488768
 30
0.0
 11
-3.197166666666666
 21
-1.43926275488768
 31
0.0
  0
LINE
  5
FF
330
D8
100
AcDbEntity
  8
AM_9
100
AcDbLine
 10
-3.197166666666666
 20
1.009051357500948
 30
0.0
 11
-3.267166666666666
 21
1.009051357500948
 31
0.0
  0
LINE
  5
100
330
D8
100
AcDbEntity
  8
AM_9
100
AcDbLine
 10
-3.197166666666666
 20
-1.009051357500948
 30
0.0
 11
-3.267166666666666
 21
-1.009051357500948
 31
0.0
  0
LINE
  5
101
330
D8
100
AcDbEntity
  8
AM_9
100
AcDbLine
 10
-3.197166666666666
 20
0.7806822016671341
 30
0.0
 11
-3.267166666666666
 21
0.7806822016671341
 31
0.0
  0
LINE
  5
102
330
D8
100
AcDbEntity
  8
AM_9
100
AcDbLine
 10
-3.197166666666666
 20
-0.7806822016671338
 30
0.0
 11
-3.267166666666666
 21
-0.7806822016671338
 31
0.0
  0
LINE
  5
103
330
D8
100
AcDbEntity
  8
AM_9
100
AcDbLine
 10
-3.197166666666666
 20
-0.6463319132416899
 30
0.0
 11
-3.267166666666666
 21
-0.6463319132416899
 31
0.0
  0
LINE
  5
104
330
D8
100
AcDbEntity
  8
AM_9
100
AcDbLine
 10
-3.197166666666666
 20
0.6463319132416899
 30
0.0
 11
-3.267166666666666
 21
0.6463319132416899
 31
0.0
  0
LINE
  5
105
330
D8
100
AcDbEntity
  8
AM_9
100
AcDbLine
 10
-3.197166666666666
 20
-0.8809371982282405
 30
0.0
 11
-3.267166666666666
 21
-0.8809371982282405
 31
0.0
  0
LINE
  5
106
330
D8
100
AcDbEntity
  8
AM_9
100
AcDbLine
 10
-3.197166666666666
 20
-1.0152874866537
 30
0.0
 11
-3.267166666666666
 21
-1.0152874866537
 31
0.0
  0
LINE
  5
107
330
D8
100
AcDbEntity
  8
AM_9
100
AcDbLine
 10
-3.267166666666666
 20
-1.04315459259969
 30
0.0
 11
-3.197166666666666
 21
-1.04315459259969
 31
0.0
  0
LINE
  5
108
330
D8
100
AcDbEntity
  8
AM_9
100
AcDbLine
 10
-3.197166666666666
 20
1.015287486653685
 30
0.0
 11
-3.267166666666666
 21
1.015287486653685
 31
0.0
  0
LINE
  5
109
330
D8
100
AcDbEntity
  8
AM_9
100
AcDbLine
 10
-3.197166666666666
 20
0.8809371982282409
 30
0.0
 11
-3.267166666666666
 21
0.8809371982282409
 31
0.0
  0
LINE
  5
10A
330
D8
100
AcDbEntity
  8
AM_9
100
AcDbLine
 10
-3.197166666666666
 20
1.043154592599691
 30
0.0
 11
-3.267166666666666
 21
1.043154592599691
 31
0.0
  0
LINE
  5
10B
330
D8
100
AcDbEntity
  8
AM_9
100
AcDbLine
 10
-3.197166666666666
 20
0.0950597429712159
 30
0.0
 11
-3.267166666666666
 21
0.0950597429712159
 31
0.0
  0
LINE
  5
10C
330
D8
100
AcDbEntity
  8
AM_9
100
AcDbLine
 10
-3.267166666666666
 20
-0.0950597429712157
 30
0.0
 11
-3.197166666666666
 21
-0.0950597429712157
 31
0.0
  0
LINE
  5
10D
330
D8
100
AcDbEntity
  8
AM_4
100
AcDbLine
 10
-3.197166666666666
 20
1.64
 30
0.0
 11
-3.267166666666666
 21
1.64
 31
0.0
  0
LINE
  5
10E
330
D8
100
AcDbEntity
  8
AM_4
100
AcDbLine
 10
-3.267166666666666
 20
-1.64
 30
0.0
 11
-3.197166666666666
 21
-1.64
 31
0.0
  0
LINE
  5
10F
330
D8
100
AcDbEntity
  8
AM_4
100
AcDbLine
 10
-3.267166666666666
 20
1.64
 30
0.0
 11
-3.267166666666666
 21
-1.64
 31
0.0
  0
LINE
  5
110
330
D8
100
AcDbEntity
  8
AM_4
100
AcDbLine
 10
-3.197166666666666
 20
-1.017940992159679
 30
0.0
 11
-3.197166666666666
 21
-1.286196632344632
 31
0.0
  0
LINE
  5
111
330
D8
100
AcDbEntity
  8
AM_4
100
AcDbLine
 10
-3.197166666666666
 20
1.286641569010567
 30
0.0
 11
-3.197166666666666
 21
1.017940992159678
 31
0.0
  0
ENDBLK
  5
DB
330
D8
100
AcDbEntity
  8
0
100
AcDbBlockEnd
  0
BLOCK
  5
114
330
112
100
AcDbEntity
  8
0
100
AcDbBlockBegin
  2
5_070889E_0_in_071319_2
 70
     2
 10
0.0
 20
0.0
 30
0.0
  3
5_070889E_0_in_071319_2
  1

  0
ATTDEF
  5
116
330
112
100
AcDbEntity
  8
AM_6
100
AcDbText
 10
4.45
 20
1.77165
 30
0.0
 40
0.5
  1
Imperial/E Insert -Inch
100
AcDbAttributeDefinition
  3

  2
NN
 70
     8
280
     0
  0
ATTDEF
  5
117
330
112
100
AcDbEntity
  8
AM_6
100
AcDbText
 10
4.45
 20
1.27165
 30
0.0
 40
0.5
  1
Imperial Bearings
100
AcDbAttributeDefinition
  3

  2
NT
 70
     8
280
     0
  0
ATTDEF
  5
118
330
112
100
AcDbEntity
  8
AM_6
100
AcDbText
 10
4.45
 20
0.77165
 30
0.0
 40
0.5
  1
070889E
100
AcDbAttributeDefinition
  3

  2
NB
 70
     8
280
     0
  0
ATTDEF
  5
119
330
112
100
AcDbEntity
  8
AM_6
100
AcDbText
 10
4.45
 20
0.2716499999999999
 30
0.0
 40
0.5
  1
$PN.
100
AcDbAttributeDefinition
  3

  2
NBSYN
 70
     8
280
     0
  0
ATTDEF
  5
11A
330
112
100
AcDbEntity
  8
AM_6
100
AcDbText
 10
4.45
 20
-0.2283500000000001
 30
0.0
 40
0.5
  1
070889E
100
AcDbAttributeDefinition
  3

  2
LINA
 70
     8
280
     0
  0
ATTDEF
  5
11B
330
112
100
AcDbEntity
  8
AM_6
100
AcDbText
 10
4.45
 20
-0.72835
 30
0.0
 40
0.5
  1
1-7/8
100
AcDbAttributeDefinition
  3

  2
SS
 70
     8
280
     0
  0
ATTDEF
  5
11C
330
112
100
AcDbEntity
  8
AM_6
100
AcDbText
 10
4.45
 20
-1.22835
 30
0.0
 40
0.5
  1
1.875000
100
AcDbAttributeDefinition
  3

  2
SS1
 70
     8
280
     0
  0
ATTDEF
  5
11D
330
112
100
AcDbEntity
  8
AM_6
100
AcDbText
 10
4.45
 20
-1.72835
 30
0.0
 40
0.5
  1
070889E
100
AcDbAttributeDefinition
  3

  2
PN
 70
     8
280
     0
  0
ATTDEF
  5
11E
330
112
100
AcDbEntity
  8
AM_6
100
AcDbText
 10
4.45
 20
-2.22835
 30
0.0
 40
0.5
  1
INS-IP-114R
100
AcDbAttributeDefinition
  3

  2
DESCRIPTION
 70
     8
280
     0
  0
ATTDEF
  5
11F
330
112
100
AcDbEntity
  8
AM_6
100
AcDbText
 10
4.45
 20
-2.72835
 30
0.0
 40
0.5
  1
Contact Seal
100
AcDbAttributeDefinition
  3

  2
ST
 70
     8
280
     0
  0
ATTDEF
  5
120
330
112
100
AcDbEntity
  8
AM_6
100
AcDbText
 10
4.45
 20
-3.22835
 30
0.0
 40
0.5
  1
1
100
AcDbAttributeDefinition
  3

  2
ST1
 70
     8
280
     0
  0
ATTDEF
  5
121
330
112
100
AcDbEntity
  8
AM_6
100
AcDbText
 10
4.45
 20
-3.72835
 30
0.0
 40
0.5
  1
3.5433
100
AcDbAttributeDefinition
  3

  2
A
 70
     8
280
     0
  0
ATTDEF
  5
122
330
112
100
AcDbEntity
  8
AM_6
100
AcDbText
 10
4.45
 20
-4.22835
 30
0.0
 40
0.5
  1
61/64
100
AcDbAttributeDefinition
  3

  2
B
 70
     8
280
     0
  0
ATTDEF
  5
123
330
112
100
AcDbEntity
  8
AM_6
100
AcDbText
 10
4.45
 20
-4.72835
 30
0.0
 40
0.5
  1
0.953125
100
AcDbAttributeDefinition
  3

  2
B1
 70
     8
280
     0
  0
ATTDEF
  5
124
330
112
100
AcDbEntity
  8
AM_6
100
AcDbText
 10
4.45
 20
-5.22835
 30
0.0
 40
0.5
  1
2-55/64
100
AcDbAttributeDefinition
  3

  2
C
 70
     8
280
     0
  0
ATTDEF
  5
125
330
112
100
AcDbEntity
  8
AM_6
100
AcDbText
 10
4.45
 20
-5.72835
 30
0.0
 40
0.5
  1
2.860000
100
AcDbAttributeDefinition
  3

  2
C1
 70
     8
280
     0
  0
ATTDEF
  5
126
330
112
100
AcDbEntity
  8
AM_6
100
AcDbText
 10
4.45
 20
-6.22835
 30
0.0
 40
0.5
  1
3.64000
100
AcDbAttributeDefinition
  3

  2
CR
 70
     8
280
     0
  0
ATTDEF
  5
127
330
112
100
AcDbEntity
  8
AM_6
100
AcDbText
 10
4.45
 20
-6.72835
 30
0.0
 40
0.5
  1
0.977
100
AcDbAttributeDefinition
  3

  2
D
 70
     8
280
     0
  0
ATTDEF
  5
128
330
112
100
AcDbEntity
  8
AM_6
100
AcDbText
 10
4.45
 20
-7.22835
 30
0.0
 40
0.5
  1
3-9/32
100
AcDbAttributeDefinition
  3

  2
E
 70
     8
280
     0
  0
ATTDEF
  5
129
330
112
100
AcDbEntity
  8
AM_6
100
AcDbText
 10
4.45
 20
-7.72835
 30
0.0
 40
0.5
  1
3.281250
100
AcDbAttributeDefinition
  3

  2
E1
 70
     8
280
     0
  0
ATTDEF
  5
12A
330
112
100
AcDbEntity
  8
AM_6
100
AcDbText
 10
4.45
 20
-8.228349999999999
 30
0.0
 40
0.5
  1
0.1900
100
AcDbAttributeDefinition
  3

  2
NDM
 70
     8
280
     0
  0
ATTDEF
  5
12B
330
112
100
AcDbEntity
  8
AM_6
100
AcDbText
 10
4.45
 20
-8.728349999999999
 30
0.0
 40
0.5
  1
0.1450
100
AcDbAttributeDefinition
  3

  2
KDM
 70
     8
280
     0
  0
ATTDEF
  5
12C
330
112
100
AcDbEntity
  8
AM_6
100
AcDbText
 10
4.45
 20
-9.228349999999999
 30
0.0
 40
0.5
  1
2.67
100
AcDbAttributeDefinition
  3

  2
AL
 70
     8
280
     0
  0
ATTDEF
  5
12D
330
112
100
AcDbEntity
  8
AM_6
100
AcDbText
 10
4.45
 20
-9.728349999999999
 30
0.0
 40
0.5
  1
0.38
100
AcDbAttributeDefinition
  3

  2
BL
 70
     8
280
     0
  0
ATTDEF
  5
12E
330
112
100
AcDbEntity
  8
AM_6
100
AcDbText
 10
4.45
 20
-10.22835
 30
0.0
 40
0.5
  1
0.07
100
AcDbAttributeDefinition
  3

  2
CL
 70
     8
280
     0
  0
ATTDEF
  5
12F
330
112
100
AcDbEntity
  8
AM_6
100
AcDbText
 10
4.45
 20
-10.72835
 30
0.0
 40
0.5
  1
0.44
100
AcDbAttributeDefinition
  3

  2
DL
 70
     8
280
     0
  0
ATTDEF
  5
130
330
112
100
AcDbEntity
  8
AM_6
100
AcDbText
 10
4.45
 20
-11.22835
 30
0.0
 40
0.5
  1
0.8000
100
AcDbAttributeDefinition
  3

  2
LL
 70
     8
280
     0
  0
ATTDEF
  5
131
330
112
100
AcDbEntity
  8
AM_6
100
AcDbText
 10
4.45
 20
-11.72835
 30
0.0
 40
0.5
  1
0.020
100
AcDbAttributeDefinition
  3

  2
Y
 70
     8
280
     0
  0
ATTDEF
  5
132
330
112
100
AcDbEntity
  8
AM_6
100
AcDbText
 10
4.45
 20
-12.22835
 30
0.0
 40
0.5
  1
0.020000
100
AcDbAttributeDefinition
  3

  2
Y1
 70
     8
280
     0
  0
ATTDEF
  5
133
330
112
100
AcDbEntity
  8
AM_6
100
AcDbText
 10
4.45
 20
-12.72835
 30
0.0
 40
0.5
  1
2-19/64
100
AcDbAttributeDefinition
  3

  2
Z
 70
     8
280
     0
  0
ATTDEF
  5
134
330
112
100
AcDbEntity
  8
AM_6
100
AcDbText
 10
4.45
 20
-13.22835
 30
0.0
 40
0.5
  1
2.296875
100
AcDbAttributeDefinition
  3

  2
Z1
 70
     8
280
     0
  0
ATTDEF
  5
135
330
112
100
AcDbEntity
  8
AM_6
100
AcDbText
 10
4.45
 20
-13.72835
 30
0.0
 40
0.5
  1
0.79000
100
AcDbAttributeDefinition
  3

  2
P1
 70
     8
280
     0
  0
ATTDEF
  5
136
330
112
100
AcDbEntity
  8
AM_6
100
AcDbText
 10
4.45
 20
-14.22835
 30
0.0
 40
0.5
  1
1.18000
100
AcDbAttributeDefinition
  3

  2
H1
 70
     8
280
     0
  0
ATTDEF
  5
137
330
112
100
AcDbEntity
  8
AM_6
100
AcDbText
 10
4.45
 20
-14.72835
 30
0.0
 40
0.5
  1
0.65000
100
AcDbAttributeDefinition
  3

  2
G1
 70
     8
280
     0
  0
ATTDEF
  5
138
330
112
100
AcDbEntity
  8
AM_6
100
AcDbText
 10
4.45
 20
-15.22835
 30
0.0
 40
0.5
  1
0.10100
100
AcDbAttributeDefinition
  3

  2
CW
 70
     8
280
     0
  0
ATTDEF
  5
139
330
112
100
AcDbEntity
  8
AM_6
100
AcDbText
 10
4.45
 20
-15.72835
 30
0.0
 40
0.5
  1
3.28000
100
AcDbAttributeDefinition
  3

  2
L1
 70
     8
280
     0
  0
ATTDEF
  5
13A
330
112
100
AcDbEntity
  8
AM_6
100
AcDbText
 10
4.45
 20
-16.22835
 30
0.0
 40
0.5
  1
baldor
100
AcDbAttributeDefinition
  3

  2
COMPANY
 70
     8
280
     0
  0
LINE
  5
13B
330
112
100
AcDbEntity
  8
AM_9
100
AcDbLine
 10
-1.0704375
 20
0.946260519763662
 30
0.0
 11
-3.197166666666666
 21
0.946260519763662
 31
0.0
  0
LINE
  5
13C
330
112
100
AcDbEntity
  8
AM_9
100
AcDbLine
 10
-1.0704375
 20
0.873550667614295
 30
0.0
 11
-3.197166666666666
 21
0.873550667614295
 31
0.0
  0
LINE
  5
13D
330
112
100
AcDbEntity
  8
AM_9
100
AcDbLine
 10
-2.357166666666666
 20
1.341145833333334
 30
0.0
 11
-2.398995693669455
 21
1.413595833333333
 31
0.0
  0
LINE
  5
13E
330
112
100
AcDbEntity
  8
AM_9
100
AcDbLine
 10
-2.398995693669455
 20
1.268695833333334
 30
0.0
 11
-2.357166666666666
 21
1.341145833333334
 31
0.0
  0
LINE
  5
13F
330
112
100
AcDbEntity
  8
AM_9
100
AcDbLine
 10
-2.357166666666654
 20
-1.341145833333334
 30
0.0
 11
-2.398995693669476
 21
-1.268695833333334
 31
0.0
  0
LINE
  5
140
330
112
100
AcDbEntity
  8
AM_9
100
AcDbLine
 10
-2.398995693669476
 20
-1.413595833333333
 30
0.0
 11
-2.357166666666654
 21
-1.341145833333334
 31
0.0
  0
LINE
  5
141
330
112
100
AcDbEntity
  8
AM_9
100
AcDbLine
 10
-3.174616666666684
 20
-1.413595833333333
 30
0.0
 11
-2.398995693669476
 21
-1.413595833333333
 31
0.0
  0
LINE
  5
142
330
112
100
AcDbEntity
  8
AM_9
100
AcDbLine
 10
-2.398995693669476
 20
-1.268695833333334
 30
0.0
 11
-3.174616666666684
 21
-1.268695833333334
 31
0.0
  0
LINE
  5
143
330
112
100
AcDbEntity
  8
AM_9
100
AcDbLine
 10
-2.398995693669476
 20
-1.268695833333334
 30
0.0
 11
-2.398995693669476
 21
-1.413595833333333
 31
0.0
  0
LINE
  5
144
330
112
100
AcDbEntity
  8
AM_9
100
AcDbLine
 10
-2.398995693669455
 20
1.268695833333334
 30
0.0
 11
-2.398995693669455
 21
1.413595833333333
 31
0.0
  0
LINE
  5
145
330
112
100
AcDbEntity
  8
AM_9
100
AcDbLine
 10
-2.398995693669455
 20
1.413595833333333
 30
0.0
 11
-3.174616666666666
 21
1.413595833333333
 31
0.0
  0
LINE
  5
146
330
112
100
AcDbEntity
  8
AM_9
100
AcDbLine
 10
-3.174616666666666
 20
1.268695833333334
 30
0.0
 11
-2.398995693669455
 21
1.268695833333334
 31
0.0
  0
LINE
  5
147
330
112
100
AcDbEntity
  8
AM_9
100
AcDbLine
 10
-3.174616666666666
 20
1.268695833333334
 30
0.0
 11
-3.174616666666666
 21
1.413595833333333
 31
0.0
  0
LINE
  5
148
330
112
100
AcDbEntity
  8
AM_9
100
AcDbLine
 10
-3.174616666666666
 20
1.413595833333333
 30
0.0
 11
-3.197166666666666
 21
1.436145833333333
 31
0.0
  0
LINE
  5
149
330
112
100
AcDbEntity
  8
AM_9
100
AcDbLine
 10
-3.197166666666666
 20
1.246145833333334
 30
0.0
 11
-3.174616666666666
 21
1.268695833333334
 31
0.0
  0
LINE
  5
14A
330
112
100
AcDbEntity
  8
AM_9
100
AcDbLine
 10
-3.174616666666684
 20
-1.268695833333334
 30
0.0
 11
-3.197166666666661
 21
-1.246145833333334
 31
0.0
  0
LINE
  5
14B
330
112
100
AcDbEntity
  8
AM_9
100
AcDbLine
 10
-3.197166666666661
 20
-1.436145833333333
 30
0.0
 11
-3.174616666666684
 21
-1.413595833333333
 31
0.0
  0
LINE
  5
14C
330
112
100
AcDbEntity
  8
AM_9
100
AcDbLine
 10
-3.174616666666684
 20
-1.268695833333334
 30
0.0
 11
-3.174616666666684
 21
-1.413595833333333
 31
0.0
  0
LINE
  5
14D
330
112
100
AcDbEntity
  8
AM_9
100
AcDbLine
 10
-1.0704375
 20
0.8980335728746468
 30
0.0
 11
-3.43
 21
0.8980335728746468
 31
0.0
  0
LINE
  5
14E
330
112
100
AcDbEntity
  8
AM_9
100
AcDbLine
 10
-3.43
 20
0.8253237207252796
 30
0.0
 11
-1.0704375
 21
0.8253237207252798
 31
0.0
  0
LINE
  5
14F
330
112
100
AcDbEntity
  8
AM_9
100
AcDbLine
 10
-1.070437499999999
 20
0.9375000000000003
 30
0.0
 11
-3.43
 21
0.9375000000000003
 31
0.0
  0
LINE
  5
150
330
112
100
AcDbEntity
  8
AM_9
100
AcDbLine
 10
-3.43
 20
-0.9375000000000003
 30
0.0
 11
-1.070437499999999
 21
-0.9375000000000003
 31
0.0
  0
LINE
  5
151
330
112
100
AcDbEntity
  8
AM_9
100
AcDbLine
 10
-0.5699999999999996
 20
0.9868421052631579
 30
0.0
 11
-1.070437499999999
 21
0.9868421052631579
 31
0.0
  0
LINE
  5
152
330
112
100
AcDbEntity
  8
AM_9
100
AcDbLine
 10
-1.070437499999999
 20
-0.9868421052631579
 30
0.0
 11
-0.5699999999999996
 21
-0.9868421052631579
 31
0.0
  0
LINE
  5
153
330
112
100
AcDbEntity
  8
AM_9
100
AcDbLine
 10
-3.43
 20
0.9438437225762107
 30
0.0
 11
-3.197166666666666
 21
0.9438437225762105
 31
0.0
  0
LINE
  5
154
330
112
100
AcDbEntity
  8
AM_9
100
AcDbLine
 10
-3.197166666666666
 20
0.8711338704268436
 30
0.0
 11
-3.43
 21
0.8711338704268436
 31
0.0
  0
LINE
  5
155
330
112
100
AcDbEntity
  8
AM_9
100
AcDbLine
 10
-3.197166666666666
 20
0.986842105263158
 30
0.0
 11
-3.267166666666666
 21
0.986842105263158
 31
0.0
  0
LINE
  5
156
330
112
100
AcDbEntity
  8
AM_9
100
AcDbLine
 10
-3.267166666666666
 20
-0.986842105263158
 30
0.0
 11
-3.197166666666666
 21
-0.986842105263158
 31
0.0
  0
LINE
  5
157
330
112
100
AcDbEntity
  8
AM_9
100
AcDbLine
 10
-2.757166666666667
 20
-0.8096372644585969
 30
0.0
 11
-3.197166666666666
 21
-0.8096372644585969
 31
0.0
  0
LINE
  5
158
330
112
100
AcDbEntity
  8
AM_9
100
AcDbLine
 10
-2.757166666666667
 20
-1.078337841309485
 30
0.0
 11
-3.0
 21
-1.078337841309485
 31
0.0
  0
LINE
  5
159
330
112
100
AcDbEntity
  8
AM_9
100
AcDbLine
 10
-2.757166666666667
 20
0.8096372644585967
 30
0.0
 11
-3.197166666666666
 21
0.8096372644585967
 31
0.0
  0
LINE
  5
15A
330
112
100
AcDbEntity
  8
AM_9
100
AcDbLine
 10
-2.757166666666667
 20
1.078337841309485
 30
0.0
 11
-3.0
 21
1.078337841309485
 31
0.0
  0
LINE
  5
15B
330
112
100
AcDbEntity
  8
AM_9
100
AcDbLine
 10
-0.5699999999999996
 20
-1.1484375
 30
0.0
 11
-0.5699999999999996
 21
1.1484375
 31
0.0
  0
LINE
  5
15C
330
112
100
AcDbEntity
  8
AM_9
100
AcDbLine
 10
-0.5499999999999998
 20
1.1484375
 30
0.0
 11
-0.5699999999999996
 21
1.1484375
 31
0.0
  0
LINE
  5
15D
330
112
100
AcDbEntity
  8
AM_9
100
AcDbLine
 10
-0.5699999999999996
 20
-1.1484375
 30
0.0
 11
-0.5499999999999998
 21
-1.1484375
 31
0.0
  0
LINE
  5
15E
330
112
100
AcDbEntity
  8
AM_9
100
AcDbLine
 10
-2.757166666666667
 20
-0.8096372644585969
 30
0.0
 11
-2.757166666666667
 21
-1.292108926166053
 31
0.0
  0
LINE
  5
15F
330
112
100
AcDbEntity
  8
AM_9
100
AcDbLine
 10
-2.757166666666667
 20
1.292108926166053
 30
0.0
 11
-2.757166666666667
 21
0.8096372644585967
 31
0.0
  0
ARC
  5
160
330
112
100
AcDbEntity
  8
AM_9
100
AcDbCircle
 10
-0.9798124999999982
 20
1.403857578016765
 30
0.0
 40
0.0999999999999985
100
AcDbArc
 50
0.0
 51
60.00000000000038
  0
ARC
  5
161
330
112
100
AcDbEntity
  8
AM_9
100
AcDbCircle
 10
-0.9798124999999982
 20
-1.403857578016765
 30
0.0
 40
0.0999999999999986
100
AcDbArc
 50
299.9999999999996
 51
0.0
  0
LINE
  5
162
330
112
100
AcDbEntity
  8
AM_9
100
AcDbLine
 10
-0.5499999999999998
 20
1.490909090909091
 30
0.0
 11
-0.5499999999999998
 21
1.53125
 31
0.0
  0
LINE
  5
163
330
112
100
AcDbEntity
  8
AM_9
100
AcDbLine
 10
-0.8798124999999997
 20
-1.53125
 30
0.0
 11
-0.8798124999999997
 21
1.53125
 31
0.0
  0
LINE
  5
164
330
112
100
AcDbEntity
  8
AM_9
100
AcDbLine
 10
-0.5499999999999998
 20
1.53125
 30
0.0
 11
-0.8798124999999997
 21
1.53125
 31
0.0
  0
LINE
  5
165
330
112
100
AcDbEntity
  8
AM_9
100
AcDbLine
 10
-0.8798124999999997
 20
-1.53125
 30
0.0
 11
-0.5499999999999998
 21
-1.53125
 31
0.0
  0
LINE
  5
166
330
112
100
AcDbEntity
  8
AM_9
100
AcDbLine
 10
-0.5499999999999998
 20
-1.53125
 30
0.0
 11
-0.5499999999999998
 21
-1.490909090909091
 31
0.0
  0
LINE
  5
167
330
112
100
AcDbEntity
  8
AM_9
100
AcDbLine
 10
-0.9298124999999995
 20
-1.490460118395209
 30
0.0
 11
-0.9298124999999995
 21
1.490460118395209
 31
0.0
  0
LINE
  5
168
330
112
100
AcDbEntity
  8
AM_9
100
AcDbLine
 10
-0.9298124999999995
 20
1.490460118395209
 30
0.0
 11
-1.070437499999999
 21
1.57165
 31
0.0
  0
LINE
  5
169
330
112
100
AcDbEntity
  8
AM_9
100
AcDbLine
 10
-1.070437499999999
 20
-1.57165
 30
0.0
 11
-0.9298124999999995
 21
-1.490460118395209
 31
0.0
  0
LINE
  5
16A
330
112
100
AcDbEntity
  8
AM_9
100
AcDbLine
 10
-3.000000001061595
 20
-1.020390990753756
 30
0.0
 11
-2.757166666666666
 21
-1.023408349315165
 31
0.0
  0
LINE
  5
16B
330
112
100
AcDbEntity
  8
AM_9
100
AcDbLine
 10
-2.757166666666667
 20
-1.292108926166053
 30
0.0
 11
-3.000000001061595
 21
-1.289091567604644
 31
0.0
  0
LINE
  5
16C
330
112
100
AcDbEntity
  8
AM_9
100
AcDbLine
 10
-3.000000001061595
 20
1.289091567604643
 30
0.0
 11
-2.757166666666667
 21
1.292108926166053
 31
0.0
  0
LINE
  5
16D
330
112
100
AcDbEntity
  8
AM_9
100
AcDbLine
 10
-2.757166666666666
 20
1.023408349315164
 30
0.0
 11
-3.000000001061595
 21
1.020390990753755
 31
0.0
  0
LINE
  5
16E
330
112
100
AcDbEntity
  8
AM_9
100
AcDbLine
 10
-3.0
 20
-1.644066556968348
 30
0.0
 11
-2.072689879678136
 21
-1.660252815327159
 31
0.0
  0
LINE
  5
16F
330
112
100
AcDbEntity
  8
AM_9
100
AcDbLine
 10
-2.072689879678136
 20
1.660252815327159
 30
0.0
 11
-3.0
 21
1.644066556968348
 31
0.0
  0
LINE
  5
170
330
112
100
AcDbEntity
  8
AM_9
100
AcDbLine
 10
-2.072689879678136
 20
-1.660252815327159
 30
0.0
 11
-2.072689879678136
 21
1.660252815327159
 31
0.0
  0
ARC
  5
171
330
112
100
AcDbEntity
  8
AM_9
100
AcDbCircle
 10
-2.073562499999999
 20
1.710245200084978
 30
0.0
 40
0.0499999999999994
100
AcDbArc
 50
270.9999999999987
 51
0.0
  0
ARC
  5
172
330
112
100
AcDbEntity
  8
AM_9
100
AcDbCircle
 10
-2.073562499999999
 20
-1.710245200084978
 30
0.0
 40
0.0499999999999994
100
AcDbArc
 50
0.0
 51
89.00000000000138
  0
LINE
  5
173
330
112
100
AcDbEntity
  8
AM_9
100
AcDbLine
 10
-1.539485651233931
 20
1.72399375
 30
0.0
 11
-1.594514348766068
 21
1.72399375
 31
0.0
  0
LINE
  5
174
330
112
100
AcDbEntity
  8
AM_9
100
AcDbLine
 10
-1.594514348766068
 20
-1.72399375
 30
0.0
 11
-1.539485651233931
 21
-1.72399375
 31
0.0
  0
LINE
  5
175
330
112
100
AcDbEntity
  8
AM_9
100
AcDbLine
 10
-2.0235625
 20
-1.76165
 30
0.0
 11
-2.0235625
 21
1.76165
 31
0.0
  0
ARC
  5
176
330
112
100
AcDbEntity
  8
AM_9
100
AcDbCircle
 10
-2.0135625
 20
1.76165
 30
0.0
 40
0.01
100
AcDbArc
 50
90.0
 51
180.0
  0
ARC
  5
177
330
112
100
AcDbEntity
  8
AM_9
100
AcDbCircle
 10
-2.0135625
 20
-1.76165
 30
0.0
 40
0.0099999999999998
100
AcDbArc
 50
180.0
 51
270.0
  0
LINE
  5
178
330
112
100
AcDbEntity
  8
AM_9
100
AcDbLine
 10
-1.539485651233931
 20
-1.72399375
 30
0.0
 11
-1.539485651233931
 21
1.72399375
 31
0.0
  0
LINE
  5
179
330
112
100
AcDbEntity
  8
AM_9
100
AcDbLine
 10
-1.539485651233931
 20
-1.72399375
 30
0.0
 11
-1.511971302467864
 21
-1.77165
 31
0.0
  0
LINE
  5
17A
330
112
100
AcDbEntity
  8
AM_9
100
AcDbLine
 10
-1.511971302467864
 20
1.77165
 30
0.0
 11
-1.539485651233931
 21
1.72399375
 31
0.0
  0
LINE
  5
17B
330
112
100
AcDbEntity
  8
AM_9
100
AcDbLine
 10
-1.594514348766068
 20
-1.72399375
 30
0.0
 11
-1.594514348766068
 21
1.72399375
 31
0.0
  0
LINE
  5
17C
330
112
100
AcDbEntity
  8
AM_9
100
AcDbLine
 10
-1.594514348766068
 20
1.72399375
 30
0.0
 11
-1.622028697532136
 21
1.77165
 31
0.0
  0
LINE
  5
17D
330
112
100
AcDbEntity
  8
AM_9
100
AcDbLine
 10
-1.622028697532136
 20
-1.77165
 30
0.0
 11
-1.594514348766068
 21
-1.72399375
 31
0.0
  0
LINE
  5
17E
330
112
100
AcDbEntity
  8
AM_9
100
AcDbLine
 10
-1.622028697532136
 20
-1.77165
 30
0.0
 11
-1.622028697532136
 21
1.77165
 31
0.0
  0
LINE
  5
17F
330
112
100
AcDbEntity
  8
AM_9
100
AcDbLine
 10
-2.0135625
 20
-1.77165
 30
0.0
 11
-2.0135625
 21
1.77165
 31
0.0
  0
LINE
  5
180
330
112
100
AcDbEntity
  8
AM_9
100
AcDbLine
 10
-1.622028697532136
 20
1.77165
 30
0.0
 11
-2.0135625
 21
1.77165
 31
0.0
  0
LINE
  5
181
330
112
100
AcDbEntity
  8
AM_9
100
AcDbLine
 10
-2.0135625
 20
-1.77165
 30
0.0
 11
-1.622028697532136
 21
-1.77165
 31
0.0
  0
LINE
  5
182
330
112
100
AcDbEntity
  8
AM_9
100
AcDbLine
 10
-1.0704375
 20
-1.72165
 30
0.0
 11
-1.0704375
 21
1.72165
 31
0.0
  0
ARC
  5
183
330
112
100
AcDbEntity
  8
AM_9
100
AcDbCircle
 10
-1.1204375
 20
1.72165
 30
0.0
 40
0.0499999999999998
100
AcDbArc
 50
0.0
 51
90.0
  0
ARC
  5
184
330
112
100
AcDbEntity
  8
AM_9
100
AcDbCircle
 10
-1.1204375
 20
-1.72165
 30
0.0
 40
0.05
100
AcDbArc
 50
270.0
 51
0.0
  0
LINE
  5
185
330
112
100
AcDbEntity
  8
AM_9
100
AcDbLine
 10
-1.1204375
 20
-1.77165
 30
0.0
 11
-1.1204375
 21
1.77165
 31
0.0
  0
LINE
  5
186
330
112
100
AcDbEntity
  8
AM_9
100
AcDbLine
 10
-1.511971302467864
 20
-1.77165
 30
0.0
 11
-1.511971302467864
 21
1.77165
 31
0.0
  0
LINE
  5
187
330
112
100
AcDbEntity
  8
AM_9
100
AcDbLine
 10
-1.1204375
 20
1.77165
 30
0.0
 11
-1.511971302467864
 21
1.77165
 31
0.0
  0
LINE
  5
188
330
112
100
AcDbEntity
  8
AM_9
100
AcDbLine
 10
-1.511971302467864
 20
-1.77165
 30
0.0
 11
-1.1204375
 21
-1.77165
 31
0.0
  0
LINE
  5
189
330
112
100
AcDbEntity
  8
AM_5
100
AcDbLine
 10
-2.497166666666666
 20
1.436145833333333
 30
0.0
 11
-2.470193977063522
 21
1.42057314373019
 31
0.0
  0
LINE
  5
18A
330
112
100
AcDbEntity
  8
AM_5
100
AcDbLine
 10
-3.197166666666666
 20
1.246145833333333
 30
0.0
 11
-2.497166666666666
 21
1.246145833333333
 31
0.0
  0
LINE
  5
18B
330
112
100
AcDbEntity
  8
AM_5
100
AcDbLine
 10
-2.497166666666666
 20
1.246145833333334
 30
0.0
 11
-2.470193977063522
 21
1.261718522936477
 31
0.0
  0
LINE
  5
18C
330
112
100
AcDbEntity
  8
AM_5
100
AcDbLine
 10
-3.197166666666666
 20
-1.436145833333333
 30
0.0
 11
-2.497166666666654
 21
-1.436145833333333
 31
0.0
  0
LINE
  5
18D
330
112
100
AcDbEntity
  8
AM_5
100
AcDbLine
 10
-2.497166666666654
 20
-1.436145833333333
 30
0.0
 11
-2.470193977063538
 21
-1.420573143730206
 31
0.0
  0
LINE
  5
18E
330
112
100
AcDbEntity
  8
AM_5
100
AcDbLine
 10
-3.197166666666666
 20
-1.246145833333333
 30
0.0
 11
-2.497166666666654
 21
-1.246145833333333
 31
0.0
  0
LINE
  5
18F
330
112
100
AcDbEntity
  8
AM_5
100
AcDbLine
 10
-2.497166666666654
 20
-1.246145833333334
 30
0.0
 11
-2.470193977063539
 21
-1.26171852293646
 31
0.0
  0
LINE
  5
192
330
112
100
AcDbEntity
  8
AM_7
100
AcDbLine
 10
-2.315166666666666
 20
1.341145833333334
 30
0.0
 11
-3.413216666666665
 21
1.341145833333334
 31
0.0
  0
LINE
  5
193
330
112
100
AcDbEntity
  8
AM_7
100
AcDbLine
 10
-2.315166666666653
 20
-1.341145833333334
 30
0.0
 11
-3.413216666666665
 21
-1.341145833333334
 31
0.0
  0
LINE
  5
194
330
112
100
AcDbEntity
  8
AM_4
100
AcDbLine
 10
-3.267166666666666
 20
0.986842105263158
 30
0.0
 11
-3.43
 21
0.986842105263158
 31
0.0
  0
LINE
  5
195
330
112
100
AcDbEntity
  8
AM_4
100
AcDbLine
 10
-3.43
 20
-0.986842105263158
 30
0.0
 11
-3.267166666666666
 21
-0.986842105263158
 31
0.0
  0
LINE
  5
196
330
112
100
AcDbEntity
  8
AM_4
100
AcDbLine
 10
-3.43
 20
-0.986842105263158
 30
0.0
 11
-3.43
 21
0.986842105263158
 31
0.0
  0
LINE
  5
197
330
112
100
AcDbEntity
  8
AM_4
100
AcDbLine
 10
-3.0
 20
-1.078337841309485
 30
0.0
 11
-3.197166666666666
 21
-1.078337841309485
 31
0.0
  0
LINE
  5
198
330
112
100
AcDbEntity
  8
AM_4
100
AcDbLine
 10
-3.0
 20
1.078337841309485
 30
0.0
 11
-3.197166666666666
 21
1.078337841309485
 31
0.0
  0
LINE
  5
199
330
112
100
AcDbEntity
  8
AM_4
100
AcDbLine
 10
-0.5499999999999998
 20
-1.490909090909091
 30
0.0
 11
-0.5499999999999998
 21
1.490909090909091
 31
0.0
  0
LINE
  5
19A
330
112
100
AcDbEntity
  8
AM_4
100
AcDbLine
 10
-3.197166666666666
 20
-1.017940992159679
 30
0.0
 11
-3.197166666666666
 21
1.017940992159678
 31
0.0
  0
LINE
  5
19B
330
112
100
AcDbEntity
  8
AM_4
100
AcDbLine
 10
-3.197166666666666
 20
-1.017940992159679
 30
0.0
 11
-3.000000001061595
 21
-1.020390990753756
 31
0.0
  0
LINE
  5
19C
330
112
100
AcDbEntity
  8
AM_4
100
AcDbLine
 10
-3.000000001061595
 20
-1.289091567604644
 30
0.0
 11
-3.197166666666666
 21
-1.286641569010567
 31
0.0
  0
LINE
  5
19D
330
112
100
AcDbEntity
  8
AM_4
100
AcDbLine
 10
-3.197166666666666
 20
1.286641569010567
 30
0.0
 11
-3.197166666666666
 21
1.640625000000001
 31
0.0
  0
LINE
  5
19E
330
112
100
AcDbEntity
  8
AM_4
100
AcDbLine
 10
-3.197166666666666
 20
1.286641569010567
 30
0.0
 11
-3.000000001061595
 21
1.289091567604643
 31
0.0
  0
LINE
  5
19F
330
112
100
AcDbEntity
  8
AM_4
100
AcDbLine
 10
-3.000000001061595
 20
1.020390990753755
 30
0.0
 11
-3.197166666666666
 21
1.017940992159678
 31
0.0
  0
LINE
  5
1A0
330
112
100
AcDbEntity
  8
AM_4
100
AcDbLine
 10
-3.197166666666666
 20
-1.640625000000001
 30
0.0
 11
-3.0
 21
-1.644066556968348
 31
0.0
  0
LINE
  5
1A1
330
112
100
AcDbEntity
  8
AM_4
100
AcDbLine
 10
-3.0
 20
1.644066556968348
 30
0.0
 11
-3.197166666666666
 21
1.640625000000001
 31
0.0
  0
LINE
  5
1A2
330
112
100
AcDbEntity
  8
AM_4
100
AcDbLine
 10
-3.197166666666666
 20
-1.640625000000001
 30
0.0
 11
-3.197166666666666
 21
-1.286641569010567
 31
0.0
  0
ENDBLK
  5
115
330
112
100
AcDbEntity
  8
0
100
AcDbBlockEnd
  0
BLOCK
  5
1A5
330
1A3
100
AcDbEntity
  8
0
100
AcDbBlockBegin
  2
6_405015E_Inch_0_in_071319_2
 70
     2
 10
0.0
 20
0.0
 30
0.0
  3
6_405015E_Inch_0_in_071319_2
  1

  0
ATTDEF
  5
1A7
330
1A3
100
AcDbEntity
  8
AM_6
100
AcDbText
 10
3.167590742770461
 20
2.632
 30
0.0
 40
0.5
  1
405015E -Inch
100
AcDbAttributeDefinition
  3

  2
NN
 70
     8
280
     0
  0
ATTDEF
  5
1A8
330
1A3
100
AcDbEntity
  8
AM_6
100
AcDbText
 10
3.167590742770461
 20
2.132
 30
0.0
 40
0.5
  1
Grease Fitting
100
AcDbAttributeDefinition
  3

  2
NT
 70
     8
280
     0
  0
ATTDEF
  5
1A9
330
1A3
100
AcDbEntity
  8
AM_6
100
AcDbText
 10
3.167590742770461
 20
1.632
 30
0.0
 40
0.5
  1
405015E-Inch
100
AcDbAttributeDefinition
  3

  2
NB
 70
     8
280
     0
  0
ATTDEF
  5
1AA
330
1A3
100
AcDbEntity
  8
AM_6
100
AcDbText
 10
3.167590742770461
 20
1.132
 30
0.0
 40
0.5
  1
$MN.-Inch
100
AcDbAttributeDefinition
  3

  2
NBSYN
 70
     8
280
     0
  0
ATTDEF
  5
1AB
330
1A3
100
AcDbEntity
  8
AM_6
100
AcDbText
 10
3.167590742770461
 20
0.6320000000000001
 30
0.0
 40
0.5
  1
405015E
100
AcDbAttributeDefinition
  3

  2
LINA
 70
     8
280
     0
  0
ATTDEF
  5
1AC
330
1A3
100
AcDbEntity
  8
AM_6
100
AcDbText
 10
3.167590742770461
 20
0.1320000000000001
 30
0.0
 40
0.5
  1
405015E
100
AcDbAttributeDefinition
  3

  2
MN
 70
     8
280
     0
  0
ATTDEF
  5
1AD
330
1A3
100
AcDbEntity
  8
AM_6
100
AcDbText
 10
3.167590742770461
 20
-0.3679999999999999
 30
0.0
 40
0.5
  1
1/8 x 27PTF
100
AcDbAttributeDefinition
  3

  2
T
 70
     8
280
     0
  0
ATTDEF
  5
1AE
330
1A3
100
AcDbEntity
  8
AM_6
100
AcDbText
 10
3.167590742770461
 20
-0.8679999999999999
 30
0.0
 40
0.5
  1
baldor
100
AcDbAttributeDefinition
  3

  2
COMPANY
 70
     8
280
     0
  0
LINE
  5
1AF
330
1A3
100
AcDbEntity
  8
AM_9
100
AcDbLine
 10
-2.246902872472269
 20
1.96
 30
0.0
 11
-1.923097127527731
 21
1.96
 31
0.0
  0
LINE
  5
1B0
330
1A3
100
AcDbEntity
  8
AM_9
100
AcDbLine
 10
-1.923097127527731
 20
1.96
 30
0.0
 11
-1.886382373218785
 21
1.996714754308947
 31
0.0
  0
LINE
  5
1B1
330
1A3
100
AcDbEntity
  8
AM_9
100
AcDbLine
 10
-2.283617626781215
 20
1.996714754308947
 30
0.0
 11
-2.246902872472269
 21
1.96
 31
0.0
  0
LINE
  5
1B2
330
1A3
100
AcDbEntity
  8
AM_9
100
AcDbLine
 10
-2.283617626781215
 20
1.996714754308947
 30
0.0
 11
-1.886382373218785
 21
1.996714754308947
 31
0.0
  0
LINE
  5
1B3
330
1A3
100
AcDbEntity
  8
AM_9
100
AcDbLine
 10
-1.886382373218785
 20
1.996714754308947
 30
0.0
 11
-1.87924810277693
 21
2.225
 31
0.0
  0
LINE
  5
1B4
330
1A3
100
AcDbEntity
  8
AM_9
100
AcDbLine
 10
-2.29075189722307
 20
2.225
 30
0.0
 11
-2.283617626781215
 21
1.996714754308947
 31
0.0
  0
LINE
  5
1B5
330
1A3
100
AcDbEntity
  8
AM_5
100
AcDbLine
 10
-1.916850875147652
 20
2.159870087748463
 30
0.0
 11
-1.923097127527731
 21
1.96
 31
0.0
  0
LINE
  5
1B6
330
1A3
100
AcDbEntity
  8
AM_5
100
AcDbLine
 10
-1.87924810277693
 20
2.225
 30
0.0
 11
-1.916850875147652
 21
2.159870087748463
 31
0.0
  0
LINE
  5
1B7
330
1A3
100
AcDbEntity
  8
AM_5
100
AcDbLine
 10
-2.288716485751557
 20
2.159870087748463
 30
0.0
 11
-1.881283514248443
 21
2.159870087748463
 31
0.0
  0
LINE
  5
1B8
330
1A3
100
AcDbEntity
  8
AM_5
100
AcDbLine
 10
-2.253149124852348
 20
2.159870087748463
 30
0.0
 11
-2.246902872472269
 21
1.96
 31
0.0
  0
LINE
  5
1B9
330
1A3
100
AcDbEntity
  8
AM_5
100
AcDbLine
 10
-2.29075189722307
 20
2.225
 30
0.0
 11
-2.253149124852348
 21
2.159870087748463
 31
0.0
  0
LINE
  5
1BA
330
1A3
100
AcDbEntity
  8
AM_7
100
AcDbLine
 10
-2.085
 20
2.632
 30
0.0
 11
-2.085
 21
1.928
 31
0.0
  0
LINE
  5
1BB
330
1A3
100
AcDbEntity
  8
AM_4
100
AcDbLine
 10
-1.98
 20
2.43
 30
0.0
 11
-1.98
 21
2.46
 31
0.0
  0
LINE
  5
1BC
330
1A3
100
AcDbEntity
  8
AM_4
100
AcDbLine
 10
-2.19
 20
2.46
 30
0.0
 11
-2.19
 21
2.43
 31
0.0
  0
LINE
  5
1BD
330
1A3
100
AcDbEntity
  8
AM_4
100
AcDbLine
 10
-2.30375
 20
2.325
 30
0.0
 11
-1.86625
 21
2.325
 31
0.0
  0
LINE
  5
1BE
330
1A3
100
AcDbEntity
  8
AM_4
100
AcDbLine
 10
-1.832409257229539
 20
2.315932400303386
 30
0.0
 11
-1.86625
 21
2.325
 31
0.0
  0
LINE
  5
1BF
330
1A3
100
AcDbEntity
  8
AM_4
100
AcDbLine
 10
-2.30375
 20
2.325
 30
0.0
 11
-2.337590742770461
 21
2.315932400303386
 31
0.0
  0
LINE
  5
1C0
330
1A3
100
AcDbEntity
  8
AM_4
100
AcDbLine
 10
-1.86625
 20
2.225
 30
0.0
 11
-1.832409257229539
 21
2.234067599696615
 31
0.0
  0
LINE
  5
1C1
330
1A3
100
AcDbEntity
  8
AM_4
100
AcDbLine
 10
-2.337590742770461
 20
2.234067599696615
 30
0.0
 11
-2.30375
 21
2.225
 31
0.0
  0
LINE
  5
1C2
330
1A3
100
AcDbEntity
  8
AM_4
100
AcDbLine
 10
-2.19
 20
2.43
 30
0.0
 11
-1.98
 21
2.43
 31
0.0
  0
LINE
  5
1C3
330
1A3
100
AcDbEntity
  8
AM_4
100
AcDbLine
 10
-2.19
 20
2.43
 30
0.0
 11
-2.203820090734897
 21
2.397753121618573
 31
0.0
  0
LINE
  5
1C4
330
1A3
100
AcDbEntity
  8
AM_4
100
AcDbLine
 10
-1.966179909265103
 20
2.397753121618573
 30
0.0
 11
-1.98
 21
2.43
 31
0.0
  0
LINE
  5
1C5
330
1A3
100
AcDbEntity
  8
AM_4
100
AcDbLine
 10
-2.19
 20
2.46
 30
0.0
 11
-1.98
 21
2.46
 31
0.0
  0
LINE
  5
1C6
330
1A3
100
AcDbEntity
  8
AM_4
100
AcDbLine
 10
-1.98
 20
2.46
 30
0.0
 11
-1.95
 21
2.52
 31
0.0
  0
LINE
  5
1C7
330
1A3
100
AcDbEntity
  8
AM_4
100
AcDbLine
 10
-2.22
 20
2.52
 30
0.0
 11
-2.19
 21
2.46
 31
0.0
  0
LINE
  5
1C8
330
1A3
100
AcDbEntity
  8
AM_4
100
AcDbLine
 10
-2.187677901933188
 20
2.6
 30
0.0
 11
-1.982322098066813
 21
2.6
 31
0.0
  0
LINE
  5
1C9
330
1A3
100
AcDbEntity
  8
AM_4
100
AcDbLine
 10
-2.22
 20
2.52
 30
0.0
 11
-1.95
 21
2.52
 31
0.0
  0
LINE
  5
1CA
330
1A3
100
AcDbEntity
  8
AM_4
100
AcDbLine
 10
-2.187677901933188
 20
2.6
 30
0.0
 11
-2.22
 21
2.52
 31
0.0
  0
LINE
  5
1CB
330
1A3
100
AcDbEntity
  8
AM_4
100
AcDbLine
 10
-1.95
 20
2.52
 30
0.0
 11
-1.982322098066813
 21
2.6
 31
0.0
  0
LINE
  5
1CC
330
1A3
100
AcDbEntity
  8
AM_4
100
AcDbLine
 10
-2.203820090734897
 20
2.397753121618573
 30
0.0
 11
-1.966179909265102
 21
2.397753121618573
 31
0.0
  0
LINE
  5
1CD
330
1A3
100
AcDbEntity
  8
AM_4
100
AcDbLine
 10
-2.203820090734898
 20
2.397753121618573
 30
0.0
 11
-2.257534053283015
 21
2.343318198540882
 31
0.0
  0
LINE
  5
1CE
330
1A3
100
AcDbEntity
  8
AM_4
100
AcDbLine
 10
-1.912465946716985
 20
2.343318198540882
 30
0.0
 11
-1.966179909265102
 21
2.397753121618573
 31
0.0
  0
LINE
  5
1CF
330
1A3
100
AcDbEntity
  8
AM_4
100
AcDbLine
 10
-2.257534053283015
 20
2.343318198540882
 30
0.0
 11
-1.912465946716985
 21
2.343318198540882
 31
0.0
  0
LINE
  5
1D0
330
1A3
100
AcDbEntity
  8
AM_4
100
AcDbLine
 10
-2.257534053283015
 20
2.343318198540882
 30
0.0
 11
-2.29875
 21
2.325
 31
0.0
  0
LINE
  5
1D1
330
1A3
100
AcDbEntity
  8
AM_4
100
AcDbLine
 10
-1.87125
 20
2.325
 30
0.0
 11
-1.912465946716985
 21
2.343318198540882
 31
0.0
  0
LWPOLYLINE
  5
1D2
330
1A3
100
AcDbEntity
  8
AM_4
100
AcDbPolyline
 90
        4
 70
     0
 43
0.0
 10
-2.085
 20
2.325
 10
-2.036600183944101
 20
2.323582439282863
 10
-1.988200367888202
 20
2.319517587482157
 10
-1.958704628614769
 20
2.315932400303386
  0
LWPOLYLINE
  5
1D3
330
1A3
100
AcDbEntity
  8
AM_4
100
AcDbPolyline
 90
        3
 70
     0
 43
0.0
 10
-2.21129537138523
 20
2.315932400303386
 10
-2.148431614691437
 20
2.32258547505038
 10
-2.085
 20
2.325
  0
LWPOLYLINE
  5
1D4
330
1A3
100
AcDbEntity
  8
AM_4
100
AcDbPolyline
 90
        3
 70
     0
 43
0.0
 10
-2.085
 20
2.225
 10
-2.148147685692615
 20
2.227393380785035
 10
-2.21129537138523
 20
2.234067599696615
  0
LINE
  5
1D5
330
1A3
100
AcDbEntity
  8
AM_4
100
AcDbLine
 10
-1.832409257229539
 20
2.315932400303386
 30
0.0
 11
-1.832409257229539
 21
2.234067599696615
 31
0.0
  0
LWPOLYLINE
  5
1D6
330
1A3
100
AcDbEntity
  8
AM_4
100
AcDbPolyline
 90
        3
 70
     0
 43
0.0
 10
-1.895556942922154
 20
2.325
 10
-1.863983100075846
 20
2.322606619214965
 10
-1.832409257229539
 20
2.315932400303386
  0
LWPOLYLINE
  5
1D7
330
1A3
100
AcDbEntity
  8
AM_4
100
AcDbPolyline
 90
        3
 70
     0
 43
0.0
 10
-1.958704628614769
 20
2.315932400303386
 10
-1.927272750267872
 20
2.32258547505038
 10
-1.895556942922154
 20
2.325
  0
LINE
  5
1D8
330
1A3
100
AcDbEntity
  8
AM_4
100
AcDbLine
 10
-1.958704628614769
 20
2.315932400303386
 30
0.0
 11
-1.958704628614769
 21
2.234067599696615
 31
0.0
  0
LWPOLYLINE
  5
1D9
330
1A3
100
AcDbEntity
  8
AM_4
100
AcDbPolyline
 90
        3
 70
     0
 43
0.0
 10
-1.832409257229539
 20
2.234067599696615
 10
-1.863841135576436
 20
2.22741452494962
 10
-1.895556942922154
 20
2.225
  0
LWPOLYLINE
  5
1DA
330
1A3
100
AcDbEntity
  8
AM_4
100
AcDbPolyline
 90
        3
 70
     0
 43
0.0
 10
-1.895556942922154
 20
2.225
 10
-1.927130785768462
 20
2.227393380785035
 10
-1.958704628614769
 20
2.234067599696615
  0
LWPOLYLINE
  5
1DB
330
1A3
100
AcDbEntity
  8
AM_4
100
AcDbPolyline
 90
        4
 70
     0
 43
0.0
 10
-1.958704628614769
 20
2.234067599696615
 10
-1.988200367888202
 20
2.230482412517844
 10
-2.036457558752246
 20
2.226425828243072
 10
-2.085
 20
2.225
  0
LINE
  5
1DC
330
1A3
100
AcDbEntity
  8
AM_4
100
AcDbLine
 10
-2.21129537138523
 20
2.315932400303386
 30
0.0
 11
-2.21129537138523
 21
2.234067599696615
 31
0.0
  0
LWPOLYLINE
  5
1DD
330
1A3
100
AcDbEntity
  8
AM_4
100
AcDbPolyline
 90
        3
 70
     0
 43
0.0
 10
-2.274443057077846
 20
2.325
 10
-2.242869214231538
 20
2.322606619214965
 10
-2.21129537138523
 20
2.315932400303386
  0
LWPOLYLINE
  5
1DE
330
1A3
100
AcDbEntity
  8
AM_4
100
AcDbPolyline
 90
        3
 70
     0
 43
0.0
 10
-2.337590742770461
 20
2.315932400303386
 10
-2.306158864423564
 20
2.32258547505038
 10
-2.274443057077846
 20
2.325
  0
LINE
  5
1DF
330
1A3
100
AcDbEntity
  8
AM_4
100
AcDbLine
 10
-2.337590742770461
 20
2.315932400303386
 30
0.0
 11
-2.337590742770461
 21
2.234067599696615
 31
0.0
  0
LWPOLYLINE
  5
1E0
330
1A3
100
AcDbEntity
  8
AM_4
100
AcDbPolyline
 90
        3
 70
     0
 43
0.0
 10
-2.274443057077846
 20
2.225
 10
-2.306016899924153
 20
2.227393380785035
 10
-2.337590742770461
 20
2.234067599696615
  0
LWPOLYLINE
  5
1E1
330
1A3
100
AcDbEntity
  8
AM_4
100
AcDbPolyline
 90
        3
 70
     0
 43
0.0
 10
-2.21129537138523
 20
2.234067599696615
 10
-2.242727249732128
 20
2.22741452494962
 10
-2.274443057077846
 20
2.225
  0
ENDBLK
  5
1A6
330
1A3
100
AcDbEntity
  8
0
100
AcDbBlockEnd
  0
BLOCK
  5
1E4
330
1E2
100
AcDbEntity
  8
0
100
AcDbBlockBegin
  2
7_071319H_0_in_071319_2
 70
     2
 10
0.0
 20
0.0
 30
0.0
  3
7_071319H_0_in_071319_2
  1

  0
ATTDEF
  5
1E6
330
1E2
100
AcDbEntity
  8
AM_6
100
AcDbText
 10
5.167700000029234
 20
2.815
 30
0.0
 40
0.5
  1
EF4S-IP -(Contact Seal)-Housing -Inch
100
AcDbAttributeDefinition
  3

  2
NN
 70
     8
280
     0
  0
ATTDEF
  5
1E7
330
1E2
100
AcDbEntity
  8
AM_6
100
AcDbText
 10
5.167700000029234
 20
2.315
 30
0.0
 40
0.5
  1
Imperial/E 4 Bolt Square Flange Bearings
100
AcDbAttributeDefinition
  3

  2
NT
 70
     8
280
     0
  0
ATTDEF
  5
1E8
330
1E2
100
AcDbEntity
  8
AM_6
100
AcDbText
 10
5.167700000029234
 20
1.815
 30
0.0
 40
0.5
  1
071319H
100
AcDbAttributeDefinition
  3

  2
NB
 70
     8
280
     0
  0
ATTDEF
  5
1E9
330
1E2
100
AcDbEntity
  8
AM_6
100
AcDbText
 10
5.167700000029234
 20
1.315
 30
0.0
 40
0.5
  1
$PN.H
100
AcDbAttributeDefinition
  3

  2
NBSYN
 70
     8
280
     0
  0
ATTDEF
  5
1EA
330
1E2
100
AcDbEntity
  8
AM_6
100
AcDbText
 10
5.167700000029234
 20
0.815
 30
0.0
 40
0.5
  1
071319
100
AcDbAttributeDefinition
  3

  2
LINA
 70
     8
280
     0
  0
ATTDEF
  5
1EB
330
1E2
100
AcDbEntity
  8
AM_6
100
AcDbText
 10
5.167700000029234
 20
0.3149999999999999
 30
0.0
 40
0.5
  1
1-7/8
100
AcDbAttributeDefinition
  3

  2
SS
 70
     8
280
     0
  0
ATTDEF
  5
1EC
330
1E2
100
AcDbEntity
  8
AM_6
100
AcDbText
 10
5.167700000029234
 20
-0.1850000000000001
 30
0.0
 40
0.5
  1
1.8750
100
AcDbAttributeDefinition
  3

  2
SS1
 70
     8
280
     0
  0
ATTDEF
  5
1ED
330
1E2
100
AcDbEntity
  8
AM_6
100
AcDbText
 10
5.167700000029234
 20
-0.685
 30
0.0
 40
0.5
  1
3.5433
100
AcDbAttributeDefinition
  3

  2
BORE
 70
     8
280
     0
  0
ATTDEF
  5
1EE
330
1E2
100
AcDbEntity
  8
AM_6
100
AcDbText
 10
5.167700000029234
 20
-1.185
 30
0.0
 40
0.5
  1
Expansion
100
AcDbAttributeDefinition
  3

  2
TYPE
 70
     8
280
     0
  0
ATTDEF
  5
1EF
330
1E2
100
AcDbEntity
  8
AM_6
100
AcDbText
 10
5.167700000029234
 20
-1.685
 30
0.0
 40
0.5
  1
EF4B-IP-114R
100
AcDbAttributeDefinition
  3

  2
DESCRIPTION
 70
     8
280
     0
  0
ATTDEF
  5
1F0
330
1E2
100
AcDbEntity
  8
AM_6
100
AcDbText
 10
5.167700000029234
 20
-2.185
 30
0.0
 40
0.5
  1
Non-Expansion Type
100
AcDbAttributeDefinition
  3

  2
EF
 70
     8
280
     0
  0
ATTDEF
  5
1F1
330
1E2
100
AcDbEntity
  8
AM_6
100
AcDbText
 10
5.167700000029234
 20
-2.685
 30
0.0
 40
0.5
  1
1
100
AcDbAttributeDefinition
  3

  2
EF1
 70
     8
280
     0
  0
ATTDEF
  5
1F2
330
1E2
100
AcDbEntity
  8
AM_6
100
AcDbText
 10
5.167700000029234
 20
-3.185
 30
0.0
 40
0.5
  1
Contact Seal
100
AcDbAttributeDefinition
  3

  2
ST
 70
     8
280
     0
  0
ATTDEF
  5
1F3
330
1E2
100
AcDbEntity
  8
AM_6
100
AcDbText
 10
5.167700000029234
 20
-3.685
 30
0.0
 40
0.5
  1
1
100
AcDbAttributeDefinition
  3

  2
ST1
 70
     8
280
     0
  0
ATTDEF
  5
1F4
330
1E2
100
AcDbEntity
  8
AM_6
100
AcDbText
 10
5.167700000029234
 20
-4.185
 30
0.0
 40
0.5
  1
2.86
100
AcDbAttributeDefinition
  3

  2
A
 70
     8
280
     0
  0
ATTDEF
  5
1F5
330
1E2
100
AcDbEntity
  8
AM_6
100
AcDbText
 10
5.167700000029234
 20
-4.685
 30
0.0
 40
0.5
  1
2.860000
100
AcDbAttributeDefinition
  3

  2
A1
 70
     8
280
     0
  0
ATTDEF
  5
1F6
330
1E2
100
AcDbEntity
  8
AM_6
100
AcDbText
 10
5.167700000029234
 20
-5.185
 30
0.0
 40
0.5
  1
5.63
100
AcDbAttributeDefinition
  3

  2
B
 70
     8
280
     0
  0
ATTDEF
  5
1F7
330
1E2
100
AcDbEntity
  8
AM_6
100
AcDbText
 10
5.167700000029234
 20
-5.685
 30
0.0
 40
0.5
  1
5.630000
100
AcDbAttributeDefinition
  3

  2
B1
 70
     8
280
     0
  0
ATTDEF
  5
1F8
330
1E2
100
AcDbEntity
  8
AM_6
100
AcDbText
 10
5.167700000029234
 20
-6.185
 30
0.0
 40
0.5
  1
3.64
100
AcDbAttributeDefinition
  3

  2
C
 70
     8
280
     0
  0
ATTDEF
  5
1F9
330
1E2
100
AcDbEntity
  8
AM_6
100
AcDbText
 10
5.167700000029234
 20
-6.685
 30
0.0
 40
0.5
  1
3.640000
100
AcDbAttributeDefinition
  3

  2
C1
 70
     8
280
     0
  0
ATTDEF
  5
1FA
330
1E2
100
AcDbEntity
  8
AM_6
100
AcDbText
 10
5.167700000029234
 20
-7.185
 30
0.0
 40
0.5
  1
4.38
100
AcDbAttributeDefinition
  3

  2
D
 70
     8
280
     0
  0
ATTDEF
  5
1FB
330
1E2
100
AcDbEntity
  8
AM_6
100
AcDbText
 10
5.167700000029234
 20
-7.685
 30
0.0
 40
0.5
  1
4.380000
100
AcDbAttributeDefinition
  3

  2
D1
 70
     8
280
     0
  0
ATTDEF
  5
1FC
330
1E2
100
AcDbEntity
  8
AM_6
100
AcDbText
 10
5.167700000029234
 20
-8.185
 30
0.0
 40
0.5
  1
1/2
100
AcDbAttributeDefinition
  3

  2
F
 70
     8
280
     0
  0
ATTDEF
  5
1FD
330
1E2
100
AcDbEntity
  8
AM_6
100
AcDbText
 10
5.167700000029234
 20
-8.685
 30
0.0
 40
0.5
  1
0.500
100
AcDbAttributeDefinition
  3

  2
F1
 70
     8
280
     0
  0
ATTDEF
  5
1FE
330
1E2
100
AcDbEntity
  8
AM_6
100
AcDbText
 10
5.167700000029234
 20
-9.185
 30
0.0
 40
0.5
  1
0.65
100
AcDbAttributeDefinition
  3

  2
G
 70
     8
280
     0
  0
ATTDEF
  5
1FF
330
1E2
100
AcDbEntity
  8
AM_6
100
AcDbText
 10
5.167700000029234
 20
-9.685
 30
0.0
 40
0.5
  1
0.650000
100
AcDbAttributeDefinition
  3

  2
G1
 70
     8
280
     0
  0
ATTDEF
  5
200
330
1E2
100
AcDbEntity
  8
AM_6
100
AcDbText
 10
5.167700000029234
 20
-10.185
 30
0.0
 40
0.5
  1
1.18
100
AcDbAttributeDefinition
  3

  2
H
 70
     8
280
     0
  0
ATTDEF
  5
201
330
1E2
100
AcDbEntity
  8
AM_6
100
AcDbText
 10
5.167700000029234
 20
-10.685
 30
0.0
 40
0.5
  1
1.180000
100
AcDbAttributeDefinition
  3

  2
H1
 70
     8
280
     0
  0
ATTDEF
  5
202
330
1E2
100
AcDbEntity
  8
AM_6
100
AcDbText
 10
5.167700000029234
 20
-11.185
 30
0.0
 40
0.5
  1
4.36
100
AcDbAttributeDefinition
  3

  2
J
 70
     8
280
     0
  0
ATTDEF
  5
203
330
1E2
100
AcDbEntity
  8
AM_6
100
AcDbText
 10
5.167700000029234
 20
-11.685
 30
0.0
 40
0.5
  1
4.360000
100
AcDbAttributeDefinition
  3

  2
J1
 70
     8
280
     0
  0
ATTDEF
  5
204
330
1E2
100
AcDbEntity
  8
AM_6
100
AcDbText
 10
5.167700000029234
 20
-12.185
 30
0.0
 40
0.5
  1
4.360000
100
AcDbAttributeDefinition
  3

  2
K
 70
     8
280
     0
  0
ATTDEF
  5
205
330
1E2
100
AcDbEntity
  8
AM_6
100
AcDbText
 10
5.167700000029234
 20
-12.685
 30
0.0
 40
0.5
  1
6.000
100
AcDbAttributeDefinition
  3

  2
K1
 70
     8
280
     0
  0
ATTDEF
  5
206
330
1E2
100
AcDbEntity
  8
AM_6
100
AcDbText
 10
5.167700000029234
 20
-13.185
 30
0.0
 40
0.5
  1
3.28
100
AcDbAttributeDefinition
  3

  2
L
 70
     8
280
     0
  0
ATTDEF
  5
207
330
1E2
100
AcDbEntity
  8
AM_6
100
AcDbText
 10
5.167700000029234
 20
-13.685
 30
0.0
 40
0.5
  1
3.28000
100
AcDbAttributeDefinition
  3

  2
L1
 70
     8
280
     0
  0
ATTDEF
  5
208
330
1E2
100
AcDbEntity
  8
AM_6
100
AcDbText
 10
5.167700000029234
 20
-14.185
 30
0.0
 40
0.5
  1
2.6
100
AcDbAttributeDefinition
  3

  2
N
 70
     8
280
     0
  0
ATTDEF
  5
209
330
1E2
100
AcDbEntity
  8
AM_6
100
AcDbText
 10
5.167700000029234
 20
-14.685
 30
0.0
 40
0.5
  1
2.600000
100
AcDbAttributeDefinition
  3

  2
N1
 70
     8
280
     0
  0
ATTDEF
  5
20A
330
1E2
100
AcDbEntity
  8
AM_6
100
AcDbText
 10
5.167700000029234
 20
-15.185
 30
0.0
 40
0.5
  1
0.79
100
AcDbAttributeDefinition
  3

  2
P
 70
     8
280
     0
  0
ATTDEF
  5
20B
330
1E2
100
AcDbEntity
  8
AM_6
100
AcDbText
 10
5.167700000029234
 20
-15.685
 30
0.0
 40
0.5
  1
0.790000
100
AcDbAttributeDefinition
  3

  2
P1
 70
     8
280
     0
  0
ATTDEF
  5
20C
330
1E2
100
AcDbEntity
  8
AM_6
100
AcDbText
 10
5.167700000029234
 20
-16.185
 30
0.0
 40
0.5
  1
0.22
100
AcDbAttributeDefinition
  3

  2
X
 70
     8
280
     0
  0
ATTDEF
  5
20D
330
1E2
100
AcDbEntity
  8
AM_6
100
AcDbText
 10
5.167700000029234
 20
-16.685
 30
0.0
 40
0.5
  1
0.2200
100
AcDbAttributeDefinition
  3

  2
X1
 70
     8
280
     0
  0
ATTDEF
  5
20E
330
1E2
100
AcDbEntity
  8
AM_6
100
AcDbText
 10
5.167700000029234
 20
-17.185
 30
0.0
 40
0.5
  1
0.020
100
AcDbAttributeDefinition
  3

  2
Y
 70
     8
280
     0
  0
ATTDEF
  5
20F
330
1E2
100
AcDbEntity
  8
AM_6
100
AcDbText
 10
5.167700000029234
 20
-17.685
 30
0.0
 40
0.5
  1
2.3
100
AcDbAttributeDefinition
  3

  2
Z
 70
     8
280
     0
  0
ATTDEF
  5
210
330
1E2
100
AcDbEntity
  8
AM_6
100
AcDbText
 10
5.167700000029234
 20
-18.185
 30
0.0
 40
0.5
  1
2.300000
100
AcDbAttributeDefinition
  3

  2
Z1
 70
     8
280
     0
  0
ATTDEF
  5
211
330
1E2
100
AcDbEntity
  8
AM_6
100
AcDbText
 10
5.167700000029234
 20
-18.685
 30
0.0
 40
0.5
  1
071294
100
AcDbAttributeDefinition
  3

  2
PN1
 70
     8
280
     0
  0
ATTDEF
  5
212
330
1E2
100
AcDbEntity
  8
AM_6
100
AcDbText
 10
5.167700000029234
 20
-19.185
 30
0.0
 40
0.5
  1
071319
100
AcDbAttributeDefinition
  3

  2
PN2
 70
     8
280
     0
  0
ATTDEF
  5
213
330
1E2
100
AcDbEntity
  8
AM_6
100
AcDbText
 10
5.167700000029234
 20
-19.685
 30
0.0
 40
0.5
  1
baldor
100
AcDbAttributeDefinition
  3

  2
COMPANY
 70
     8
280
     0
  0
LINE
  5
214
330
1E2
100
AcDbEntity
  8
AM_9
100
AcDbLine
 10
-0.6742857142857142
 20
-1.49090909090909
 30
0.0
 11
-0.6742857142857142
 21
-2.815
 31
0.0
  0
LINE
  5
215
330
1E2
100
AcDbEntity
  8
AM_9
100
AcDbLine
 10
-0.6742857142857142
 20
2.815
 30
0.0
 11
-0.6742857142857142
 21
1.490909090909091
 31
0.0
  0
LINE
  5
216
330
1E2
100
AcDbEntity
  8
AM_9
100
AcDbLine
 10
-0.6742857142857142
 20
1.77165
 30
0.0
 11
-3.0
 21
1.77165
 31
0.0
  0
LINE
  5
217
330
1E2
100
AcDbEntity
  8
AM_9
100
AcDbLine
 10
-3.0
 20
-1.77165
 30
0.0
 11
-0.6742857142857142
 21
-1.77165
 31
0.0
  0
LINE
  5
218
330
1E2
100
AcDbEntity
  8
AM_9
100
AcDbLine
 10
-1.062
 20
-2.756799180998707
 30
0.0
 11
-1.18
 21
-2.756799180998707
 31
0.0
  0
LINE
  5
219
330
1E2
100
AcDbEntity
  8
AM_9
100
AcDbLine
 10
-1.062
 20
-2.167812593654979
 30
0.0
 11
-1.062
 21
-2.815
 31
0.0
  0
LINE
  5
21A
330
1E2
100
AcDbEntity
  8
AM_9
100
AcDbLine
 10
-1.062
 20
2.75679918099871
 30
0.0
 11
-1.18
 21
2.75679918099871
 31
0.0
  0
LINE
  5
21B
330
1E2
100
AcDbEntity
  8
AM_9
100
AcDbLine
 10
-1.062
 20
2.815
 30
0.0
 11
-1.062
 21
2.167812593654953
 31
0.0
  0
LINE
  5
21C
330
1E2
100
AcDbEntity
  8
AM_9
100
AcDbLine
 10
-1.18
 20
2.005999363124102
 30
0.0
 11
-1.062
 21
2.005999363124102
 31
0.0
  0
LINE
  5
21D
330
1E2
100
AcDbEntity
  8
AM_9
100
AcDbLine
 10
-1.062
 20
-2.005999363124102
 30
0.0
 11
-1.18
 21
-2.005999363124102
 31
0.0
  0
LINE
  5
21E
330
1E2
100
AcDbEntity
  8
AM_9
100
AcDbLine
 10
-1.062
 20
2.18
 30
0.0
 11
-1.18
 21
2.18
 31
0.0
  0
LINE
  5
21F
330
1E2
100
AcDbEntity
  8
AM_9
100
AcDbLine
 10
-1.18
 20
-2.18
 30
0.0
 11
-1.062
 21
-2.18
 31
0.0
  0
LINE
  5
220
330
1E2
100
AcDbEntity
  8
AM_9
100
AcDbLine
 10
-1.18
 20
1.94
 30
0.0
 11
0.0000000000000001
 21
1.94
 31
0.0
  0
LINE
  5
221
330
1E2
100
AcDbEntity
  8
AM_9
100
AcDbLine
 10
0.0000000000000001
 20
2.44
 30
0.0
 11
-1.18
 21
2.44
 31
0.0
  0
LINE
  5
222
330
1E2
100
AcDbEntity
  8
AM_9
100
AcDbLine
 10
-1.18
 20
-2.44
 30
0.0
 11
0.0000000000000001
 21
-2.44
 31
0.0
  0
LINE
  5
223
330
1E2
100
AcDbEntity
  8
AM_9
100
AcDbLine
 10
0.0000000000000001
 20
-1.94
 30
0.0
 11
-1.18
 21
-1.94
 31
0.0
  0
LINE
  5
224
330
1E2
100
AcDbEntity
  8
AM_7
100
AcDbLine
 10
0.1677000000292345
 20
0.0
 30
0.0
 11
-3.574
 21
0.0
 31
0.0
  0
LINE
  5
225
330
1E2
100
AcDbEntity
  8
AM_7
100
AcDbLine
 10
0.0707999999999998
 20
2.19
 30
0.0
 11
-1.4868
 21
2.19
 31
0.0
  0
LINE
  5
226
330
1E2
100
AcDbEntity
  8
AM_7
100
AcDbLine
 10
0.0708000000000002
 20
-2.19
 30
0.0
 11
-1.4868
 21
-2.19
 31
0.0
  0
LINE
  5
227
330
1E2
100
AcDbEntity
  8
AM_4
100
AcDbLine
 10
-1.685
 20
2.225
 30
0.0
 11
-2.484999999963761
 21
2.225
 31
0.0
  0
LINE
  5
228
330
1E2
100
AcDbEntity
  8
AM_4
100
AcDbLine
 10
-1.970000000000017
 20
2.124999999999999
 30
0.0
 11
-2.199999999999983
 21
2.124999999999999
 31
0.0
  0
ARC
  5
229
330
1E2
100
AcDbEntity
  8
AM_4
100
AcDbCircle
 10
-2.484999999999999
 20
2.124999999999997
 30
0.0
 40
0.1000000000000032
100
AcDbArc
 50
90.0
 51
146.6252813865584
  0
ARC
  5
22A
330
1E2
100
AcDbEntity
  8
AM_4
100
AcDbCircle
 10
-1.685
 20
2.125000000000001
 30
0.0
 40
0.0999999999999993
100
AcDbArc
 50
33.44531272777455
 51
90.0
  0
LINE
  5
22B
330
1E2
100
AcDbEntity
  8
AM_4
100
AcDbLine
 10
-3.0
 20
-2.115000000000001
 30
0.0
 11
-3.0
 21
2.115000000000001
 31
0.0
  0
ARC
  5
22C
330
1E2
100
AcDbEntity
  8
AM_4
100
AcDbCircle
 10
-2.935
 20
2.115000000000001
 30
0.0
 40
0.0649999999999995
100
AcDbArc
 50
90.0
 51
180.0
  0
ARC
  5
22D
330
1E2
100
AcDbEntity
  8
AM_4
100
AcDbCircle
 10
-2.935
 20
-2.115000000000001
 30
0.0
 40
0.0649999999999995
100
AcDbArc
 50
180.0
 51
270.0
  0
LINE
  5
22E
330
1E2
100
AcDbEntity
  8
AM_4
100
AcDbLine
 10
-2.934999999999999
 20
-2.18
 30
0.0
 11
-2.934999999999999
 21
2.18
 31
0.0
  0
LWPOLYLINE
  5
22F
330
1E2
100
AcDbEntity
  8
AM_4
100
AcDbPolyline
 90
       17
 70
     0
 43
0.0
 10
-1.970000000000017
 20
2.124999999999999
 10
-1.915210061785296
 20
2.128684220109804
 10
-1.862073810848756
 20
2.133652018344906
 10
-1.827452250729886
 20
2.137647567471081
 10
-1.794645049910335
 20
2.141998898844782
 10
-1.762993233250537
 20
2.146736252873143
 10
-1.733769042723538
 20
2.15159263964143
 10
-1.708609583710715
 20
2.156159664305865
 10
-1.685944185621059
 20
2.160590283732625
 10
-1.665373488828482
 20
2.164882048762772
 10
-1.647633998622395
 20
2.168798969339124
 10
-1.632832407387593
 20
2.172226452939125
 10
-1.620898755876435
 20
2.1751011043764
 10
-1.611644309411055
 20
2.177400134941653
 10
-1.605370919073439
 20
2.17899621435128
 10
-1.601957099645473
 20
2.179876036245944
 10
-1.601483534557556
 20
2.179999999999999
  0
LWPOLYLINE
  5
230
330
1E2
100
AcDbEntity
  8
AM_4
100
AcDbPolyline
 90
        6
 70
     0
 43
0.0
 10
-1.970000000000017
 20
2.124999999999999
 10
-2.009643453820171
 20
2.123223636137313
 10
-2.050083156707411
 20
2.122173222417416
 10
-2.091653516060981
 20
2.121896385141361
 10
-2.133481556575207
 20
2.122439742684809
 10
-2.199999999999983
 20
2.125
  0
LINE
  5
231
330
1E2
100
AcDbEntity
  8
AM_4
100
AcDbLine
 10
-1.18
 20
2.18
 30
0.0
 11
-1.601893462868963
 21
2.18
 31
0.0
  0
LINE
  5
232
330
1E2
100
AcDbEntity
  8
AM_4
100
AcDbLine
 10
-2.568477132123969
 20
2.18
 30
0.0
 11
-2.934999999999999
 21
2.18
 31
0.0
  0
LINE
  5
233
330
1E2
100
AcDbEntity
  8
AM_4
100
AcDbLine
 10
-2.934999999999999
 20
-2.18
 30
0.0
 11
-1.18
 21
-2.18
 31
0.0
  0
LWPOLYLINE
  5
234
330
1E2
100
AcDbEntity
  8
AM_4
100
AcDbPolyline
 90
       16
 70
     0
 43
0.0
 10
-2.568516465442492
 20
2.179999999999998
 10
-2.568515419413498
 20
2.179999728310496
 10
-2.566676442777271
 20
2.17952224930528
 10
-2.56132449775623
 20
2.178152098126
 10
-2.55211414798186
 20
2.175841905280272
 10
-2.539123736051372
 20
2.172691117144401
 10
-2.522901384926831
 20
2.168919971038434
 10
-2.503130838135809
 20
2.164561168911403
 10
-2.478977279170507
 20
2.159570984503467
 10
-2.451222589496987
 20
2.15427003473207
 10
-2.423932490614763
 20
2.14949153101196
 10
-2.394178307175433
 20
2.144751099260368
 10
-2.361111692034271
 20
2.140041683226347
 10
-2.325912556239397
 20
2.135651523319198
 10
-2.265399654654689
 20
2.129565281426093
 10
-2.199999999999981
 20
2.124999999999999
  0
LINE
  5
235
330
1E2
100
AcDbEntity
  8
AM_4
100
AcDbLine
 10
-1.18
 20
-2.815
 30
0.0
 11
-1.18
 21
-0.8534439379043586
 31
0.0
  0
LINE
  5
236
330
1E2
100
AcDbEntity
  8
AM_4
100
AcDbLine
 10
-1.18
 20
-0.8534439379043586
 30
0.0
 11
-1.062
 21
-0.8534439379043587
 31
0.0
  0
LINE
  5
237
330
1E2
100
AcDbEntity
  8
AM_4
100
AcDbLine
 10
-1.18
 20
0.8534439379043586
 30
0.0
 11
-1.18
 21
2.815
 31
0.0
  0
LINE
  5
238
330
1E2
100
AcDbEntity
  8
AM_4
100
AcDbLine
 10
-1.062
 20
0.8534439379043585
 30
0.0
 11
-1.18
 21
0.8534439379043586
 31
0.0
  0
LINE
  5
239
330
1E2
100
AcDbEntity
  8
AM_4
100
AcDbLine
 10
0.0000000000000001
 20
-2.815
 30
0.0
 11
0.0000000000000002
 21
-1.490909090909091
 31
0.0
  0
LINE
  5
23A
330
1E2
100
AcDbEntity
  8
AM_4
100
AcDbLine
 10
-1.18
 20
-2.815
 30
0.0
 11
0.0000000000000001
 21
-2.815
 31
0.0
  0
LINE
  5
23B
330
1E2
100
AcDbEntity
  8
AM_4
100
AcDbLine
 10
-1.062
 20
-1.925697201264322
 30
0.0
 11
-1.18
 21
-1.925697201264322
 31
0.0
  0
LINE
  5
23C
330
1E2
100
AcDbEntity
  8
AM_4
100
AcDbLine
 10
0.0000000000000002
 20
1.490909090909091
 30
0.0
 11
0.0000000000000001
 21
2.815
 31
0.0
  0
LINE
  5
23D
330
1E2
100
AcDbEntity
  8
AM_4
100
AcDbLine
 10
-1.18
 20
2.815
 30
0.0
 11
0.0000000000000001
 21
2.815
 31
0.0
  0
LINE
  5
23E
330
1E2
100
AcDbEntity
  8
AM_4
100
AcDbLine
 10
-1.062
 20
1.925697201264322
 30
0.0
 11
-1.18
 21
1.925697201264322
 31
0.0
  0
LINE
  5
23F
330
1E2
100
AcDbEntity
  8
AM_4
100
AcDbLine
 10
0.0000000000000002
 20
1.490909090909091
 30
0.0
 11
-0.6742857142857142
 21
1.490909090909091
 31
0.0
  0
LINE
  5
240
330
1E2
100
AcDbEntity
  8
AM_4
100
AcDbLine
 10
-1.18
 20
2.19
 30
0.0
 11
0.0000000000000002
 21
2.19
 31
0.0
  0
LINE
  5
241
330
1E2
100
AcDbEntity
  8
AM_4
100
AcDbLine
 10
-1.062
 20
2.167812593654953
 30
0.0
 11
-1.18
 21
2.167812593654949
 31
0.0
  0
LINE
  5
242
330
1E2
100
AcDbEntity
  8
AM_4
100
AcDbLine
 10
-1.062
 20
-2.167812593654979
 30
0.0
 11
-1.062
 21
2.167812593654953
 31
0.0
  0
LINE
  5
243
330
1E2
100
AcDbEntity
  8
AM_4
100
AcDbLine
 10
-1.18
 20
-2.167812593654975
 30
0.0
 11
-1.062
 21
-2.167812593654979
 31
0.0
  0
LINE
  5
244
330
1E2
100
AcDbEntity
  8
AM_4
100
AcDbLine
 10
-1.18
 20
-2.19
 30
0.0
 11
0.0000000000000002
 21
-2.19
 31
0.0
  0
LINE
  5
245
330
1E2
100
AcDbEntity
  8
AM_4
100
AcDbLine
 10
-0.6742857142857142
 20
-1.490909090909091
 30
0.0
 11
0.0000000000000002
 21
-1.490909090909091
 31
0.0
  0
LINE
  5
246
330
1E2
100
AcDbEntity
  8
AM_4
100
AcDbLine
 10
-0.6742857142857142
 20
1.490909090909091
 30
0.0
 11
-0.6742857142857142
 21
-1.490909090909091
 31
0.0
  0
ENDBLK
  5
1E5
330
1E2
100
AcDbEntity
  8
0
100
AcDbBlockEnd
  0
ENDSEC
  0
SECTION
  2
ENTITIES
  0
INSERT
  5
6F
330
1F
100
AcDbEntity
  8
0
100
AcDbBlockReference
  2
1_071319_2
 10
0.0
 20
0.0
 30
0.0
  0
POINT
  5
248
330
1F
100
AcDbEntity
  8
ConnectionPoints
100
AcDbPoint
 10
-3.267166666666666
 20
1.341145833333333
 30
0.0000000000000002
  0
POINT
  5
249
330
1F
100
AcDbEntity
  8
ConnectionPoints
100
AcDbPoint
 10
-3.197166666666666
 20
0.0
 30
0.0000000000000002
  0
POINT
  5
24A
330
1F
100
AcDbEntity
  8
ConnectionPoints
100
AcDbPoint
 10
-3.43
 20
0.0
 30
0.0000000000000002
  0
POINT
  5
24B
330
1F
100
AcDbEntity
  8
ConnectionPoints
100
AcDbPoint
 10
-3.396166666666666
 20
0.0
 30
0.0000000000000002
  0
POINT
  5
24C
330
1F
100
AcDbEntity
  8
ConnectionPoints
100
AcDbPoint
 10
-3.197166666666666
 20
1.341145833333333
 30
0.0000000000000002
  0
POINT
  5
24D
330
1F
100
AcDbEntity
  8
ConnectionPoints
100
AcDbPoint
 10
-3.197166666666666
 20
-1.341145833333333
 30
0.0000000000000002
  0
POINT
  5
24E
330
1F
100
AcDbEntity
  8
ConnectionPoints
100
AcDbPoint
 10
-3.197166666666666
 20
0.0
 30
0.0000000000000002
  0
POINT
  5
24F
330
1F
100
AcDbEntity
  8
ConnectionPoints
100
AcDbPoint
 10
-2.085
 20
2.225
 30
0.0000000000000001
  0
POINT
  5
250
330
1F
100
AcDbEntity
  8
ConnectionPoints
100
AcDbPoint
 10
-2.085
 20
2.225
 30
0.0000000000000001
  0
POINT
  5
251
330
1F
100
AcDbEntity
  8
ConnectionPoints
100
AcDbPoint
 10
-3.43
 20
0.0
 30
0.0000000000000002
  0
POINT
  5
252
330
1F
100
AcDbEntity
  8
ConnectionPoints
100
AcDbPoint
 10
-3.65
 20
0.0
 30
0.0000000000000002
  0
ENDSEC
  0
SECTION
  2
OBJECTS
  0
DICTIONARY
  5
C
330
0
100
AcDbDictionary
281
     1
  3
ACAD_DETAILVIEWSTYLE
350
25A
  3
ACAD_GROUP
350
D
  3
ACAD_LAYOUT
350
1A
  3
ACAD_MATERIAL
350
43
  3
ACAD_MLEADERSTYLE
350
6B
  3
ACAD_MLINESTYLE
350
17
  3
ACAD_PLOTSETTINGS
350
19
  3
ACAD_PLOTSTYLENAME
350
E
  3
ACAD_SCALELIST
350
47
  3
ACAD_SECTIONVIEWSTYLE
350
25B
  3
ACAD_TABLESTYLE
350
69
  3
ACAD_VISUALSTYLE
350
2A
  3
ACDB_RECOMPOSE_DATA
350
257
  3
AcDbVariableDictionary
350
253
  0
SUN
  5
6D
330
29
100
AcDbSun
 90
        1
290
     0
 63
     7
421
 16777215
 40
1.0
291
     1
 91
  2455826
 92
 54000000
292
     0
 70
     2
 71
   256
280
     1
  0
DICTIONARY
  5
25A
102
{ACAD_REACTORS
330
C
102
}
330
C
100
AcDbDictionary
281
     1
  0
DICTIONARY
  5
D
102
{ACAD_REACTORS
330
C
102
}
330
C
100
AcDbDictionary
281
     1
  0
DICTIONARY
  5
1A
102
{ACAD_REACTORS
330
C
102
}
330
C
100
AcDbDictionary
281
     1
  3
Layout1
350
1E
  3
Layout2
350
26
  3
Model
350
22
  0
DICTIONARY
  5
43
102
{ACAD_REACTORS
330
C
102
}
330
C
100
AcDbDictionary
281
     1
  3
ByBlock
350
45
  3
ByLayer
350
44
  3
Global
350
46
  0
DICTIONARY
  5
6B
102
{ACAD_REACTORS
330
C
102
}
330
C
100
AcDbDictionary
281
     1
  3
Standard
350
6C
  0
DICTIONARY
  5
17
102
{ACAD_REACTORS
330
C
102
}
330
C
100
AcDbDictionary
281
     1
  3
Standard
350
18
  0
DICTIONARY
  5
19
102
{ACAD_REACTORS
330
C
102
}
330
C
100
AcDbDictionary
281
     1
  0
ACDBDICTIONARYWDFLT
  5
E
102
{ACAD_REACTORS
330
C
102
}
330
C
100
AcDbDictionary
281
     1
  3
Normal
350
F
100
AcDbDictionaryWithDefault
340
F
  0
DICTIONARY
  5
47
102
{ACAD_REACTORS
330
C
102
}
330
C
100
AcDbDictionary
281
     1
  3
A0
350
48
  3
A1
350
49
  3
A2
350
4A
  3
A3
350
4B
  3
A4
350
4C
  3
A5
350
4D
  3
A6
350
4E
  3
A7
350
4F
  3
A8
350
50
  3
A9
350
51
  3
B0
350
52
  3
B1
350
53
  3
B2
350
54
  3
B3
350
55
  3
B4
350
56
  3
B5
350
57
  3
B6
350
58
  3
B7
350
59
  3
B8
350
5A
  3
B9
350
5B
  3
C0
350
5C
  3
C1
350
5D
  3
C2
350
5E
  3
C3
350
5F
  3
C4
350
60
  3
C5
350
61
  3
C6
350
62
  3
C7
350
63
  3
C8
350
64
  3
C9
350
65
  3
D0
350
66
  3
D1
350
67
  3
D2
350
68
  0
DICTIONARY
  5
25B
102
{ACAD_REACTORS
330
C
102
}
330
C
100
AcDbDictionary
281
     1
  0
DICTIONARY
  5
69
102
{ACAD_REACTORS
330
C
102
}
330
C
100
AcDbDictionary
281
     1
  3
Standard
350
6A
  0
DICTIONARY
  5
2A
102
{ACAD_REACTORS
330
C
102
}
330
C
100
AcDbDictionary
281
     1
  3
2dWireframe
350
2F
  3
Basic
350
32
  3
Brighten
350
36
  3
ColorChange
350
3A
  3
Conceptual
350
34
  3
Dim
350
35
  3
EdgeColorOff
350
3D
  3
Facepattern
350
39
  3
Flat
350
2B
  3
FlatWithEdges
350
2C
  3
Gouraud
350
2D
  3
GouraudWithEdges
350
2E
  3
Hidden
350
31
  3
JitterOff
350
3B
  3
Linepattern
350
38
  3
OverhangOff
350
3C
  3
Realistic
350
33
  3
Shaded
350
42
  3
Shaded with edges
350
41
  3
Shades of Gray
350
3E
  3
Sketchy
350
3F
  3
Thicken
350
37
  3
Wireframe
350
30
  3
X-Ray
350
40
  0
XRECORD
  5
257
102
{ACAD_REACTORS
330
C
102
}
330
C
100
AcDbXrecord
280
     1
 90
        1
330
6A
  0
DICTIONARY
  5
253
102
{ACAD_REACTORS
330
C
102
}
330
C
100
AcDbDictionary
281
     1
  3
CANNOSCALE
350
254
  3
CMLEADERSTYLE
350
259
  3
CTABLESTYLE
350
258
  0
LAYOUT
  5
1E
102
{ACAD_REACTORS
330
1A
102
}
330
1A
100
AcDbPlotSettings
  1

  2
none_device
  4

  6

 40
0.0
 41
0.0
 42
0.0
 43
0.0
 44
0.0
 45
0.0
 46
0.0
 47
0.0
 48
0.0
 49
0.0
140
0.0
141
0.0
142
1.0
143
1.0
 70
   688
 72
     0
 73
     0
 74
     5
  7

 75
    16
 76
     0
 77
     2
 78
   300
147
1.0
148
0.0
149
0.0
100
AcDbLayout
  1
Layout1
 70
     1
 71
     1
 10
0.0
 20
0.0
 11
12.0
 21
9.0
 12
0.0
 22
0.0
 32
0.0
 14
1.000000000000000E+20
 24
1.000000000000000E+20
 34
1.000000000000000E+20
 15
-1.000000000000000E+20
 25
-1.000000000000000E+20
 35
-1.000000000000000E+20
146
0.0
 13
0.0
 23
0.0
 33
0.0
 16
1.0
 26
0.0
 36
0.0
 17
0.0
 27
1.0
 37
0.0
 76
     0
330
1B
  0
LAYOUT
  5
26
102
{ACAD_REACTORS
330
1A
102
}
330
1A
100
AcDbPlotSettings
  1

  2
none_device
  4

  6

 40
0.0
 41
0.0
 42
0.0
 43
0.0
 44
0.0
 45
0.0
 46
0.0
 47
0.0
 48
0.0
 49
0.0
140
0.0
141
0.0
142
1.0
143
1.0
 70
   688
 72
     0
 73
     0
 74
     5
  7

 75
    16
 76
     0
 77
     2
 78
   300
147
1.0
148
0.0
149
0.0
100
AcDbLayout
  1
Layout2
 70
     1
 71
     2
 10
0.0
 20
0.0
 11
0.0
 21
0.0
 12
0.0
 22
0.0
 32
0.0
 14
0.0
 24
0.0
 34
0.0
 15
0.0
 25
0.0
 35
0.0
146
0.0
 13
0.0
 23
0.0
 33
0.0
 16
1.0
 26
0.0
 36
0.0
 17
0.0
 27
1.0
 37
0.0
 76
     0
330
23
  0
LAYOUT
  5
22
102
{ACAD_REACTORS
330
1A
102
}
330
1A
100
AcDbPlotSettings
  1

  2
none_device
  4
Letter_(8.50_x_11.00_Inches)
  6

 40
6.35
 41
6.35
 42
6.35000508
 43
6.35000508
 44
215.9
 45
279.4
 46
0.0
 47
0.0
 48
0.0
 49
0.0
140
0.0
141
0.0
142
1.0
143
1.0
 70
  1712
 72
     0
 73
     0
 74
     0
  7

 75
     0
 76
     0
 77
     2
 78
   300
147
1.0
148
0.0
149
0.0
100
AcDbLayout
  1
Model
 70
     1
 71
     0
 10
0.0
 20
0.0
 11
12.0
 21
9.0
 12
0.0
 22
0.0
 32
0.0
 14
1.000000000000000E+20
 24
1.000000000000000E+20
 34
1.000000000000000E+20
 15
-1.000000000000000E+20
 25
-1.000000000000000E+20
 35
-1.000000000000000E+20
146
0.0
 13
0.0
 23
0.0
 33
0.0
 16
1.0
 26
0.0
 36
0.0
 17
0.0
 27
1.0
 37
0.0
 76
     0
330
1F
331
29
  0
MATERIAL
  5
45
102
{ACAD_REACTORS
330
43
102
}
330
43
100
AcDbMaterial
  1
ByBlock
 72
     1
 94
      127
  0
MATERIAL
  5
44
102
{ACAD_REACTORS
330
43
102
}
330
43
100
AcDbMaterial
  1
ByLayer
 72
     1
 94
      127
  0
MATERIAL
  5
46
102
{ACAD_REACTORS
330
43
102
}
330
43
100
AcDbMaterial
  1
Global
 72
     1
 94
      127
  0
MLEADERSTYLE
  5
6C
102
{ACAD_REACTORS
330
6B
102
}
330
6B
100
AcDbMLeaderStyle
179
     2
170
     2
171
     1
172
     0
 90
        2
 40
0.0
 41
0.0
173
     1
 91
-1056964608
340
14
 92
       -2
290
     1
 42
0.09
291
     1
 43
0.36
  3
Standard
341
0
 44
0.18
300

342
11
174
     1
178
     6
175
     1
176
     0
 93
-1056964608
 45
0.18
292
     0
297
     0
 46
0.18
343
0
 94
-1056964608
 47
1.0
 49
1.0
140
1.0
293
     1
141
0.0
294
     1
177
     0
142
1.0
295
     0
296
     0
143
0.125
271
     0
272
     9
273
     9
298
     0
  0
MLINESTYLE
  5
18
102
{ACAD_REACTORS
330
17
102
}
330
17
100
AcDbMlineStyle
  2
Standard
 70
     0
  3

 62
   256
 51
90.0
 52
90.0
 71
     2
 49
0.5
 62
   256
  6
BYLAYER
 49
-0.5
 62
   256
  6
BYLAYER
  0
ACDBPLACEHOLDER
  5
F
102
{ACAD_REACTORS
330
E
102
}
330
E
  0
SCALE
  5
48
102
{ACAD_REACTORS
330
47
102
}
330
47
100
AcDbScale
 70
     0
300
1:1
140
1.0
141
1.0
290
     1
  0
SCALE
  5
49
102
{ACAD_REACTORS
330
47
102
}
330
47
100
AcDbScale
 70
     0
300
1:2
140
1.0
141
2.0
290
     0
  0
SCALE
  5
4A
102
{ACAD_REACTORS
330
47
102
}
330
47
100
AcDbScale
 70
     0
300
1:4
140
1.0
141
4.0
290
     0
  0
SCALE
  5
4B
102
{ACAD_REACTORS
330
47
102
}
330
47
100
AcDbScale
 70
     0
300
1:5
140
1.0
141
5.0
290
     0
  0
SCALE
  5
4C
102
{ACAD_REACTORS
330
47
102
}
330
47
100
AcDbScale
 70
     0
300
1:8
140
1.0
141
8.0
290
     0
  0
SCALE
  5
4D
102
{ACAD_REACTORS
330
47
102
}
330
47
100
AcDbScale
 70
     0
300
1:10
140
1.0
141
10.0
290
     0
  0
SCALE
  5
4E
102
{ACAD_REACTORS
330
47
102
}
330
47
100
AcDbScale
 70
     0
300
1:16
140
1.0
141
16.0
290
     0
  0
SCALE
  5
4F
102
{ACAD_REACTORS
330
47
102
}
330
47
100
AcDbScale
 70
     0
300
1:20
140
1.0
141
20.0
290
     0
  0
SCALE
  5
50
102
{ACAD_REACTORS
330
47
102
}
330
47
100
AcDbScale
 70
     0
300
1:30
140
1.0
141
30.0
290
     0
  0
SCALE
  5
51
102
{ACAD_REACTORS
330
47
102
}
330
47
100
AcDbScale
 70
     0
300
1:40
140
1.0
141
40.0
290
     0
  0
SCALE
  5
52
102
{ACAD_REACTORS
330
47
102
}
330
47
100
AcDbScale
 70
     0
300
1:50
140
1.0
141
50.0
290
     0
  0
SCALE
  5
53
102
{ACAD_REACTORS
330
47
102
}
330
47
100
AcDbScale
 70
     0
300
1:100
140
1.0
141
100.0
290
     0
  0
SCALE
  5
54
102
{ACAD_REACTORS
330
47
102
}
330
47
100
AcDbScale
 70
     0
300
2:1
140
2.0
141
1.0
290
     0
  0
SCALE
  5
55
102
{ACAD_REACTORS
330
47
102
}
330
47
100
AcDbScale
 70
     0
300
4:1
140
4.0
141
1.0
290
     0
  0
SCALE
  5
56
102
{ACAD_REACTORS
330
47
102
}
330
47
100
AcDbScale
 70
     0
300
8:1
140
8.0
141
1.0
290
     0
  0
SCALE
  5
57
102
{ACAD_REACTORS
330
47
102
}
330
47
100
AcDbScale
 70
     0
300
10:1
140
10.0
141
1.0
290
     0
  0
SCALE
  5
58
102
{ACAD_REACTORS
330
47
102
}
330
47
100
AcDbScale
 70
     0
300
100:1
140
100.0
141
1.0
290
     0
  0
SCALE
  5
59
102
{ACAD_REACTORS
330
47
102
}
330
47
100
AcDbScale
 70
     0
300
1/128" = 1'-0"
140
0.0078125
141
12.0
290
     0
  0
SCALE
  5
5A
102
{ACAD_REACTORS
330
47
102
}
330
47
100
AcDbScale
 70
     0
300
1/64" = 1'-0"
140
0.015625
141
12.0
290
     0
  0
SCALE
  5
5B
102
{ACAD_REACTORS
330
47
102
}
330
47
100
AcDbScale
 70
     0
300
1/32" = 1'-0"
140
0.03125
141
12.0
290
     0
  0
SCALE
  5
5C
102
{ACAD_REACTORS
330
47
102
}
330
47
100
AcDbScale
 70
     0
300
1/16" = 1'-0"
140
0.0625
141
12.0
290
     0
  0
SCALE
  5
5D
102
{ACAD_REACTORS
330
47
102
}
330
47
100
AcDbScale
 70
     0
300
3/32" = 1'-0"
140
0.09375
141
12.0
290
     0
  0
SCALE
  5
5E
102
{ACAD_REACTORS
330
47
102
}
330
47
100
AcDbScale
 70
     0
300
1/8" = 1'-0"
140
0.125
141
12.0
290
     0
  0
SCALE
  5
5F
102
{ACAD_REACTORS
330
47
102
}
330
47
100
AcDbScale
 70
     0
300
3/16" = 1'-0"
140
0.1875
141
12.0
290
     0
  0
SCALE
  5
60
102
{ACAD_REACTORS
330
47
102
}
330
47
100
AcDbScale
 70
     0
300
1/4" = 1'-0"
140
0.25
141
12.0
290
     0
  0
SCALE
  5
61
102
{ACAD_REACTORS
330
47
102
}
330
47
100
AcDbScale
 70
     0
300
3/8" = 1'-0"
140
0.375
141
12.0
290
     0
  0
SCALE
  5
62
102
{ACAD_REACTORS
330
47
102
}
330
47
100
AcDbScale
 70
     0
300
1/2" = 1'-0"
140
0.5
141
12.0
290
     0
  0
SCALE
  5
63
102
{ACAD_REACTORS
330
47
102
}
330
47
100
AcDbScale
 70
     0
300
3/4" = 1'-0"
140
0.75
141
12.0
290
     0
  0
SCALE
  5
64
102
{ACAD_REACTORS
330
47
102
}
330
47
100
AcDbScale
 70
     0
300
1" = 1'-0"
140
1.0
141
12.0
290
     0
  0
SCALE
  5
65
102
{ACAD_REACTORS
330
47
102
}
330
47
100
AcDbScale
 70
     0
300
1-1/2" = 1'-0"
140
1.5
141
12.0
290
     0
  0
SCALE
  5
66
102
{ACAD_REACTORS
330
47
102
}
330
47
100
AcDbScale
 70
     0
300
3" = 1'-0"
140
3.0
141
12.0
290
     0
  0
SCALE
  5
67
102
{ACAD_REACTORS
330
47
102
}
330
47
100
AcDbScale
 70
     0
300
6" = 1'-0"
140
6.0
141
12.0
290
     0
  0
SCALE
  5
68
102
{ACAD_REACTORS
330
47
102
}
330
47
100
AcDbScale
 70
     0
300
1'-0" = 1'-0"
140
12.0
141
12.0
290
     0
  0
TABLESTYLE
  5
6A
102
{ACAD_REACTORS
330
69
102
}
102
{ACAD_XDICTIONARY
360
255
102
}
330
69
100
AcDbTableStyle
  3
Standard
 70
     0
 71
     0
 40
0.06
 41
0.06
280
     0
281
     0
  7
Standard
140
0.18
170
     2
 62
     0
 63
   257
283
     0
 90
        4
 91
        0
  1

274
    -2
284
     1
 64
     0
275
    -2
285
     1
 65
     0
276
    -2
286
     1
 66
     0
277
    -2
287
     1
 67
     0
278
    -2
288
     1
 68
     0
279
    -2
289
     1
 69
     0
  7
Standard
140
0.25
170
     5
 62
     0
 63
   257
283
     0
 90
        4
 91
        0
  1

274
    -2
284
     1
 64
     0
275
    -2
285
     1
 65
     0
276
    -2
286
     1
 66
     0
277
    -2
287
     1
 67
     0
278
    -2
288
     1
 68
     0
279
    -2
289
     1
 69
     0
  7
Standard
140
0.18
170
     5
 62
     0
 63
   257
283
     0
 90
        4
 91
        0
  1

274
    -2
284
     1
 64
     0
275
    -2
285
     1
 65
     0
276
    -2
286
     1
 66
     0
277
    -2
287
     1
 67
     0
278
    -2
288
     1
 68
     0
279
    -2
289
     1
 69
     0
  0
VISUALSTYLE
  5
2F
102
{ACAD_REACTORS
330
2A
102
}
330
2A
100
AcDbVisualStyle
  2
2dWireframe
 70
     4
177
     3
291
     0
 70
    58
 90
        0
176
     1
 90
        2
176
     1
 90
        0
176
     1
 90
        0
176
     1
 40
0.6
176
     1
 40
30.0
176
     1
 62
     7
420
 16777215
176
     1
 90
        1
176
     1
 90
        4
176
     1
 62
     7
176
     1
 62
   257
176
     1
 90
        1
176
     1
 90
        1
176
     1
 40
1.0
176
     1
 90
        0
176
     1
 62
   257
176
     1
 40
1.0
176
     1
 90
        1
176
     1
 90
        6
176
     1
 90
        2
176
     1
 62
     7
176
     1
 90
        5
176
     1
 90
        0
176
     1
 90
        0
176
     1
290
     0
176
     1
 90
        1
176
     1
 40
0.0
176
     1
 90
        0
176
     1
290
     1
176
     1
290
     1
176
     1
290
     0
176
     1
290
     0
176
     1
290
     0
176
     1
290
     0
176
     1
290
     0
176
     1
290
     0
176
     1
290
     0
176
     1
 90
       50
176
     1
 40
0.0
176
     1
 40
1.0
176
     1
 90
        0
176
     1
 62
    18
420
        0
176
     1
 90
       50
176
     1
 90
        3
176
     1
 62
     5
420
      255
176
     1
290
     0
176
     1
 90
       50
176
     1
 90
       50
176
     1
 90
       50
176
     1
290
     0
176
     1
 90
       50
176
     1
 62
   256
176
     0
 40
1.0
176
     0
 90
        2
176
     1
  1
strokes_ogs.tif
176
     1
290
     0
176
     1
 40
1.0
176
     1
 40
1.0
176
     1
  0
VISUALSTYLE
  5
32
102
{ACAD_REACTORS
330
2A
102
}
330
2A
100
AcDbVisualStyle
  2
Basic
 70
     7
177
     3
291
     1
 70
    58
 90
        1
176
     1
 90
        0
176
     1
 90
        1
176
     1
 90
        0
176
     1
 40
0.6
176
     1
 40
30.0
176
     1
 62
     7
420
 16777215
176
     1
 90
        0
176
     1
 90
        4
176
     1
 62
     7
176
     1
 62
   257
176
     1
 90
        1
176
     1
 90
        1
176
     1
 40
1.0
176
     1
 90
        8
176
     1
 62
     7
176
     1
 40
1.0
176
     1
 90
        1
176
     1
 90
        6
176
     1
 90
        2
176
     1
 62
     7
176
     1
 90
        5
176
     1
 90
        0
176
     1
 90
        0
176
     1
290
     0
176
     1
 90
        1
176
     1
 40
0.0
176
     1
 90
        0
176
     1
290
     0
176
     1
290
     1
176
     1
290
     1
176
     1
290
     0
176
     1
290
     0
176
     1
290
     0
176
     1
290
     0
176
     1
290
     0
176
     1
290
     0
176
     1
 90
       50
176
     1
 40
0.0
176
     1
 40
1.0
176
     1
 90
        0
176
     1
 62
    18
420
        0
176
     1
 90
       50
176
     1
 90
        3
176
     1
 62
     5
420
      255
176
     1
290
     0
176
     1
 90
       50
176
     1
 90
       50
176
     1
 90
       50
176
     1
290
     0
176
     1
 90
       50
176
     1
 62
   256
176
     0
 40
1.0
176
     0
 90
        2
176
     1
  1
strokes_ogs.tif
176
     1
290
     0
176
     1
 40
1.0
176
     1
 40
1.0
176
     1
  0
VISUALSTYLE
  5
36
102
{ACAD_REACTORS
330
2A
102
}
330
2A
100
AcDbVisualStyle
  2
Brighten
 70
    12
177
     3
291
     1
 70
    58
 90
        2
176
     1
 90
        2
176
     1
 90
        0
176
     1
 90
        0
176
     1
 40
0.6
176
     1
 40
30.0
176
     1
 62
     7
420
 16777215
176
     1
 90
        1
176
     1
 90
        4
176
     1
 62
     7
176
     1
 62
   257
176
     1
 90
        1
176
     1
 90
        1
176
     1
 40
1.0
176
     1
 90
        8
176
     1
 62
     7
176
     1
 40
1.0
176
     1
 90
        1
176
     1
 90
        6
176
     1
 90
        2
176
     1
 62
     7
176
     1
 90
        5
176
     1
 90
        0
176
     1
 90
        0
176
     1
290
     0
176
     1
 90
        1
176
     1
 40
50.0
176
     1
 90
        0
176
     1
290
     0
176
     1
290
     1
176
     1
290
     1
176
     1
290
     0
176
     1
290
     0
176
     1
290
     0
176
     1
290
     0
176
     1
290
     0
176
     1
290
     0
176
     1
 90
       50
176
     1
 40
0.0
176
     1
 40
1.0
176
     1
 90
        0
176
     1
 62
    18
420
        0
176
     1
 90
       50
176
     1
 90
        3
176
     1
 62
     5
420
      255
176
     1
290
     0
176
     1
 90
       50
176
     1
 90
       50
176
     1
 90
       50
176
     1
290
     0
176
     1
 90
       50
176
     1
 62
   256
176
     0
 40
1.0
176
     0
 90
        2
176
     1
  1
strokes_ogs.tif
176
     1
290
     0
176
     1
 40
1.0
176
     1
 40
1.0
176
     1
  0
VISUALSTYLE
  5
3A
102
{ACAD_REACTORS
330
2A
102
}
330
2A
100
AcDbVisualStyle
  2
ColorChange
 70
    16
177
     3
291
     1
 70
    58
 90
        2
176
     1
 90
        2
176
     1
 90
        3
176
     1
 90
        0
176
     1
 40
0.6
176
     1
 40
30.0
176
     1
 62
     8
420
  8421504
176
     1
 90
        1
176
     1
 90
        4
176
     1
 62
     7
176
     1
 62
   257
176
     1
 90
        1
176
     1
 90
        1
176
     1
 40
1.0
176
     1
 90
        8
176
     1
 62
     8
420
  8421504
176
     1
 40
1.0
176
     1
 90
        1
176
     1
 90
        6
176
     1
 90
        2
176
     1
 62
     7
176
     1
 90
        5
176
     1
 90
        0
176
     1
 90
        0
176
     1
290
     0
176
     1
 90
        1
176
     1
 40
0.0
176
     1
 90
        0
176
     1
290
     0
176
     1
290
     1
176
     1
290
     1
176
     1
290
     0
176
     1
290
     0
176
     1
290
     0
176
     1
290
     0
176
     1
290
     0
176
     1
290
     0
176
     1
 90
       50
176
     1
 40
0.0
176
     1
 40
1.0
176
     1
 90
        0
176
     1
 62
    18
420
        0
176
     1
 90
       50
176
     1
 90
        3
176
     1
 62
     5
420
      255
176
     1
290
     0
176
     1
 90
       50
176
     1
 90
       50
176
     1
 90
       50
176
     1
290
     0
176
     1
 90
       50
176
     1
 62
   256
176
     0
 40
1.0
176
     0
 90
        2
176
     1
  1
strokes_ogs.tif
176
     1
290
     0
176
     1
 40
1.0
176
     1
 40
1.0
176
     1
  0
VISUALSTYLE
  5
34
102
{ACAD_REACTORS
330
2A
102
}
330
2A
100
AcDbVisualStyle
  2
Conceptual
 70
     9
177
     3
291
     0
 70
    58
 90
        3
176
     1
 90
        2
176
     1
 90
        0
176
     1
 90
        0
176
     1
 40
0.6
176
     1
 40
30.0
176
     1
 62
     7
420
 16777215
176
     1
 90
        2
176
     1
 90
        2
176
     1
 62
     7
176
     1
 62
   257
176
     1
 90
        1
176
     1
 90
        1
176
     1
 40
179.0
176
     1
 90
        8
176
     1
 62
     7
176
     1
 40
1.0
176
     1
 90
        1
176
     1
 90
        6
176
     1
 90
        2
176
     1
 62
     7
176
     1
 90
        3
176
     1
 90
        0
176
     1
 90
        0
176
     1
290
     0
176
     1
 90
        1
176
     1
 40
0.0
176
     1
 90
        0
176
     1
290
     0
176
     1
290
     1
176
     1
290
     1
176
     1
290
     0
176
     1
290
     0
176
     1
290
     0
176
     1
290
     0
176
     1
290
     0
176
     1
290
     0
176
     1
 90
       50
176
     1
 40
0.0
176
     1
 40
1.0
176
     1
 90
        0
176
     1
 62
    18
420
        0
176
     1
 90
       50
176
     1
 90
        3
176
     1
 62
     5
420
      255
176
     1
290
     0
176
     1
 90
       50
176
     1
 90
       50
176
     1
 90
       50
176
     1
290
     0
176
     1
 90
       50
176
     1
 62
   256
176
     0
 40
1.0
176
     0
 90
        2
176
     1
  1
strokes_ogs.tif
176
     1
290
     0
176
     1
 40
1.0
176
     1
 40
1.0
176
     1
  0
VISUALSTYLE
  5
35
102
{ACAD_REACTORS
330
2A
102
}
330
2A
100
AcDbVisualStyle
  2
Dim
 70
    11
177
     3
291
     1
 70
    58
 90
        2
176
     1
 90
        2
176
     1
 90
        0
176
     1
 90
        0
176
     1
 40
0.6
176
     1
 40
30.0
176
     1
 62
     7
420
 16777215
176
     1
 90
        1
176
     1
 90
        4
176
     1
 62
     7
176
     1
 62
   257
176
     1
 90
        1
176
     1
 90
        1
176
     1
 40
1.0
176
     1
 90
        8
176
     1
 62
     7
176
     1
 40
1.0
176
     1
 90
        1
176
     1
 90
        6
176
     1
 90
        2
176
     1
 62
     7
176
     1
 90
        5
176
     1
 90
        0
176
     1
 90
        0
176
     1
290
     0
176
     1
 90
        1
176
     1
 40
-50.0
176
     1
 90
        0
176
     1
290
     0
176
     1
290
     1
176
     1
290
     1
176
     1
290
     0
176
     1
290
     0
176
     1
290
     0
176
     1
290
     0
176
     1
290
     0
176
     1
290
     0
176
     1
 90
       50
176
     1
 40
0.0
176
     1
 40
1.0
176
     1
 90
        0
176
     1
 62
    18
420
        0
176
     1
 90
       50
176
     1
 90
        3
176
     1
 62
     5
420
      255
176
     1
290
     0
176
     1
 90
       50
176
     1
 90
       50
176
     1
 90
       50
176
     1
290
     0
176
     1
 90
       50
176
     1
 62
   256
176
     0
 40
1.0
176
     0
 90
        2
176
     1
  1
strokes_ogs.tif
176
     1
290
     0
176
     1
 40
1.0
176
     1
 40
1.0
176
     1
  0
VISUALSTYLE
  5
3D
102
{ACAD_REACTORS
330
2A
102
}
330
2A
100
AcDbVisualStyle
  2
EdgeColorOff
 70
    22
177
     3
291
     1
 70
    58
 90
        2
176
     0
 90
        2
176
     0
 90
        0
176
     0
 90
        0
176
     0
 40
0.6
176
     0
 40
30.0
176
     0
 62
     7
420
 16777215
176
     0
 90
        1
176
     0
 90
        4
176
     0
 62
     7
176
     0
 62
   257
176
     0
 90
        1
176
     0
 90
        1
176
     0
 40
1.0
176
     0
 90
        8
176
     2
 62
     7
176
     0
 40
1.0
176
     0
 90
        1
176
     0
 90
        6
176
     0
 90
        2
176
     0
 62
     7
176
     0
 90
        5
176
     0
 90
        0
176
     0
 90
        0
176
     0
290
     0
176
     0
 90
        1
176
     0
 40
0.0
176
     0
 90
        0
176
     0
290
     0
176
     0
290
     1
176
     0
290
     1
176
     0
290
     0
176
     0
290
     0
176
     0
290
     0
176
     0
290
     0
176
     0
290
     0
176
     0
290
     0
176
     0
 90
       50
176
     0
 40
0.0
176
     0
 40
1.0
176
     0
 90
        0
176
     0
 62
    18
420
        0
176
     0
 90
       50
176
     0
 90
        3
176
     0
 62
     5
420
      255
176
     0
290
     0
176
     0
 90
       50
176
     0
 90
       50
176
     0
 90
       50
176
     0
290
     0
176
     0
 90
       50
176
     0
 62
   256
176
     0
 40
1.0
176
     0
 90
        2
176
     0
  1
strokes_ogs.tif
176
     0
290
     0
176
     0
 40
1.0
176
     0
 40
1.0
176
     0
  0
VISUALSTYLE
  5
39
102
{ACAD_REACTORS
330
2A
102
}
330
2A
100
AcDbVisualStyle
  2
Facepattern
 70
    15
177
     3
291
     1
 70
    58
 90
        2
176
     1
 90
        2
176
     1
 90
        0
176
     1
 90
        0
176
     1
 40
0.6
176
     1
 40
30.0
176
     1
 62
     7
420
 16777215
176
     1
 90
        1
176
     1
 90
        4
176
     1
 62
     7
176
     1
 62
   257
176
     1
 90
        1
176
     1
 90
        1
176
     1
 40
1.0
176
     1
 90
        8
176
     1
 62
     7
176
     1
 40
1.0
176
     1
 90
        1
176
     1
 90
        6
176
     1
 90
        2
176
     1
 62
     7
176
     1
 90
        5
176
     1
 90
        0
176
     1
 90
        0
176
     1
290
     0
176
     1
 90
        1
176
     1
 40
0.0
176
     1
 90
        0
176
     1
290
     0
176
     1
290
     1
176
     1
290
     1
176
     1
290
     0
176
     1
290
     0
176
     1
290
     0
176
     1
290
     0
176
     1
290
     0
176
     1
290
     0
176
     1
 90
       50
176
     1
 40
0.0
176
     1
 40
1.0
176
     1
 90
        0
176
     1
 62
    18
420
        0
176
     1
 90
       50
176
     1
 90
        3
176
     1
 62
     5
420
      255
176
     1
290
     0
176
     1
 90
       50
176
     1
 90
       50
176
     1
 90
       50
176
     1
290
     0
176
     1
 90
       50
176
     1
 62
   256
176
     0
 40
1.0
176
     0
 90
        2
176
     1
  1
strokes_ogs.tif
176
     1
290
     0
176
     1
 40
1.0
176
     1
 40
1.0
176
     1
  0
VISUALSTYLE
  5
2B
102
{ACAD_REACTORS
330
2A
102
}
330
2A
100
AcDbVisualStyle
  2
Flat
 70
     0
177
     3
291
     1
 70
    58
 90
        2
176
     1
 90
        1
176
     1
 90
        1
176
     1
 90
        2
176
     1
 40
0.6
176
     1
 40
30.0
176
     1
 62
     7
420
 16777215
176
     1
 90
        0
176
     1
 90
        0
176
     1
 62
     7
176
     1
 62
   257
176
     1
 90
        1
176
     1
 90
        1
176
     1
 40
1.0
176
     1
 90
        8
176
     1
 62
     7
176
     1
 40
1.0
176
     1
 90
        1
176
     1
 90
        6
176
     1
 90
        2
176
     1
 62
     7
176
     1
 90
        5
176
     1
 90
        0
176
     1
 90
        0
176
     1
290
     0
176
     1
 90
       13
176
     1
 40
0.0
176
     1
 90
        0
176
     1
290
     0
176
     1
290
     1
176
     1
290
     1
176
     1
290
     0
176
     1
290
     0
176
     1
290
     0
176
     1
290
     0
176
     1
290
     0
176
     1
290
     0
176
     1
 90
       50
176
     1
 40
0.0
176
     1
 40
1.0
176
     1
 90
        0
176
     1
 62
    18
420
        0
176
     1
 90
       50
176
     1
 90
        3
176
     1
 62
     5
420
      255
176
     1
290
     0
176
     1
 90
       50
176
     1
 90
       50
176
     1
 90
       50
176
     1
290
     0
176
     1
 90
       50
176
     1
 62
   256
176
     0
 40
1.0
176
     0
 90
        2
176
     1
  1
strokes_ogs.tif
176
     1
290
     0
176
     1
 40
1.0
176
     1
 40
1.0
176
     1
  0
VISUALSTYLE
  5
2C
102
{ACAD_REACTORS
330
2A
102
}
330
2A
100
AcDbVisualStyle
  2
FlatWithEdges
 70
     1
177
     3
291
     1
 70
    58
 90
        2
176
     1
 90
        1
176
     1
 90
        1
176
     1
 90
        2
176
     1
 40
0.6
176
     1
 40
30.0
176
     1
 62
     7
420
 16777215
176
     1
 90
        1
176
     1
 90
        0
176
     1
 62
     7
176
     1
 62
   257
176
     1
 90
        1
176
     1
 90
        1
176
     1
 40
1.0
176
     1
 90
        0
176
     1
 62
   257
176
     1
 40
1.0
176
     1
 90
        1
176
     1
 90
        6
176
     1
 90
        2
176
     1
 62
     7
176
     1
 90
        5
176
     1
 90
        0
176
     1
 90
        0
176
     1
290
     0
176
     1
 90
       13
176
     1
 40
0.0
176
     1
 90
        0
176
     1
290
     0
176
     1
290
     1
176
     1
290
     1
176
     1
290
     0
176
     1
290
     0
176
     1
290
     0
176
     1
290
     0
176
     1
290
     0
176
     1
290
     0
176
     1
 90
       50
176
     1
 40
0.0
176
     1
 40
1.0
176
     1
 90
        0
176
     1
 62
    18
420
        0
176
     1
 90
       50
176
     1
 90
        3
176
     1
 62
     5
420
      255
176
     1
290
     0
176
     1
 90
       50
176
     1
 90
       50
176
     1
 90
       50
176
     1
290
     0
176
     1
 90
       50
176
     1
 62
   256
176
     0
 40
1.0
176
     0
 90
        2
176
     1
  1
strokes_ogs.tif
176
     1
290
     0
176
     1
 40
1.0
176
     1
 40
1.0
176
     1
  0
VISUALSTYLE
  5
2D
102
{ACAD_REACTORS
330
2A
102
}
330
2A
100
AcDbVisualStyle
  2
Gouraud
 70
     2
177
     3
291
     1
 70
    58
 90
        2
176
     1
 90
        2
176
     1
 90
        1
176
     1
 90
        2
176
     1
 40
0.6
176
     1
 40
30.0
176
     1
 62
     7
420
 16777215
176
     1
 90
        0
176
     1
 90
        0
176
     1
 62
     7
176
     1
 62
   257
176
     1
 90
        1
176
     1
 90
        1
176
     1
 40
1.0
176
     1
 90
        0
176
     1
 62
     7
176
     1
 40
1.0
176
     1
 90
        1
176
     1
 90
        6
176
     1
 90
        2
176
     1
 62
     7
176
     1
 90
        5
176
     1
 90
        0
176
     1
 90
        0
176
     1
290
     0
176
     1
 90
       13
176
     1
 40
0.0
176
     1
 90
        0
176
     1
290
     0
176
     1
290
     1
176
     1
290
     1
176
     1
290
     0
176
     1
290
     0
176
     1
290
     0
176
     1
290
     0
176
     1
290
     0
176
     1
290
     0
176
     1
 90
       50
176
     1
 40
0.0
176
     1
 40
1.0
176
     1
 90
        0
176
     1
 62
    18
420
        0
176
     1
 90
       50
176
     1
 90
        3
176
     1
 62
     5
420
      255
176
     1
290
     0
176
     1
 90
       50
176
     1
 90
       50
176
     1
 90
       50
176
     1
290
     0
176
     1
 90
       50
176
     1
 62
   256
176
     0
 40
1.0
176
     0
 90
        2
176
     1
  1
strokes_ogs.tif
176
     1
290
     0
176
     1
 40
1.0
176
     1
 40
1.0
176
     1
  0
VISUALSTYLE
  5
2E
102
{ACAD_REACTORS
330
2A
102
}
330
2A
100
AcDbVisualStyle
  2
GouraudWithEdges
 70
     3
177
     3
291
     1
 70
    58
 90
        2
176
     1
 90
        2
176
     1
 90
        1
176
     1
 90
        2
176
     1
 40
0.6
176
     1
 40
30.0
176
     1
 62
     7
420
 16777215
176
     1
 90
        1
176
     1
 90
        0
176
     1
 62
     7
176
     1
 62
   257
176
     1
 90
        1
176
     1
 90
        1
176
     1
 40
1.0
176
     1
 90
        0
176
     1
 62
   257
176
     1
 40
1.0
176
     1
 90
        1
176
     1
 90
        6
176
     1
 90
        2
176
     1
 62
     7
176
     1
 90
        5
176
     1
 90
        0
176
     1
 90
        0
176
     1
290
     0
176
     1
 90
       13
176
     1
 40
0.0
176
     1
 90
        0
176
     1
290
     0
176
     1
290
     1
176
     1
290
     1
176
     1
290
     0
176
     1
290
     0
176
     1
290
     0
176
     1
290
     0
176
     1
290
     0
176
     1
290
     0
176
     1
 90
       50
176
     1
 40
0.0
176
     1
 40
1.0
176
     1
 90
        0
176
     1
 62
    18
420
        0
176
     1
 90
       50
176
     1
 90
        3
176
     1
 62
     5
420
      255
176
     1
290
     0
176
     1
 90
       50
176
     1
 90
       50
176
     1
 90
       50
176
     1
290
     0
176
     1
 90
       50
176
     1
 62
   256
176
     0
 40
1.0
176
     0
 90
        2
176
     1
  1
strokes_ogs.tif
176
     1
290
     0
176
     1
 40
1.0
176
     1
 40
1.0
176
     1
  0
VISUALSTYLE
  5
31
102
{ACAD_REACTORS
330
2A
102
}
330
2A
100
AcDbVisualStyle
  2
Hidden
 70
     6
177
     3
291
     0
 70
    58
 90
        1
176
     1
 90
        2
176
     1
 90
        2
176
     1
 90
        0
176
     1
 40
0.6
176
     1
 40
30.0
176
     1
 62
     7
420
 16777215
176
     1
 90
        2
176
     1
 90
        2
176
     1
 62
     7
176
     1
 62
   257
176
     1
 90
        2
176
     1
 90
        1
176
     1
 40
40.0
176
     1
 90
        0
176
     1
 62
   257
176
     1
 40
1.0
176
     1
 90
        1
176
     1
 90
        6
176
     1
 90
        2
176
     1
 62
     7
176
     1
 90
        3
176
     1
 90
        0
176
     1
 90
        0
176
     1
290
     0
176
     1
 90
        1
176
     1
 40
0.0
176
     1
 90
        0
176
     1
290
     0
176
     1
290
     1
176
     1
290
     1
176
     1
290
     0
176
     1
290
     0
176
     1
290
     0
176
     1
290
     0
176
     1
290
     0
176
     1
290
     0
176
     1
 90
       50
176
     1
 40
0.0
176
     1
 40
1.0
176
     1
 90
        0
176
     1
 62
    18
420
        0
176
     1
 90
       50
176
     1
 90
        3
176
     1
 62
     5
420
      255
176
     1
290
     0
176
     1
 90
       50
176
     1
 90
       50
176
     1
 90
       50
176
     1
290
     0
176
     1
 90
       50
176
     1
 62
   256
176
     0
 40
1.0
176
     0
 90
        2
176
     1
  1
strokes_ogs.tif
176
     1
290
     0
176
     1
 40
1.0
176
     1
 40
1.0
176
     1
  0
VISUALSTYLE
  5
3B
102
{ACAD_REACTORS
330
2A
102
}
330
2A
100
AcDbVisualStyle
  2
JitterOff
 70
    20
177
     3
291
     1
 70
    58
 90
        2
176
     0
 90
        2
176
     0
 90
        0
176
     0
 90
        0
176
     0
 40
0.6
176
     0
 40
30.0
176
     0
 62
     7
420
 16777215
176
     0
 90
        1
176
     0
 90
        4
176
     0
 62
     7
176
     0
 62
   257
176
     0
 90
        1
176
     0
 90
        1
176
     0
 40
1.0
176
     0
 90
       10
176
     2
 62
     7
176
     0
 40
1.0
176
     0
 90
        1
176
     0
 90
        6
176
     0
 90
        2
176
     0
 62
     7
176
     0
 90
        5
176
     0
 90
        0
176
     0
 90
        0
176
     0
290
     0
176
     0
 90
        1
176
     0
 40
0.0
176
     0
 90
        0
176
     0
290
     0
176
     0
290
     1
176
     0
290
     1
176
     0
290
     0
176
     0
290
     0
176
     0
290
     0
176
     0
290
     0
176
     0
290
     0
176
     0
290
     0
176
     0
 90
       50
176
     0
 40
0.0
176
     0
 40
1.0
176
     0
 90
        0
176
     0
 62
    18
420
        0
176
     0
 90
       50
176
     0
 90
        3
176
     0
 62
     5
420
      255
176
     0
290
     0
176
     0
 90
       50
176
     0
 90
       50
176
     0
 90
       50
176
     0
290
     0
176
     0
 90
       50
176
     0
 62
   256
176
     0
 40
1.0
176
     0
 90
        2
176
     0
  1
strokes_ogs.tif
176
     0
290
     0
176
     0
 40
1.0
176
     0
 40
1.0
176
     0
  0
VISUALSTYLE
  5
38
102
{ACAD_REACTORS
330
2A
102
}
330
2A
100
AcDbVisualStyle
  2
Linepattern
 70
    14
177
     3
291
     1
 70
    58
 90
        2
176
     1
 90
        2
176
     1
 90
        0
176
     1
 90
        0
176
     1
 40
0.6
176
     1
 40
30.0
176
     1
 62
     7
420
 16777215
176
     1
 90
        1
176
     1
 90
        4
176
     1
 62
     7
176
     1
 62
   257
176
     1
 90
        7
176
     1
 90
        7
176
     1
 40
1.0
176
     1
 90
        8
176
     1
 62
     7
176
     1
 40
1.0
176
     1
 90
        1
176
     1
 90
        6
176
     1
 90
        2
176
     1
 62
     7
176
     1
 90
        5
176
     1
 90
        0
176
     1
 90
        0
176
     1
290
     0
176
     1
 90
        1
176
     1
 40
0.0
176
     1
 90
        0
176
     1
290
     0
176
     1
290
     1
176
     1
290
     1
176
     1
290
     0
176
     1
290
     0
176
     1
290
     0
176
     1
290
     0
176
     1
290
     0
176
     1
290
     0
176
     1
 90
       50
176
     1
 40
0.0
176
     1
 40
1.0
176
     1
 90
        0
176
     1
 62
    18
420
        0
176
     1
 90
       50
176
     1
 90
        3
176
     1
 62
     5
420
      255
176
     1
290
     0
176
     1
 90
       50
176
     1
 90
       50
176
     1
 90
       50
176
     1
290
     0
176
     1
 90
       50
176
     1
 62
   256
176
     0
 40
1.0
176
     0
 90
        2
176
     1
  1
strokes_ogs.tif
176
     1
290
     0
176
     1
 40
1.0
176
     1
 40
1.0
176
     1
  0
VISUALSTYLE
  5
3C
102
{ACAD_REACTORS
330
2A
102
}
330
2A
100
AcDbVisualStyle
  2
OverhangOff
 70
    21
177
     3
291
     1
 70
    58
 90
        2
176
     0
 90
        2
176
     0
 90
        0
176
     0
 90
        0
176
     0
 40
0.6
176
     0
 40
30.0
176
     0
 62
     7
420
 16777215
176
     0
 90
        1
176
     0
 90
        4
176
     0
 62
     7
176
     0
 62
   257
176
     0
 90
        1
176
     0
 90
        1
176
     0
 40
1.0
176
     0
 90
        9
176
     2
 62
     7
176
     0
 40
1.0
176
     0
 90
        1
176
     0
 90
        6
176
     0
 90
        2
176
     0
 62
     7
176
     0
 90
        5
176
     0
 90
        0
176
     0
 90
        0
176
     0
290
     0
176
     0
 90
        1
176
     0
 40
0.0
176
     0
 90
        0
176
     0
290
     0
176
     0
290
     1
176
     0
290
     1
176
     0
290
     0
176
     0
290
     0
176
     0
290
     0
176
     0
290
     0
176
     0
290
     0
176
     0
290
     0
176
     0
 90
       50
176
     0
 40
0.0
176
     0
 40
1.0
176
     0
 90
        0
176
     0
 62
    18
420
        0
176
     0
 90
       50
176
     0
 90
        3
176
     0
 62
     5
420
      255
176
     0
290
     0
176
     0
 90
       50
176
     0
 90
       50
176
     0
 90
       50
176
     0
290
     0
176
     0
 90
       50
176
     0
 62
   256
176
     0
 40
1.0
176
     0
 90
        2
176
     0
  1
strokes_ogs.tif
176
     0
290
     0
176
     0
 40
1.0
176
     0
 40
1.0
176
     0
  0
VISUALSTYLE
  5
33
102
{ACAD_REACTORS
330
2A
102
}
330
2A
100
AcDbVisualStyle
  2
Realistic
 70
     8
177
     3
291
     0
 70
    58
 90
        2
176
     1
 90
        3
176
     1
 90
        0
176
     1
 90
        2
176
     1
 40
0.6
176
     1
 40
30.0
176
     1
 62
     7
420
 16777215
176
     1
 90
        0
176
     1
 90
        0
176
     1
 62
     7
176
     1
 62
   257
176
     1
 90
        1
176
     1
 90
        1
176
     1
 40
1.0
176
     1
 90
        8
176
     1
 62
   257
176
     1
 40
1.0
176
     1
 90
        1
176
     1
 90
        6
176
     1
 90
        2
176
     1
 62
     7
176
     1
 90
        3
176
     1
 90
        0
176
     1
 90
        0
176
     1
290
     0
176
     1
 90
       13
176
     1
 40
0.0
176
     1
 90
        0
176
     1
290
     0
176
     1
290
     1
176
     1
290
     1
176
     1
290
     0
176
     1
290
     0
176
     1
290
     0
176
     1
290
     0
176
     1
290
     0
176
     1
290
     0
176
     1
 90
       50
176
     1
 40
0.0
176
     1
 40
1.0
176
     1
 90
        0
176
     1
 62
    18
420
        0
176
     1
 90
       50
176
     1
 90
        3
176
     1
 62
     5
420
      255
176
     1
290
     0
176
     1
 90
       50
176
     1
 90
       50
176
     1
 90
       50
176
     1
290
     0
176
     1
 90
       50
176
     1
 62
   256
176
     0
 40
1.0
176
     0
 90
        2
176
     1
  1
strokes_ogs.tif
176
     1
290
     0
176
     1
 40
1.0
176
     1
 40
1.0
176
     1
  0
VISUALSTYLE
  5
42
102
{ACAD_REACTORS
330
2A
102
}
330
2A
100
AcDbVisualStyle
  2
Shaded
 70
    27
177
     3
291
     0
 70
    58
 90
        2
176
     1
 90
        2
176
     1
 90
        1
176
     1
 90
        2
176
     1
 40
0.6
176
     1
 40
30.0
176
     1
 62
     7
420
 16777215
176
     1
 90
        0
176
     1
 90
        4
176
     1
 62
     7
176
     1
 62
   257
176
     1
 90
        1
176
     1
 90
        1
176
     1
 40
1.0
176
     1
 90
        8
176
     1
 62
   257
176
     1
 40
1.0
176
     1
 90
        1
176
     1
 90
        6
176
     1
 90
        2
176
     1
 62
     8
420
  7895160
176
     1
 90
        3
176
     1
 90
        0
176
     1
 90
        0
176
     1
290
     0
176
     1
 90
        5
176
     1
 40
0.0
176
     1
 90
        0
176
     1
290
     0
176
     1
290
     1
176
     1
290
     1
176
     1
290
     0
176
     1
290
     0
176
     1
290
     0
176
     1
290
     0
176
     1
290
     0
176
     1
290
     0
176
     1
 90
       50
176
     1
 40
0.0
176
     1
 40
1.0
176
     1
 90
        0
176
     1
 62
    18
420
        0
176
     1
 90
       50
176
     1
 90
        3
176
     1
 62
     5
420
      255
176
     1
290
     0
176
     1
 90
       50
176
     1
 90
       50
176
     1
 90
       50
176
     1
290
     0
176
     1
 90
       50
176
     1
 62
   256
176
     0
 40
1.0
176
     0
 90
        2
176
     1
  1
strokes_ogs.tif
176
     1
290
     0
176
     1
 40
1.0
176
     1
 40
1.0
176
     1
  0
VISUALSTYLE
  5
41
102
{ACAD_REACTORS
330
2A
102
}
330
2A
100
AcDbVisualStyle
  2
Shaded with edges
 70
    26
177
     3
291
     0
 70
    58
 90
        2
176
     1
 90
        2
176
     1
 90
        1
176
     1
 90
        2
176
     1
 40
0.6
176
     1
 40
30.0
176
     1
 62
     7
420
 16777215
176
     1
 90
        1
176
     1
 90
       10
176
     1
 62
     7
176
     1
 62
   257
176
     1
 90
        2
176
     1
 90
        1
176
     1
 40
1.0
176
     1
 90
        8
176
     1
 62
   257
176
     1
 40
1.0
176
     1
 90
        1
176
     1
 90
        6
176
     1
 90
        2
176
     1
 62
     7
176
     1
 90
        3
176
     1
 90
        0
176
     1
 90
        0
176
     1
290
     0
176
     1
 90
        5
176
     1
 40
0.0
176
     1
 90
        0
176
     1
290
     0
176
     1
290
     1
176
     1
290
     1
176
     1
290
     0
176
     1
290
     0
176
     1
290
     0
176
     1
290
     0
176
     1
290
     0
176
     1
290
     0
176
     1
 90
       50
176
     1
 40
0.0
176
     1
 40
1.0
176
     1
 90
        0
176
     1
 62
    18
420
        0
176
     1
 90
       50
176
     1
 90
        3
176
     1
 62
     5
420
      255
176
     1
290
     0
176
     1
 90
       50
176
     1
 90
       50
176
     1
 90
       50
176
     1
290
     0
176
     1
 90
       50
176
     1
 62
   256
176
     0
 40
1.0
176
     0
 90
        2
176
     1
  1
strokes_ogs.tif
176
     1
290
     0
176
     1
 40
1.0
176
     1
 40
1.0
176
     1
  0
VISUALSTYLE
  5
3E
102
{ACAD_REACTORS
330
2A
102
}
330
2A
100
AcDbVisualStyle
  2
Shades of Gray
 70
    23
177
     3
291
     0
 70
    58
 90
        2
176
     1
 90
        2
176
     1
 90
        3
176
     1
 90
        0
176
     1
 40
0.6
176
     1
 40
30.0
176
     1
 62
     7
420
 16777215
176
     1
 90
        2
176
     1
 90
        2
176
     1
 62
     7
176
     1
 62
     7
176
     1
 90
        1
176
     1
 90
        1
176
     1
 40
40.0
176
     1
 90
        8
176
     1
 62
     7
176
     1
 40
1.0
176
     1
 90
        1
176
     1
 90
        6
176
     1
 90
        2
176
     1
 62
     7
176
     1
 90
        3
176
     1
 90
        0
176
     1
 90
        0
176
     1
290
     0
176
     1
 90
        1
176
     1
 40
0.0
176
     1
 90
        0
176
     1
290
     0
176
     1
290
     1
176
     1
290
     1
176
     1
290
     0
176
     1
290
     0
176
     1
290
     0
176
     1
290
     0
176
     1
290
     0
176
     1
290
     0
176
     1
 90
       50
176
     1
 40
0.0
176
     1
 40
1.0
176
     1
 90
        0
176
     1
 62
    18
420
        0
176
     1
 90
       50
176
     1
 90
        3
176
     1
 62
     5
420
      255
176
     1
290
     0
176
     1
 90
       50
176
     1
 90
       50
176
     1
 90
       50
176
     1
290
     0
176
     1
 90
       50
176
     1
 62
   256
176
     0
 40
1.0
176
     0
 90
        2
176
     1
  1
strokes_ogs.tif
176
     1
290
     0
176
     1
 40
1.0
176
     1
 40
1.0
176
     1
  0
VISUALSTYLE
  5
3F
102
{ACAD_REACTORS
330
2A
102
}
330
2A
100
AcDbVisualStyle
  2
Sketchy
 70
    24
177
     3
291
     0
 70
    58
 90
        1
176
     1
 90
        2
176
     1
 90
        2
176
     1
 90
        0
176
     1
 40
0.6
176
     1
 40
30.0
176
     1
 62
     7
420
 16777215
176
     1
 90
        2
176
     1
 90
        2
176
     1
 62
     7
176
     1
 62
     7
176
     1
 90
        1
176
     1
 90
        1
176
     1
 40
40.0
176
     1
 90
       11
176
     1
 62
     7
176
     1
 40
1.0
176
     1
 90
        1
176
     1
 90
        6
176
     1
 90
        2
176
     1
 62
     7
176
     1
 90
        6
176
     1
 90
        0
176
     1
 90
        0
176
     1
290
     0
176
     1
 90
        1
176
     1
 40
0.0
176
     1
 90
        0
176
     1
290
     0
176
     1
290
     1
176
     1
290
     1
176
     1
290
     0
176
     1
290
     0
176
     1
290
     0
176
     1
290
     0
176
     1
290
     0
176
     1
290
     0
176
     1
 90
       50
176
     1
 40
0.0
176
     1
 40
1.0
176
     1
 90
        0
176
     1
 62
    18
420
        0
176
     1
 90
       50
176
     1
 90
        3
176
     1
 62
     5
420
      255
176
     1
290
     0
176
     1
 90
       50
176
     1
 90
       50
176
     1
 90
       50
176
     1
290
     0
176
     1
 90
       50
176
     1
 62
   256
176
     0
 40
1.0
176
     0
 90
        2
176
     1
  1
strokes_ogs.tif
176
     1
290
     0
176
     1
 40
1.0
176
     1
 40
1.0
176
     1
  0
VISUALSTYLE
  5
37
102
{ACAD_REACTORS
330
2A
102
}
330
2A
100
AcDbVisualStyle
  2
Thicken
 70
    13
177
     3
291
     1
 70
    58
 90
        2
176
     1
 90
        2
176
     1
 90
        0
176
     1
 90
        0
176
     1
 40
0.6
176
     1
 40
30.0
176
     1
 62
     7
420
 16777215
176
     1
 90
        1
176
     1
 90
        4
176
     1
 62
     7
176
     1
 62
   257
176
     1
 90
        1
176
     1
 90
        1
176
     1
 40
1.0
176
     1
 90
       12
176
     1
 62
     7
176
     1
 40
1.0
176
     1
 90
        1
176
     1
 90
        6
176
     1
 90
        2
176
     1
 62
     7
176
     1
 90
        5
176
     1
 90
        0
176
     1
 90
        0
176
     1
290
     0
176
     1
 90
        1
176
     1
 40
0.0
176
     1
 90
        0
176
     1
290
     0
176
     1
290
     1
176
     1
290
     1
176
     1
290
     0
176
     1
290
     0
176
     1
290
     0
176
     1
290
     0
176
     1
290
     0
176
     1
290
     0
176
     1
 90
       50
176
     1
 40
0.0
176
     1
 40
1.0
176
     1
 90
        0
176
     1
 62
    18
420
        0
176
     1
 90
       50
176
     1
 90
        3
176
     1
 62
     5
420
      255
176
     1
290
     0
176
     1
 90
       50
176
     1
 90
       50
176
     1
 90
       50
176
     1
290
     0
176
     1
 90
       50
176
     1
 62
   256
176
     0
 40
1.0
176
     0
 90
        2
176
     1
  1
strokes_ogs.tif
176
     1
290
     0
176
     1
 40
1.0
176
     1
 40
1.0
176
     1
  0
VISUALSTYLE
  5
30
102
{ACAD_REACTORS
330
2A
102
}
330
2A
100
AcDbVisualStyle
  2
Wireframe
 70
     5
177
     3
291
     0
 70
    58
 90
        0
176
     1
 90
        2
176
     1
 90
        0
176
     1
 90
        0
176
     1
 40
0.6
176
     1
 40
30.0
176
     1
 62
     7
420
 16777215
176
     1
 90
        1
176
     1
 90
        4
176
     1
 62
     7
176
     1
 62
   257
176
     1
 90
        1
176
     1
 90
        1
176
     1
 40
1.0
176
     1
 90
        0
176
     1
 62
   257
176
     1
 40
1.0
176
     1
 90
        1
176
     1
 90
        6
176
     1
 90
        2
176
     1
 62
     7
176
     1
 90
        3
176
     1
 90
        0
176
     1
 90
        0
176
     1
290
     0
176
     1
 90
        1
176
     1
 40
0.0
176
     1
 90
        0
176
     1
290
     0
176
     1
290
     1
176
     1
290
     1
176
     1
290
     0
176
     1
290
     0
176
     1
290
     0
176
     1
290
     0
176
     1
290
     0
176
     1
290
     0
176
     1
 90
       50
176
     1
 40
0.0
176
     1
 40
1.0
176
     1
 90
        0
176
     1
 62
    18
420
        0
176
     1
 90
       50
176
     1
 90
        3
176
     1
 62
     5
420
      255
176
     1
290
     0
176
     1
 90
       50
176
     1
 90
       50
176
     1
 90
       50
176
     1
290
     0
176
     1
 90
       50
176
     1
 62
   256
176
     0
 40
1.0
176
     0
 90
        2
176
     1
  1
strokes_ogs.tif
176
     1
290
     0
176
     1
 40
1.0
176
     1
 40
1.0
176
     1
  0
VISUALSTYLE
  5
40
102
{ACAD_REACTORS
330
2A
102
}
330
2A
100
AcDbVisualStyle
  2
X-Ray
 70
    25
177
     3
291
     0
 70
    58
 90
        2
176
     1
 90
        2
176
     1
 90
        1
176
     1
 90
        1
176
     1
 40
0.5
176
     1
 40
30.0
176
     1
 62
     7
420
 16777215
176
     1
 90
        1
176
     1
 90
        0
176
     1
 62
     7
176
     1
 62
   257
176
     1
 90
        1
176
     1
 90
        1
176
     1
 40
1.0
176
     1
 90
        8
176
     1
 62
     7
176
     1
 40
1.0
176
     1
 90
        1
176
     1
 90
        6
176
     1
 90
        2
176
     1
 62
     7
176
     1
 90
        3
176
     1
 90
        0
176
     1
 90
        0
176
     1
290
     0
176
     1
 90
       13
176
     1
 40
0.0
176
     1
 90
        0
176
     1
290
     0
176
     1
290
     1
176
     1
290
     1
176
     1
290
     0
176
     1
290
     0
176
     1
290
     0
176
     1
290
     0
176
     1
290
     0
176
     1
290
     0
176
     1
 90
       50
176
     1
 40
0.0
176
     1
 40
1.0
176
     1
 90
        0
176
     1
 62
    18
420
        0
176
     1
 90
       50
176
     1
 90
        3
176
     1
 62
     5
420
      255
176
     1
290
     0
176
     1
 90
       50
176
     1
 90
       50
176
     1
 90
       50
176
     1
290
     0
176
     1
 90
       50
176
     1
 62
   256
176
     0
 40
1.0
176
     0
 90
        2
176
     1
  1
strokes_ogs.tif
176
     1
290
     0
176
     1
 40
1.0
176
     1
 40
1.0
176
     1
  0
DICTIONARYVAR
  5
254
102
{ACAD_REACTORS
330
253
102
}
330
253
100
DictionaryVariables
280
     0
  1
1:1
  0
DICTIONARYVAR
  5
259
102
{ACAD_REACTORS
330
253
102
}
330
253
100
DictionaryVariables
280
     0
  1
Standard
  0
DICTIONARYVAR
  5
258
102
{ACAD_REACTORS
330
253
102
}
330
253
100
DictionaryVariables
280
     0
  1
Standard
  0
DICTIONARY
  5
255
330
6A
100
AcDbDictionary
280
     1
281
     1
  3
ACAD_ROUNDTRIP_2008_TABLESTYLE_CELLSTYLEMAP
360
256
  0
CELLSTYLEMAP
  5
256
102
{ACAD_REACTORS
330
255
102
}
330
255
100
AcDbCellStyleMap
 90
        3
300
CELLSTYLE
  1
TABLEFORMAT_BEGIN
 90
        5
170
     1
 91
        0
 92
    32768
 62
   257
 93
        1
300
CONTENTFORMAT
  1
CONTENTFORMAT_BEGIN
 90
        0
 91
        0
 92
        4
 93
        0
300

 40
0.0
140
1.0
 94
        5
 62
     0
340
11
144
0.25
309
CONTENTFORMAT_END
171
     1
301
MARGIN
  1
CELLMARGIN_BEGIN
 40
0.06
 40
0.06
 40
0.06
 40
0.06
 40
0.06
 40
0.06
309
CELLMARGIN_END
 94
        6
 95
        1
302
GRIDFORMAT
  1
GRIDFORMAT_BEGIN
 90
        0
 91
        1
 62
     0
 92
       -2
340
14
 93
        0
 40
0.045
309
GRIDFORMAT_END
 95
        2
302
GRIDFORMAT
  1
GRIDFORMAT_BEGIN
 90
        0
 91
        1
 62
     0
 92
       -2
340
14
 93
        0
 40
0.045
309
GRIDFORMAT_END
 95
        4
302
GRIDFORMAT
  1
GRIDFORMAT_BEGIN
 90
        0
 91
        1
 62
     0
 92
       -2
340
14
 93
        0
 40
0.045
309
GRIDFORMAT_END
 95
        8
302
GRIDFORMAT
  1
GRIDFORMAT_BEGIN
 90
        0
 91
        1
 62
     0
 92
       -2
340
14
 93
        0
 40
0.045
309
GRIDFORMAT_END
 95
       16
302
GRIDFORMAT
  1
GRIDFORMAT_BEGIN
 90
        0
 91
        1
 62
     0
 92
       -2
340
14
 93
        0
 40
0.045
309
GRIDFORMAT_END
 95
       32
302
GRIDFORMAT
  1
GRIDFORMAT_BEGIN
 90
        0
 91
        1
 62
     0
 92
       -2
340
14
 93
        0
 40
0.045
309
GRIDFORMAT_END
309
TABLEFORMAT_END
  1
CELLSTYLE_BEGIN
 90
        1
 91
        1
300
_TITLE
309
CELLSTYLE_END
300
CELLSTYLE
  1
TABLEFORMAT_BEGIN
 90
        5
170
     1
 91
        0
 92
        0
 62
   257
 93
        1
300
CONTENTFORMAT
  1
CONTENTFORMAT_BEGIN
 90
        0
 91
        0
 92
        4
 93
        0
300

 40
0.0
140
1.0
 94
        5
 62
     0
340
11
144
0.18
309
CONTENTFORMAT_END
171
     1
301
MARGIN
  1
CELLMARGIN_BEGIN
 40
0.06
 40
0.06
 40
0.06
 40
0.06
 40
0.06
 40
0.06
309
CELLMARGIN_END
 94
        6
 95
        1
302
GRIDFORMAT
  1
GRIDFORMAT_BEGIN
 90
        0
 91
        1
 62
     0
 92
       -2
340
14
 93
        0
 40
0.045
309
GRIDFORMAT_END
 95
        2
302
GRIDFORMAT
  1
GRIDFORMAT_BEGIN
 90
        0
 91
        1
 62
     0
 92
       -2
340
14
 93
        0
 40
0.045
309
GRIDFORMAT_END
 95
        4
302
GRIDFORMAT
  1
GRIDFORMAT_BEGIN
 90
        0
 91
        1
 62
     0
 92
       -2
340
14
 93
        0
 40
0.045
309
GRIDFORMAT_END
 95
        8
302
GRIDFORMAT
  1
GRIDFORMAT_BEGIN
 90
        0
 91
        1
 62
     0
 92
       -2
340
14
 93
        0
 40
0.045
309
GRIDFORMAT_END
 95
       16
302
GRIDFORMAT
  1
GRIDFORMAT_BEGIN
 90
        0
 91
        1
 62
     0
 92
       -2
340
14
 93
        0
 40
0.045
309
GRIDFORMAT_END
 95
       32
302
GRIDFORMAT
  1
GRIDFORMAT_BEGIN
 90
        0
 91
        1
 62
     0
 92
       -2
340
14
 93
        0
 40
0.045
309
GRIDFORMAT_END
309
TABLEFORMAT_END
  1
CELLSTYLE_BEGIN
 90
        2
 91
        1
300
_HEADER
309
CELLSTYLE_END
300
CELLSTYLE
  1
TABLEFORMAT_BEGIN
 90
        5
170
     1
 91
        0
 92
        0
 62
   257
 93
        1
300
CONTENTFORMAT
  1
CONTENTFORMAT_BEGIN
 90
        0
 91
        0
 92
        4
 93
        0
300

 40
0.0
140
1.0
 94
        2
 62
     0
340
11
144
0.18
309
CONTENTFORMAT_END
171
     1
301
MARGIN
  1
CELLMARGIN_BEGIN
 40
0.06
 40
0.06
 40
0.06
 40
0.06
 40
0.06
 40
0.06
309
CELLMARGIN_END
 94
        6
 95
        1
302
GRIDFORMAT
  1
GRIDFORMAT_BEGIN
 90
        0
 91
        1
 62
     0
 92
       -2
340
14
 93
        0
 40
0.045
309
GRIDFORMAT_END
 95
        2
302
GRIDFORMAT
  1
GRIDFORMAT_BEGIN
 90
        0
 91
        1
 62
     0
 92
       -2
340
14
 93
        0
 40
0.045
309
GRIDFORMAT_END
 95
        4
302
GRIDFORMAT
  1
GRIDFORMAT_BEGIN
 90
        0
 91
        1
 62
     0
 92
       -2
340
14
 93
        0
 40
0.045
309
GRIDFORMAT_END
 95
        8
302
GRIDFORMAT
  1
GRIDFORMAT_BEGIN
 90
        0
 91
        1
 62
     0
 92
       -2
340
14
 93
        0
 40
0.045
309
GRIDFORMAT_END
 95
       16
302
GRIDFORMAT
  1
GRIDFORMAT_BEGIN
 90
        0
 91
        1
 62
     0
 92
       -2
340
14
 93
        0
 40
0.045
309
GRIDFORMAT_END
 95
       32
302
GRIDFORMAT
  1
GRIDFORMAT_BEGIN
 90
        0
 91
        1
 62
     0
 92
       -2
340
14
 93
        0
 40
0.045
309
GRIDFORMAT_END
309
TABLEFORMAT_END
  1
CELLSTYLE_BEGIN
 90
        3
 91
        2
300
_DATA
309
CELLSTYLE_END
  0
ENDSEC
  0
EOF