0
SECTION
  2
HEADER
  9
$ACADVER
  1
AC1027
  9
$ACADMAINTVER
 70
   105
  9
$DWGCODEPAGE
  3
ANSI_1252
  9
$REQUIREDVERSIONS
160
                 0
  9
$COMMENTS
  1
File was created by Cadenas
  9
$CUSTOMPROPERTYTAG
  1
NN
  9
$CUSTOMPROPERTY
  1
Imperial - IP Flange - Square with Type E Dimensions 1-3/8 thru 2-3/16 inch Trident Seal Expansion
  9
$CUSTOMPROPERTYTAG
  1
NT
  9
$CUSTOMPROPERTY
  1
Imperial/E 4 Bolt Flange Bearings
  9
$CUSTOMPROPERTYTAG
  1
NB
  9
$CUSTOMPROPERTY
  1
071315
  9
$CUSTOMPROPERTYTAG
  1
NBSYN
  9
$CUSTOMPROPERTY
  1
$PN.
  9
$CUSTOMPROPERTYTAG
  1
LINA
  9
$CUSTOMPROPERTY
  1
071315
  9
$CUSTOMPROPERTYTAG
  1
SS
  9
$CUSTOMPROPERTY
  1
1-1/2
  9
$CUSTOMPROPERTYTAG
  1
TYPE
  9
$CUSTOMPROPERTY
  1
Expansion
  9
$CUSTOMPROPERTYTAG
  1
PN
  9
$CUSTOMPROPERTY
  1
071315
  9
$CUSTOMPROPERTYTAG
  1
DESCRIPTION
  9
$CUSTOMPROPERTY
  1
EF4B-IP-108RE
  9
$CUSTOMPROPERTYTAG
  1
ST
  9
$CUSTOMPROPERTY
  1
Contact Seal
  9
$CUSTOMPROPERTYTAG
  1
A
  9
$CUSTOMPROPERTY
  1
2.81
  9
$CUSTOMPROPERTYTAG
  1
B
  9
$CUSTOMPROPERTY
  1
5.38
  9
$CUSTOMPROPERTYTAG
  1
C
  9
$CUSTOMPROPERTY
  1
3.64
  9
$CUSTOMPROPERTYTAG
  1
D
  9
$CUSTOMPROPERTY
  1
4.13
  9
$CUSTOMPROPERTYTAG
  1
DD
  9
$CUSTOMPROPERTY
  1
5.834
  9
$CUSTOMPROPERTYTAG
  1
F
  9
$CUSTOMPROPERTY
  1
1/2
  9
$CUSTOMPROPERTYTAG
  1
G
  9
$CUSTOMPROPERTY
  1
0.67
  9
$CUSTOMPROPERTYTAG
  1
H
  9
$CUSTOMPROPERTY
  1
1.19
  9
$CUSTOMPROPERTYTAG
  1
J
  9
$CUSTOMPROPERTY
  1
4.18
  9
$CUSTOMPROPERTYTAG
  1
L
  9
$CUSTOMPROPERTY
  1
3.00
  9
$CUSTOMPROPERTYTAG
  1
N
  9
$CUSTOMPROPERTY
  1
2.50
  9
$CUSTOMPROPERTYTAG
  1
P
  9
$CUSTOMPROPERTY
  1
0.83
  9
$CUSTOMPROPERTYTAG
  1
X
  9
$CUSTOMPROPERTY
  1
0.19
  9
$CUSTOMPROPERTYTAG
  1
Y
  9
$CUSTOMPROPERTY
  1
0.020
  9
$CUSTOMPROPERTYTAG
  1
Z
  9
$CUSTOMPROPERTY
  1
2.08
  9
$CUSTOMPROPERTYTAG
  1
COMPANY
  9
$CUSTOMPROPERTY
  1
baldor
  9
$INSBASE
 10
0.0
 20
0.0
 30
0.0
  9
$EXTMIN
 10
1.000000000000000E+20
 20
1.000000000000000E+20
 30
1.000000000000000E+20
  9
$EXTMAX
 10
-1.000000000000000E+20
 20
-1.000000000000000E+20
 30
-1.000000000000000E+20
  9
$LIMMIN
 10
0.0
 20
0.0
  9
$LIMMAX
 10
12.0
 20
9.0
  9
$ORTHOMODE
 70
     0
  9
$REGENMODE
 70
     1
  9
$FILLMODE
 70
     1
  9
$QTEXTMODE
 70
     0
  9
$MIRRTEXT
 70
     1
  9
$LTSCALE
 40
1.0
  9
$ATTMODE
 70
     1
  9
$TEXTSIZE
 40
0.2
  9
$TRACEWID
 40
0.05
  9
$TEXTSTYLE
  7
Standard
  9
$CLAYER
  8
0
  9
$CELTYPE
  6
ByLayer
  9
$CECOLOR
 62
   256
  9
$CELTSCALE
 40
1.0
  9
$DISPSILH
 70
     0
  9
$DIMSCALE
 40
1.0
  9
$DIMASZ
 40
0.18
  9
$DIMEXO
 40
0.0625
  9
$DIMDLI
 40
0.38
  9
$DIMRND
 40
0.0
  9
$DIMDLE
 40
0.0
  9
$DIMEXE
 40
0.18
  9
$DIMTP
 40
0.0
  9
$DIMTM
 40
0.0
  9
$DIMTXT
 40
0.18
  9
$DIMCEN
 40
0.09
  9
$DIMTSZ
 40
0.0
  9
$DIMTOL
 70
     0
  9
$DIMLIM
 70
     0
  9
$DIMTIH
 70
     1
  9
$DIMTOH
 70
     1
  9
$DIMSE1
 70
     0
  9
$DIMSE2
 70
     0
  9
$DIMTAD
 70
     0
  9
$DIMZIN
 70
     0
  9
$DIMBLK
  1

  9
$DIMASO
 70
     1
  9
$DIMSHO
 70
     1
  9
$DIMPOST
  1

  9
$DIMAPOST
  1

  9
$DIMALT
 70
     0
  9
$DIMALTD
 70
     2
  9
$DIMALTF
 40
25.4
  9
$DIMLFAC
 40
1.0
  9
$DIMTOFL
 70
     0
  9
$DIMTVP
 40
0.0
  9
$DIMTIX
 70
     0
  9
$DIMSOXD
 70
     0
  9
$DIMSAH
 70
     0
  9
$DIMBLK1
  1

  9
$DIMBLK2
  1

  9
$DIMSTYLE
  2
Standard
  9
$DIMCLRD
 70
     0
  9
$DIMCLRE
 70
     0
  9
$DIMCLRT
 70
     0
  9
$DIMTFAC
 40
1.0
  9
$DIMGAP
 40
0.09
  9
$DIMJUST
 70
     0
  9
$DIMSD1
 70
     0
  9
$DIMSD2
 70
     0
  9
$DIMTOLJ
 70
     1
  9
$DIMTZIN
 70
     0
  9
$DIMALTZ
 70
     0
  9
$DIMALTTZ
 70
     0
  9
$DIMUPT
 70
     0
  9
$DIMDEC
 70
     4
  9
$DIMTDEC
 70
     4
  9
$DIMALTU
 70
     2
  9
$DIMALTTD
 70
     2
  9
$DIMTXSTY
  7
Standard
  9
$DIMAUNIT
 70
     0
  9
$DIMADEC
 70
     0
  9
$DIMALTRND
 40
0.0
  9
$DIMAZIN
 70
     0
  9
$DIMDSEP
 70
    46
  9
$DIMATFIT
 70
     3
  9
$DIMFRAC
 70
     0
  9
$DIMLDRBLK
  1

  9
$DIMLUNIT
 70
     2
  9
$DIMLWD
 70
    -2
  9
$DIMLWE
 70
    -2
  9
$DIMTMOVE
 70
     0
  9
$DIMFXL
 40
1.0
  9
$DIMFXLON
 70
     0
  9
$DIMJOGANG
 40
0.7853981633974483
  9
$DIMTFILL
 70
     0
  9
$DIMTFILLCLR
 70
     0
  9
$DIMARCSYM
 70
     0
  9
$DIMLTYPE
  6

  9
$DIMLTEX1
  6

  9
$DIMLTEX2
  6

  9
$DIMTXTDIRECTION
 70
     0
  9
$LUNITS
 70
     2
  9
$LUPREC
 70
     4
  9
$SKETCHINC
 40
0.1
  9
$FILLETRAD
 40
0.5
  9
$AUNITS
 70
     0
  9
$AUPREC
 70
     0
  9
$MENU
  1
.
  9
$ELEVATION
 40
0.0
  9
$PELEVATION
 40
0.0
  9
$THICKNESS
 40
0.0
  9
$LIMCHECK
 70
     0
  9
$CHAMFERA
 40
0.0
  9
$CHAMFERB
 40
0.0
  9
$CHAMFERC
 40
0.0
  9
$CHAMFERD
 40
0.0
  9
$SKPOLY
 70
     0
  9
$TDCREATE
 40
2458168.983759398
  9
$TDUCREATE
 40
2458168.942092732
  9
$TDUPDATE
 40
2458168.983759572
  9
$TDUUPDATE
 40
2458168.942092905
  9
$TDINDWG
 40
0.0000000116
  9
$TDUSRTIMER
 40
0.0000000116
  9
$USRTIMER
 70
     1
  9
$ANGBASE
 50
0.0
  9
$ANGDIR
 70
     0
  9
$PDMODE
 70
     0
  9
$PDSIZE
 40
0.0
  9
$PLINEWID
 40
0.0
  9
$SPLFRAME
 70
     0
  9
$SPLINETYPE
 70
     6
  9
$SPLINESEGS
 70
     8
  9
$HANDSEED
  5
210
  9
$SURFTAB1
 70
     6
  9
$SURFTAB2
 70
     6
  9
$SURFTYPE
 70
     6
  9
$SURFU
 70
     6
  9
$SURFV
 70
     6
  9
$UCSBASE
  2

  9
$UCSNAME
  2

  9
$UCSORG
 10
0.0
 20
0.0
 30
0.0
  9
$UCSXDIR
 10
1.0
 20
0.0
 30
0.0
  9
$UCSYDIR
 10
0.0
 20
1.0
 30
0.0
  9
$UCSORTHOREF
  2

  9
$UCSORTHOVIEW
 70
     0
  9
$UCSORGTOP
 10
0.0
 20
0.0
 30
0.0
  9
$UCSORGBOTTOM
 10
0.0
 20
0.0
 30
0.0
  9
$UCSORGLEFT
 10
0.0
 20
0.0
 30
0.0
  9
$UCSORGRIGHT
 10
0.0
 20
0.0
 30
0.0
  9
$UCSORGFRONT
 10
0.0
 20
0.0
 30
0.0
  9
$UCSORGBACK
 10
0.0
 20
0.0
 30
0.0
  9
$PUCSBASE
  2

  9
$PUCSNAME
  2

  9
$PUCSORG
 10
0.0
 20
0.0
 30
0.0
  9
$PUCSXDIR
 10
1.0
 20
0.0
 30
0.0
  9
$PUCSYDIR
 10
0.0
 20
1.0
 30
0.0
  9
$PUCSORTHOREF
  2

  9
$PUCSORTHOVIEW
 70
     0
  9
$PUCSORGTOP
 10
0.0
 20
0.0
 30
0.0
  9
$PUCSORGBOTTOM
 10
0.0
 20
0.0
 30
0.0
  9
$PUCSORGLEFT
 10
0.0
 20
0.0
 30
0.0
  9
$PUCSORGRIGHT
 10
0.0
 20
0.0
 30
0.0
  9
$PUCSORGFRONT
 10
0.0
 20
0.0
 30
0.0
  9
$PUCSORGBACK
 10
0.0
 20
0.0
 30
0.0
  9
$USERI1
 70
     0
  9
$USERI2
 70
     0
  9
$USERI3
 70
     0
  9
$USERI4
 70
     0
  9
$USERI5
 70
     0
  9
$USERR1
 40
0.0
  9
$USERR2
 40
0.0
  9
$USERR3
 40
0.0
  9
$USERR4
 40
0.0
  9
$USERR5
 40
0.0
  9
$WORLDVIEW
 70
     1
  9
$SHADEDGE
 70
     3
  9
$SHADEDIF
 70
    70
  9
$TILEMODE
 70
     1
  9
$MAXACTVP
 70
    64
  9
$PINSBASE
 10
0.0
 20
0.0
 30
0.0
  9
$PLIMCHECK
 70
     0
  9
$PEXTMIN
 10
1.000000000000000E+20
 20
1.000000000000000E+20
 30
1.000000000000000E+20
  9
$PEXTMAX
 10
-1.000000000000000E+20
 20
-1.000000000000000E+20
 30
-1.000000000000000E+20
  9
$PLIMMIN
 10
0.0
 20
0.0
  9
$PLIMMAX
 10
12.0
 20
9.0
  9
$UNITMODE
 70
     0
  9
$VISRETAIN
 70
     1
  9
$PLINEGEN
 70
     0
  9
$PSLTSCALE
 70
     1
  9
$TREEDEPTH
 70
  3020
  9
$CMLSTYLE
  2
Standard
  9
$CMLJUST
 70
     0
  9
$CMLSCALE
 40
1.0
  9
$PROXYGRAPHICS
 70
     1
  9
$MEASUREMENT
 70
     0
  9
$CELWEIGHT
370
    -1
  9
$ENDCAPS
280
     0
  9
$JOINSTYLE
280
     0
  9
$LWDISPLAY
290
     0
  9
$INSUNITS
 70
     1
  9
$HYPERLINKBASE
  1

  9
$STYLESHEET
  1

  9
$XEDIT
290
     1
  9
$CEPSNTYPE
380
     0
  9
$PSTYLEMODE
290
     1
  9
$FINGERPRINTGUID
  2
{7E0CA1CB-D318-43FA-B80F-8587EB1D6A22}
  9
$VERSIONGUID
  2
{FAEB1C32-E019-11D5-929B-00C0DF256EC4}
  9
$EXTNAMES
290
     1
  9
$PSVPSCALE
 40
0.0
  9
$OLESTARTUP
290
     0
  9
$SORTENTS
280
   127
  9
$INDEXCTL
280
     0
  9
$HIDETEXT
280
     1
  9
$XCLIPFRAME
280
     2
  9
$HALOGAP
280
     0
  9
$OBSCOLOR
 70
   257
  9
$OBSLTYPE
280
     0
  9
$INTERSECTIONDISPLAY
280
     0
  9
$INTERSECTIONCOLOR
 70
   257
  9
$DIMASSOC
280
     2
  9
$PROJECTNAME
  1

  9
$CAMERADISPLAY
290
     0
  9
$LENSLENGTH
 40
50.0
  9
$CAMERAHEIGHT
 40
0.0
  9
$STEPSPERSEC
 40
2.0
  9
$STEPSIZE
 40
6.0
  9
$3DDWFPREC
 40
2.0
  9
$PSOLWIDTH
 40
0.25
  9
$PSOLHEIGHT
 40
4.0
  9
$LOFTANG1
 40
1.570796326794897
  9
$LOFTANG2
 40
1.570796326794897
  9
$LOFTMAG1
 40
0.0
  9
$LOFTMAG2
 40
0.0
  9
$LOFTPARAM
 70
     7
  9
$LOFTNORMALS
280
     1
  9
$LATITUDE
 40
37.795
  9
$LONGITUDE
 40
-122.394
  9
$NORTHDIRECTION
 40
0.0
  9
$TIMEZONE
 70
 -8000
  9
$LIGHTGLYPHDISPLAY
280
     1
  9
$TILEMODELIGHTSYNCH
280
     1
  9
$CMATERIAL
347
44
  9
$SOLIDHIST
280
     0
  9
$SHOWHIST
280
     1
  9
$DWFFRAME
280
     2
  9
$DGNFRAME
280
     2
  9
$REALWORLDSCALE
290
     1
  9
$INTERFERECOLOR
 62
   256
  9
$CSHADOW
280
     0
  9
$SHADOWPLANELOCATION
 40
0.0
  0
ENDSEC
  0
SECTION
  2
CLASSES
  0
CLASS
  1
ACDBDICTIONARYWDFLT
  2
AcDbDictionaryWithDefault
  3
ObjectDBX Classes
 90
        0
 91
        4
280
     0
281
     0
  0
CLASS
  1
VISUALSTYLE
  2
AcDbVisualStyle
  3
ObjectDBX Classes
 90
     4095
 91
        4
280
     0
281
     0
  0
CLASS
  1
MATERIAL
  2
AcDbMaterial
  3
ObjectDBX Classes
 90
     1153
 91
        4
280
     0
281
     0
  0
CLASS
  1
SCALE
  2
AcDbScale
  3
ObjectDBX Classes
 90
     1153
 91
        4
280
     0
281
     0
  0
CLASS
  1
TABLESTYLE
  2
AcDbTableStyle
  3
ObjectDBX Classes
 90
     4095
 91
        4
280
     0
281
     0
  0
CLASS
  1
MLEADERSTYLE
  2
AcDbMLeaderStyle
  3
ACDB_MLEADERSTYLE_CLASS
 90
     4095
 91
        4
280
     0
281
     0
  0
CLASS
  1
SUN
  2
AcDbSun
  3
SCENEOE
 90
     1153
 91
        4
280
     0
281
     0
  0
CLASS
  1
DICTIONARYVAR
  2
AcDbDictionaryVar
  3
ObjectDBX Classes
 90
        0
 91
        4
280
     0
281
     0
  0
CLASS
  1
CELLSTYLEMAP
  2
AcDbCellStyleMap
  3
ObjectDBX Classes
 90
     1152
 91
        4
280
     0
281
     0
  0
ENDSEC
  0
SECTION
  2
TABLES
  0
TABLE
  2
VPORT
  5
8
330
0
100
AcDbSymbolTable
 70
     1
  0
VPORT
  5
29
330
8
100
AcDbSymbolTableRecord
100
AcDbViewportTableRecord
  2
*Active
 70
     0
 10
0.0
 20
0.0
 11
1.0
 21
1.0
 12
4.821428571428571
 22
-5.833299999970766
 13
0.0
 23
0.0
 14
0.5
 24
0.5
 15
0.5
 25
0.5
 16
0.0
 26
0.0
 36
1.0
 17
0.0
 27
0.0
 37
0.0
 40
13.26
 41
1.155604395604396
 42
50.0
 43
0.0
 44
0.0
 50
0.0
 51
0.0
 71
     0
 72
   100
 73
     1
 74
     3
 75
     0
 76
     0
 77
     0
 78
     0
281
     0
 65
     1
110
0.0
120
0.0
130
0.0
111
1.0
121
0.0
131
0.0
112
0.0
122
1.0
132
0.0
 79
     0
146
0.0
348
2F
 60
     3
 61
     5
292
     1
282
     1
141
0.0
142
0.0
 63
   250
361
6D
  0
ENDTAB
  0
TABLE
  2
LTYPE
  5
5
330
0
100
AcDbSymbolTable
 70
     3
  0
LTYPE
  5
14
330
5
100
AcDbSymbolTableRecord
100
AcDbLinetypeTableRecord
  2
ByBlock
 70
     0
  3

 72
    65
 73
     0
 40
0.0
  0
LTYPE
  5
15
330
5
100
AcDbSymbolTableRecord
100
AcDbLinetypeTableRecord
  2
ByLayer
 70
     0
  3

 72
    65
 73
     0
 40
0.0
  0
LTYPE
  5
16
330
5
100
AcDbSymbolTableRecord
100
AcDbLinetypeTableRecord
  2
Continuous
 70
     0
  3
Solid line
 72
    65
 73
     0
 40
0.0
  0
LTYPE
  5
AB
330
5
100
AcDbSymbolTableRecord
100
AcDbLinetypeTableRecord
  2
Dashed
 70
     0
  3

 72
    65
 73
     2
 40
2.0
 49
1.0
 74
     0
 49
-1.0
 74
     0
  0
LTYPE
  5
1DB
330
5
100
AcDbSymbolTableRecord
100
AcDbLinetypeTableRecord
  2
Center
 70
     0
  3

 72
    65
 73
     4
 40
1.5
 49
0.45
 74
     0
 49
-0.5
 74
     0
 49
0.05
 74
     0
 49
-0.5
 74
     0
  0
ENDTAB
  0
TABLE
  2
LAYER
  5
2
330
0
100
AcDbSymbolTable
 70
     8
  0
LAYER
  5
10
330
2
100
AcDbSymbolTableRecord
100
AcDbLayerTableRecord
  2
0
 70
     0
 62
     7
  6
Continuous
370
    -3
390
F
347
46
348
0
  0
LAYER
  5
6E
330
2
100
AcDbSymbolTableRecord
100
AcDbLayerTableRecord
  2
AM_6
 70
     0
 62
    -2
  6
Continuous
370
    35
390
F
347
46
348
0
  0
LAYER
  5
99
330
2
100
AcDbSymbolTableRecord
100
AcDbLayerTableRecord
  2
AM_5
 70
     0
 62
     3
  6
Continuous
370
    25
390
F
347
46
348
0
  0
LAYER
  5
AC
330
2
100
AcDbSymbolTableRecord
100
AcDbLayerTableRecord
  2
AM_9
 70
     0
 62
     6
  6
Dashed
370
    25
390
F
347
46
348
0
  0
LAYER
  5
B8
330
2
100
AcDbSymbolTableRecord
100
AcDbLayerTableRecord
  2
AM_0
 70
     0
 62
     7
  6
Continuous
370
    50
390
F
347
46
348
0
  0
LAYER
  5
BE
330
2
100
AcDbSymbolTableRecord
100
AcDbLayerTableRecord
  2
AM_4
 70
     0
 62
     3
  6
Continuous
370
    25
390
F
347
46
348
0
  0
LAYER
  5
1DC
330
2
100
AcDbSymbolTableRecord
100
AcDbLayerTableRecord
  2
AM_7
 70
     0
 62
     7
  6
Center
370
    25
390
F
347
46
348
0
  0
LAYER
  5
1FB
330
2
100
AcDbSymbolTableRecord
100
AcDbLayerTableRecord
  2
ConnectionPoints
 70
     0
 62
     7
  6
Continuous
370
    50
390
F
347
46
348
0
  0
ENDTAB
  0
TABLE
  2
STYLE
  5
3
330
0
100
AcDbSymbolTable
 70
     1
  0
STYLE
  5
11
330
3
100
AcDbSymbolTableRecord
100
AcDbTextStyleTableRecord
  2
Standard
 70
     0
 40
0.0
 41
1.0
 50
0.0
 71
     0
 42
0.2
  3
txt
  4

  0
ENDTAB
  0
TABLE
  2
VIEW
  5
6
330
0
100
AcDbSymbolTable
 70
     0
  0
ENDTAB
  0
TABLE
  2
UCS
  5
7
330
0
100
AcDbSymbolTable
 70
     0
  0
ENDTAB
  0
TABLE
  2
APPID
  5
9
330
0
100
AcDbSymbolTable
 70
     1
  0
APPID
  5
12
330
9
100
AcDbSymbolTableRecord
100
AcDbRegAppTableRecord
  2
ACAD
 70
     0
  0
ENDTAB
  0
TABLE
  2
DIMSTYLE
  5
A
330
0
100
AcDbSymbolTable
 70
     1
100
AcDbDimStyleTable
  0
DIMSTYLE
105
27
330
A
100
AcDbSymbolTableRecord
100
AcDbDimStyleTableRecord
  2
Standard
 70
     0
178
     0
340
11
  0
ENDTAB
  0
TABLE
  2
BLOCK_RECORD
  5
1
330
0
100
AcDbSymbolTable
 70
     7
  0
BLOCK_RECORD
  5
1F
330
1
100
AcDbSymbolTableRecord
100
AcDbBlockTableRecord
  2
*Model_Space
340
22
 70
     0
280
     1
281
     0
  0
BLOCK_RECORD
  5
1B
330
1
100
AcDbSymbolTableRecord
100
AcDbBlockTableRecord
  2
*Paper_Space
340
1E
 70
     0
280
     1
281
     0
  0
BLOCK_RECORD
  5
23
330
1
100
AcDbSymbolTableRecord
100
AcDbBlockTableRecord
  2
*Paper_Space0
340
26
 70
     0
280
     1
281
     0
  0
BLOCK_RECORD
  5
89
330
1
100
AcDbSymbolTableRecord
100
AcDbBlockTableRecord
  2
1_ASME_B18_3_10_1_0_in_071315_4
340
0
102
{BLKREFS
331
8A
102
}
 70
     0
280
     1
281
     0
  0
BLOCK_RECORD
  5
9B
330
1
100
AcDbSymbolTableRecord
100
AcDbBlockTableRecord
  2
2_ASME_B18_3_10_2_0_in_071315_4
340
0
102
{BLKREFS
331
9C
102
}
 70
     0
280
     1
281
     0
  0
BLOCK_RECORD
  5
C0
330
1
100
AcDbSymbolTableRecord
100
AcDbBlockTableRecord
  2
3_070885LWE_0_in_071315_4
340
0
102
{BLKREFS
331
C1
102
}
 70
     0
280
     1
281
     0
  0
BLOCK_RECORD
  5
F9
330
1
100
AcDbSymbolTableRecord
100
AcDbBlockTableRecord
  2
4_070885E_0_in_071315_4
340
0
102
{BLKREFS
331
FA
102
}
 70
     0
280
     1
281
     0
  0
BLOCK_RECORD
  5
17C
330
1
100
AcDbSymbolTableRecord
100
AcDbBlockTableRecord
  2
5_405015E_Inch_0_in_071315_4
340
0
102
{BLKREFS
331
17D
102
}
 70
     0
280
     1
281
     0
  0
BLOCK_RECORD
  5
199
330
1
100
AcDbSymbolTableRecord
100
AcDbBlockTableRecord
  2
6_071315H_0_in_071315_4
340
0
102
{BLKREFS
331
19A
102
}
 70
     0
280
     1
281
     0
  0
ENDTAB
  0
ENDSEC
  0
SECTION
  2
BLOCKS
  0
BLOCK
  5
20
330
1F
100
AcDbEntity
  8
0
100
AcDbBlockBegin
  2
*Model_Space
 70
     0
 10
0.0
 20
0.0
 30
0.0
  3
*Model_Space
  1

  0
ENDBLK
  5
21
330
1F
100
AcDbEntity
  8
0
100
AcDbBlockEnd
  0
BLOCK
  5
1C
330
1B
100
AcDbEntity
 67
     1
  8
0
100
AcDbBlockBegin
  2
*Paper_Space
 70
     0
 10
0.0
 20
0.0
 30
0.0
  3
*Paper_Space
  1

  0
ENDBLK
  5
1D
330
1B
100
AcDbEntity
 67
     1
  8
0
100
AcDbBlockEnd
  0
BLOCK
  5
24
330
23
100
AcDbEntity
  8
0
100
AcDbBlockBegin
  2
*Paper_Space0
 70
     0
 10
0.0
 20
0.0
 30
0.0
  3
*Paper_Space0
  1

  0
ENDBLK
  5
25
330
23
100
AcDbEntity
  8
0
100
AcDbBlockEnd
  0
BLOCK
  5
8B
330
89
100
AcDbEntity
  8
0
100
AcDbBlockBegin
  2
1_ASME_B18_3_10_1_0_in_071315_4
 70
     2
 10
0.0
 20
0.0
 30
0.0
  3
1_ASME_B18_3_10_1_0_in_071315_4
  1

  0
ATTDEF
  5
8D
330
89
100
AcDbEntity
  8
AM_6
100
AcDbText
 10
5.095
 20
-3.208333333333333
 30
0.0
 40
0.5
  1
ANSI/ASME B18.3-1998
100
AcDbAttributeDefinition
  3

  2
NN
 70
     8
280
     0
  0
ATTDEF
  5
8E
330
89
100
AcDbEntity
  8
AM_6
100
AcDbText
 10
5.095
 20
-3.708333333333333
 30
0.0
 40
0.5
  1
Socket Button Head Cap Screws
100
AcDbAttributeDefinition
  3

  2
NT
 70
     8
280
     0
  0
ATTDEF
  5
8F
330
89
100
AcDbEntity
  8
AM_6
100
AcDbText
 10
5.095
 20
-4.208333333333333
 30
0.0
 40
0.5
  1
ASME B18.3-10
100
AcDbAttributeDefinition
  3

  2
NB
 70
     8
280
     0
  0
ATTDEF
  5
90
330
89
100
AcDbEntity
  8
AM_6
100
AcDbText
 10
5.095
 20
-4.708333333333333
 30
0.0
 40
0.5
  1
ASME B18.3-$NS.
100
AcDbAttributeDefinition
  3

  2
NBSYN
 70
     8
280
     0
  0
ATTDEF
  5
91
330
89
100
AcDbEntity
  8
AM_6
100
AcDbText
 10
5.095
 20
-5.208333333333333
 30
0.0
 40
0.5
  1
ASME B18.3-10
100
AcDbAttributeDefinition
  3

  2
LINA
 70
     8
280
     0
  0
ATTDEF
  5
92
330
89
100
AcDbEntity
  8
AM_6
100
AcDbText
 10
5.095
 20
-5.708333333333333
 30
0.0
 40
0.5
  1
10
100
AcDbAttributeDefinition
  3

  2
NS
 70
     8
280
     0
  0
ATTDEF
  5
93
330
89
100
AcDbEntity
  8
AM_6
100
AcDbText
 10
5.095
 20
-6.208333333333333
 30
0.0
 40
0.5
  1
0.361
100
AcDbAttributeDefinition
  3

  2
A
 70
     8
280
     0
  0
ATTDEF
  5
94
330
89
100
AcDbEntity
  8
AM_6
100
AcDbText
 10
5.095
 20
-6.708333333333333
 30
0.0
 40
0.5
  1
0.101
100
AcDbAttributeDefinition
  3

  2
H
 70
     8
280
     0
  0
ATTDEF
  5
95
330
89
100
AcDbEntity
  8
AM_6
100
AcDbText
 10
5.095
 20
-7.208333333333333
 30
0.0
 40
0.5
  1
0.800
100
AcDbAttributeDefinition
  3

  2
L
 70
     8
280
     0
  0
ATTDEF
  5
96
330
89
100
AcDbEntity
  8
AM_6
100
AcDbText
 10
5.095
 20
-7.708333333333333
 30
0.0
 40
0.5
  1
0.020
100
AcDbAttributeDefinition
  3

  2
S
 70
     8
280
     0
  0
ATTDEF
  5
97
330
89
100
AcDbEntity
  8
AM_6
100
AcDbText
 10
5.095
 20
-8.208333333333332
 30
0.0
 40
0.5
  1
0.125000
100
AcDbAttributeDefinition
  3

  2
J
 70
     8
280
     0
  0
ATTDEF
  5
98
330
89
100
AcDbEntity
  8
AM_6
100
AcDbText
 10
5.095
 20
-8.708333333333332
 30
0.0
 40
0.5
  1
baldor
100
AcDbAttributeDefinition
  3

  2
COMPANY
 70
     8
280
     0
  0
LINE
  5
9A
330
89
100
AcDbEntity
  8
AM_5
 48
0.000382888
100
AcDbLine
 10
0.095
 20
-3.208333333333333
 30
0.0
 11
-0.095
 21
-3.208333333333333
 31
0.0
  0
ENDBLK
  5
8C
330
89
100
AcDbEntity
  8
0
100
AcDbBlockEnd
  0
BLOCK
  5
9D
330
9B
100
AcDbEntity
  8
0
100
AcDbBlockBegin
  2
2_ASME_B18_3_10_2_0_in_071315_4
 70
     2
 10
0.0
 20
0.0
 30
0.0
  3
2_ASME_B18_3_10_2_0_in_071315_4
  1

  0
ATTDEF
  5
9F
330
9B
100
AcDbEntity
  8
AM_6
100
AcDbText
 10
5.1805
 20
-2.488333333333333
 30
0.0
 40
0.5
  1
ANSI/ASME B18.3-1998
100
AcDbAttributeDefinition
  3

  2
NN
 70
     8
280
     0
  0
ATTDEF
  5
A0
330
9B
100
AcDbEntity
  8
AM_6
100
AcDbText
 10
5.1805
 20
-2.988333333333333
 30
0.0
 40
0.5
  1
Socket Button Head Cap Screws
100
AcDbAttributeDefinition
  3

  2
NT
 70
     8
280
     0
  0
ATTDEF
  5
A1
330
9B
100
AcDbEntity
  8
AM_6
100
AcDbText
 10
5.1805
 20
-3.488333333333333
 30
0.0
 40
0.5
  1
ASME B18.3-10
100
AcDbAttributeDefinition
  3

  2
NB
 70
     8
280
     0
  0
ATTDEF
  5
A2
330
9B
100
AcDbEntity
  8
AM_6
100
AcDbText
 10
5.1805
 20
-3.988333333333333
 30
0.0
 40
0.5
  1
ASME B18.3-$NS.
100
AcDbAttributeDefinition
  3

  2
NBSYN
 70
     8
280
     0
  0
ATTDEF
  5
A3
330
9B
100
AcDbEntity
  8
AM_6
100
AcDbText
 10
5.1805
 20
-4.488333333333333
 30
0.0
 40
0.5
  1
ASME B18.3-10
100
AcDbAttributeDefinition
  3

  2
LINA
 70
     8
280
     0
  0
ATTDEF
  5
A4
330
9B
100
AcDbEntity
  8
AM_6
100
AcDbText
 10
5.1805
 20
-4.988333333333333
 30
0.0
 40
0.5
  1
10
100
AcDbAttributeDefinition
  3

  2
NS
 70
     8
280
     0
  0
ATTDEF
  5
A5
330
9B
100
AcDbEntity
  8
AM_6
100
AcDbText
 10
5.1805
 20
-5.488333333333333
 30
0.0
 40
0.5
  1
0.361
100
AcDbAttributeDefinition
  3

  2
A
 70
     8
280
     0
  0
ATTDEF
  5
A6
330
9B
100
AcDbEntity
  8
AM_6
100
AcDbText
 10
5.1805
 20
-5.988333333333333
 30
0.0
 40
0.5
  1
0.101
100
AcDbAttributeDefinition
  3

  2
H
 70
     8
280
     0
  0
ATTDEF
  5
A7
330
9B
100
AcDbEntity
  8
AM_6
100
AcDbText
 10
5.1805
 20
-6.488333333333333
 30
0.0
 40
0.5
  1
0.800
100
AcDbAttributeDefinition
  3

  2
L
 70
     8
280
     0
  0
ATTDEF
  5
A8
330
9B
100
AcDbEntity
  8
AM_6
100
AcDbText
 10
5.1805
 20
-6.988333333333333
 30
0.0
 40
0.5
  1
0.020
100
AcDbAttributeDefinition
  3

  2
S
 70
     8
280
     0
  0
ATTDEF
  5
A9
330
9B
100
AcDbEntity
  8
AM_6
100
AcDbText
 10
5.1805
 20
-7.488333333333333
 30
0.0
 40
0.5
  1
0.125000
100
AcDbAttributeDefinition
  3

  2
J
 70
     8
280
     0
  0
ATTDEF
  5
AA
330
9B
100
AcDbEntity
  8
AM_6
100
AcDbText
 10
5.1805
 20
-7.988333333333333
 30
0.0
 40
0.5
  1
baldor
100
AcDbAttributeDefinition
  3

  2
COMPANY
 70
     8
280
     0
  0
LINE
  5
AD
330
9B
100
AcDbEntity
  8
AM_9
 48
0.0020166291450385
100
AcDbLine
 10
-0.0625
 20
-3.328333333333334
 30
0.0
 11
-0.0625
 21
-3.389333333333333
 31
0.0
  0
LINE
  5
AE
330
9B
100
AcDbEntity
  8
AM_9
 48
0.0020166291450385
100
AcDbLine
 10
0.0625
 20
-3.328333333333334
 30
0.0
 11
0.0625
 21
-3.389333333333333
 31
0.0
  0
LINE
  5
AF
330
9B
100
AcDbEntity
  8
AM_9
 48
0.0020166291450385
100
AcDbLine
 10
0.0
 20
-3.328333333333334
 30
0.0
 11
0.0
 21
-3.389333333333333
 31
0.0
  0
LINE
  5
B0
330
9B
100
AcDbEntity
  8
AM_9
 48
0.0020166291450385
100
AcDbLine
 10
-0.0625
 20
-3.328333333333334
 30
0.0
 11
0.0625
 21
-3.328333333333334
 31
0.0
  0
LINE
  5
B1
330
9B
100
AcDbEntity
  8
AM_9
 48
0.0020166291450385
100
AcDbLine
 10
-0.0764
 20
-2.488333333333333
 30
0.0
 11
-0.095
 21
-2.506933333333333
 31
0.0
  0
LINE
  5
B2
330
9B
100
AcDbEntity
  8
AM_9
 48
0.0020166291450385
100
AcDbLine
 10
0.095
 20
-2.506933333333333
 30
0.0
 11
0.0764
 21
-2.488333333333333
 31
0.0
  0
LINE
  5
B3
330
9B
100
AcDbEntity
  8
AM_9
 48
0.0020166291450385
100
AcDbLine
 10
-0.0764
 20
-2.488333333333333
 30
0.0
 11
0.0764
 21
-2.488333333333333
 31
0.0
  0
LINE
  5
B4
330
9B
100
AcDbEntity
  8
AM_9
 48
0.0020166291450385
100
AcDbLine
 10
0.095
 20
-3.288333333333333
 30
0.0
 11
0.095
 21
-2.506933333333333
 31
0.0
  0
LINE
  5
B5
330
9B
100
AcDbEntity
  8
AM_9
 48
0.0020166291450385
100
AcDbLine
 10
-0.095
 20
-2.506933333333333
 30
0.0
 11
-0.095
 21
-3.288333333333333
 31
0.0
  0
LINE
  5
B6
330
9B
100
AcDbEntity
  8
AM_9
 48
0.0020166291450385
100
AcDbLine
 10
-0.095
 20
-2.506933333333333
 30
0.0
 11
0.095
 21
-2.506933333333333
 31
0.0
  0
LINE
  5
B7
330
9B
100
AcDbEntity
  8
AM_5
 48
0.0020166291450385
100
AcDbLine
 10
-0.0949999999999999
 20
-3.208333333333333
 30
0.0
 11
0.095
 21
-3.208333333333333
 31
0.0
  0
LINE
  5
B9
330
9B
100
AcDbEntity
  8
AM_0
 48
0.0020166291450385
100
AcDbLine
 10
0.1805
 20
-3.308333333333333
 30
0.0
 11
0.1805
 21
-3.288333333333333
 31
0.0
  0
LINE
  5
BA
330
9B
100
AcDbEntity
  8
AM_0
 48
0.0020166291450385
100
AcDbLine
 10
-0.1805
 20
-3.288333333333333
 30
0.0
 11
-0.1805
 21
-3.308333333333333
 31
0.0
  0
LINE
  5
BB
330
9B
100
AcDbEntity
  8
AM_0
 48
0.0020166291450385
100
AcDbLine
 10
-0.0994999992818881
 20
-3.389333333333333
 30
0.0
 11
0.0995
 21
-3.389333333333333
 31
0.0
  0
ARC
  5
BC
330
9B
100
AcDbEntity
  8
AM_0
 48
0.0020166291450385
100
AcDbCircle
 10
0.0995000000000002
 20
-3.308333333333333
 30
0.0
 40
0.081
100
AcDbArc
 50
269.9999999999999
 51
0.0
  0
ARC
  5
BD
330
9B
100
AcDbEntity
  8
AM_0
 48
0.0020166291450385
100
AcDbCircle
 10
-0.0995000000000002
 20
-3.308333333333333
 30
0.0
 40
0.0809999999999998
100
AcDbArc
 50
180.0
 51
270.0000000000001
  0
LINE
  5
BF
330
9B
100
AcDbEntity
  8
AM_4
 48
0.0020166291450385
100
AcDbLine
 10
-0.1805
 20
-3.308333333333333
 30
0.0
 11
0.1805
 21
-3.308333333333333
 31
0.0
  0
ENDBLK
  5
9E
330
9B
100
AcDbEntity
  8
0
100
AcDbBlockEnd
  0
BLOCK
  5
C2
330
C0
100
AcDbEntity
  8
0
100
AcDbBlockBegin
  2
3_070885LWE_0_in_071315_4
 70
     2
 10
0.0
 20
0.0
 30
0.0
  3
3_070885LWE_0_in_071315_4
  1

  0
ATTDEF
  5
C4
330
C0
100
AcDbEntity
  8
AM_6
100
AcDbText
 10
6.359375
 20
-2.848333333333333
 30
0.0
 40
0.5
  1
Imperial/E Insert Lockwasher -Inch
100
AcDbAttributeDefinition
  3

  2
NN
 70
     8
280
     0
  0
ATTDEF
  5
C5
330
C0
100
AcDbEntity
  8
AM_6
100
AcDbText
 10
6.359375
 20
-3.348333333333333
 30
0.0
 40
0.5
  1
Imperial/E Bearings
100
AcDbAttributeDefinition
  3

  2
NT
 70
     8
280
     0
  0
ATTDEF
  5
C6
330
C0
100
AcDbEntity
  8
AM_6
100
AcDbText
 10
6.359375
 20
-3.848333333333333
 30
0.0
 40
0.5
  1
070885LWE
100
AcDbAttributeDefinition
  3

  2
NB
 70
     8
280
     0
  0
ATTDEF
  5
C7
330
C0
100
AcDbEntity
  8
AM_6
100
AcDbText
 10
6.359375
 20
-4.348333333333333
 30
0.0
 40
0.5
  1
$PN.LWE
100
AcDbAttributeDefinition
  3

  2
NBSYN
 70
     8
280
     0
  0
ATTDEF
  5
C8
330
C0
100
AcDbEntity
  8
AM_6
100
AcDbText
 10
6.359375
 20
-4.848333333333333
 30
0.0
 40
0.5
  1
070885
100
AcDbAttributeDefinition
  3

  2
LINA
 70
     8
280
     0
  0
ATTDEF
  5
C9
330
C0
100
AcDbEntity
  8
AM_6
100
AcDbText
 10
6.359375
 20
-5.348333333333333
 30
0.0
 40
0.5
  1
1-1/2
100
AcDbAttributeDefinition
  3

  2
SS
 70
     8
280
     0
  0
ATTDEF
  5
CA
330
C0
100
AcDbEntity
  8
AM_6
100
AcDbText
 10
6.359375
 20
-5.848333333333333
 30
0.0
 40
0.5
  1
2.718750
100
AcDbAttributeDefinition
  3

  2
E1
 70
     8
280
     0
  0
ATTDEF
  5
CB
330
C0
100
AcDbEntity
  8
AM_6
100
AcDbText
 10
6.359375
 20
-6.348333333333333
 30
0.0
 40
0.5
  1
1.500000
100
AcDbAttributeDefinition
  3

  2
SS1
 70
     8
280
     0
  0
ATTDEF
  5
CC
330
C0
100
AcDbEntity
  8
AM_6
100
AcDbText
 10
6.359375
 20
-6.848333333333333
 30
0.0
 40
0.5
  1
070885
100
AcDbAttributeDefinition
  3

  2
PN
 70
     8
280
     0
  0
ATTDEF
  5
CD
330
C0
100
AcDbEntity
  8
AM_6
100
AcDbText
 10
6.359375
 20
-7.348333333333333
 30
0.0
 40
0.5
  1
INS-IP-108R
100
AcDbAttributeDefinition
  3

  2
DESCRIPTION
 70
     8
280
     0
  0
ATTDEF
  5
CE
330
C0
100
AcDbEntity
  8
AM_6
100
AcDbText
 10
6.359375
 20
-7.848333333333333
 30
0.0
 40
0.5
  1
3.1496
100
AcDbAttributeDefinition
  3

  2
A
 70
     8
280
     0
  0
ATTDEF
  5
CF
330
C0
100
AcDbEntity
  8
AM_6
100
AcDbText
 10
6.359375
 20
-8.348333333333333
 30
0.0
 40
0.5
  1
61/64
100
AcDbAttributeDefinition
  3

  2
B
 70
     8
280
     0
  0
ATTDEF
  5
D0
330
C0
100
AcDbEntity
  8
AM_6
100
AcDbText
 10
6.359375
 20
-8.848333333333333
 30
0.0
 40
0.5
  1
0.953125
100
AcDbAttributeDefinition
  3

  2
B1
 70
     8
280
     0
  0
ATTDEF
  5
D1
330
C0
100
AcDbEntity
  8
AM_6
100
AcDbText
 10
6.359375
 20
-9.348333333333333
 30
0.0
 40
0.5
  1
2-5/8
100
AcDbAttributeDefinition
  3

  2
C
 70
     8
280
     0
  0
ATTDEF
  5
D2
330
C0
100
AcDbEntity
  8
AM_6
100
AcDbText
 10
6.359375
 20
-9.848333333333333
 30
0.0
 40
0.5
  1
2.625000
100
AcDbAttributeDefinition
  3

  2
C1
 70
     8
280
     0
  0
ATTDEF
  5
D3
330
C0
100
AcDbEntity
  8
AM_6
100
AcDbText
 10
6.359375
 20
-10.34833333333333
 30
0.0
 40
0.5
  1
0.970
100
AcDbAttributeDefinition
  3

  2
D
 70
     8
280
     0
  0
ATTDEF
  5
D4
330
C0
100
AcDbEntity
  8
AM_6
100
AcDbText
 10
6.359375
 20
-10.84833333333333
 30
0.0
 40
0.5
  1
2-23/32
100
AcDbAttributeDefinition
  3

  2
E
 70
     8
280
     0
  0
ATTDEF
  5
D5
330
C0
100
AcDbEntity
  8
AM_6
100
AcDbText
 10
6.359375
 20
-11.34833333333333
 30
0.0
 40
0.5
  1
0.1900
100
AcDbAttributeDefinition
  3

  2
NDM
 70
     8
280
     0
  0
ATTDEF
  5
D6
330
C0
100
AcDbEntity
  8
AM_6
100
AcDbText
 10
6.359375
 20
-11.84833333333333
 30
0.0
 40
0.5
  1
0.1450
100
AcDbAttributeDefinition
  3

  2
KDM
 70
     8
280
     0
  0
ATTDEF
  5
D7
330
C0
100
AcDbEntity
  8
AM_6
100
AcDbText
 10
6.359375
 20
-12.34833333333333
 30
0.0
 40
0.5
  1
2.22
100
AcDbAttributeDefinition
  3

  2
AL
 70
     8
280
     0
  0
ATTDEF
  5
D8
330
C0
100
AcDbEntity
  8
AM_6
100
AcDbText
 10
6.359375
 20
-12.84833333333333
 30
0.0
 40
0.5
  1
0.38
100
AcDbAttributeDefinition
  3

  2
BL
 70
     8
280
     0
  0
ATTDEF
  5
D9
330
C0
100
AcDbEntity
  8
AM_6
100
AcDbText
 10
6.359375
 20
-13.34833333333333
 30
0.0
 40
0.5
  1
0.07
100
AcDbAttributeDefinition
  3

  2
CL
 70
     8
280
     0
  0
ATTDEF
  5
DA
330
C0
100
AcDbEntity
  8
AM_6
100
AcDbText
 10
6.359375
 20
-13.84833333333333
 30
0.0
 40
0.5
  1
0.44
100
AcDbAttributeDefinition
  3

  2
DL
 70
     8
280
     0
  0
ATTDEF
  5
DB
330
C0
100
AcDbEntity
  8
AM_6
100
AcDbText
 10
6.359375
 20
-14.34833333333333
 30
0.0
 40
0.5
  1
baldor
100
AcDbAttributeDefinition
  3

  2
COMPANY
 70
     8
280
     0
  0
LINE
  5
DC
330
C0
100
AcDbEntity
  8
AM_9
 48
0.0061150650527446
100
AcDbLine
 10
1.096354166666667
 20
-3.218333333333333
 30
0.0
 11
1.096354166666667
 21
-3.288333333333333
 31
0.0
  0
LINE
  5
DD
330
C0
100
AcDbEntity
  8
AM_9
 48
0.0061150650527446
100
AcDbLine
 10
1.191443622710965
 20
-3.288333333333333
 30
0.0
 11
1.191443622710965
 21
-3.218333333333333
 31
0.0
  0
LINE
  5
DE
330
C0
100
AcDbEntity
  8
AM_9
 48
0.0061150650527446
100
AcDbLine
 10
-1.096354166666667
 20
-3.218333333333333
 30
0.0
 11
-1.096354166666667
 21
-3.288333333333333
 31
0.0
  0
LINE
  5
DF
330
C0
100
AcDbEntity
  8
AM_9
 48
0.0061150650527446
100
AcDbLine
 10
-1.191443622710965
 20
-3.218333333333333
 30
0.0
 11
-1.191443622710965
 21
-3.288333333333333
 31
0.0
  0
LINE
  5
E0
330
C0
100
AcDbEntity
  8
AM_9
 48
0.0061150650527446
100
AcDbLine
 10
0.8052261613532463
 20
-3.218333333333333
 30
0.0
 11
0.8052261613532463
 21
-3.288333333333333
 31
0.0
  0
LINE
  5
E1
330
C0
100
AcDbEntity
  8
AM_9
 48
0.0061150650527446
100
AcDbLine
 10
-0.8052261613532463
 20
-3.218333333333333
 30
0.0
 11
-0.8052261613532463
 21
-3.288333333333333
 31
0.0
  0
LINE
  5
E2
330
C0
100
AcDbEntity
  8
AM_9
 48
0.0061150650527446
100
AcDbLine
 10
-0.3724693408726801
 20
-2.848333333333333
 30
0.0
 11
-0.3724693408726801
 21
-3.288333333333333
 31
0.0
  0
LINE
  5
E3
330
C0
100
AcDbEntity
  8
AM_9
 48
0.0061150650527446
100
AcDbLine
 10
-0.3959152668453982
 20
-3.218333333333333
 30
0.0
 11
-0.3959152668453982
 21
-3.288333333333333
 31
0.0
  0
LINE
  5
E4
330
C0
100
AcDbEntity
  8
AM_9
 48
0.0061150650527446
100
AcDbLine
 10
0.6365560232944156
 20
-3.218333333333333
 30
0.0
 11
0.6365560232944156
 21
-3.288333333333333
 31
0.0
  0
LINE
  5
E5
330
C0
100
AcDbEntity
  8
AM_9
 48
0.0061150650527446
100
AcDbLine
 10
-0.6365560232944156
 20
-3.218333333333333
 30
0.0
 11
-0.6365560232944156
 21
-3.288333333333333
 31
0.0
  0
LINE
  5
E6
330
C0
100
AcDbEntity
  8
AM_9
 48
0.0061150650527446
100
AcDbLine
 10
-0.5022057348689715
 20
-3.218333333333333
 30
0.0
 11
-0.5022057348689715
 21
-3.288333333333333
 31
0.0
  0
LINE
  5
E7
330
C0
100
AcDbEntity
  8
AM_9
 48
0.0061150650527446
100
AcDbLine
 10
-0.2203781556682535
 20
-3.218333333333333
 30
0.0
 11
-0.2203781556682535
 21
-3.288333333333333
 31
0.0
  0
LINE
  5
E8
330
C0
100
AcDbEntity
  8
AM_9
 48
0.0061150650527446
100
AcDbLine
 10
-0.1969322296955356
 20
-2.848333333333333
 30
0.0
 11
-0.3876917239675319
 21
-2.848333333333333
 31
0.0
  0
LINE
  5
E9
330
C0
100
AcDbEntity
  8
AM_9
 48
0.0061150650527446
100
AcDbLine
 10
-0.1969322296955356
 20
-2.848333333333333
 30
0.0
 11
-0.1969322296955356
 21
-3.288333333333333
 31
0.0
  0
LINE
  5
EA
330
C0
100
AcDbEntity
  8
AM_9
 48
0.0061150650527446
100
AcDbLine
 10
-0.2121546127903873
 20
-3.218333333333333
 30
0.0
 11
-0.2121546127903873
 21
-2.848333333333333
 31
0.0
  0
LINE
  5
EB
330
C0
100
AcDbEntity
  8
AM_9
 48
0.0061150650527446
100
AcDbLine
 10
-0.3876917239675319
 20
-2.848333333333333
 30
0.0
 11
-0.3876917239675319
 21
-3.218333333333333
 31
0.0
  0
LINE
  5
EC
330
C0
100
AcDbEntity
  8
AM_9
 48
0.0061150650527446
100
AcDbLine
 10
0.5022057348689718
 20
-3.218333333333333
 30
0.0
 11
0.5022057348689717
 21
-3.288333333333333
 31
0.0
  0
LINE
  5
ED
330
C0
100
AcDbEntity
  8
AM_9
 48
0.0061150650527446
100
AcDbLine
 10
0.7080643216194044
 20
-3.218333333333333
 30
0.0
 11
0.7080643216194044
 21
-3.288333333333333
 31
0.0
  0
LINE
  5
EE
330
C0
100
AcDbEntity
  8
AM_9
 48
0.0061150650527446
100
AcDbLine
 10
0.8424146100448484
 20
-3.218333333333333
 30
0.0
 11
0.8424146100448484
 21
-3.288333333333333
 31
0.0
  0
LINE
  5
EF
330
C0
100
AcDbEntity
  8
AM_9
 48
0.0061150650527446
100
AcDbLine
 10
0.8703027331320836
 20
-3.288333333333333
 30
0.0
 11
0.8703027331320836
 21
-3.218333333333333
 31
0.0
  0
LINE
  5
F0
330
C0
100
AcDbEntity
  8
AM_9
 48
0.0061150650527446
100
AcDbLine
 10
-0.8424146100448481
 20
-3.218333333333333
 30
0.0
 11
-0.8424146100448481
 21
-3.288333333333333
 31
0.0
  0
LINE
  5
F1
330
C0
100
AcDbEntity
  8
AM_9
 48
0.0061150650527446
100
AcDbLine
 10
-0.7080643216194041
 20
-3.218333333333333
 30
0.0
 11
-0.7080643216194041
 21
-3.288333333333333
 31
0.0
  0
LINE
  5
F2
330
C0
100
AcDbEntity
  8
AM_9
 48
0.0061150650527446
100
AcDbLine
 10
-0.8703027331320834
 20
-3.218333333333333
 30
0.0
 11
-0.8703027331320834
 21
-3.288333333333333
 31
0.0
  0
LINE
  5
F3
330
C0
100
AcDbEntity
  8
AM_9
 48
0.0061150650527446
100
AcDbLine
 10
-0.0949999999999997
 20
-3.218333333333333
 30
0.0
 11
-0.0949999999999997
 21
-3.288333333333333
 31
0.0
  0
LINE
  5
F4
330
C0
100
AcDbEntity
  8
AM_9
 48
0.0061150650527446
100
AcDbLine
 10
0.0950000000000001
 20
-3.218333333333333
 30
0.0
 11
0.0950000000000001
 21
-3.288333333333333
 31
0.0
  0
LINE
  5
F5
330
C0
100
AcDbEntity
  8
AM_0
 48
0.0061150650527446
100
AcDbLine
 10
-1.359375
 20
-3.218333333333333
 30
0.0
 11
-1.359375
 21
-3.288333333333333
 31
0.0
  0
LINE
  5
F6
330
C0
100
AcDbEntity
  8
AM_0
 48
0.0061150650527446
100
AcDbLine
 10
1.359375
 20
-3.288333333333333
 30
0.0
 11
1.359375
 21
-3.218333333333333
 31
0.0
  0
LINE
  5
F7
330
C0
100
AcDbEntity
  8
AM_0
 48
0.0061150650527446
100
AcDbLine
 10
-1.359375
 20
-3.288333333333333
 30
0.0
 11
1.359375
 21
-3.288333333333333
 31
0.0
  0
LINE
  5
F8
330
C0
100
AcDbEntity
  8
AM_0
 48
0.0061150650527446
100
AcDbLine
 10
-1.359375
 20
-3.218333333333333
 30
0.0
 11
1.359375
 21
-3.218333333333333
 31
0.0
  0
ENDBLK
  5
C3
330
C0
100
AcDbEntity
  8
0
100
AcDbBlockEnd
  0
BLOCK
  5
FB
330
F9
100
AcDbEntity
  8
0
100
AcDbBlockBegin
  2
4_070885E_0_in_071315_4
 70
     2
 10
0.0
 20
0.0
 30
0.0
  3
4_070885E_0_in_071315_4
  1

  0
ATTDEF
  5
FD
330
F9
100
AcDbEntity
  8
AM_6
100
AcDbText
 10
6.5748
 20
-0.62
 30
0.0
 40
0.5
  1
Imperial/E Insert -Inch
100
AcDbAttributeDefinition
  3

  2
NN
 70
     8
280
     0
  0
ATTDEF
  5
FE
330
F9
100
AcDbEntity
  8
AM_6
100
AcDbText
 10
6.5748
 20
-1.12
 30
0.0
 40
0.5
  1
Imperial Bearings
100
AcDbAttributeDefinition
  3

  2
NT
 70
     8
280
     0
  0
ATTDEF
  5
FF
330
F9
100
AcDbEntity
  8
AM_6
100
AcDbText
 10
6.5748
 20
-1.62
 30
0.0
 40
0.5
  1
070885E
100
AcDbAttributeDefinition
  3

  2
NB
 70
     8
280
     0
  0
ATTDEF
  5
100
330
F9
100
AcDbEntity
  8
AM_6
100
AcDbText
 10
6.5748
 20
-2.12
 30
0.0
 40
0.5
  1
$PN.
100
AcDbAttributeDefinition
  3

  2
NBSYN
 70
     8
280
     0
  0
ATTDEF
  5
101
330
F9
100
AcDbEntity
  8
AM_6
100
AcDbText
 10
6.5748
 20
-2.62
 30
0.0
 40
0.5
  1
070885E
100
AcDbAttributeDefinition
  3

  2
LINA
 70
     8
280
     0
  0
ATTDEF
  5
102
330
F9
100
AcDbEntity
  8
AM_6
100
AcDbText
 10
6.5748
 20
-3.12
 30
0.0
 40
0.5
  1
1-1/2
100
AcDbAttributeDefinition
  3

  2
SS
 70
     8
280
     0
  0
ATTDEF
  5
103
330
F9
100
AcDbEntity
  8
AM_6
100
AcDbText
 10
6.5748
 20
-3.62
 30
0.0
 40
0.5
  1
1.500000
100
AcDbAttributeDefinition
  3

  2
SS1
 70
     8
280
     0
  0
ATTDEF
  5
104
330
F9
100
AcDbEntity
  8
AM_6
100
AcDbText
 10
6.5748
 20
-4.12
 30
0.0
 40
0.5
  1
070885E
100
AcDbAttributeDefinition
  3

  2
PN
 70
     8
280
     0
  0
ATTDEF
  5
105
330
F9
100
AcDbEntity
  8
AM_6
100
AcDbText
 10
6.5748
 20
-4.62
 30
0.0
 40
0.5
  1
INS-IP-108R
100
AcDbAttributeDefinition
  3

  2
DESCRIPTION
 70
     8
280
     0
  0
ATTDEF
  5
106
330
F9
100
AcDbEntity
  8
AM_6
100
AcDbText
 10
6.5748
 20
-5.12
 30
0.0
 40
0.5
  1
Contact Seal
100
AcDbAttributeDefinition
  3

  2
ST
 70
     8
280
     0
  0
ATTDEF
  5
107
330
F9
100
AcDbEntity
  8
AM_6
100
AcDbText
 10
6.5748
 20
-5.62
 30
0.0
 40
0.5
  1
1
100
AcDbAttributeDefinition
  3

  2
ST1
 70
     8
280
     0
  0
ATTDEF
  5
108
330
F9
100
AcDbEntity
  8
AM_6
100
AcDbText
 10
6.5748
 20
-6.12
 30
0.0
 40
0.5
  1
3.1496
100
AcDbAttributeDefinition
  3

  2
A
 70
     8
280
     0
  0
ATTDEF
  5
109
330
F9
100
AcDbEntity
  8
AM_6
100
AcDbText
 10
6.5748
 20
-6.62
 30
0.0
 40
0.5
  1
61/64
100
AcDbAttributeDefinition
  3

  2
B
 70
     8
280
     0
  0
ATTDEF
  5
10A
330
F9
100
AcDbEntity
  8
AM_6
100
AcDbText
 10
6.5748
 20
-7.12
 30
0.0
 40
0.5
  1
0.953125
100
AcDbAttributeDefinition
  3

  2
B1
 70
     8
280
     0
  0
ATTDEF
  5
10B
330
F9
100
AcDbEntity
  8
AM_6
100
AcDbText
 10
6.5748
 20
-7.62
 30
0.0
 40
0.5
  1
2-5/8
100
AcDbAttributeDefinition
  3

  2
C
 70
     8
280
     0
  0
ATTDEF
  5
10C
330
F9
100
AcDbEntity
  8
AM_6
100
AcDbText
 10
6.5748
 20
-8.120000000000001
 30
0.0
 40
0.5
  1
2.810000
100
AcDbAttributeDefinition
  3

  2
C1
 70
     8
280
     0
  0
ATTDEF
  5
10D
330
F9
100
AcDbEntity
  8
AM_6
100
AcDbText
 10
6.5748
 20
-8.620000000000001
 30
0.0
 40
0.5
  1
3.64000
100
AcDbAttributeDefinition
  3

  2
CR
 70
     8
280
     0
  0
ATTDEF
  5
10E
330
F9
100
AcDbEntity
  8
AM_6
100
AcDbText
 10
6.5748
 20
-9.120000000000001
 30
0.0
 40
0.5
  1
0.970
100
AcDbAttributeDefinition
  3

  2
D
 70
     8
280
     0
  0
ATTDEF
  5
10F
330
F9
100
AcDbEntity
  8
AM_6
100
AcDbText
 10
6.5748
 20
-9.620000000000001
 30
0.0
 40
0.5
  1
2-23/32
100
AcDbAttributeDefinition
  3

  2
E
 70
     8
280
     0
  0
ATTDEF
  5
110
330
F9
100
AcDbEntity
  8
AM_6
100
AcDbText
 10
6.5748
 20
-10.12
 30
0.0
 40
0.5
  1
2.718750
100
AcDbAttributeDefinition
  3

  2
E1
 70
     8
280
     0
  0
ATTDEF
  5
111
330
F9
100
AcDbEntity
  8
AM_6
100
AcDbText
 10
6.5748
 20
-10.62
 30
0.0
 40
0.5
  1
0.1900
100
AcDbAttributeDefinition
  3

  2
NDM
 70
     8
280
     0
  0
ATTDEF
  5
112
330
F9
100
AcDbEntity
  8
AM_6
100
AcDbText
 10
6.5748
 20
-11.12
 30
0.0
 40
0.5
  1
0.1450
100
AcDbAttributeDefinition
  3

  2
KDM
 70
     8
280
     0
  0
ATTDEF
  5
113
330
F9
100
AcDbEntity
  8
AM_6
100
AcDbText
 10
6.5748
 20
-11.62
 30
0.0
 40
0.5
  1
2.22
100
AcDbAttributeDefinition
  3

  2
AL
 70
     8
280
     0
  0
ATTDEF
  5
114
330
F9
100
AcDbEntity
  8
AM_6
100
AcDbText
 10
6.5748
 20
-12.12
 30
0.0
 40
0.5
  1
0.38
100
AcDbAttributeDefinition
  3

  2
BL
 70
     8
280
     0
  0
ATTDEF
  5
115
330
F9
100
AcDbEntity
  8
AM_6
100
AcDbText
 10
6.5748
 20
-12.62
 30
0.0
 40
0.5
  1
0.07
100
AcDbAttributeDefinition
  3

  2
CL
 70
     8
280
     0
  0
ATTDEF
  5
116
330
F9
100
AcDbEntity
  8
AM_6
100
AcDbText
 10
6.5748
 20
-13.12
 30
0.0
 40
0.5
  1
0.44
100
AcDbAttributeDefinition
  3

  2
DL
 70
     8
280
     0
  0
ATTDEF
  5
117
330
F9
100
AcDbEntity
  8
AM_6
100
AcDbText
 10
6.5748
 20
-13.62
 30
0.0
 40
0.5
  1
0.8000
100
AcDbAttributeDefinition
  3

  2
LL
 70
     8
280
     0
  0
ATTDEF
  5
118
330
F9
100
AcDbEntity
  8
AM_6
100
AcDbText
 10
6.5748
 20
-14.12
 30
0.0
 40
0.5
  1
0.020
100
AcDbAttributeDefinition
  3

  2
Y
 70
     8
280
     0
  0
ATTDEF
  5
119
330
F9
100
AcDbEntity
  8
AM_6
100
AcDbText
 10
6.5748
 20
-14.62
 30
0.0
 40
0.5
  1
0.020000
100
AcDbAttributeDefinition
  3

  2
Y1
 70
     8
280
     0
  0
ATTDEF
  5
11A
330
F9
100
AcDbEntity
  8
AM_6
100
AcDbText
 10
6.5748
 20
-15.12
 30
0.0
 40
0.5
  1
1-51/64
100
AcDbAttributeDefinition
  3

  2
Z
 70
     8
280
     0
  0
ATTDEF
  5
11B
330
F9
100
AcDbEntity
  8
AM_6
100
AcDbText
 10
6.5748
 20
-15.62
 30
0.0
 40
0.5
  1
1.796875
100
AcDbAttributeDefinition
  3

  2
Z1
 70
     8
280
     0
  0
ATTDEF
  5
11C
330
F9
100
AcDbEntity
  8
AM_6
100
AcDbText
 10
6.5748
 20
-16.12
 30
0.0
 40
0.5
  1
0.83000
100
AcDbAttributeDefinition
  3

  2
P1
 70
     8
280
     0
  0
ATTDEF
  5
11D
330
F9
100
AcDbEntity
  8
AM_6
100
AcDbText
 10
6.5748
 20
-16.62
 30
0.0
 40
0.5
  1
1.19000
100
AcDbAttributeDefinition
  3

  2
H1
 70
     8
280
     0
  0
ATTDEF
  5
11E
330
F9
100
AcDbEntity
  8
AM_6
100
AcDbText
 10
6.5748
 20
-17.12
 30
0.0
 40
0.5
  1
0.67000
100
AcDbAttributeDefinition
  3

  2
G1
 70
     8
280
     0
  0
ATTDEF
  5
11F
330
F9
100
AcDbEntity
  8
AM_6
100
AcDbText
 10
6.5748
 20
-17.62
 30
0.0
 40
0.5
  1
0.10100
100
AcDbAttributeDefinition
  3

  2
CW
 70
     8
280
     0
  0
ATTDEF
  5
120
330
F9
100
AcDbEntity
  8
AM_6
100
AcDbText
 10
6.5748
 20
-18.12
 30
0.0
 40
0.5
  1
3.00000
100
AcDbAttributeDefinition
  3

  2
L1
 70
     8
280
     0
  0
ATTDEF
  5
121
330
F9
100
AcDbEntity
  8
AM_6
100
AcDbText
 10
6.5748
 20
-18.62
 30
0.0
 40
0.5
  1
baldor
100
AcDbAttributeDefinition
  3

  2
COMPANY
 70
     8
280
     0
  0
LINE
  5
122
330
F9
100
AcDbEntity
  8
AM_9
 48
0.0099028120890117
100
AcDbLine
 10
-0.3884946897085244
 20
-1.1334375
 30
0.0
 11
-0.387691723967532
 21
-3.288333333333333
 31
0.0
  0
LINE
  5
123
330
F9
100
AcDbEntity
  8
AM_9
 48
0.0099028120890117
100
AcDbLine
 10
-0.1969322296955357
 20
-1.1334375
 30
0.0
 11
-0.1969322296955358
 21
-3.45
 31
0.0
  0
LINE
  5
124
330
F9
100
AcDbEntity
  8
AM_9
 48
0.0099028120890117
100
AcDbLine
 10
-0.3724693408726802
 20
-3.288333333333333
 30
0.0
 11
-0.3724693408726802
 21
-1.1334375
 31
0.0
  0
LINE
  5
125
330
F9
100
AcDbEntity
  8
AM_9
 48
0.0099028120890117
100
AcDbLine
 10
-0.7499999999999997
 20
-1.1334375
 30
0.0
 11
-0.7499999999999997
 21
-3.45
 31
0.0
  0
LINE
  5
126
330
F9
100
AcDbEntity
  8
AM_9
 48
0.0099028120890117
100
AcDbLine
 10
0.7499999999999997
 20
-3.45
 30
0.0
 11
0.7499999999999997
 21
-1.1334375
 31
0.0
  0
LINE
  5
127
330
F9
100
AcDbEntity
  8
AM_9
 48
0.0099028120890117
100
AcDbLine
 10
-0.21295757853138
 20
-1.1334375
 30
0.0
 11
-0.2121546127903875
 21
-3.288333333333333
 31
0.0
  0
LINE
  5
128
330
F9
100
AcDbEntity
  8
AM_9
 48
0.0099028120890117
100
AcDbLine
 10
-0.7894736842105261
 20
-0.6400000000000002
 30
0.0
 11
-0.7894736842105261
 21
-1.1334375
 31
0.0
  0
LINE
  5
129
330
F9
100
AcDbEntity
  8
AM_9
 48
0.0099028120890117
100
AcDbLine
 10
0.7894736842105261
 20
-1.1334375
 30
0.0
 11
0.7894736842105261
 21
-0.6400000000000002
 31
0.0
  0
LINE
  5
12A
330
F9
100
AcDbEntity
  8
AM_9
 48
0.0099028120890117
100
AcDbLine
 10
-0.7894736842105263
 20
-3.218333333333333
 30
0.0
 11
-0.7894736842105263
 21
-3.288333333333333
 31
0.0
  0
LINE
  5
12B
330
F9
100
AcDbEntity
  8
AM_9
 48
0.0099028120890117
100
AcDbLine
 10
0.7894736842105263
 20
-3.288333333333333
 30
0.0
 11
0.7894736842105263
 21
-3.218333333333333
 31
0.0
  0
LINE
  5
12C
330
F9
100
AcDbEntity
  8
AM_9
 48
0.0099028120890117
100
AcDbLine
 10
0.8984375000000001
 20
-0.6400000000000002
 30
0.0
 11
-0.8984375000000001
 21
-0.6400000000000002
 31
0.0
  0
LINE
  5
12D
330
F9
100
AcDbEntity
  8
AM_9
 48
0.0099028120890117
100
AcDbLine
 10
-0.8984375000000001
 20
-0.62
 30
0.0
 11
-0.8984375000000001
 21
-0.6400000000000002
 31
0.0
  0
LINE
  5
12E
330
F9
100
AcDbEntity
  8
AM_9
 48
0.0099028120890117
100
AcDbLine
 10
0.8984375000000001
 20
-0.6400000000000002
 30
0.0
 11
0.8984375000000001
 21
-0.62
 31
0.0
  0
LINE
  5
12F
330
F9
100
AcDbEntity
  8
AM_9
 48
0.0099028120890117
100
AcDbLine
 10
-0.6505382386916237
 20
-2.778333333333333
 30
0.0
 11
-0.6505382386916237
 21
-3.218333333333333
 31
0.0
  0
LINE
  5
130
330
F9
100
AcDbEntity
  8
AM_9
 48
0.0099028120890117
100
AcDbLine
 10
-0.9192388155425119
 20
-2.778333333333333
 30
0.0
 11
-0.9192388155425119
 21
-2.97
 31
0.0
  0
LINE
  5
131
330
F9
100
AcDbEntity
  8
AM_9
 48
0.0099028120890117
100
AcDbLine
 10
0.650538238691624
 20
-2.778333333333333
 30
0.0
 11
0.650538238691624
 21
-3.218333333333333
 31
0.0
  0
LINE
  5
132
330
F9
100
AcDbEntity
  8
AM_9
 48
0.0099028120890117
100
AcDbLine
 10
0.9192388155425121
 20
-2.778333333333333
 30
0.0
 11
0.9192388155425121
 21
-2.97
 31
0.0
  0
LINE
  5
133
330
F9
100
AcDbEntity
  8
AM_9
 48
0.0099028120890117
100
AcDbLine
 10
0.650538238691624
 20
-2.778333333333333
 30
0.0
 11
1.091622453997034
 21
-2.778333333333333
 31
0.0
  0
LINE
  5
134
330
F9
100
AcDbEntity
  8
AM_9
 48
0.0099028120890117
100
AcDbLine
 10
-1.091622453997034
 20
-2.778333333333333
 30
0.0
 11
-0.6505382386916237
 21
-2.778333333333333
 31
0.0
  0
LINE
  5
135
330
F9
100
AcDbEntity
  8
AM_9
 48
0.0099028120890117
100
AcDbLine
 10
0.0
 20
-2.378333333333333
 30
0.0
 11
-0.0724499999999998
 21
-2.420162360336122
 31
0.0
  0
LINE
  5
136
330
F9
100
AcDbEntity
  8
AM_9
 48
0.0099028120890117
100
AcDbLine
 10
0.0724499999999998
 20
-2.420162360336122
 30
0.0
 11
0.0
 21
-2.378333333333333
 31
0.0
  0
LINE
  5
137
330
F9
100
AcDbEntity
  8
AM_9
 48
0.0099028120890117
100
AcDbLine
 10
0.0724499999999998
 20
-2.420162360336122
 30
0.0
 11
-0.0724499999999998
 21
-2.420162360336122
 31
0.0
  0
LINE
  5
138
330
F9
100
AcDbEntity
  8
AM_9
 48
0.0099028120890117
100
AcDbLine
 10
-0.0724499999999998
 20
-2.420162360336122
 30
0.0
 11
-0.0724499999999998
 21
-3.195783333333333
 31
0.0
  0
LINE
  5
139
330
F9
100
AcDbEntity
  8
AM_9
 48
0.0099028120890117
100
AcDbLine
 10
0.0724499999999998
 20
-3.195783333333333
 30
0.0
 11
0.0724499999999998
 21
-2.420162360336122
 31
0.0
  0
LINE
  5
13A
330
F9
100
AcDbEntity
  8
AM_9
 48
0.0099028120890117
100
AcDbLine
 10
0.0724499999999998
 20
-3.195783333333333
 30
0.0
 11
-0.0724499999999998
 21
-3.195783333333333
 31
0.0
  0
LINE
  5
13B
330
F9
100
AcDbEntity
  8
AM_9
 48
0.0099028120890117
100
AcDbLine
 10
-0.0724499999999998
 20
-3.195783333333333
 30
0.0
 11
-0.0949999999999999
 21
-3.218333333333333
 31
0.0
  0
LINE
  5
13C
330
F9
100
AcDbEntity
  8
AM_9
 48
0.0099028120890117
100
AcDbLine
 10
0.0949999999999999
 20
-3.218333333333333
 30
0.0
 11
0.0724499999999998
 21
-3.195783333333333
 31
0.0
  0
LINE
  5
13D
330
F9
100
AcDbEntity
  8
AM_9
 48
0.0099028120890117
100
AcDbLine
 10
-1.197916666666667
 20
-0.6799999999999998
 30
0.0
 11
-1.197916666666667
 21
-0.9428125
 31
0.0
  0
LINE
  5
13E
330
F9
100
AcDbEntity
  8
AM_9
 48
0.0099028120890117
100
AcDbLine
 10
1.197916666666667
 20
-0.9428125
 30
0.0
 11
1.197916666666667
 21
-0.6799999999999998
 31
0.0
  0
LINE
  5
13F
330
F9
100
AcDbEntity
  8
AM_9
 48
0.0099028120890117
100
AcDbLine
 10
1.207007578016765
 20
-0.9428125
 30
0.0
 11
-1.207007577990638
 21
-0.9428125
 31
0.0
  0
ARC
  5
140
330
F9
100
AcDbEntity
  8
AM_9
 48
0.0099028120890117
100
AcDbCircle
 10
-1.207007578016765
 20
-1.0428125
 30
0.0
 40
0.0999999999999999
100
AcDbArc
 50
89.99999999999987
 51
149.9999999999999
  0
ARC
  5
141
330
F9
100
AcDbEntity
  8
AM_9
 48
0.0099028120890117
100
AcDbCircle
 10
1.207007578016765
 20
-1.0428125
 30
0.0
 40
0.1000000000000001
100
AcDbArc
 50
30.00000000000014
 51
90.0
  0
LINE
  5
142
330
F9
100
AcDbEntity
  8
AM_9
 48
0.0099028120890117
100
AcDbLine
 10
1.293610118395209
 20
-0.9928125000000001
 30
0.0
 11
-1.293610118395209
 21
-0.9928125000000001
 31
0.0
  0
LINE
  5
143
330
F9
100
AcDbEntity
  8
AM_9
 48
0.0099028120890117
100
AcDbLine
 10
-1.293610118395209
 20
-0.9928125000000001
 30
0.0
 11
-1.3748
 21
-1.1334375
 31
0.0
  0
LINE
  5
144
330
F9
100
AcDbEntity
  8
AM_9
 48
0.0099028120890117
100
AcDbLine
 10
1.3748
 20
-1.1334375
 30
0.0
 11
1.293610118395209
 21
-0.9928125000000001
 31
0.0
  0
LINE
  5
145
330
F9
100
AcDbEntity
  8
AM_9
 48
0.0099028120890117
100
AcDbLine
 10
-1.089233547289807
 20
-2.97000000187445
 30
0.0
 11
-1.091622453997034
 21
-2.778333333333333
 31
0.0
  0
LINE
  5
146
330
F9
100
AcDbEntity
  8
AM_9
 48
0.0099028120890117
100
AcDbLine
 10
-0.8229218771461461
 20
-2.778333333333333
 30
0.0
 11
-0.8205329704389193
 21
-2.97000000187445
 31
0.0
  0
LINE
  5
147
330
F9
100
AcDbEntity
  8
AM_9
 48
0.0099028120890117
100
AcDbLine
 10
0.8205329704389195
 20
-2.97000000187445
 30
0.0
 11
0.8229218771461461
 21
-2.778333333333333
 31
0.0
  0
LINE
  5
148
330
F9
100
AcDbEntity
  8
AM_9
 48
0.0099028120890117
100
AcDbLine
 10
1.091622453997034
 20
-2.778333333333333
 30
0.0
 11
1.089233547289808
 21
-2.97000000187445
 31
0.0
  0
LINE
  5
149
330
F9
100
AcDbEntity
  8
AM_9
 48
0.0099028120890117
100
AcDbLine
 10
1.363709674457174
 20
-2.97
 30
0.0
 11
1.378272611777662
 21
-2.135689879678136
 31
0.0
  0
LINE
  5
14A
330
F9
100
AcDbEntity
  8
AM_9
 48
0.0099028120890117
100
AcDbLine
 10
-1.378272611777662
 20
-2.135689879678136
 30
0.0
 11
-1.363709674457174
 21
-2.97
 31
0.0
  0
LINE
  5
14B
330
F9
100
AcDbEntity
  8
AM_9
 48
0.0099028120890117
100
AcDbLine
 10
1.378272611777662
 20
-2.135689879678136
 30
0.0
 11
-1.378272611777662
 21
-2.135689879678136
 31
0.0
  0
ARC
  5
14C
330
F9
100
AcDbEntity
  8
AM_9
 48
0.0099028120890117
100
AcDbCircle
 10
-1.42826499653548
 20
-2.1365625
 30
0.0
 40
0.049999999999999
100
AcDbArc
 50
0.9999999999996584
 51
90.00000000000128
  0
ARC
  5
14D
330
F9
100
AcDbEntity
  8
AM_9
 48
0.0099028120890117
100
AcDbCircle
 10
1.42826499653548
 20
-2.1365625
 30
0.0
 40
0.0499999999999994
100
AcDbArc
 50
89.99999999999874
 51
179.0000000000003
  0
LINE
  5
14E
330
F9
100
AcDbEntity
  8
AM_9
 48
0.0099028120890117
100
AcDbLine
 10
-1.52714375
 20
-1.602485651233932
 30
0.0
 11
-1.52714375
 21
-1.657514348766068
 31
0.0
  0
LINE
  5
14F
330
F9
100
AcDbEntity
  8
AM_9
 48
0.0099028120890117
100
AcDbLine
 10
1.52714375
 20
-1.657514348766068
 30
0.0
 11
1.52714375
 21
-1.602485651233932
 31
0.0
  0
LINE
  5
150
330
F9
100
AcDbEntity
  8
AM_9
 48
0.0099028120890117
100
AcDbLine
 10
-1.5748
 20
-1.1834375
 30
0.0
 11
-1.5748
 21
-1.574971302467864
 31
0.0
  0
LINE
  5
151
330
F9
100
AcDbEntity
  8
AM_9
 48
0.0099028120890117
100
AcDbLine
 10
1.5748
 20
-1.574971302467864
 30
0.0
 11
1.5748
 21
-1.1834375
 31
0.0
  0
LINE
  5
152
330
F9
100
AcDbEntity
  8
AM_9
 48
0.0099028120890117
100
AcDbLine
 10
1.5248
 20
-1.1334375
 30
0.0
 11
-1.524799999992045
 21
-1.1334375
 31
0.0
  0
LINE
  5
153
330
F9
100
AcDbEntity
  8
AM_9
 48
0.0099028120890117
100
AcDbLine
 10
1.5748
 20
-1.1834375
 30
0.0
 11
-1.5748
 21
-1.1834375
 31
0.0
  0
ARC
  5
154
330
F9
100
AcDbEntity
  8
AM_9
 48
0.0099028120890117
100
AcDbCircle
 10
-1.5248
 20
-1.1834375
 30
0.0
 40
0.05
100
AcDbArc
 50
89.99999999999974
 51
180.0
  0
ARC
  5
155
330
F9
100
AcDbEntity
  8
AM_9
 48
0.0099028120890117
100
AcDbCircle
 10
1.5248
 20
-1.1834375
 30
0.0
 40
0.0499999999999998
100
AcDbArc
 50
0.0
 51
90.00000000000026
  0
LINE
  5
156
330
F9
100
AcDbEntity
  8
AM_9
 48
0.0099028120890117
100
AcDbLine
 10
1.5648
 20
-2.0865625
 30
0.0
 11
-1.564799999995539
 21
-2.0865625
 31
0.0
  0
ARC
  5
157
330
F9
100
AcDbEntity
  8
AM_9
 48
0.0099028120890117
100
AcDbCircle
 10
-1.5648
 20
-2.0765625
 30
0.0
 40
0.01
100
AcDbArc
 50
180.0
 51
269.9999999999962
  0
ARC
  5
158
330
F9
100
AcDbEntity
  8
AM_9
 48
0.0099028120890117
100
AcDbCircle
 10
1.5648
 20
-2.0765625
 30
0.0
 40
0.0100000000000002
100
AcDbArc
 50
270.0000000000038
 51
0.0
  0
LINE
  5
159
330
F9
100
AcDbEntity
  8
AM_9
 48
0.0099028120890117
100
AcDbLine
 10
1.5748
 20
-1.574971302467864
 30
0.0
 11
-1.5748
 21
-1.574971302467864
 31
0.0
  0
LINE
  5
15A
330
F9
100
AcDbEntity
  8
AM_9
 48
0.0099028120890117
100
AcDbLine
 10
1.52714375
 20
-1.602485651233932
 30
0.0
 11
-1.52714375
 21
-1.602485651233932
 31
0.0
  0
LINE
  5
15B
330
F9
100
AcDbEntity
  8
AM_9
 48
0.0099028120890117
100
AcDbLine
 10
1.52714375
 20
-1.602485651233932
 30
0.0
 11
1.5748
 21
-1.574971302467864
 31
0.0
  0
LINE
  5
15C
330
F9
100
AcDbEntity
  8
AM_9
 48
0.0099028120890117
100
AcDbLine
 10
-1.5748
 20
-1.574971302467864
 30
0.0
 11
-1.52714375
 21
-1.602485651233932
 31
0.0
  0
LINE
  5
15D
330
F9
100
AcDbEntity
  8
AM_9
 48
0.0099028120890117
100
AcDbLine
 10
1.5748
 20
-2.0765625
 30
0.0
 11
-1.5748
 21
-2.0765625
 31
0.0
  0
LINE
  5
15E
330
F9
100
AcDbEntity
  8
AM_9
 48
0.0099028120890117
100
AcDbLine
 10
-1.5748
 20
-1.685028697532136
 30
0.0
 11
-1.5748
 21
-2.0765625
 31
0.0
  0
LINE
  5
15F
330
F9
100
AcDbEntity
  8
AM_9
 48
0.0099028120890117
100
AcDbLine
 10
1.5748
 20
-2.0765625
 30
0.0
 11
1.5748
 21
-1.685028697532136
 31
0.0
  0
LINE
  5
160
330
F9
100
AcDbEntity
  8
AM_9
 48
0.0099028120890117
100
AcDbLine
 10
1.52714375
 20
-1.657514348766068
 30
0.0
 11
-1.52714375
 21
-1.657514348766068
 31
0.0
  0
LINE
  5
161
330
F9
100
AcDbEntity
  8
AM_9
 48
0.0099028120890117
100
AcDbLine
 10
1.5748
 20
-1.685028697532136
 30
0.0
 11
-1.5748
 21
-1.685028697532136
 31
0.0
  0
LINE
  5
162
330
F9
100
AcDbEntity
  8
AM_9
 48
0.0099028120890117
100
AcDbLine
 10
-1.52714375
 20
-1.657514348766068
 30
0.0
 11
-1.5748
 21
-1.685028697532136
 31
0.0
  0
LINE
  5
163
330
F9
100
AcDbEntity
  8
AM_9
 48
0.0099028120890117
100
AcDbLine
 10
1.5748
 20
-1.685028697532136
 30
0.0
 11
1.52714375
 21
-1.657514348766068
 31
0.0
  0
LINE
  5
164
330
F9
100
AcDbEntity
  8
AM_5
 48
0.0099028120890117
100
AcDbLine
 10
0.0950000000000001
 20
-3.218333333333334
 30
0.0
 11
0.0950000000000001
 21
-2.518333333333334
 31
0.0
  0
LINE
  5
165
330
F9
100
AcDbEntity
  8
AM_5
 48
0.0099028120890117
100
AcDbLine
 10
0.095
 20
-2.518333333333334
 30
0.0
 11
0.0794273103968565
 21
-2.49136064373019
 31
0.0
  0
LINE
  5
166
330
F9
100
AcDbEntity
  8
AM_5
 48
0.0099028120890117
100
AcDbLine
 10
-0.0950000000000001
 20
-3.218333333333333
 30
0.0
 11
-0.0950000000000001
 21
-2.518333333333329
 31
0.0
  0
LINE
  5
167
330
F9
100
AcDbEntity
  8
AM_5
 48
0.0099028120890117
100
AcDbLine
 10
-0.095
 20
-2.518333333333329
 30
0.0
 11
-0.0794273103968633
 21
-2.491360643730197
 31
0.0
  0
LINE
  5
168
330
F9
100
AcDbEntity
  8
AM_0
 48
0.0099028120890117
100
AcDbLine
 10
-0.3724693408726803
 20
-3.45
 30
0.0
 11
-0.3724693408726802
 21
-3.288333333333333
 31
0.0
  0
LINE
  5
169
330
F9
100
AcDbEntity
  8
AM_0
 48
0.0099028120890117
100
AcDbLine
 10
-0.2121546127903875
 20
-3.45
 30
0.0
 11
-0.2121546127903875
 21
-3.288333333333333
 31
0.0
  0
LINE
  5
16A
330
F9
100
AcDbEntity
  8
AM_0
 48
0.0099028120890117
100
AcDbLine
 10
-0.387691723967532
 20
-3.288333333333333
 30
0.0
 11
-0.387691723967532
 21
-3.45
 31
0.0
  0
LINE
  5
16B
330
F9
100
AcDbEntity
  8
AM_0
 48
0.0099028120890117
100
AcDbLine
 10
-0.7894736842105263
 20
-3.288333333333333
 30
0.0
 11
-0.7894736842105263
 21
-3.45
 31
0.0
  0
LINE
  5
16C
330
F9
100
AcDbEntity
  8
AM_0
 48
0.0099028120890117
100
AcDbLine
 10
0.7894736842105263
 20
-3.45
 30
0.0
 11
0.7894736842105263
 21
-3.288333333333333
 31
0.0
  0
LINE
  5
16D
330
F9
100
AcDbEntity
  8
AM_0
 48
0.0099028120890117
100
AcDbLine
 10
0.7894736842105263
 20
-3.45
 30
0.0
 11
-0.7894736842105263
 21
-3.45
 31
0.0
  0
LINE
  5
16E
330
F9
100
AcDbEntity
  8
AM_0
 48
0.0099028120890117
100
AcDbLine
 10
-0.9192388155425119
 20
-2.97
 30
0.0
 11
-0.9192388155425119
 21
-3.218333333333333
 31
0.0
  0
LINE
  5
16F
330
F9
100
AcDbEntity
  8
AM_0
 48
0.0099028120890117
100
AcDbLine
 10
0.9192388155425121
 20
-2.97
 30
0.0
 11
0.9192388155425121
 21
-3.218333333333333
 31
0.0
  0
LINE
  5
170
330
F9
100
AcDbEntity
  8
AM_0
 48
0.0099028120890117
100
AcDbLine
 10
1.197916666666667
 20
-0.62
 30
0.0
 11
-1.197916666666667
 21
-0.62
 31
0.0
  0
LINE
  5
171
330
F9
100
AcDbEntity
  8
AM_0
 48
0.0099028120890117
100
AcDbLine
 10
-1.197916666666667
 20
-0.62
 30
0.0
 11
-1.197916666666667
 21
-0.6799999999999998
 31
0.0
  0
LINE
  5
172
330
F9
100
AcDbEntity
  8
AM_0
 48
0.0099028120890117
100
AcDbLine
 10
1.197916666666667
 20
-0.6799999999999998
 30
0.0
 11
1.197916666666667
 21
-0.62
 31
0.0
  0
LINE
  5
173
330
F9
100
AcDbEntity
  8
AM_0
 48
0.0099028120890117
100
AcDbLine
 10
-1.086138182502953
 20
-3.218333333333333
 30
0.0
 11
-1.359375
 21
-3.218333333333333
 31
0.0
  0
LINE
  5
174
330
F9
100
AcDbEntity
  8
AM_0
 48
0.0099028120890117
100
AcDbLine
 10
-1.086138182502953
 20
-3.218333333333333
 30
0.0
 11
-1.089233547289807
 21
-2.97000000187445
 31
0.0
  0
LINE
  5
175
330
F9
100
AcDbEntity
  8
AM_0
 48
0.0099028120890117
100
AcDbLine
 10
-0.8205329704389193
 20
-2.97000000187445
 30
0.0
 11
-0.817437605652065
 21
-3.218333333333333
 31
0.0
  0
LINE
  5
176
330
F9
100
AcDbEntity
  8
AM_0
 48
0.0099028120890117
100
AcDbLine
 10
0.817437605652065
 20
-3.218333333333333
 30
0.0
 11
-0.817437605652065
 21
-3.218333333333333
 31
0.0
  0
LINE
  5
177
330
F9
100
AcDbEntity
  8
AM_0
 48
0.0099028120890117
100
AcDbLine
 10
0.817437605652065
 20
-3.218333333333333
 30
0.0
 11
0.8205329704389195
 21
-2.97000000187445
 31
0.0
  0
LINE
  5
178
330
F9
100
AcDbEntity
  8
AM_0
 48
0.0099028120890117
100
AcDbLine
 10
1.089233547289808
 20
-2.97000000187445
 30
0.0
 11
1.086138182502953
 21
-3.218333333333333
 31
0.0
  0
LINE
  5
179
330
F9
100
AcDbEntity
  8
AM_0
 48
0.0099028120890117
100
AcDbLine
 10
1.359375
 20
-3.218333333333333
 30
0.0
 11
1.363709674457174
 21
-2.97
 31
0.0
  0
LINE
  5
17A
330
F9
100
AcDbEntity
  8
AM_0
 48
0.0099028120890117
100
AcDbLine
 10
-1.363709674457174
 20
-2.97
 30
0.0
 11
-1.359375
 21
-3.218333333333333
 31
0.0
  0
LINE
  5
17B
330
F9
100
AcDbEntity
  8
AM_0
 48
0.0099028120890117
100
AcDbLine
 10
1.359375
 20
-3.218333333333333
 30
0.0
 11
1.086138182502953
 21
-3.218333333333333
 31
0.0
  0
ENDBLK
  5
FC
330
F9
100
AcDbEntity
  8
0
100
AcDbBlockEnd
  0
BLOCK
  5
17E
330
17C
100
AcDbEntity
  8
0
100
AcDbBlockBegin
  2
5_405015E_Inch_0_in_071315_4
 70
     2
 10
0.0
 20
0.0
 30
0.0
  3
5_405015E_Inch_0_in_071315_4
  1

  0
ATTDEF
  5
180
330
17C
100
AcDbEntity
  8
AM_6
100
AcDbText
 10
5.21875
 20
-1.827409257229539
 30
0.0
 40
0.5
  1
405015E -Inch
100
AcDbAttributeDefinition
  3

  2
NN
 70
     8
280
     0
  0
ATTDEF
  5
181
330
17C
100
AcDbEntity
  8
AM_6
100
AcDbText
 10
5.21875
 20
-2.327409257229538
 30
0.0
 40
0.5
  1
Grease Fitting
100
AcDbAttributeDefinition
  3

  2
NT
 70
     8
280
     0
  0
ATTDEF
  5
182
330
17C
100
AcDbEntity
  8
AM_6
100
AcDbText
 10
5.21875
 20
-2.827409257229538
 30
0.0
 40
0.5
  1
405015E-Inch
100
AcDbAttributeDefinition
  3

  2
NB
 70
     8
280
     0
  0
ATTDEF
  5
183
330
17C
100
AcDbEntity
  8
AM_6
100
AcDbText
 10
5.21875
 20
-3.327409257229538
 30
0.0
 40
0.5
  1
$MN.-Inch
100
AcDbAttributeDefinition
  3

  2
NBSYN
 70
     8
280
     0
  0
ATTDEF
  5
184
330
17C
100
AcDbEntity
  8
AM_6
100
AcDbText
 10
5.21875
 20
-3.827409257229538
 30
0.0
 40
0.5
  1
405015E
100
AcDbAttributeDefinition
  3

  2
LINA
 70
     8
280
     0
  0
ATTDEF
  5
185
330
17C
100
AcDbEntity
  8
AM_6
100
AcDbText
 10
5.21875
 20
-4.327409257229538
 30
0.0
 40
0.5
  1
405015E
100
AcDbAttributeDefinition
  3

  2
MN
 70
     8
280
     0
  0
ATTDEF
  5
186
330
17C
100
AcDbEntity
  8
AM_6
100
AcDbText
 10
5.21875
 20
-4.827409257229538
 30
0.0
 40
0.5
  1
1/8 x 27PTF
100
AcDbAttributeDefinition
  3

  2
T
 70
     8
280
     0
  0
ATTDEF
  5
187
330
17C
100
AcDbEntity
  8
AM_6
100
AcDbText
 10
5.21875
 20
-5.327409257229538
 30
0.0
 40
0.5
  1
baldor
100
AcDbAttributeDefinition
  3

  2
COMPANY
 70
     8
280
     0
  0
CIRCLE
  5
188
330
17C
100
AcDbEntity
  8
AM_9
 48
0.0013723137443621
100
AcDbCircle
 10
0.0
 20
-2.08
 30
0.0
 40
0.161902872472269
  0
CIRCLE
  5
189
330
17C
100
AcDbEntity
  8
AM_9
 48
0.0013723137443621
100
AcDbCircle
 10
0.0
 20
-2.08
 30
0.0
 40
0.1986176267812154
  0
CIRCLE
  5
18A
330
17C
100
AcDbEntity
  8
AM_9
 48
0.0013723137443621
100
AcDbCircle
 10
0.0
 20
-2.08
 30
0.0
 40
0.2057518972230696
  0
CIRCLE
  5
18B
330
17C
100
AcDbEntity
  8
AM_9
 48
0.0013723137443621
100
AcDbCircle
 10
0.0
 20
-2.08
 30
0.0
 40
0.1188200907348975
  0
CIRCLE
  5
18C
330
17C
100
AcDbEntity
  8
AM_9
 48
0.0013723137443621
100
AcDbCircle
 10
0.0
 20
-2.08
 30
0.0
 40
0.105
  0
LINE
  5
18D
330
17C
100
AcDbEntity
  8
AM_0
 48
0.0013723137443621
100
AcDbLine
 10
0.0
 20
-1.827409257229539
 30
0.0
 11
-0.21875
 21
-1.953704628614769
 31
0.0
  0
LINE
  5
18E
330
17C
100
AcDbEntity
  8
AM_0
 48
0.0013723137443621
100
AcDbLine
 10
-0.21875
 20
-1.953704628614769
 30
0.0
 11
-0.21875
 21
-2.20629537138523
 31
0.0
  0
LINE
  5
18F
330
17C
100
AcDbEntity
  8
AM_0
 48
0.0013723137443621
100
AcDbLine
 10
0.21875
 20
-2.206295371385231
 30
0.0
 11
0.21875
 21
-1.953704628614769
 31
0.0
  0
LINE
  5
190
330
17C
100
AcDbEntity
  8
AM_0
 48
0.0013723137443621
100
AcDbLine
 10
0.21875
 20
-1.953704628614769
 30
0.0
 11
0.0
 21
-1.827409257229539
 31
0.0
  0
LINE
  5
191
330
17C
100
AcDbEntity
  8
AM_0
 48
0.0013723137443621
100
AcDbLine
 10
-0.21875
 20
-2.20629537138523
 30
0.0
 11
0.0
 21
-2.332590742770461
 31
0.0
  0
LINE
  5
192
330
17C
100
AcDbEntity
  8
AM_0
 48
0.0013723137443621
100
AcDbLine
 10
0.0
 20
-2.332590742770461
 30
0.0
 11
0.21875
 21
-2.206295371385231
 31
0.0
  0
CIRCLE
  5
193
330
17C
100
AcDbEntity
  8
AM_0
 48
0.0013723137443621
100
AcDbCircle
 10
0.0
 20
-2.08
 30
0.0
 40
0.21375
  0
CIRCLE
  5
194
330
17C
100
AcDbEntity
  8
AM_0
 48
0.0013723137443621
100
AcDbCircle
 10
0.0
 20
-2.08
 30
0.0
 40
0.1725340532830154
  0
CIRCLE
  5
195
330
17C
100
AcDbEntity
  8
AM_0
 48
0.0013723137443621
100
AcDbCircle
 10
0.0
 20
-2.08
 30
0.0
 40
0.1026779019331875
  0
CIRCLE
  5
196
330
17C
100
AcDbEntity
  8
AM_0
 48
0.0013723137443621
100
AcDbCircle
 10
0.0
 20
-2.08
 30
0.0
 40
0.135
  0
ARC
  5
197
330
17C
100
AcDbEntity
  8
AM_5
 48
0.0013723137443621
100
AcDbCircle
 10
-0.0000000000000001
 20
-2.08
 30
0.0
 40
0.2025000050000001
100
AcDbArc
 50
75.00000000000001
 51
14.99999999999993
  0
CIRCLE
  5
198
330
17C
100
AcDbEntity
  8
AM_0
 48
0.0013723137443621
100
AcDbCircle
 10
0.0
 20
-2.080000000000001
 30
0.0
 40
0.2187499999999991
  0
ENDBLK
  5
17F
330
17C
100
AcDbEntity
  8
0
100
AcDbBlockEnd
  0
BLOCK
  5
19B
330
199
100
AcDbEntity
  8
0
100
AcDbBlockBegin
  2
6_071315H_0_in_071315_4
 70
     2
 10
0.0
 20
0.0
 30
0.0
  3
6_071315H_0_in_071315_4
  1

  0
ATTDEF
  5
19D
330
199
100
AcDbEntity
  8
AM_6
100
AcDbText
 10
7.69
 20
0.1667000000292345
 30
0.0
 40
0.5
  1
EF4S-IP -(Contact Seal)-Housing -Inch
100
AcDbAttributeDefinition
  3

  2
NN
 70
     8
280
     0
  0
ATTDEF
  5
19E
330
199
100
AcDbEntity
  8
AM_6
100
AcDbText
 10
7.69
 20
-0.3332999999707655
 30
0.0
 40
0.5
  1
Imperial/E 4 Bolt Square Flange Bearings
100
AcDbAttributeDefinition
  3

  2
NT
 70
     8
280
     0
  0
ATTDEF
  5
19F
330
199
100
AcDbEntity
  8
AM_6
100
AcDbText
 10
7.69
 20
-0.8332999999707655
 30
0.0
 40
0.5
  1
071315H
100
AcDbAttributeDefinition
  3

  2
NB
 70
     8
280
     0
  0
ATTDEF
  5
1A0
330
199
100
AcDbEntity
  8
AM_6
100
AcDbText
 10
7.69
 20
-1.333299999970766
 30
0.0
 40
0.5
  1
$PN.H
100
AcDbAttributeDefinition
  3

  2
NBSYN
 70
     8
280
     0
  0
ATTDEF
  5
1A1
330
199
100
AcDbEntity
  8
AM_6
100
AcDbText
 10
7.69
 20
-1.833299999970766
 30
0.0
 40
0.5
  1
071315
100
AcDbAttributeDefinition
  3

  2
LINA
 70
     8
280
     0
  0
ATTDEF
  5
1A2
330
199
100
AcDbEntity
  8
AM_6
100
AcDbText
 10
7.69
 20
-2.333299999970766
 30
0.0
 40
0.5
  1
1-1/2
100
AcDbAttributeDefinition
  3

  2
SS
 70
     8
280
     0
  0
ATTDEF
  5
1A3
330
199
100
AcDbEntity
  8
AM_6
100
AcDbText
 10
7.69
 20
-2.833299999970766
 30
0.0
 40
0.5
  1
1.5000
100
AcDbAttributeDefinition
  3

  2
SS1
 70
     8
280
     0
  0
ATTDEF
  5
1A4
330
199
100
AcDbEntity
  8
AM_6
100
AcDbText
 10
7.69
 20
-3.333299999970766
 30
0.0
 40
0.5
  1
3.1496
100
AcDbAttributeDefinition
  3

  2
BORE
 70
     8
280
     0
  0
ATTDEF
  5
1A5
330
199
100
AcDbEntity
  8
AM_6
100
AcDbText
 10
7.69
 20
-3.833299999970766
 30
0.0
 40
0.5
  1
Expansion
100
AcDbAttributeDefinition
  3

  2
TYPE
 70
     8
280
     0
  0
ATTDEF
  5
1A6
330
199
100
AcDbEntity
  8
AM_6
100
AcDbText
 10
7.69
 20
-4.333299999970766
 30
0.0
 40
0.5
  1
EF4B-IP-108R
100
AcDbAttributeDefinition
  3

  2
DESCRIPTION
 70
     8
280
     0
  0
ATTDEF
  5
1A7
330
199
100
AcDbEntity
  8
AM_6
100
AcDbText
 10
7.69
 20
-4.833299999970766
 30
0.0
 40
0.5
  1
Non-Expansion Type
100
AcDbAttributeDefinition
  3

  2
EF
 70
     8
280
     0
  0
ATTDEF
  5
1A8
330
199
100
AcDbEntity
  8
AM_6
100
AcDbText
 10
7.69
 20
-5.333299999970766
 30
0.0
 40
0.5
  1
1
100
AcDbAttributeDefinition
  3

  2
EF1
 70
     8
280
     0
  0
ATTDEF
  5
1A9
330
199
100
AcDbEntity
  8
AM_6
100
AcDbText
 10
7.69
 20
-5.833299999970766
 30
0.0
 40
0.5
  1
Contact Seal
100
AcDbAttributeDefinition
  3

  2
ST
 70
     8
280
     0
  0
ATTDEF
  5
1AA
330
199
100
AcDbEntity
  8
AM_6
100
AcDbText
 10
7.69
 20
-6.333299999970766
 30
0.0
 40
0.5
  1
1
100
AcDbAttributeDefinition
  3

  2
ST1
 70
     8
280
     0
  0
ATTDEF
  5
1AB
330
199
100
AcDbEntity
  8
AM_6
100
AcDbText
 10
7.69
 20
-6.833299999970766
 30
0.0
 40
0.5
  1
2.81
100
AcDbAttributeDefinition
  3

  2
A
 70
     8
280
     0
  0
ATTDEF
  5
1AC
330
199
100
AcDbEntity
  8
AM_6
100
AcDbText
 10
7.69
 20
-7.333299999970766
 30
0.0
 40
0.5
  1
2.810000
100
AcDbAttributeDefinition
  3

  2
A1
 70
     8
280
     0
  0
ATTDEF
  5
1AD
330
199
100
AcDbEntity
  8
AM_6
100
AcDbText
 10
7.69
 20
-7.833299999970766
 30
0.0
 40
0.5
  1
5.38
100
AcDbAttributeDefinition
  3

  2
B
 70
     8
280
     0
  0
ATTDEF
  5
1AE
330
199
100
AcDbEntity
  8
AM_6
100
AcDbText
 10
7.69
 20
-8.333299999970766
 30
0.0
 40
0.5
  1
5.380000
100
AcDbAttributeDefinition
  3

  2
B1
 70
     8
280
     0
  0
ATTDEF
  5
1AF
330
199
100
AcDbEntity
  8
AM_6
100
AcDbText
 10
7.69
 20
-8.833299999970766
 30
0.0
 40
0.5
  1
3.64
100
AcDbAttributeDefinition
  3

  2
C
 70
     8
280
     0
  0
ATTDEF
  5
1B0
330
199
100
AcDbEntity
  8
AM_6
100
AcDbText
 10
7.69
 20
-9.333299999970766
 30
0.0
 40
0.5
  1
3.640000
100
AcDbAttributeDefinition
  3

  2
C1
 70
     8
280
     0
  0
ATTDEF
  5
1B1
330
199
100
AcDbEntity
  8
AM_6
100
AcDbText
 10
7.69
 20
-9.833299999970766
 30
0.0
 40
0.5
  1
4.13
100
AcDbAttributeDefinition
  3

  2
D
 70
     8
280
     0
  0
ATTDEF
  5
1B2
330
199
100
AcDbEntity
  8
AM_6
100
AcDbText
 10
7.69
 20
-10.33329999997077
 30
0.0
 40
0.5
  1
4.130000
100
AcDbAttributeDefinition
  3

  2
D1
 70
     8
280
     0
  0
ATTDEF
  5
1B3
330
199
100
AcDbEntity
  8
AM_6
100
AcDbText
 10
7.69
 20
-10.83329999997077
 30
0.0
 40
0.5
  1
1/2
100
AcDbAttributeDefinition
  3

  2
F
 70
     8
280
     0
  0
ATTDEF
  5
1B4
330
199
100
AcDbEntity
  8
AM_6
100
AcDbText
 10
7.69
 20
-11.33329999997077
 30
0.0
 40
0.5
  1
0.500
100
AcDbAttributeDefinition
  3

  2
F1
 70
     8
280
     0
  0
ATTDEF
  5
1B5
330
199
100
AcDbEntity
  8
AM_6
100
AcDbText
 10
7.69
 20
-11.83329999997077
 30
0.0
 40
0.5
  1
0.67
100
AcDbAttributeDefinition
  3

  2
G
 70
     8
280
     0
  0
ATTDEF
  5
1B6
330
199
100
AcDbEntity
  8
AM_6
100
AcDbText
 10
7.69
 20
-12.33329999997077
 30
0.0
 40
0.5
  1
0.670000
100
AcDbAttributeDefinition
  3

  2
G1
 70
     8
280
     0
  0
ATTDEF
  5
1B7
330
199
100
AcDbEntity
  8
AM_6
100
AcDbText
 10
7.69
 20
-12.83329999997077
 30
0.0
 40
0.5
  1
1.19
100
AcDbAttributeDefinition
  3

  2
H
 70
     8
280
     0
  0
ATTDEF
  5
1B8
330
199
100
AcDbEntity
  8
AM_6
100
AcDbText
 10
7.69
 20
-13.33329999997077
 30
0.0
 40
0.5
  1
1.190000
100
AcDbAttributeDefinition
  3

  2
H1
 70
     8
280
     0
  0
ATTDEF
  5
1B9
330
199
100
AcDbEntity
  8
AM_6
100
AcDbText
 10
7.69
 20
-13.83329999997077
 30
0.0
 40
0.5
  1
4.18
100
AcDbAttributeDefinition
  3

  2
J
 70
     8
280
     0
  0
ATTDEF
  5
1BA
330
199
100
AcDbEntity
  8
AM_6
100
AcDbText
 10
7.69
 20
-14.33329999997077
 30
0.0
 40
0.5
  1
4.180000
100
AcDbAttributeDefinition
  3

  2
J1
 70
     8
280
     0
  0
ATTDEF
  5
1BB
330
199
100
AcDbEntity
  8
AM_6
100
AcDbText
 10
7.69
 20
-14.83329999997077
 30
0.0
 40
0.5
  1
4.180000
100
AcDbAttributeDefinition
  3

  2
K
 70
     8
280
     0
  0
ATTDEF
  5
1BC
330
199
100
AcDbEntity
  8
AM_6
100
AcDbText
 10
7.69
 20
-15.33329999997077
 30
0.0
 40
0.5
  1
6.000
100
AcDbAttributeDefinition
  3

  2
K1
 70
     8
280
     0
  0
ATTDEF
  5
1BD
330
199
100
AcDbEntity
  8
AM_6
100
AcDbText
 10
7.69
 20
-15.83329999997077
 30
0.0
 40
0.5
  1
3
100
AcDbAttributeDefinition
  3

  2
L
 70
     8
280
     0
  0
ATTDEF
  5
1BE
330
199
100
AcDbEntity
  8
AM_6
100
AcDbText
 10
7.69
 20
-16.33329999997077
 30
0.0
 40
0.5
  1
3.00000
100
AcDbAttributeDefinition
  3

  2
L1
 70
     8
280
     0
  0
ATTDEF
  5
1BF
330
199
100
AcDbEntity
  8
AM_6
100
AcDbText
 10
7.69
 20
-16.83329999997077
 30
0.0
 40
0.5
  1
2.5
100
AcDbAttributeDefinition
  3

  2
N
 70
     8
280
     0
  0
ATTDEF
  5
1C0
330
199
100
AcDbEntity
  8
AM_6
100
AcDbText
 10
7.69
 20
-17.33329999997077
 30
0.0
 40
0.5
  1
2.500000
100
AcDbAttributeDefinition
  3

  2
N1
 70
     8
280
     0
  0
ATTDEF
  5
1C1
330
199
100
AcDbEntity
  8
AM_6
100
AcDbText
 10
7.69
 20
-17.83329999997077
 30
0.0
 40
0.5
  1
0.83
100
AcDbAttributeDefinition
  3

  2
P
 70
     8
280
     0
  0
ATTDEF
  5
1C2
330
199
100
AcDbEntity
  8
AM_6
100
AcDbText
 10
7.69
 20
-18.33329999997077
 30
0.0
 40
0.5
  1
0.830000
100
AcDbAttributeDefinition
  3

  2
P1
 70
     8
280
     0
  0
ATTDEF
  5
1C3
330
199
100
AcDbEntity
  8
AM_6
100
AcDbText
 10
7.69
 20
-18.83329999997077
 30
0.0
 40
0.5
  1
0.19
100
AcDbAttributeDefinition
  3

  2
X
 70
     8
280
     0
  0
ATTDEF
  5
1C4
330
199
100
AcDbEntity
  8
AM_6
100
AcDbText
 10
7.69
 20
-19.33329999997077
 30
0.0
 40
0.5
  1
0.1900
100
AcDbAttributeDefinition
  3

  2
X1
 70
     8
280
     0
  0
ATTDEF
  5
1C5
330
199
100
AcDbEntity
  8
AM_6
100
AcDbText
 10
7.69
 20
-19.83329999997077
 30
0.0
 40
0.5
  1
0.020
100
AcDbAttributeDefinition
  3

  2
Y
 70
     8
280
     0
  0
ATTDEF
  5
1C6
330
199
100
AcDbEntity
  8
AM_6
100
AcDbText
 10
7.69
 20
-20.33329999997077
 30
0.0
 40
0.5
  1
2.08
100
AcDbAttributeDefinition
  3

  2
Z
 70
     8
280
     0
  0
ATTDEF
  5
1C7
330
199
100
AcDbEntity
  8
AM_6
100
AcDbText
 10
7.69
 20
-20.83329999997077
 30
0.0
 40
0.5
  1
2.080000
100
AcDbAttributeDefinition
  3

  2
Z1
 70
     8
280
     0
  0
ATTDEF
  5
1C8
330
199
100
AcDbEntity
  8
AM_6
100
AcDbText
 10
7.69
 20
-21.33329999997077
 30
0.0
 40
0.5
  1
071290
100
AcDbAttributeDefinition
  3

  2
PN1
 70
     8
280
     0
  0
ATTDEF
  5
1C9
330
199
100
AcDbEntity
  8
AM_6
100
AcDbText
 10
7.69
 20
-21.83329999997077
 30
0.0
 40
0.5
  1
071315
100
AcDbAttributeDefinition
  3

  2
PN2
 70
     8
280
     0
  0
ATTDEF
  5
1CA
330
199
100
AcDbEntity
  8
AM_6
100
AcDbText
 10
7.69
 20
-22.33329999997077
 30
0.0
 40
0.5
  1
baldor
100
AcDbAttributeDefinition
  3

  2
COMPANY
 70
     8
280
     0
  0
LINE
  5
1CB
330
199
100
AcDbEntity
  8
AM_9
 48
0.0165707914311128
100
AcDbLine
 10
-1.363636363636364
 20
-0.6799999999999998
 30
0.0
 11
-2.69
 21
-0.6799999999999998
 31
0.0
  0
LINE
  5
1CC
330
199
100
AcDbEntity
  8
AM_9
 48
0.0165707914311128
100
AcDbLine
 10
2.69
 20
-0.6799999999999998
 30
0.0
 11
1.363636363636364
 21
-0.6799999999999998
 31
0.0
  0
LINE
  5
1CD
330
199
100
AcDbEntity
  8
AM_9
 48
0.0165707914311128
100
AcDbLine
 10
-1.5748
 20
-0.6799999999999998
 30
0.0
 11
-1.5748
 21
-2.97
 31
0.0
  0
LINE
  5
1CE
330
199
100
AcDbEntity
  8
AM_9
 48
0.0165707914311128
100
AcDbLine
 10
1.5748
 20
-2.97
 30
0.0
 11
1.5748
 21
-0.6799999999999998
 31
0.0
  0
LINE
  5
1CF
330
199
100
AcDbEntity
  8
AM_9
 48
0.0165707914311128
100
AcDbLine
 10
2.631799180998712
 20
-1.071
 30
0.0
 11
2.631799180998712
 21
-1.19
 31
0.0
  0
LINE
  5
1D0
330
199
100
AcDbEntity
  8
AM_9
 48
0.0165707914311128
100
AcDbLine
 10
2.042812593654963
 20
-1.071
 30
0.0
 11
2.69
 21
-1.071
 31
0.0
  0
LINE
  5
1D1
330
199
100
AcDbEntity
  8
AM_9
 48
0.0165707914311128
100
AcDbLine
 10
-2.631799180998712
 20
-1.071
 30
0.0
 11
-2.631799180998712
 21
-1.19
 31
0.0
  0
LINE
  5
1D2
330
199
100
AcDbEntity
  8
AM_9
 48
0.0165707914311128
100
AcDbLine
 10
-2.69
 20
-1.071
 30
0.0
 11
-2.04281259365496
 21
-1.071
 31
0.0
  0
LINE
  5
1D3
330
199
100
AcDbEntity
  8
AM_9
 48
0.0165707914311128
100
AcDbLine
 10
1.93093091598815
 20
-1.071
 30
0.0
 11
1.93093091598815
 21
-1.19
 31
0.0
  0
LINE
  5
1D4
330
199
100
AcDbEntity
  8
AM_9
 48
0.0165707914311128
100
AcDbLine
 10
-1.930930915988151
 20
-1.19
 30
0.0
 11
-1.930930915988151
 21
-1.071
 31
0.0
  0
LINE
  5
1D5
330
199
100
AcDbEntity
  8
AM_9
 48
0.0165707914311128
100
AcDbLine
 10
-2.09
 20
-1.071
 30
0.0
 11
-2.09
 21
-1.19
 31
0.0
  0
LINE
  5
1D6
330
199
100
AcDbEntity
  8
AM_9
 48
0.0165707914311128
100
AcDbLine
 10
2.09
 20
-1.19
 30
0.0
 11
2.09
 21
-1.071
 31
0.0
  0
LINE
  5
1D7
330
199
100
AcDbEntity
  8
AM_9
 48
0.0165707914311128
100
AcDbLine
 10
-1.815
 20
-1.19
 30
0.0
 11
-1.815
 21
0.0000000000000001
 31
0.0
  0
LINE
  5
1D8
330
199
100
AcDbEntity
  8
AM_9
 48
0.0165707914311128
100
AcDbLine
 10
-2.315
 20
0.0000000000000001
 30
0.0
 11
-2.315
 21
-1.19
 31
0.0
  0
LINE
  5
1D9
330
199
100
AcDbEntity
  8
AM_9
 48
0.0165707914311128
100
AcDbLine
 10
2.315
 20
-1.19
 30
0.0
 11
2.315
 21
0.0000000000000001
 31
0.0
  0
LINE
  5
1DA
330
199
100
AcDbEntity
  8
AM_9
 48
0.0165707914311128
100
AcDbLine
 10
1.815
 20
0.0000000000000001
 30
0.0
 11
1.815
 21
-1.19
 31
0.0
  0
LINE
  5
1DD
330
199
100
AcDbEntity
  8
AM_7
 48
0.0165707914311128
100
AcDbLine
 10
-0.4199999999999999
 20
-2.08
 30
0.0
 11
0.4199999999999999
 21
-2.08
 31
0.0
  0
LINE
  5
1DE
330
199
100
AcDbEntity
  8
AM_7
 48
0.0165707914311128
100
AcDbLine
 10
0.0
 20
0.1667000000292345
 30
0.0
 11
0.0
 21
-3.5915
 31
0.0
  0
LINE
  5
1DF
330
199
100
AcDbEntity
  8
AM_7
 48
0.0165707914311128
100
AcDbLine
 10
-2.065
 20
0.0713999999999999
 30
0.0
 11
-2.065
 21
-1.4994
 31
0.0
  0
LINE
  5
1E0
330
199
100
AcDbEntity
  8
AM_7
 48
0.0165707914311128
100
AcDbLine
 10
2.065
 20
0.0713999999999999
 30
0.0
 11
2.065
 21
-1.4994
 31
0.0
  0
LINE
  5
1E1
330
199
100
AcDbEntity
  8
AM_0
 48
0.0165707914311128
100
AcDbLine
 10
2.023
 20
-2.97
 30
0.0
 11
-2.02299999999983
 21
-2.97
 31
0.0
  0
ARC
  5
1E2
330
199
100
AcDbEntity
  8
AM_0
 48
0.0165707914311128
100
AcDbCircle
 10
-2.023
 20
-2.902999999999999
 30
0.0
 40
0.0670000000000006
100
AcDbArc
 50
180.0000000000004
 51
270.0
  0
ARC
  5
1E3
330
199
100
AcDbEntity
  8
AM_0
 48
0.0165707914311128
100
AcDbCircle
 10
2.023
 20
-2.902999999999999
 30
0.0
 40
0.0670000000000006
100
AcDbArc
 50
270.0
 51
359.9999999999996
  0
LINE
  5
1E4
330
199
100
AcDbEntity
  8
AM_4
 48
0.0165707914311128
100
AcDbLine
 10
2.09
 20
-2.903
 30
0.0
 11
-2.09
 21
-2.903
 31
0.0
  0
LINE
  5
1E5
330
199
100
AcDbEntity
  8
AM_0
 48
0.0165707914311128
100
AcDbLine
 10
-2.09
 20
-1.19
 30
0.0
 11
-2.09
 21
-2.903
 31
0.0
  0
LINE
  5
1E6
330
199
100
AcDbEntity
  8
AM_0
 48
0.0165707914311128
100
AcDbLine
 10
2.09
 20
-2.903
 30
0.0
 11
2.09
 21
-1.19
 31
0.0
  0
CIRCLE
  5
1E7
330
199
100
AcDbEntity
  8
AM_4
 48
0.0165707914311128
100
AcDbCircle
 10
0.0
 20
-2.08
 30
0.0
 40
0.3999999999999999
  0
LWPOLYLINE
  5
1E8
330
199
100
AcDbEntity
  8
AM_0
 48
0.0165707914311128
100
AcDbPolyline
 90
       75
 70
     0
 43
0.0
 10
-0.4267731930114342
 20
-1.823782016971741
 10
-0.4458280329430809
 20
-1.856836824572981
 10
-0.4622114601168567
 20
-1.891639373072367
 10
-0.4759617560792641
 20
-1.928503817372809
 10
-0.4867008419939732
 20
-1.966696671112614
 10
-0.4940694507190436
 20
-2.004308197725797
 10
-0.4984936911918332
 20
-2.042657750311428
 10
-0.4999018800870216
 20
-2.082034651168971
 10
-0.4981469101119963
 20
-2.121665750053209
 10
-0.4932184722686723
 20
-2.160976909515882
 10
-0.4850620550603544
 20
-2.199999074190558
 10
-0.4734394803074423
 20
-2.239010814278984
 10
-0.4584145587463319
 20
-2.277122040620766
 10
-0.4410656399860613
 20
-2.312041495583964
 10
-0.4206907459783502
 20
-2.345565672761881
 10
-0.3969583983529901
 20
-2.377885969516786
 10
-0.3702495288129847
 20
-2.40818235452686
 10
-0.3429271226808927
 20
-2.434234048750593
 10
-0.3133185411547312
 20
-2.458084715792512
 10
-0.2811386104649295
 20
-2.479845144187084
 10
-0.2470015218982547
 20
-2.499014342526041
 10
-0.2119781724910046
 20
-2.515136741770414
 10
-0.1755496501888424
 20
-2.52860988181367
 10
-0.1374893409543164
 20
-2.539515296871402
 10
-0.0984712660404271
 20
-2.547664246394463
 10
-0.0562424152678538
 20
-2.553304432694222
 10
-0.0134402219721036
 20
-2.555840590289014
 10
0.0302084939595173
 20
-2.555220452360662
 10
0.0739375081685215
 20
-2.551329141667467
 10
0.1198469869944897
 20
-2.543563414860087
 10
0.1652227552612748
 20
-2.531874196904746
 10
0.2104131373504402
 20
-2.515781529908737
 10
0.2541939442654604
 20
-2.495277365941225
 10
0.2909760117988286
 20
-2.473604080230172
 10
0.3258746891257234
 20
-2.448464354838005
 10
0.3590844964818312
 20
-2.419358683065354
 10
0.3895695046961282
 20
-2.386827758736742
 10
0.4130809772015971
 20
-2.356596910028304
 10
0.4341138903572481
 20
-2.324223947340044
 10
0.4527400657913014
 20
-2.289377567203428
 10
0.4684611731581243
 20
-2.252752296394269
 10
0.4805390826079957
 20
-2.216659978748939
 10
0.489776553109056
 20
-2.179435329775155
 10
0.4961523015288242
 20
-2.140784654437843
 10
0.4994402107502184
 20
-2.101459496500241
 10
0.4995829556793527
 20
-2.062126490202088
 10
0.49656609915581
 20
-2.02264792929257
 10
0.490218730435111
 20
-1.98273097639709
 10
0.4805070169502429
 20
-1.943229822026003
 10
0.4679230684277687
 20
-1.90583787466637
 10
0.4521575159159982
 20
-1.869415154690755
 10
0.4328971359439689
 20
-1.833729715054903
 10
0.4103916537315754
 20
-1.799665602373381
 10
0.386679188410905
 20
-1.769798565863655
 10
0.3603448128948468
 20
-1.741864245557981
 10
0.3310748934808979
 20
-1.715726861368233
 10
0.2994141516937709
 20
-1.692029740079416
 10
0.2673134489943427
 20
-1.671944787402884
 10
0.2334615624847861
 20
-1.654356517257463
 10
0.1976158736294878
 20
-1.639173922082261
 10
0.160440364393335
 20
-1.626692793079462
 10
0.1210535342561959
 20
-1.616694009426232
 10
0.0807620767812756
 20
-1.609581009683879
 10
0.0393280246634869
 20
-1.605318013954035
 10
-0.0025502848848896
 20
-1.60401208038829
 10
-0.0481217122102286
 20
-1.605972457721008
 10
-0.0936763937748597
 20
-1.611533290780608
 10
-0.1395532511233714
 20
-1.62099868612646
 10
-0.1847310438573071
 20
-1.634492222673344
 10
-0.2265475642471936
 20
-1.651167894624095
 10
-0.2669486677865148
 20
-1.671736669008628
 10
-0.306204397767117
 20
-1.69676080266272
 10
-0.3430719969116599
 20
-1.725893033953268
 10
-0.3879883673265259
 20
-1.771318349142057
 10
-0.4267731930114337
 20
-1.823782016971742
  0
LINE
  5
1E9
330
199
100
AcDbEntity
  8
AM_0
 48
0.0165707914311128
100
AcDbLine
 10
-0.7997535856006902
 20
-1.19
 30
0.0
 11
-2.69
 21
-1.19
 31
0.0
  0
LINE
  5
1EA
330
199
100
AcDbEntity
  8
AM_0
 48
0.0165707914311128
100
AcDbLine
 10
-0.7997535856006902
 20
-1.071
 30
0.0
 11
-0.7997535856006902
 21
-1.19
 31
0.0
  0
LINE
  5
1EB
330
199
100
AcDbEntity
  8
AM_0
 48
0.0165707914311128
100
AcDbLine
 10
0.7997535856006901
 20
-1.19
 30
0.0
 11
0.7997535856006901
 21
-1.071
 31
0.0
  0
LINE
  5
1EC
330
199
100
AcDbEntity
  8
AM_0
 48
0.0165707914311128
100
AcDbLine
 10
1.800697201264327
 20
-1.071
 30
0.0
 11
1.800697201264327
 21
-1.19
 31
0.0
  0
LINE
  5
1ED
330
199
100
AcDbEntity
  8
AM_0
 48
0.0165707914311128
100
AcDbLine
 10
-1.363636363636364
 20
0.0000000000000002
 30
0.0
 11
-2.69
 21
0.0000000000000001
 31
0.0
  0
LINE
  5
1EE
330
199
100
AcDbEntity
  8
AM_0
 48
0.0165707914311128
100
AcDbLine
 10
-2.69
 20
-1.19
 30
0.0
 11
-2.69
 21
0.0000000000000001
 31
0.0
  0
LINE
  5
1EF
330
199
100
AcDbEntity
  8
AM_0
 48
0.0165707914311128
100
AcDbLine
 10
-1.800697201264327
 20
-1.071
 30
0.0
 11
-1.800697201264327
 21
-1.19
 31
0.0
  0
LINE
  5
1F0
330
199
100
AcDbEntity
  8
AM_0
 48
0.0165707914311128
100
AcDbLine
 10
2.69
 20
0.0000000000000001
 30
0.0
 11
1.363636363636364
 21
0.0000000000000002
 31
0.0
  0
LINE
  5
1F1
330
199
100
AcDbEntity
  8
AM_0
 48
0.0165707914311128
100
AcDbLine
 10
2.69
 20
-1.19
 30
0.0
 11
0.7997535856006901
 21
-1.19
 31
0.0
  0
LINE
  5
1F2
330
199
100
AcDbEntity
  8
AM_0
 48
0.0165707914311128
100
AcDbLine
 10
2.69
 20
-1.19
 30
0.0
 11
2.69
 21
0.0000000000000001
 31
0.0
  0
LINE
  5
1F3
330
199
100
AcDbEntity
  8
AM_0
 48
0.0165707914311128
100
AcDbLine
 10
1.363636363636364
 20
-0.6799999999999998
 30
0.0
 11
1.363636363636364
 21
0.0000000000000002
 31
0.0
  0
LINE
  5
1F4
330
199
100
AcDbEntity
  8
AM_0
 48
0.0165707914311128
100
AcDbLine
 10
-1.363636363636364
 20
0.0000000000000002
 30
0.0
 11
-1.363636363636364
 21
-0.6799999999999998
 31
0.0
  0
LINE
  5
1F5
330
199
100
AcDbEntity
  8
AM_4
 48
0.0165707914311128
100
AcDbLine
 10
-2.065
 20
-1.19
 30
0.0
 11
-2.065
 21
0.0000000000000002
 31
0.0
  0
LINE
  5
1F6
330
199
100
AcDbEntity
  8
AM_0
 48
0.0165707914311128
100
AcDbLine
 10
-2.04281259365496
 20
-1.071
 30
0.0
 11
-2.04281259365496
 21
-1.19
 31
0.0
  0
LINE
  5
1F7
330
199
100
AcDbEntity
  8
AM_0
 48
0.0165707914311128
100
AcDbLine
 10
2.042812593654963
 20
-1.071
 30
0.0
 11
-2.04281259365496
 21
-1.071
 31
0.0
  0
LINE
  5
1F8
330
199
100
AcDbEntity
  8
AM_0
 48
0.0165707914311128
100
AcDbLine
 10
2.042812593654963
 20
-1.19
 30
0.0
 11
2.042812593654963
 21
-1.071
 31
0.0
  0
LINE
  5
1F9
330
199
100
AcDbEntity
  8
AM_4
 48
0.0165707914311128
100
AcDbLine
 10
2.065
 20
-1.19
 30
0.0
 11
2.065
 21
0.0000000000000002
 31
0.0
  0
LINE
  5
1FA
330
199
100
AcDbEntity
  8
AM_0
 48
0.0165707914311128
100
AcDbLine
 10
-1.363636363636364
 20
-0.6799999999999998
 30
0.0
 11
1.363636363636364
 21
-0.6799999999999998
 31
0.0
  0
ENDBLK
  5
19C
330
199
100
AcDbEntity
  8
0
100
AcDbBlockEnd
  0
ENDSEC
  0
SECTION
  2
ENTITIES
  0
ATTDEF
  5
6F
330
1F
100
AcDbEntity
  8
AM_6
100
AcDbText
 10
7.69
 20
0.1667000000292345
 30
0.0
 40
0.5
  1
Imperial - IP Flange - Square with Type E Dimensions 1-3/8 thru 2-3/16 inch Trident Seal Expansion
100
AcDbAttributeDefinition
  3

  2
NN
 70
     8
280
     0
  0
ATTDEF
  5
70
330
1F
100
AcDbEntity
  8
AM_6
100
AcDbText
 10
7.69
 20
-0.3332999999707655
 30
0.0
 40
0.5
  1
Imperial/E 4 Bolt Flange Bearings
100
AcDbAttributeDefinition
  3

  2
NT
 70
     8
280
     0
  0
ATTDEF
  5
71
330
1F
100
AcDbEntity
  8
AM_6
100
AcDbText
 10
7.69
 20
-0.8332999999707655
 30
0.0
 40
0.5
  1
071315
100
AcDbAttributeDefinition
  3

  2
NB
 70
     8
280
     0
  0
ATTDEF
  5
72
330
1F
100
AcDbEntity
  8
AM_6
100
AcDbText
 10
7.69
 20
-1.333299999970766
 30
0.0
 40
0.5
  1
$PN.
100
AcDbAttributeDefinition
  3

  2
NBSYN
 70
     8
280
     0
  0
ATTDEF
  5
73
330
1F
100
AcDbEntity
  8
AM_6
100
AcDbText
 10
7.69
 20
-1.833299999970766
 30
0.0
 40
0.5
  1
071315
100
AcDbAttributeDefinition
  3

  2
LINA
 70
     8
280
     0
  0
ATTDEF
  5
74
330
1F
100
AcDbEntity
  8
AM_6
100
AcDbText
 10
7.69
 20
-2.333299999970766
 30
0.0
 40
0.5
  1
1-1/2
100
AcDbAttributeDefinition
  3

  2
SS
 70
     8
280
     0
  0
ATTDEF
  5
75
330
1F
100
AcDbEntity
  8
AM_6
100
AcDbText
 10
7.69
 20
-2.833299999970766
 30
0.0
 40
0.5
  1
Expansion
100
AcDbAttributeDefinition
  3

  2
TYPE
 70
     8
280
     0
  0
ATTDEF
  5
76
330
1F
100
AcDbEntity
  8
AM_6
100
AcDbText
 10
7.69
 20
-3.333299999970766
 30
0.0
 40
0.5
  1
071315
100
AcDbAttributeDefinition
  3

  2
PN
 70
     8
280
     0
  0
ATTDEF
  5
77
330
1F
100
AcDbEntity
  8
AM_6
100
AcDbText
 10
7.69
 20
-3.833299999970766
 30
0.0
 40
0.5
  1
EF4B-IP-108RE
100
AcDbAttributeDefinition
  3

  2
DESCRIPTION
 70
     8
280
     0
  0
ATTDEF
  5
78
330
1F
100
AcDbEntity
  8
AM_6
100
AcDbText
 10
7.69
 20
-4.333299999970766
 30
0.0
 40
0.5
  1
Contact Seal
100
AcDbAttributeDefinition
  3

  2
ST
 70
     8
280
     0
  0
ATTDEF
  5
79
330
1F
100
AcDbEntity
  8
AM_6
100
AcDbText
 10
7.69
 20
-4.833299999970766
 30
0.0
 40
0.5
  1
2.81
100
AcDbAttributeDefinition
  3

  2
A
 70
     8
280
     0
  0
ATTDEF
  5
7A
330
1F
100
AcDbEntity
  8
AM_6
100
AcDbText
 10
7.69
 20
-5.333299999970766
 30
0.0
 40
0.5
  1
5.38
100
AcDbAttributeDefinition
  3

  2
B
 70
     8
280
     0
  0
ATTDEF
  5
7B
330
1F
100
AcDbEntity
  8
AM_6
100
AcDbText
 10
7.69
 20
-5.833299999970766
 30
0.0
 40
0.5
  1
3.64
100
AcDbAttributeDefinition
  3

  2
C
 70
     8
280
     0
  0
ATTDEF
  5
7C
330
1F
100
AcDbEntity
  8
AM_6
100
AcDbText
 10
7.69
 20
-6.333299999970766
 30
0.0
 40
0.5
  1
4.13
100
AcDbAttributeDefinition
  3

  2
D
 70
     8
280
     0
  0
ATTDEF
  5
7D
330
1F
100
AcDbEntity
  8
AM_6
100
AcDbText
 10
7.69
 20
-6.833299999970766
 30
0.0
 40
0.5
  1
5.834
100
AcDbAttributeDefinition
  3

  2
DD
 70
     8
280
     0
  0
ATTDEF
  5
7E
330
1F
100
AcDbEntity
  8
AM_6
100
AcDbText
 10
7.69
 20
-7.333299999970766
 30
0.0
 40
0.5
  1
1/2
100
AcDbAttributeDefinition
  3

  2
F
 70
     8
280
     0
  0
ATTDEF
  5
7F
330
1F
100
AcDbEntity
  8
AM_6
100
AcDbText
 10
7.69
 20
-7.833299999970766
 30
0.0
 40
0.5
  1
0.67
100
AcDbAttributeDefinition
  3

  2
G
 70
     8
280
     0
  0
ATTDEF
  5
80
330
1F
100
AcDbEntity
  8
AM_6
100
AcDbText
 10
7.69
 20
-8.333299999970766
 30
0.0
 40
0.5
  1
1.19
100
AcDbAttributeDefinition
  3

  2
H
 70
     8
280
     0
  0
ATTDEF
  5
81
330
1F
100
AcDbEntity
  8
AM_6
100
AcDbText
 10
7.69
 20
-8.833299999970766
 30
0.0
 40
0.5
  1
4.18
100
AcDbAttributeDefinition
  3

  2
J
 70
     8
280
     0
  0
ATTDEF
  5
82
330
1F
100
AcDbEntity
  8
AM_6
100
AcDbText
 10
7.69
 20
-9.333299999970766
 30
0.0
 40
0.5
  1
3.00
100
AcDbAttributeDefinition
  3

  2
L
 70
     8
280
     0
  0
ATTDEF
  5
83
330
1F
100
AcDbEntity
  8
AM_6
100
AcDbText
 10
7.69
 20
-9.833299999970766
 30
0.0
 40
0.5
  1
2.50
100
AcDbAttributeDefinition
  3

  2
N
 70
     8
280
     0
  0
ATTDEF
  5
84
330
1F
100
AcDbEntity
  8
AM_6
100
AcDbText
 10
7.69
 20
-10.33329999997077
 30
0.0
 40
0.5
  1
0.83
100
AcDbAttributeDefinition
  3

  2
P
 70
     8
280
     0
  0
ATTDEF
  5
85
330
1F
100
AcDbEntity
  8
AM_6
100
AcDbText
 10
7.69
 20
-10.83329999997077
 30
0.0
 40
0.5
  1
0.19
100
AcDbAttributeDefinition
  3

  2
X
 70
     8
280
     0
  0
ATTDEF
  5
86
330
1F
100
AcDbEntity
  8
AM_6
100
AcDbText
 10
7.69
 20
-11.33329999997077
 30
0.0
 40
0.5
  1
0.020
100
AcDbAttributeDefinition
  3

  2
Y
 70
     8
280
     0
  0
ATTDEF
  5
87
330
1F
100
AcDbEntity
  8
AM_6
100
AcDbText
 10
7.69
 20
-11.83329999997077
 30
0.0
 40
0.5
  1
2.08
100
AcDbAttributeDefinition
  3

  2
Z
 70
     8
280
     0
  0
ATTDEF
  5
88
330
1F
100
AcDbEntity
  8
AM_6
100
AcDbText
 10
7.69
 20
-12.33329999997077
 30
0.0
 40
0.5
  1
baldor
100
AcDbAttributeDefinition
  3

  2
COMPANY
 70
     8
280
     0
  0
INSERT
  5
8A
330
1F
100
AcDbEntity
  8
0
100
AcDbBlockReference
  2
1_ASME_B18_3_10_1_0_in_071315_4
 10
0.0
 20
0.0
 30
0.0
  0
INSERT
  5
9C
330
1F
100
AcDbEntity
  8
0
100
AcDbBlockReference
  2
2_ASME_B18_3_10_2_0_in_071315_4
 10
0.0
 20
0.0
 30
0.0
  0
INSERT
  5
C1
330
1F
100
AcDbEntity
  8
0
100
AcDbBlockReference
  2
3_070885LWE_0_in_071315_4
 10
0.0
 20
0.0
 30
0.0
  0
INSERT
  5
FA
330
1F
100
AcDbEntity
  8
0
100
AcDbBlockReference
  2
4_070885E_0_in_071315_4
 10
0.0
 20
0.0
 30
0.0
  0
INSERT
  5
17D
330
1F
100
AcDbEntity
  8
0
100
AcDbBlockReference
  2
5_405015E_Inch_0_in_071315_4
 10
0.0
 20
0.0
 30
0.0
  0
INSERT
  5
19A
330
1F
100
AcDbEntity
  8
0
100
AcDbBlockReference
  2
6_071315H_0_in_071315_4
 10
0.0
 20
0.0
 30
0.0
  0
POINT
  5
1FC
330
1F
100
AcDbEntity
  8
ConnectionPoints
100
AcDbPoint
 10
0.0
 20
-3.288333333333334
 30
1.096354166666667
  0
POINT
  5
1FD
330
1F
100
AcDbEntity
  8
ConnectionPoints
100
AcDbPoint
 10
0.0
 20
-3.218333333333334
 30
0.0000000000000002
  0
POINT
  5
1FE
330
1F
100
AcDbEntity
  8
ConnectionPoints
100
AcDbPoint
 10
0.0
 20
-3.45
 30
0.0000000000000002
  0
POINT
  5
1FF
330
1F
100
AcDbEntity
  8
ConnectionPoints
100
AcDbPoint
 10
0.0
 20
-3.417333333333334
 30
0.0000000000000002
  0
POINT
  5
200
330
1F
100
AcDbEntity
  8
ConnectionPoints
100
AcDbPoint
 10
0.0
 20
-3.218333333333334
 30
1.096354166666667
  0
POINT
  5
201
330
1F
100
AcDbEntity
  8
ConnectionPoints
100
AcDbPoint
 10
0.0
 20
-3.218333333333334
 30
-1.096354166666667
  0
POINT
  5
202
330
1F
100
AcDbEntity
  8
ConnectionPoints
100
AcDbPoint
 10
0.0
 20
-3.218333333333334
 30
0.0000000000000002
  0
POINT
  5
203
330
1F
100
AcDbEntity
  8
ConnectionPoints
100
AcDbPoint
 10
0.0
 20
-2.08
 30
2.125
  0
POINT
  5
204
330
1F
100
AcDbEntity
  8
ConnectionPoints
100
AcDbPoint
 10
0.0
 20
-2.08
 30
2.125
  0
POINT
  5
205
330
1F
100
AcDbEntity
  8
ConnectionPoints
100
AcDbPoint
 10
0.0
 20
-3.45
 30
0.0000000000000002
  0
POINT
  5
206
330
1F
100
AcDbEntity
  8
ConnectionPoints
100
AcDbPoint
 10
0.0
 20
-3.64
 30
0.0000000000000002
  0
ENDSEC
  0
SECTION
  2
OBJECTS
  0
DICTIONARY
  5
C
330
0
100
AcDbDictionary
281
     1
  3
ACAD_DETAILVIEWSTYLE
350
20E
  3
ACAD_GROUP
350
D
  3
ACAD_LAYOUT
350
1A
  3
ACAD_MATERIAL
350
43
  3
ACAD_MLEADERSTYLE
350
6B
  3
ACAD_MLINESTYLE
350
17
  3
ACAD_PLOTSETTINGS
350
19
  3
ACAD_PLOTSTYLENAME
350
E
  3
ACAD_SCALELIST
350
47
  3
ACAD_SECTIONVIEWSTYLE
350
20F
  3
ACAD_TABLESTYLE
350
69
  3
ACAD_VISUALSTYLE
350
2A
  3
ACDB_RECOMPOSE_DATA
350
20B
  3
AcDbVariableDictionary
350
207
  0
SUN
  5
6D
330
29
100
AcDbSun
 90
        1
290
     0
 63
     7
421
 16777215
 40
1.0
291
     1
 91
  2455826
 92
 54000000
292
     0
 70
     2
 71
   256
280
     1
  0
DICTIONARY
  5
20E
102
{ACAD_REACTORS
330
C
102
}
330
C
100
AcDbDictionary
281
     1
  0
DICTIONARY
  5
D
102
{ACAD_REACTORS
330
C
102
}
330
C
100
AcDbDictionary
281
     1
  0
DICTIONARY
  5
1A
102
{ACAD_REACTORS
330
C
102
}
330
C
100
AcDbDictionary
281
     1
  3
Layout1
350
1E
  3
Layout2
350
26
  3
Model
350
22
  0
DICTIONARY
  5
43
102
{ACAD_REACTORS
330
C
102
}
330
C
100
AcDbDictionary
281
     1
  3
ByBlock
350
45
  3
ByLayer
350
44
  3
Global
350
46
  0
DICTIONARY
  5
6B
102
{ACAD_REACTORS
330
C
102
}
330
C
100
AcDbDictionary
281
     1
  3
Standard
350
6C
  0
DICTIONARY
  5
17
102
{ACAD_REACTORS
330
C
102
}
330
C
100
AcDbDictionary
281
     1
  3
Standard
350
18
  0
DICTIONARY
  5
19
102
{ACAD_REACTORS
330
C
102
}
330
C
100
AcDbDictionary
281
     1
  0
ACDBDICTIONARYWDFLT
  5
E
102
{ACAD_REACTORS
330
C
102
}
330
C
100
AcDbDictionary
281
     1
  3
Normal
350
F
100
AcDbDictionaryWithDefault
340
F
  0
DICTIONARY
  5
47
102
{ACAD_REACTORS
330
C
102
}
330
C
100
AcDbDictionary
281
     1
  3
A0
350
48
  3
A1
350
49
  3
A2
350
4A
  3
A3
350
4B
  3
A4
350
4C
  3
A5
350
4D
  3
A6
350
4E
  3
A7
350
4F
  3
A8
350
50
  3
A9
350
51
  3
B0
350
52
  3
B1
350
53
  3
B2
350
54
  3
B3
350
55
  3
B4
350
56
  3
B5
350
57
  3
B6
350
58
  3
B7
350
59
  3
B8
350
5A
  3
B9
350
5B
  3
C0
350
5C
  3
C1
350
5D
  3
C2
350
5E
  3
C3
350
5F
  3
C4
350
60
  3
C5
350
61
  3
C6
350
62
  3
C7
350
63
  3
C8
350
64
  3
C9
350
65
  3
D0
350
66
  3
D1
350
67
  3
D2
350
68
  0
DICTIONARY
  5
20F
102
{ACAD_REACTORS
330
C
102
}
330
C
100
AcDbDictionary
281
     1
  0
DICTIONARY
  5
69
102
{ACAD_REACTORS
330
C
102
}
330
C
100
AcDbDictionary
281
     1
  3
Standard
350
6A
  0
DICTIONARY
  5
2A
102
{ACAD_REACTORS
330
C
102
}
330
C
100
AcDbDictionary
281
     1
  3
2dWireframe
350
2F
  3
Basic
350
32
  3
Brighten
350
36
  3
ColorChange
350
3A
  3
Conceptual
350
34
  3
Dim
350
35
  3
EdgeColorOff
350
3D
  3
Facepattern
350
39
  3
Flat
350
2B
  3
FlatWithEdges
350
2C
  3
Gouraud
350
2D
  3
GouraudWithEdges
350
2E
  3
Hidden
350
31
  3
JitterOff
350
3B
  3
Linepattern
350
38
  3
OverhangOff
350
3C
  3
Realistic
350
33
  3
Shaded
350
42
  3
Shaded with edges
350
41
  3
Shades of Gray
350
3E
  3
Sketchy
350
3F
  3
Thicken
350
37
  3
Wireframe
350
30
  3
X-Ray
350
40
  0
XRECORD
  5
20B
102
{ACAD_REACTORS
330
C
102
}
330
C
100
AcDbXrecord
280
     1
 90
        1
330
6A
  0
DICTIONARY
  5
207
102
{ACAD_REACTORS
330
C
102
}
330
C
100
AcDbDictionary
281
     1
  3
CANNOSCALE
350
208
  3
CMLEADERSTYLE
350
20D
  3
CTABLESTYLE
350
20C
  0
LAYOUT
  5
1E
102
{ACAD_REACTORS
330
1A
102
}
330
1A
100
AcDbPlotSettings
  1

  2
none_device
  4

  6

 40
0.0
 41
0.0
 42
0.0
 43
0.0
 44
0.0
 45
0.0
 46
0.0
 47
0.0
 48
0.0
 49
0.0
140
0.0
141
0.0
142
1.0
143
1.0
 70
   688
 72
     0
 73
     0
 74
     5
  7

 75
    16
 76
     0
 77
     2
 78
   300
147
1.0
148
0.0
149
0.0
100
AcDbLayout
  1
Layout1
 70
     1
 71
     1
 10
0.0
 20
0.0
 11
12.0
 21
9.0
 12
0.0
 22
0.0
 32
0.0
 14
1.000000000000000E+20
 24
1.000000000000000E+20
 34
1.000000000000000E+20
 15
-1.000000000000000E+20
 25
-1.000000000000000E+20
 35
-1.000000000000000E+20
146
0.0
 13
0.0
 23
0.0
 33
0.0
 16
1.0
 26
0.0
 36
0.0
 17
0.0
 27
1.0
 37
0.0
 76
     0
330
1B
  0
LAYOUT
  5
26
102
{ACAD_REACTORS
330
1A
102
}
330
1A
100
AcDbPlotSettings
  1

  2
none_device
  4

  6

 40
0.0
 41
0.0
 42
0.0
 43
0.0
 44
0.0
 45
0.0
 46
0.0
 47
0.0
 48
0.0
 49
0.0
140
0.0
141
0.0
142
1.0
143
1.0
 70
   688
 72
     0
 73
     0
 74
     5
  7

 75
    16
 76
     0
 77
     2
 78
   300
147
1.0
148
0.0
149
0.0
100
AcDbLayout
  1
Layout2
 70
     1
 71
     2
 10
0.0
 20
0.0
 11
0.0
 21
0.0
 12
0.0
 22
0.0
 32
0.0
 14
0.0
 24
0.0
 34
0.0
 15
0.0
 25
0.0
 35
0.0
146
0.0
 13
0.0
 23
0.0
 33
0.0
 16
1.0
 26
0.0
 36
0.0
 17
0.0
 27
1.0
 37
0.0
 76
     0
330
23
  0
LAYOUT
  5
22
102
{ACAD_REACTORS
330
1A
102
}
330
1A
100
AcDbPlotSettings
  1

  2
none_device
  4
Letter_(8.50_x_11.00_Inches)
  6

 40
6.35
 41
6.35
 42
6.35000508
 43
6.35000508
 44
215.9
 45
279.4
 46
0.0
 47
0.0
 48
0.0
 49
0.0
140
0.0
141
0.0
142
1.0
143
1.0
 70
  1712
 72
     0
 73
     0
 74
     0
  7

 75
     0
 76
     0
 77
     2
 78
   300
147
1.0
148
0.0
149
0.0
100
AcDbLayout
  1
Model
 70
     1
 71
     0
 10
0.0
 20
0.0
 11
12.0
 21
9.0
 12
0.0
 22
0.0
 32
0.0
 14
1.000000000000000E+20
 24
1.000000000000000E+20
 34
1.000000000000000E+20
 15
-1.000000000000000E+20
 25
-1.000000000000000E+20
 35
-1.000000000000000E+20
146
0.0
 13
0.0
 23
0.0
 33
0.0
 16
1.0
 26
0.0
 36
0.0
 17
0.0
 27
1.0
 37
0.0
 76
     0
330
1F
331
29
  0
MATERIAL
  5
45
102
{ACAD_REACTORS
330
43
102
}
330
43
100
AcDbMaterial
  1
ByBlock
 72
     1
 94
      127
  0
MATERIAL
  5
44
102
{ACAD_REACTORS
330
43
102
}
330
43
100
AcDbMaterial
  1
ByLayer
 72
     1
 94
      127
  0
MATERIAL
  5
46
102
{ACAD_REACTORS
330
43
102
}
330
43
100
AcDbMaterial
  1
Global
 72
     1
 94
      127
  0
MLEADERSTYLE
  5
6C
102
{ACAD_REACTORS
330
6B
102
}
330
6B
100
AcDbMLeaderStyle
179
     2
170
     2
171
     1
172
     0
 90
        2
 40
0.0
 41
0.0
173
     1
 91
-1056964608
340
14
 92
       -2
290
     1
 42
0.09
291
     1
 43
0.36
  3
Standard
341
0
 44
0.18
300

342
11
174
     1
178
     6
175
     1
176
     0
 93
-1056964608
 45
0.18
292
     0
297
     0
 46
0.18
343
0
 94
-1056964608
 47
1.0
 49
1.0
140
1.0
293
     1
141
0.0
294
     1
177
     0
142
1.0
295
     0
296
     0
143
0.125
271
     0
272
     9
273
     9
298
     0
  0
MLINESTYLE
  5
18
102
{ACAD_REACTORS
330
17
102
}
330
17
100
AcDbMlineStyle
  2
Standard
 70
     0
  3

 62
   256
 51
90.0
 52
90.0
 71
     2
 49
0.5
 62
   256
  6
BYLAYER
 49
-0.5
 62
   256
  6
BYLAYER
  0
ACDBPLACEHOLDER
  5
F
102
{ACAD_REACTORS
330
E
102
}
330
E
  0
SCALE
  5
48
102
{ACAD_REACTORS
330
47
102
}
330
47
100
AcDbScale
 70
     0
300
1:1
140
1.0
141
1.0
290
     1
  0
SCALE
  5
49
102
{ACAD_REACTORS
330
47
102
}
330
47
100
AcDbScale
 70
     0
300
1:2
140
1.0
141
2.0
290
     0
  0
SCALE
  5
4A
102
{ACAD_REACTORS
330
47
102
}
330
47
100
AcDbScale
 70
     0
300
1:4
140
1.0
141
4.0
290
     0
  0
SCALE
  5
4B
102
{ACAD_REACTORS
330
47
102
}
330
47
100
AcDbScale
 70
     0
300
1:5
140
1.0
141
5.0
290
     0
  0
SCALE
  5
4C
102
{ACAD_REACTORS
330
47
102
}
330
47
100
AcDbScale
 70
     0
300
1:8
140
1.0
141
8.0
290
     0
  0
SCALE
  5
4D
102
{ACAD_REACTORS
330
47
102
}
330
47
100
AcDbScale
 70
     0
300
1:10
140
1.0
141
10.0
290
     0
  0
SCALE
  5
4E
102
{ACAD_REACTORS
330
47
102
}
330
47
100
AcDbScale
 70
     0
300
1:16
140
1.0
141
16.0
290
     0
  0
SCALE
  5
4F
102
{ACAD_REACTORS
330
47
102
}
330
47
100
AcDbScale
 70
     0
300
1:20
140
1.0
141
20.0
290
     0
  0
SCALE
  5
50
102
{ACAD_REACTORS
330
47
102
}
330
47
100
AcDbScale
 70
     0
300
1:30
140
1.0
141
30.0
290
     0
  0
SCALE
  5
51
102
{ACAD_REACTORS
330
47
102
}
330
47
100
AcDbScale
 70
     0
300
1:40
140
1.0
141
40.0
290
     0
  0
SCALE
  5
52
102
{ACAD_REACTORS
330
47
102
}
330
47
100
AcDbScale
 70
     0
300
1:50
140
1.0
141
50.0
290
     0
  0
SCALE
  5
53
102
{ACAD_REACTORS
330
47
102
}
330
47
100
AcDbScale
 70
     0
300
1:100
140
1.0
141
100.0
290
     0
  0
SCALE
  5
54
102
{ACAD_REACTORS
330
47
102
}
330
47
100
AcDbScale
 70
     0
300
2:1
140
2.0
141
1.0
290
     0
  0
SCALE
  5
55
102
{ACAD_REACTORS
330
47
102
}
330
47
100
AcDbScale
 70
     0
300
4:1
140
4.0
141
1.0
290
     0
  0
SCALE
  5
56
102
{ACAD_REACTORS
330
47
102
}
330
47
100
AcDbScale
 70
     0
300
8:1
140
8.0
141
1.0
290
     0
  0
SCALE
  5
57
102
{ACAD_REACTORS
330
47
102
}
330
47
100
AcDbScale
 70
     0
300
10:1
140
10.0
141
1.0
290
     0
  0
SCALE
  5
58
102
{ACAD_REACTORS
330
47
102
}
330
47
100
AcDbScale
 70
     0
300
100:1
140
100.0
141
1.0
290
     0
  0
SCALE
  5
59
102
{ACAD_REACTORS
330
47
102
}
330
47
100
AcDbScale
 70
     0
300
1/128" = 1'-0"
140
0.0078125
141
12.0
290
     0
  0
SCALE
  5
5A
102
{ACAD_REACTORS
330
47
102
}
330
47
100
AcDbScale
 70
     0
300
1/64" = 1'-0"
140
0.015625
141
12.0
290
     0
  0
SCALE
  5
5B
102
{ACAD_REACTORS
330
47
102
}
330
47
100
AcDbScale
 70
     0
300
1/32" = 1'-0"
140
0.03125
141
12.0
290
     0
  0
SCALE
  5
5C
102
{ACAD_REACTORS
330
47
102
}
330
47
100
AcDbScale
 70
     0
300
1/16" = 1'-0"
140
0.0625
141
12.0
290
     0
  0
SCALE
  5
5D
102
{ACAD_REACTORS
330
47
102
}
330
47
100
AcDbScale
 70
     0
300
3/32" = 1'-0"
140
0.09375
141
12.0
290
     0
  0
SCALE
  5
5E
102
{ACAD_REACTORS
330
47
102
}
330
47
100
AcDbScale
 70
     0
300
1/8" = 1'-0"
140
0.125
141
12.0
290
     0
  0
SCALE
  5
5F
102
{ACAD_REACTORS
330
47
102
}
330
47
100
AcDbScale
 70
     0
300
3/16" = 1'-0"
140
0.1875
141
12.0
290
     0
  0
SCALE
  5
60
102
{ACAD_REACTORS
330
47
102
}
330
47
100
AcDbScale
 70
     0
300
1/4" = 1'-0"
140
0.25
141
12.0
290
     0
  0
SCALE
  5
61
102
{ACAD_REACTORS
330
47
102
}
330
47
100
AcDbScale
 70
     0
300
3/8" = 1'-0"
140
0.375
141
12.0
290
     0
  0
SCALE
  5
62
102
{ACAD_REACTORS
330
47
102
}
330
47
100
AcDbScale
 70
     0
300
1/2" = 1'-0"
140
0.5
141
12.0
290
     0
  0
SCALE
  5
63
102
{ACAD_REACTORS
330
47
102
}
330
47
100
AcDbScale
 70
     0
300
3/4" = 1'-0"
140
0.75
141
12.0
290
     0
  0
SCALE
  5
64
102
{ACAD_REACTORS
330
47
102
}
330
47
100
AcDbScale
 70
     0
300
1" = 1'-0"
140
1.0
141
12.0
290
     0
  0
SCALE
  5
65
102
{ACAD_REACTORS
330
47
102
}
330
47
100
AcDbScale
 70
     0
300
1-1/2" = 1'-0"
140
1.5
141
12.0
290
     0
  0
SCALE
  5
66
102
{ACAD_REACTORS
330
47
102
}
330
47
100
AcDbScale
 70
     0
300
3" = 1'-0"
140
3.0
141
12.0
290
     0
  0
SCALE
  5
67
102
{ACAD_REACTORS
330
47
102
}
330
47
100
AcDbScale
 70
     0
300
6" = 1'-0"
140
6.0
141
12.0
290
     0
  0
SCALE
  5
68
102
{ACAD_REACTORS
330
47
102
}
330
47
100
AcDbScale
 70
     0
300
1'-0" = 1'-0"
140
12.0
141
12.0
290
     0
  0
TABLESTYLE
  5
6A
102
{ACAD_REACTORS
330
69
102
}
102
{ACAD_XDICTIONARY
360
209
102
}
330
69
100
AcDbTableStyle
  3
Standard
 70
     0
 71
     0
 40
0.06
 41
0.06
280
     0
281
     0
  7
Standard
140
0.18
170
     2
 62
     0
 63
   257
283
     0
 90
        4
 91
        0
  1

274
    -2
284
     1
 64
     0
275
    -2
285
     1
 65
     0
276
    -2
286
     1
 66
     0
277
    -2
287
     1
 67
     0
278
    -2
288
     1
 68
     0
279
    -2
289
     1
 69
     0
  7
Standard
140
0.25
170
     5
 62
     0
 63
   257
283
     0
 90
        4
 91
        0
  1

274
    -2
284
     1
 64
     0
275
    -2
285
     1
 65
     0
276
    -2
286
     1
 66
     0
277
    -2
287
     1
 67
     0
278
    -2
288
     1
 68
     0
279
    -2
289
     1
 69
     0
  7
Standard
140
0.18
170
     5
 62
     0
 63
   257
283
     0
 90
        4
 91
        0
  1

274
    -2
284
     1
 64
     0
275
    -2
285
     1
 65
     0
276
    -2
286
     1
 66
     0
277
    -2
287
     1
 67
     0
278
    -2
288
     1
 68
     0
279
    -2
289
     1
 69
     0
  0
VISUALSTYLE
  5
2F
102
{ACAD_REACTORS
330
2A
102
}
330
2A
100
AcDbVisualStyle
  2
2dWireframe
 70
     4
177
     3
291
     0
 70
    58
 90
        0
176
     1
 90
        2
176
     1
 90
        0
176
     1
 90
        0
176
     1
 40
0.6
176
     1
 40
30.0
176
     1
 62
     7
420
 16777215
176
     1
 90
        1
176
     1
 90
        4
176
     1
 62
     7
176
     1
 62
   257
176
     1
 90
        1
176
     1
 90
        1
176
     1
 40
1.0
176
     1
 90
        0
176
     1
 62
   257
176
     1
 40
1.0
176
     1
 90
        1
176
     1
 90
        6
176
     1
 90
        2
176
     1
 62
     7
176
     1
 90
        5
176
     1
 90
        0
176
     1
 90
        0
176
     1
290
     0
176
     1
 90
        1
176
     1
 40
0.0
176
     1
 90
        0
176
     1
290
     1
176
     1
290
     1
176
     1
290
     0
176
     1
290
     0
176
     1
290
     0
176
     1
290
     0
176
     1
290
     0
176
     1
290
     0
176
     1
290
     0
176
     1
 90
       50
176
     1
 40
0.0
176
     1
 40
1.0
176
     1
 90
        0
176
     1
 62
    18
420
        0
176
     1
 90
       50
176
     1
 90
        3
176
     1
 62
     5
420
      255
176
     1
290
     0
176
     1
 90
       50
176
     1
 90
       50
176
     1
 90
       50
176
     1
290
     0
176
     1
 90
       50
176
     1
 62
   256
176
     0
 40
1.0
176
     0
 90
        2
176
     1
  1
strokes_ogs.tif
176
     1
290
     0
176
     1
 40
1.0
176
     1
 40
1.0
176
     1
  0
VISUALSTYLE
  5
32
102
{ACAD_REACTORS
330
2A
102
}
330
2A
100
AcDbVisualStyle
  2
Basic
 70
     7
177
     3
291
     1
 70
    58
 90
        1
176
     1
 90
        0
176
     1
 90
        1
176
     1
 90
        0
176
     1
 40
0.6
176
     1
 40
30.0
176
     1
 62
     7
420
 16777215
176
     1
 90
        0
176
     1
 90
        4
176
     1
 62
     7
176
     1
 62
   257
176
     1
 90
        1
176
     1
 90
        1
176
     1
 40
1.0
176
     1
 90
        8
176
     1
 62
     7
176
     1
 40
1.0
176
     1
 90
        1
176
     1
 90
        6
176
     1
 90
        2
176
     1
 62
     7
176
     1
 90
        5
176
     1
 90
        0
176
     1
 90
        0
176
     1
290
     0
176
     1
 90
        1
176
     1
 40
0.0
176
     1
 90
        0
176
     1
290
     0
176
     1
290
     1
176
     1
290
     1
176
     1
290
     0
176
     1
290
     0
176
     1
290
     0
176
     1
290
     0
176
     1
290
     0
176
     1
290
     0
176
     1
 90
       50
176
     1
 40
0.0
176
     1
 40
1.0
176
     1
 90
        0
176
     1
 62
    18
420
        0
176
     1
 90
       50
176
     1
 90
        3
176
     1
 62
     5
420
      255
176
     1
290
     0
176
     1
 90
       50
176
     1
 90
       50
176
     1
 90
       50
176
     1
290
     0
176
     1
 90
       50
176
     1
 62
   256
176
     0
 40
1.0
176
     0
 90
        2
176
     1
  1
strokes_ogs.tif
176
     1
290
     0
176
     1
 40
1.0
176
     1
 40
1.0
176
     1
  0
VISUALSTYLE
  5
36
102
{ACAD_REACTORS
330
2A
102
}
330
2A
100
AcDbVisualStyle
  2
Brighten
 70
    12
177
     3
291
     1
 70
    58
 90
        2
176
     1
 90
        2
176
     1
 90
        0
176
     1
 90
        0
176
     1
 40
0.6
176
     1
 40
30.0
176
     1
 62
     7
420
 16777215
176
     1
 90
        1
176
     1
 90
        4
176
     1
 62
     7
176
     1
 62
   257
176
     1
 90
        1
176
     1
 90
        1
176
     1
 40
1.0
176
     1
 90
        8
176
     1
 62
     7
176
     1
 40
1.0
176
     1
 90
        1
176
     1
 90
        6
176
     1
 90
        2
176
     1
 62
     7
176
     1
 90
        5
176
     1
 90
        0
176
     1
 90
        0
176
     1
290
     0
176
     1
 90
        1
176
     1
 40
50.0
176
     1
 90
        0
176
     1
290
     0
176
     1
290
     1
176
     1
290
     1
176
     1
290
     0
176
     1
290
     0
176
     1
290
     0
176
     1
290
     0
176
     1
290
     0
176
     1
290
     0
176
     1
 90
       50
176
     1
 40
0.0
176
     1
 40
1.0
176
     1
 90
        0
176
     1
 62
    18
420
        0
176
     1
 90
       50
176
     1
 90
        3
176
     1
 62
     5
420
      255
176
     1
290
     0
176
     1
 90
       50
176
     1
 90
       50
176
     1
 90
       50
176
     1
290
     0
176
     1
 90
       50
176
     1
 62
   256
176
     0
 40
1.0
176
     0
 90
        2
176
     1
  1
strokes_ogs.tif
176
     1
290
     0
176
     1
 40
1.0
176
     1
 40
1.0
176
     1
  0
VISUALSTYLE
  5
3A
102
{ACAD_REACTORS
330
2A
102
}
330
2A
100
AcDbVisualStyle
  2
ColorChange
 70
    16
177
     3
291
     1
 70
    58
 90
        2
176
     1
 90
        2
176
     1
 90
        3
176
     1
 90
        0
176
     1
 40
0.6
176
     1
 40
30.0
176
     1
 62
     8
420
  8421504
176
     1
 90
        1
176
     1
 90
        4
176
     1
 62
     7
176
     1
 62
   257
176
     1
 90
        1
176
     1
 90
        1
176
     1
 40
1.0
176
     1
 90
        8
176
     1
 62
     8
420
  8421504
176
     1
 40
1.0
176
     1
 90
        1
176
     1
 90
        6
176
     1
 90
        2
176
     1
 62
     7
176
     1
 90
        5
176
     1
 90
        0
176
     1
 90
        0
176
     1
290
     0
176
     1
 90
        1
176
     1
 40
0.0
176
     1
 90
        0
176
     1
290
     0
176
     1
290
     1
176
     1
290
     1
176
     1
290
     0
176
     1
290
     0
176
     1
290
     0
176
     1
290
     0
176
     1
290
     0
176
     1
290
     0
176
     1
 90
       50
176
     1
 40
0.0
176
     1
 40
1.0
176
     1
 90
        0
176
     1
 62
    18
420
        0
176
     1
 90
       50
176
     1
 90
        3
176
     1
 62
     5
420
      255
176
     1
290
     0
176
     1
 90
       50
176
     1
 90
       50
176
     1
 90
       50
176
     1
290
     0
176
     1
 90
       50
176
     1
 62
   256
176
     0
 40
1.0
176
     0
 90
        2
176
     1
  1
strokes_ogs.tif
176
     1
290
     0
176
     1
 40
1.0
176
     1
 40
1.0
176
     1
  0
VISUALSTYLE
  5
34
102
{ACAD_REACTORS
330
2A
102
}
330
2A
100
AcDbVisualStyle
  2
Conceptual
 70
     9
177
     3
291
     0
 70
    58
 90
        3
176
     1
 90
        2
176
     1
 90
        0
176
     1
 90
        0
176
     1
 40
0.6
176
     1
 40
30.0
176
     1
 62
     7
420
 16777215
176
     1
 90
        2
176
     1
 90
        2
176
     1
 62
     7
176
     1
 62
   257
176
     1
 90
        1
176
     1
 90
        1
176
     1
 40
179.0
176
     1
 90
        8
176
     1
 62
     7
176
     1
 40
1.0
176
     1
 90
        1
176
     1
 90
        6
176
     1
 90
        2
176
     1
 62
     7
176
     1
 90
        3
176
     1
 90
        0
176
     1
 90
        0
176
     1
290
     0
176
     1
 90
        1
176
     1
 40
0.0
176
     1
 90
        0
176
     1
290
     0
176
     1
290
     1
176
     1
290
     1
176
     1
290
     0
176
     1
290
     0
176
     1
290
     0
176
     1
290
     0
176
     1
290
     0
176
     1
290
     0
176
     1
 90
       50
176
     1
 40
0.0
176
     1
 40
1.0
176
     1
 90
        0
176
     1
 62
    18
420
        0
176
     1
 90
       50
176
     1
 90
        3
176
     1
 62
     5
420
      255
176
     1
290
     0
176
     1
 90
       50
176
     1
 90
       50
176
     1
 90
       50
176
     1
290
     0
176
     1
 90
       50
176
     1
 62
   256
176
     0
 40
1.0
176
     0
 90
        2
176
     1
  1
strokes_ogs.tif
176
     1
290
     0
176
     1
 40
1.0
176
     1
 40
1.0
176
     1
  0
VISUALSTYLE
  5
35
102
{ACAD_REACTORS
330
2A
102
}
330
2A
100
AcDbVisualStyle
  2
Dim
 70
    11
177
     3
291
     1
 70
    58
 90
        2
176
     1
 90
        2
176
     1
 90
        0
176
     1
 90
        0
176
     1
 40
0.6
176
     1
 40
30.0
176
     1
 62
     7
420
 16777215
176
     1
 90
        1
176
     1
 90
        4
176
     1
 62
     7
176
     1
 62
   257
176
     1
 90
        1
176
     1
 90
        1
176
     1
 40
1.0
176
     1
 90
        8
176
     1
 62
     7
176
     1
 40
1.0
176
     1
 90
        1
176
     1
 90
        6
176
     1
 90
        2
176
     1
 62
     7
176
     1
 90
        5
176
     1
 90
        0
176
     1
 90
        0
176
     1
290
     0
176
     1
 90
        1
176
     1
 40
-50.0
176
     1
 90
        0
176
     1
290
     0
176
     1
290
     1
176
     1
290
     1
176
     1
290
     0
176
     1
290
     0
176
     1
290
     0
176
     1
290
     0
176
     1
290
     0
176
     1
290
     0
176
     1
 90
       50
176
     1
 40
0.0
176
     1
 40
1.0
176
     1
 90
        0
176
     1
 62
    18
420
        0
176
     1
 90
       50
176
     1
 90
        3
176
     1
 62
     5
420
      255
176
     1
290
     0
176
     1
 90
       50
176
     1
 90
       50
176
     1
 90
       50
176
     1
290
     0
176
     1
 90
       50
176
     1
 62
   256
176
     0
 40
1.0
176
     0
 90
        2
176
     1
  1
strokes_ogs.tif
176
     1
290
     0
176
     1
 40
1.0
176
     1
 40
1.0
176
     1
  0
VISUALSTYLE
  5
3D
102
{ACAD_REACTORS
330
2A
102
}
330
2A
100
AcDbVisualStyle
  2
EdgeColorOff
 70
    22
177
     3
291
     1
 70
    58
 90
        2
176
     0
 90
        2
176
     0
 90
        0
176
     0
 90
        0
176
     0
 40
0.6
176
     0
 40
30.0
176
     0
 62
     7
420
 16777215
176
     0
 90
        1
176
     0
 90
        4
176
     0
 62
     7
176
     0
 62
   257
176
     0
 90
        1
176
     0
 90
        1
176
     0
 40
1.0
176
     0
 90
        8
176
     2
 62
     7
176
     0
 40
1.0
176
     0
 90
        1
176
     0
 90
        6
176
     0
 90
        2
176
     0
 62
     7
176
     0
 90
        5
176
     0
 90
        0
176
     0
 90
        0
176
     0
290
     0
176
     0
 90
        1
176
     0
 40
0.0
176
     0
 90
        0
176
     0
290
     0
176
     0
290
     1
176
     0
290
     1
176
     0
290
     0
176
     0
290
     0
176
     0
290
     0
176
     0
290
     0
176
     0
290
     0
176
     0
290
     0
176
     0
 90
       50
176
     0
 40
0.0
176
     0
 40
1.0
176
     0
 90
        0
176
     0
 62
    18
420
        0
176
     0
 90
       50
176
     0
 90
        3
176
     0
 62
     5
420
      255
176
     0
290
     0
176
     0
 90
       50
176
     0
 90
       50
176
     0
 90
       50
176
     0
290
     0
176
     0
 90
       50
176
     0
 62
   256
176
     0
 40
1.0
176
     0
 90
        2
176
     0
  1
strokes_ogs.tif
176
     0
290
     0
176
     0
 40
1.0
176
     0
 40
1.0
176
     0
  0
VISUALSTYLE
  5
39
102
{ACAD_REACTORS
330
2A
102
}
330
2A
100
AcDbVisualStyle
  2
Facepattern
 70
    15
177
     3
291
     1
 70
    58
 90
        2
176
     1
 90
        2
176
     1
 90
        0
176
     1
 90
        0
176
     1
 40
0.6
176
     1
 40
30.0
176
     1
 62
     7
420
 16777215
176
     1
 90
        1
176
     1
 90
        4
176
     1
 62
     7
176
     1
 62
   257
176
     1
 90
        1
176
     1
 90
        1
176
     1
 40
1.0
176
     1
 90
        8
176
     1
 62
     7
176
     1
 40
1.0
176
     1
 90
        1
176
     1
 90
        6
176
     1
 90
        2
176
     1
 62
     7
176
     1
 90
        5
176
     1
 90
        0
176
     1
 90
        0
176
     1
290
     0
176
     1
 90
        1
176
     1
 40
0.0
176
     1
 90
        0
176
     1
290
     0
176
     1
290
     1
176
     1
290
     1
176
     1
290
     0
176
     1
290
     0
176
     1
290
     0
176
     1
290
     0
176
     1
290
     0
176
     1
290
     0
176
     1
 90
       50
176
     1
 40
0.0
176
     1
 40
1.0
176
     1
 90
        0
176
     1
 62
    18
420
        0
176
     1
 90
       50
176
     1
 90
        3
176
     1
 62
     5
420
      255
176
     1
290
     0
176
     1
 90
       50
176
     1
 90
       50
176
     1
 90
       50
176
     1
290
     0
176
     1
 90
       50
176
     1
 62
   256
176
     0
 40
1.0
176
     0
 90
        2
176
     1
  1
strokes_ogs.tif
176
     1
290
     0
176
     1
 40
1.0
176
     1
 40
1.0
176
     1
  0
VISUALSTYLE
  5
2B
102
{ACAD_REACTORS
330
2A
102
}
330
2A
100
AcDbVisualStyle
  2
Flat
 70
     0
177
     3
291
     1
 70
    58
 90
        2
176
     1
 90
        1
176
     1
 90
        1
176
     1
 90
        2
176
     1
 40
0.6
176
     1
 40
30.0
176
     1
 62
     7
420
 16777215
176
     1
 90
        0
176
     1
 90
        0
176
     1
 62
     7
176
     1
 62
   257
176
     1
 90
        1
176
     1
 90
        1
176
     1
 40
1.0
176
     1
 90
        8
176
     1
 62
     7
176
     1
 40
1.0
176
     1
 90
        1
176
     1
 90
        6
176
     1
 90
        2
176
     1
 62
     7
176
     1
 90
        5
176
     1
 90
        0
176
     1
 90
        0
176
     1
290
     0
176
     1
 90
       13
176
     1
 40
0.0
176
     1
 90
        0
176
     1
290
     0
176
     1
290
     1
176
     1
290
     1
176
     1
290
     0
176
     1
290
     0
176
     1
290
     0
176
     1
290
     0
176
     1
290
     0
176
     1
290
     0
176
     1
 90
       50
176
     1
 40
0.0
176
     1
 40
1.0
176
     1
 90
        0
176
     1
 62
    18
420
        0
176
     1
 90
       50
176
     1
 90
        3
176
     1
 62
     5
420
      255
176
     1
290
     0
176
     1
 90
       50
176
     1
 90
       50
176
     1
 90
       50
176
     1
290
     0
176
     1
 90
       50
176
     1
 62
   256
176
     0
 40
1.0
176
     0
 90
        2
176
     1
  1
strokes_ogs.tif
176
     1
290
     0
176
     1
 40
1.0
176
     1
 40
1.0
176
     1
  0
VISUALSTYLE
  5
2C
102
{ACAD_REACTORS
330
2A
102
}
330
2A
100
AcDbVisualStyle
  2
FlatWithEdges
 70
     1
177
     3
291
     1
 70
    58
 90
        2
176
     1
 90
        1
176
     1
 90
        1
176
     1
 90
        2
176
     1
 40
0.6
176
     1
 40
30.0
176
     1
 62
     7
420
 16777215
176
     1
 90
        1
176
     1
 90
        0
176
     1
 62
     7
176
     1
 62
   257
176
     1
 90
        1
176
     1
 90
        1
176
     1
 40
1.0
176
     1
 90
        0
176
     1
 62
   257
176
     1
 40
1.0
176
     1
 90
        1
176
     1
 90
        6
176
     1
 90
        2
176
     1
 62
     7
176
     1
 90
        5
176
     1
 90
        0
176
     1
 90
        0
176
     1
290
     0
176
     1
 90
       13
176
     1
 40
0.0
176
     1
 90
        0
176
     1
290
     0
176
     1
290
     1
176
     1
290
     1
176
     1
290
     0
176
     1
290
     0
176
     1
290
     0
176
     1
290
     0
176
     1
290
     0
176
     1
290
     0
176
     1
 90
       50
176
     1
 40
0.0
176
     1
 40
1.0
176
     1
 90
        0
176
     1
 62
    18
420
        0
176
     1
 90
       50
176
     1
 90
        3
176
     1
 62
     5
420
      255
176
     1
290
     0
176
     1
 90
       50
176
     1
 90
       50
176
     1
 90
       50
176
     1
290
     0
176
     1
 90
       50
176
     1
 62
   256
176
     0
 40
1.0
176
     0
 90
        2
176
     1
  1
strokes_ogs.tif
176
     1
290
     0
176
     1
 40
1.0
176
     1
 40
1.0
176
     1
  0
VISUALSTYLE
  5
2D
102
{ACAD_REACTORS
330
2A
102
}
330
2A
100
AcDbVisualStyle
  2
Gouraud
 70
     2
177
     3
291
     1
 70
    58
 90
        2
176
     1
 90
        2
176
     1
 90
        1
176
     1
 90
        2
176
     1
 40
0.6
176
     1
 40
30.0
176
     1
 62
     7
420
 16777215
176
     1
 90
        0
176
     1
 90
        0
176
     1
 62
     7
176
     1
 62
   257
176
     1
 90
        1
176
     1
 90
        1
176
     1
 40
1.0
176
     1
 90
        0
176
     1
 62
     7
176
     1
 40
1.0
176
     1
 90
        1
176
     1
 90
        6
176
     1
 90
        2
176
     1
 62
     7
176
     1
 90
        5
176
     1
 90
        0
176
     1
 90
        0
176
     1
290
     0
176
     1
 90
       13
176
     1
 40
0.0
176
     1
 90
        0
176
     1
290
     0
176
     1
290
     1
176
     1
290
     1
176
     1
290
     0
176
     1
290
     0
176
     1
290
     0
176
     1
290
     0
176
     1
290
     0
176
     1
290
     0
176
     1
 90
       50
176
     1
 40
0.0
176
     1
 40
1.0
176
     1
 90
        0
176
     1
 62
    18
420
        0
176
     1
 90
       50
176
     1
 90
        3
176
     1
 62
     5
420
      255
176
     1
290
     0
176
     1
 90
       50
176
     1
 90
       50
176
     1
 90
       50
176
     1
290
     0
176
     1
 90
       50
176
     1
 62
   256
176
     0
 40
1.0
176
     0
 90
        2
176
     1
  1
strokes_ogs.tif
176
     1
290
     0
176
     1
 40
1.0
176
     1
 40
1.0
176
     1
  0
VISUALSTYLE
  5
2E
102
{ACAD_REACTORS
330
2A
102
}
330
2A
100
AcDbVisualStyle
  2
GouraudWithEdges
 70
     3
177
     3
291
     1
 70
    58
 90
        2
176
     1
 90
        2
176
     1
 90
        1
176
     1
 90
        2
176
     1
 40
0.6
176
     1
 40
30.0
176
     1
 62
     7
420
 16777215
176
     1
 90
        1
176
     1
 90
        0
176
     1
 62
     7
176
     1
 62
   257
176
     1
 90
        1
176
     1
 90
        1
176
     1
 40
1.0
176
     1
 90
        0
176
     1
 62
   257
176
     1
 40
1.0
176
     1
 90
        1
176
     1
 90
        6
176
     1
 90
        2
176
     1
 62
     7
176
     1
 90
        5
176
     1
 90
        0
176
     1
 90
        0
176
     1
290
     0
176
     1
 90
       13
176
     1
 40
0.0
176
     1
 90
        0
176
     1
290
     0
176
     1
290
     1
176
     1
290
     1
176
     1
290
     0
176
     1
290
     0
176
     1
290
     0
176
     1
290
     0
176
     1
290
     0
176
     1
290
     0
176
     1
 90
       50
176
     1
 40
0.0
176
     1
 40
1.0
176
     1
 90
        0
176
     1
 62
    18
420
        0
176
     1
 90
       50
176
     1
 90
        3
176
     1
 62
     5
420
      255
176
     1
290
     0
176
     1
 90
       50
176
     1
 90
       50
176
     1
 90
       50
176
     1
290
     0
176
     1
 90
       50
176
     1
 62
   256
176
     0
 40
1.0
176
     0
 90
        2
176
     1
  1
strokes_ogs.tif
176
     1
290
     0
176
     1
 40
1.0
176
     1
 40
1.0
176
     1
  0
VISUALSTYLE
  5
31
102
{ACAD_REACTORS
330
2A
102
}
330
2A
100
AcDbVisualStyle
  2
Hidden
 70
     6
177
     3
291
     0
 70
    58
 90
        1
176
     1
 90
        2
176
     1
 90
        2
176
     1
 90
        0
176
     1
 40
0.6
176
     1
 40
30.0
176
     1
 62
     7
420
 16777215
176
     1
 90
        2
176
     1
 90
        2
176
     1
 62
     7
176
     1
 62
   257
176
     1
 90
        2
176
     1
 90
        1
176
     1
 40
40.0
176
     1
 90
        0
176
     1
 62
   257
176
     1
 40
1.0
176
     1
 90
        1
176
     1
 90
        6
176
     1
 90
        2
176
     1
 62
     7
176
     1
 90
        3
176
     1
 90
        0
176
     1
 90
        0
176
     1
290
     0
176
     1
 90
        1
176
     1
 40
0.0
176
     1
 90
        0
176
     1
290
     0
176
     1
290
     1
176
     1
290
     1
176
     1
290
     0
176
     1
290
     0
176
     1
290
     0
176
     1
290
     0
176
     1
290
     0
176
     1
290
     0
176
     1
 90
       50
176
     1
 40
0.0
176
     1
 40
1.0
176
     1
 90
        0
176
     1
 62
    18
420
        0
176
     1
 90
       50
176
     1
 90
        3
176
     1
 62
     5
420
      255
176
     1
290
     0
176
     1
 90
       50
176
     1
 90
       50
176
     1
 90
       50
176
     1
290
     0
176
     1
 90
       50
176
     1
 62
   256
176
     0
 40
1.0
176
     0
 90
        2
176
     1
  1
strokes_ogs.tif
176
     1
290
     0
176
     1
 40
1.0
176
     1
 40
1.0
176
     1
  0
VISUALSTYLE
  5
3B
102
{ACAD_REACTORS
330
2A
102
}
330
2A
100
AcDbVisualStyle
  2
JitterOff
 70
    20
177
     3
291
     1
 70
    58
 90
        2
176
     0
 90
        2
176
     0
 90
        0
176
     0
 90
        0
176
     0
 40
0.6
176
     0
 40
30.0
176
     0
 62
     7
420
 16777215
176
     0
 90
        1
176
     0
 90
        4
176
     0
 62
     7
176
     0
 62
   257
176
     0
 90
        1
176
     0
 90
        1
176
     0
 40
1.0
176
     0
 90
       10
176
     2
 62
     7
176
     0
 40
1.0
176
     0
 90
        1
176
     0
 90
        6
176
     0
 90
        2
176
     0
 62
     7
176
     0
 90
        5
176
     0
 90
        0
176
     0
 90
        0
176
     0
290
     0
176
     0
 90
        1
176
     0
 40
0.0
176
     0
 90
        0
176
     0
290
     0
176
     0
290
     1
176
     0
290
     1
176
     0
290
     0
176
     0
290
     0
176
     0
290
     0
176
     0
290
     0
176
     0
290
     0
176
     0
290
     0
176
     0
 90
       50
176
     0
 40
0.0
176
     0
 40
1.0
176
     0
 90
        0
176
     0
 62
    18
420
        0
176
     0
 90
       50
176
     0
 90
        3
176
     0
 62
     5
420
      255
176
     0
290
     0
176
     0
 90
       50
176
     0
 90
       50
176
     0
 90
       50
176
     0
290
     0
176
     0
 90
       50
176
     0
 62
   256
176
     0
 40
1.0
176
     0
 90
        2
176
     0
  1
strokes_ogs.tif
176
     0
290
     0
176
     0
 40
1.0
176
     0
 40
1.0
176
     0
  0
VISUALSTYLE
  5
38
102
{ACAD_REACTORS
330
2A
102
}
330
2A
100
AcDbVisualStyle
  2
Linepattern
 70
    14
177
     3
291
     1
 70
    58
 90
        2
176
     1
 90
        2
176
     1
 90
        0
176
     1
 90
        0
176
     1
 40
0.6
176
     1
 40
30.0
176
     1
 62
     7
420
 16777215
176
     1
 90
        1
176
     1
 90
        4
176
     1
 62
     7
176
     1
 62
   257
176
     1
 90
        7
176
     1
 90
        7
176
     1
 40
1.0
176
     1
 90
        8
176
     1
 62
     7
176
     1
 40
1.0
176
     1
 90
        1
176
     1
 90
        6
176
     1
 90
        2
176
     1
 62
     7
176
     1
 90
        5
176
     1
 90
        0
176
     1
 90
        0
176
     1
290
     0
176
     1
 90
        1
176
     1
 40
0.0
176
     1
 90
        0
176
     1
290
     0
176
     1
290
     1
176
     1
290
     1
176
     1
290
     0
176
     1
290
     0
176
     1
290
     0
176
     1
290
     0
176
     1
290
     0
176
     1
290
     0
176
     1
 90
       50
176
     1
 40
0.0
176
     1
 40
1.0
176
     1
 90
        0
176
     1
 62
    18
420
        0
176
     1
 90
       50
176
     1
 90
        3
176
     1
 62
     5
420
      255
176
     1
290
     0
176
     1
 90
       50
176
     1
 90
       50
176
     1
 90
       50
176
     1
290
     0
176
     1
 90
       50
176
     1
 62
   256
176
     0
 40
1.0
176
     0
 90
        2
176
     1
  1
strokes_ogs.tif
176
     1
290
     0
176
     1
 40
1.0
176
     1
 40
1.0
176
     1
  0
VISUALSTYLE
  5
3C
102
{ACAD_REACTORS
330
2A
102
}
330
2A
100
AcDbVisualStyle
  2
OverhangOff
 70
    21
177
     3
291
     1
 70
    58
 90
        2
176
     0
 90
        2
176
     0
 90
        0
176
     0
 90
        0
176
     0
 40
0.6
176
     0
 40
30.0
176
     0
 62
     7
420
 16777215
176
     0
 90
        1
176
     0
 90
        4
176
     0
 62
     7
176
     0
 62
   257
176
     0
 90
        1
176
     0
 90
        1
176
     0
 40
1.0
176
     0
 90
        9
176
     2
 62
     7
176
     0
 40
1.0
176
     0
 90
        1
176
     0
 90
        6
176
     0
 90
        2
176
     0
 62
     7
176
     0
 90
        5
176
     0
 90
        0
176
     0
 90
        0
176
     0
290
     0
176
     0
 90
        1
176
     0
 40
0.0
176
     0
 90
        0
176
     0
290
     0
176
     0
290
     1
176
     0
290
     1
176
     0
290
     0
176
     0
290
     0
176
     0
290
     0
176
     0
290
     0
176
     0
290
     0
176
     0
290
     0
176
     0
 90
       50
176
     0
 40
0.0
176
     0
 40
1.0
176
     0
 90
        0
176
     0
 62
    18
420
        0
176
     0
 90
       50
176
     0
 90
        3
176
     0
 62
     5
420
      255
176
     0
290
     0
176
     0
 90
       50
176
     0
 90
       50
176
     0
 90
       50
176
     0
290
     0
176
     0
 90
       50
176
     0
 62
   256
176
     0
 40
1.0
176
     0
 90
        2
176
     0
  1
strokes_ogs.tif
176
     0
290
     0
176
     0
 40
1.0
176
     0
 40
1.0
176
     0
  0
VISUALSTYLE
  5
33
102
{ACAD_REACTORS
330
2A
102
}
330
2A
100
AcDbVisualStyle
  2
Realistic
 70
     8
177
     3
291
     0
 70
    58
 90
        2
176
     1
 90
        3
176
     1
 90
        0
176
     1
 90
        2
176
     1
 40
0.6
176
     1
 40
30.0
176
     1
 62
     7
420
 16777215
176
     1
 90
        0
176
     1
 90
        0
176
     1
 62
     7
176
     1
 62
   257
176
     1
 90
        1
176
     1
 90
        1
176
     1
 40
1.0
176
     1
 90
        8
176
     1
 62
   257
176
     1
 40
1.0
176
     1
 90
        1
176
     1
 90
        6
176
     1
 90
        2
176
     1
 62
     7
176
     1
 90
        3
176
     1
 90
        0
176
     1
 90
        0
176
     1
290
     0
176
     1
 90
       13
176
     1
 40
0.0
176
     1
 90
        0
176
     1
290
     0
176
     1
290
     1
176
     1
290
     1
176
     1
290
     0
176
     1
290
     0
176
     1
290
     0
176
     1
290
     0
176
     1
290
     0
176
     1
290
     0
176
     1
 90
       50
176
     1
 40
0.0
176
     1
 40
1.0
176
     1
 90
        0
176
     1
 62
    18
420
        0
176
     1
 90
       50
176
     1
 90
        3
176
     1
 62
     5
420
      255
176
     1
290
     0
176
     1
 90
       50
176
     1
 90
       50
176
     1
 90
       50
176
     1
290
     0
176
     1
 90
       50
176
     1
 62
   256
176
     0
 40
1.0
176
     0
 90
        2
176
     1
  1
strokes_ogs.tif
176
     1
290
     0
176
     1
 40
1.0
176
     1
 40
1.0
176
     1
  0
VISUALSTYLE
  5
42
102
{ACAD_REACTORS
330
2A
102
}
330
2A
100
AcDbVisualStyle
  2
Shaded
 70
    27
177
     3
291
     0
 70
    58
 90
        2
176
     1
 90
        2
176
     1
 90
        1
176
     1
 90
        2
176
     1
 40
0.6
176
     1
 40
30.0
176
     1
 62
     7
420
 16777215
176
     1
 90
        0
176
     1
 90
        4
176
     1
 62
     7
176
     1
 62
   257
176
     1
 90
        1
176
     1
 90
        1
176
     1
 40
1.0
176
     1
 90
        8
176
     1
 62
   257
176
     1
 40
1.0
176
     1
 90
        1
176
     1
 90
        6
176
     1
 90
        2
176
     1
 62
     8
420
  7895160
176
     1
 90
        3
176
     1
 90
        0
176
     1
 90
        0
176
     1
290
     0
176
     1
 90
        5
176
     1
 40
0.0
176
     1
 90
        0
176
     1
290
     0
176
     1
290
     1
176
     1
290
     1
176
     1
290
     0
176
     1
290
     0
176
     1
290
     0
176
     1
290
     0
176
     1
290
     0
176
     1
290
     0
176
     1
 90
       50
176
     1
 40
0.0
176
     1
 40
1.0
176
     1
 90
        0
176
     1
 62
    18
420
        0
176
     1
 90
       50
176
     1
 90
        3
176
     1
 62
     5
420
      255
176
     1
290
     0
176
     1
 90
       50
176
     1
 90
       50
176
     1
 90
       50
176
     1
290
     0
176
     1
 90
       50
176
     1
 62
   256
176
     0
 40
1.0
176
     0
 90
        2
176
     1
  1
strokes_ogs.tif
176
     1
290
     0
176
     1
 40
1.0
176
     1
 40
1.0
176
     1
  0
VISUALSTYLE
  5
41
102
{ACAD_REACTORS
330
2A
102
}
330
2A
100
AcDbVisualStyle
  2
Shaded with edges
 70
    26
177
     3
291
     0
 70
    58
 90
        2
176
     1
 90
        2
176
     1
 90
        1
176
     1
 90
        2
176
     1
 40
0.6
176
     1
 40
30.0
176
     1
 62
     7
420
 16777215
176
     1
 90
        1
176
     1
 90
       10
176
     1
 62
     7
176
     1
 62
   257
176
     1
 90
        2
176
     1
 90
        1
176
     1
 40
1.0
176
     1
 90
        8
176
     1
 62
   257
176
     1
 40
1.0
176
     1
 90
        1
176
     1
 90
        6
176
     1
 90
        2
176
     1
 62
     7
176
     1
 90
        3
176
     1
 90
        0
176
     1
 90
        0
176
     1
290
     0
176
     1
 90
        5
176
     1
 40
0.0
176
     1
 90
        0
176
     1
290
     0
176
     1
290
     1
176
     1
290
     1
176
     1
290
     0
176
     1
290
     0
176
     1
290
     0
176
     1
290
     0
176
     1
290
     0
176
     1
290
     0
176
     1
 90
       50
176
     1
 40
0.0
176
     1
 40
1.0
176
     1
 90
        0
176
     1
 62
    18
420
        0
176
     1
 90
       50
176
     1
 90
        3
176
     1
 62
     5
420
      255
176
     1
290
     0
176
     1
 90
       50
176
     1
 90
       50
176
     1
 90
       50
176
     1
290
     0
176
     1
 90
       50
176
     1
 62
   256
176
     0
 40
1.0
176
     0
 90
        2
176
     1
  1
strokes_ogs.tif
176
     1
290
     0
176
     1
 40
1.0
176
     1
 40
1.0
176
     1
  0
VISUALSTYLE
  5
3E
102
{ACAD_REACTORS
330
2A
102
}
330
2A
100
AcDbVisualStyle
  2
Shades of Gray
 70
    23
177
     3
291
     0
 70
    58
 90
        2
176
     1
 90
        2
176
     1
 90
        3
176
     1
 90
        0
176
     1
 40
0.6
176
     1
 40
30.0
176
     1
 62
     7
420
 16777215
176
     1
 90
        2
176
     1
 90
        2
176
     1
 62
     7
176
     1
 62
     7
176
     1
 90
        1
176
     1
 90
        1
176
     1
 40
40.0
176
     1
 90
        8
176
     1
 62
     7
176
     1
 40
1.0
176
     1
 90
        1
176
     1
 90
        6
176
     1
 90
        2
176
     1
 62
     7
176
     1
 90
        3
176
     1
 90
        0
176
     1
 90
        0
176
     1
290
     0
176
     1
 90
        1
176
     1
 40
0.0
176
     1
 90
        0
176
     1
290
     0
176
     1
290
     1
176
     1
290
     1
176
     1
290
     0
176
     1
290
     0
176
     1
290
     0
176
     1
290
     0
176
     1
290
     0
176
     1
290
     0
176
     1
 90
       50
176
     1
 40
0.0
176
     1
 40
1.0
176
     1
 90
        0
176
     1
 62
    18
420
        0
176
     1
 90
       50
176
     1
 90
        3
176
     1
 62
     5
420
      255
176
     1
290
     0
176
     1
 90
       50
176
     1
 90
       50
176
     1
 90
       50
176
     1
290
     0
176
     1
 90
       50
176
     1
 62
   256
176
     0
 40
1.0
176
     0
 90
        2
176
     1
  1
strokes_ogs.tif
176
     1
290
     0
176
     1
 40
1.0
176
     1
 40
1.0
176
     1
  0
VISUALSTYLE
  5
3F
102
{ACAD_REACTORS
330
2A
102
}
330
2A
100
AcDbVisualStyle
  2
Sketchy
 70
    24
177
     3
291
     0
 70
    58
 90
        1
176
     1
 90
        2
176
     1
 90
        2
176
     1
 90
        0
176
     1
 40
0.6
176
     1
 40
30.0
176
     1
 62
     7
420
 16777215
176
     1
 90
        2
176
     1
 90
        2
176
     1
 62
     7
176
     1
 62
     7
176
     1
 90
        1
176
     1
 90
        1
176
     1
 40
40.0
176
     1
 90
       11
176
     1
 62
     7
176
     1
 40
1.0
176
     1
 90
        1
176
     1
 90
        6
176
     1
 90
        2
176
     1
 62
     7
176
     1
 90
        6
176
     1
 90
        0
176
     1
 90
        0
176
     1
290
     0
176
     1
 90
        1
176
     1
 40
0.0
176
     1
 90
        0
176
     1
290
     0
176
     1
290
     1
176
     1
290
     1
176
     1
290
     0
176
     1
290
     0
176
     1
290
     0
176
     1
290
     0
176
     1
290
     0
176
     1
290
     0
176
     1
 90
       50
176
     1
 40
0.0
176
     1
 40
1.0
176
     1
 90
        0
176
     1
 62
    18
420
        0
176
     1
 90
       50
176
     1
 90
        3
176
     1
 62
     5
420
      255
176
     1
290
     0
176
     1
 90
       50
176
     1
 90
       50
176
     1
 90
       50
176
     1
290
     0
176
     1
 90
       50
176
     1
 62
   256
176
     0
 40
1.0
176
     0
 90
        2
176
     1
  1
strokes_ogs.tif
176
     1
290
     0
176
     1
 40
1.0
176
     1
 40
1.0
176
     1
  0
VISUALSTYLE
  5
37
102
{ACAD_REACTORS
330
2A
102
}
330
2A
100
AcDbVisualStyle
  2
Thicken
 70
    13
177
     3
291
     1
 70
    58
 90
        2
176
     1
 90
        2
176
     1
 90
        0
176
     1
 90
        0
176
     1
 40
0.6
176
     1
 40
30.0
176
     1
 62
     7
420
 16777215
176
     1
 90
        1
176
     1
 90
        4
176
     1
 62
     7
176
     1
 62
   257
176
     1
 90
        1
176
     1
 90
        1
176
     1
 40
1.0
176
     1
 90
       12
176
     1
 62
     7
176
     1
 40
1.0
176
     1
 90
        1
176
     1
 90
        6
176
     1
 90
        2
176
     1
 62
     7
176
     1
 90
        5
176
     1
 90
        0
176
     1
 90
        0
176
     1
290
     0
176
     1
 90
        1
176
     1
 40
0.0
176
     1
 90
        0
176
     1
290
     0
176
     1
290
     1
176
     1
290
     1
176
     1
290
     0
176
     1
290
     0
176
     1
290
     0
176
     1
290
     0
176
     1
290
     0
176
     1
290
     0
176
     1
 90
       50
176
     1
 40
0.0
176
     1
 40
1.0
176
     1
 90
        0
176
     1
 62
    18
420
        0
176
     1
 90
       50
176
     1
 90
        3
176
     1
 62
     5
420
      255
176
     1
290
     0
176
     1
 90
       50
176
     1
 90
       50
176
     1
 90
       50
176
     1
290
     0
176
     1
 90
       50
176
     1
 62
   256
176
     0
 40
1.0
176
     0
 90
        2
176
     1
  1
strokes_ogs.tif
176
     1
290
     0
176
     1
 40
1.0
176
     1
 40
1.0
176
     1
  0
VISUALSTYLE
  5
30
102
{ACAD_REACTORS
330
2A
102
}
330
2A
100
AcDbVisualStyle
  2
Wireframe
 70
     5
177
     3
291
     0
 70
    58
 90
        0
176
     1
 90
        2
176
     1
 90
        0
176
     1
 90
        0
176
     1
 40
0.6
176
     1
 40
30.0
176
     1
 62
     7
420
 16777215
176
     1
 90
        1
176
     1
 90
        4
176
     1
 62
     7
176
     1
 62
   257
176
     1
 90
        1
176
     1
 90
        1
176
     1
 40
1.0
176
     1
 90
        0
176
     1
 62
   257
176
     1
 40
1.0
176
     1
 90
        1
176
     1
 90
        6
176
     1
 90
        2
176
     1
 62
     7
176
     1
 90
        3
176
     1
 90
        0
176
     1
 90
        0
176
     1
290
     0
176
     1
 90
        1
176
     1
 40
0.0
176
     1
 90
        0
176
     1
290
     0
176
     1
290
     1
176
     1
290
     1
176
     1
290
     0
176
     1
290
     0
176
     1
290
     0
176
     1
290
     0
176
     1
290
     0
176
     1
290
     0
176
     1
 90
       50
176
     1
 40
0.0
176
     1
 40
1.0
176
     1
 90
        0
176
     1
 62
    18
420
        0
176
     1
 90
       50
176
     1
 90
        3
176
     1
 62
     5
420
      255
176
     1
290
     0
176
     1
 90
       50
176
     1
 90
       50
176
     1
 90
       50
176
     1
290
     0
176
     1
 90
       50
176
     1
 62
   256
176
     0
 40
1.0
176
     0
 90
        2
176
     1
  1
strokes_ogs.tif
176
     1
290
     0
176
     1
 40
1.0
176
     1
 40
1.0
176
     1
  0
VISUALSTYLE
  5
40
102
{ACAD_REACTORS
330
2A
102
}
330
2A
100
AcDbVisualStyle
  2
X-Ray
 70
    25
177
     3
291
     0
 70
    58
 90
        2
176
     1
 90
        2
176
     1
 90
        1
176
     1
 90
        1
176
     1
 40
0.5
176
     1
 40
30.0
176
     1
 62
     7
420
 16777215
176
     1
 90
        1
176
     1
 90
        0
176
     1
 62
     7
176
     1
 62
   257
176
     1
 90
        1
176
     1
 90
        1
176
     1
 40
1.0
176
     1
 90
        8
176
     1
 62
     7
176
     1
 40
1.0
176
     1
 90
        1
176
     1
 90
        6
176
     1
 90
        2
176
     1
 62
     7
176
     1
 90
        3
176
     1
 90
        0
176
     1
 90
        0
176
     1
290
     0
176
     1
 90
       13
176
     1
 40
0.0
176
     1
 90
        0
176
     1
290
     0
176
     1
290
     1
176
     1
290
     1
176
     1
290
     0
176
     1
290
     0
176
     1
290
     0
176
     1
290
     0
176
     1
290
     0
176
     1
290
     0
176
     1
 90
       50
176
     1
 40
0.0
176
     1
 40
1.0
176
     1
 90
        0
176
     1
 62
    18
420
        0
176
     1
 90
       50
176
     1
 90
        3
176
     1
 62
     5
420
      255
176
     1
290
     0
176
     1
 90
       50
176
     1
 90
       50
176
     1
 90
       50
176
     1
290
     0
176
     1
 90
       50
176
     1
 62
   256
176
     0
 40
1.0
176
     0
 90
        2
176
     1
  1
strokes_ogs.tif
176
     1
290
     0
176
     1
 40
1.0
176
     1
 40
1.0
176
     1
  0
DICTIONARYVAR
  5
208
102
{ACAD_REACTORS
330
207
102
}
330
207
100
DictionaryVariables
280
     0
  1
1:1
  0
DICTIONARYVAR
  5
20D
102
{ACAD_REACTORS
330
207
102
}
330
207
100
DictionaryVariables
280
     0
  1
Standard
  0
DICTIONARYVAR
  5
20C
102
{ACAD_REACTORS
330
207
102
}
330
207
100
DictionaryVariables
280
     0
  1
Standard
  0
DICTIONARY
  5
209
330
6A
100
AcDbDictionary
280
     1
281
     1
  3
ACAD_ROUNDTRIP_2008_TABLESTYLE_CELLSTYLEMAP
360
20A
  0
CELLSTYLEMAP
  5
20A
102
{ACAD_REACTORS
330
209
102
}
330
209
100
AcDbCellStyleMap
 90
        3
300
CELLSTYLE
  1
TABLEFORMAT_BEGIN
 90
        5
170
     1
 91
        0
 92
    32768
 62
   257
 93
        1
300
CONTENTFORMAT
  1
CONTENTFORMAT_BEGIN
 90
        0
 91
        0
 92
        4
 93
        0
300

 40
0.0
140
1.0
 94
        5
 62
     0
340
11
144
0.25
309
CONTENTFORMAT_END
171
     1
301
MARGIN
  1
CELLMARGIN_BEGIN
 40
0.06
 40
0.06
 40
0.06
 40
0.06
 40
0.06
 40
0.06
309
CELLMARGIN_END
 94
        6
 95
        1
302
GRIDFORMAT
  1
GRIDFORMAT_BEGIN
 90
        0
 91
        1
 62
     0
 92
       -2
340
14
 93
        0
 40
0.045
309
GRIDFORMAT_END
 95
        2
302
GRIDFORMAT
  1
GRIDFORMAT_BEGIN
 90
        0
 91
        1
 62
     0
 92
       -2
340
14
 93
        0
 40
0.045
309
GRIDFORMAT_END
 95
        4
302
GRIDFORMAT
  1
GRIDFORMAT_BEGIN
 90
        0
 91
        1
 62
     0
 92
       -2
340
14
 93
        0
 40
0.045
309
GRIDFORMAT_END
 95
        8
302
GRIDFORMAT
  1
GRIDFORMAT_BEGIN
 90
        0
 91
        1
 62
     0
 92
       -2
340
14
 93
        0
 40
0.045
309
GRIDFORMAT_END
 95
       16
302
GRIDFORMAT
  1
GRIDFORMAT_BEGIN
 90
        0
 91
        1
 62
     0
 92
       -2
340
14
 93
        0
 40
0.045
309
GRIDFORMAT_END
 95
       32
302
GRIDFORMAT
  1
GRIDFORMAT_BEGIN
 90
        0
 91
        1
 62
     0
 92
       -2
340
14
 93
        0
 40
0.045
309
GRIDFORMAT_END
309
TABLEFORMAT_END
  1
CELLSTYLE_BEGIN
 90
        1
 91
        1
300
_TITLE
309
CELLSTYLE_END
300
CELLSTYLE
  1
TABLEFORMAT_BEGIN
 90
        5
170
     1
 91
        0
 92
        0
 62
   257
 93
        1
300
CONTENTFORMAT
  1
CONTENTFORMAT_BEGIN
 90
        0
 91
        0
 92
        4
 93
        0
300

 40
0.0
140
1.0
 94
        5
 62
     0
340
11
144
0.18
309
CONTENTFORMAT_END
171
     1
301
MARGIN
  1
CELLMARGIN_BEGIN
 40
0.06
 40
0.06
 40
0.06
 40
0.06
 40
0.06
 40
0.06
309
CELLMARGIN_END
 94
        6
 95
        1
302
GRIDFORMAT
  1
GRIDFORMAT_BEGIN
 90
        0
 91
        1
 62
     0
 92
       -2
340
14
 93
        0
 40
0.045
309
GRIDFORMAT_END
 95
        2
302
GRIDFORMAT
  1
GRIDFORMAT_BEGIN
 90
        0
 91
        1
 62
     0
 92
       -2
340
14
 93
        0
 40
0.045
309
GRIDFORMAT_END
 95
        4
302
GRIDFORMAT
  1
GRIDFORMAT_BEGIN
 90
        0
 91
        1
 62
     0
 92
       -2
340
14
 93
        0
 40
0.045
309
GRIDFORMAT_END
 95
        8
302
GRIDFORMAT
  1
GRIDFORMAT_BEGIN
 90
        0
 91
        1
 62
     0
 92
       -2
340
14
 93
        0
 40
0.045
309
GRIDFORMAT_END
 95
       16
302
GRIDFORMAT
  1
GRIDFORMAT_BEGIN
 90
        0
 91
        1
 62
     0
 92
       -2
340
14
 93
        0
 40
0.045
309
GRIDFORMAT_END
 95
       32
302
GRIDFORMAT
  1
GRIDFORMAT_BEGIN
 90
        0
 91
        1
 62
     0
 92
       -2
340
14
 93
        0
 40
0.045
309
GRIDFORMAT_END
309
TABLEFORMAT_END
  1
CELLSTYLE_BEGIN
 90
        2
 91
        1
300
_HEADER
309
CELLSTYLE_END
300
CELLSTYLE
  1
TABLEFORMAT_BEGIN
 90
        5
170
     1
 91
        0
 92
        0
 62
   257
 93
        1
300
CONTENTFORMAT
  1
CONTENTFORMAT_BEGIN
 90
        0
 91
        0
 92
        4
 93
        0
300

 40
0.0
140
1.0
 94
        2
 62
     0
340
11
144
0.18
309
CONTENTFORMAT_END
171
     1
301
MARGIN
  1
CELLMARGIN_BEGIN
 40
0.06
 40
0.06
 40
0.06
 40
0.06
 40
0.06
 40
0.06
309
CELLMARGIN_END
 94
        6
 95
        1
302
GRIDFORMAT
  1
GRIDFORMAT_BEGIN
 90
        0
 91
        1
 62
     0
 92
       -2
340
14
 93
        0
 40
0.045
309
GRIDFORMAT_END
 95
        2
302
GRIDFORMAT
  1
GRIDFORMAT_BEGIN
 90
        0
 91
        1
 62
     0
 92
       -2
340
14
 93
        0
 40
0.045
309
GRIDFORMAT_END
 95
        4
302
GRIDFORMAT
  1
GRIDFORMAT_BEGIN
 90
        0
 91
        1
 62
     0
 92
       -2
340
14
 93
        0
 40
0.045
309
GRIDFORMAT_END
 95
        8
302
GRIDFORMAT
  1
GRIDFORMAT_BEGIN
 90
        0
 91
        1
 62
     0
 92
       -2
340
14
 93
        0
 40
0.045
309
GRIDFORMAT_END
 95
       16
302
GRIDFORMAT
  1
GRIDFORMAT_BEGIN
 90
        0
 91
        1
 62
     0
 92
       -2
340
14
 93
        0
 40
0.045
309
GRIDFORMAT_END
 95
       32
302
GRIDFORMAT
  1
GRIDFORMAT_BEGIN
 90
        0
 91
        1
 62
     0
 92
       -2
340
14
 93
        0
 40
0.045
309
GRIDFORMAT_END
309
TABLEFORMAT_END
  1
CELLSTYLE_BEGIN
 90
        3
 91
        2
300
_DATA
309
CELLSTYLE_END
  0
ENDSEC
  0
EOF