0
SECTION
  2
HEADER
  9
$ACADVER
  1
AC1027
  9
$ACADMAINTVER
 70
     8
  9
$DWGCODEPAGE
  3
ANSI_1252
  9
$REQUIREDVERSIONS
160
                 0
  9
$COMMENTS
  1
File was created by Cadenas
  9
$CUSTOMPROPERTYTAG
  1
NN
  9
$CUSTOMPROPERTY
  1
Imperial - IP Flange - Square with Type E Dimensions 1-3/8 thru 2-3/16 inch Trident Seal Expansion
  9
$CUSTOMPROPERTYTAG
  1
NT
  9
$CUSTOMPROPERTY
  1
Imperial/E 4 Bolt Flange Bearings
  9
$CUSTOMPROPERTYTAG
  1
NB
  9
$CUSTOMPROPERTY
  1
071309
  9
$CUSTOMPROPERTYTAG
  1
NBSYN
  9
$CUSTOMPROPERTY
  1
$PN.
  9
$CUSTOMPROPERTYTAG
  1
LINA
  9
$CUSTOMPROPERTY
  1
071309
  9
$CUSTOMPROPERTYTAG
  1
SS
  9
$CUSTOMPROPERTY
  1
3-15/16
  9
$CUSTOMPROPERTYTAG
  1
TYPE
  9
$CUSTOMPROPERTY
  1
Non-Expansion
  9
$CUSTOMPROPERTYTAG
  1
PN
  9
$CUSTOMPROPERTY
  1
071309
  9
$CUSTOMPROPERTYTAG
  1
DESCRIPTION
  9
$CUSTOMPROPERTY
  1
EF4B-IP-315R
  9
$CUSTOMPROPERTYTAG
  1
ST
  9
$CUSTOMPROPERTY
  1
Contact Seal
  9
$CUSTOMPROPERTYTAG
  1
A
  9
$CUSTOMPROPERTY
  1
4.70
  9
$CUSTOMPROPERTYTAG
  1
B
  9
$CUSTOMPROPERTY
  1
10.25
  9
$CUSTOMPROPERTYTAG
  1
C
  9
$CUSTOMPROPERTY
  1
6.73
  9
$CUSTOMPROPERTYTAG
  1
D
  9
$CUSTOMPROPERTY
  1
7.75
  9
$CUSTOMPROPERTYTAG
  1
DD
  9
$CUSTOMPROPERTY
  1
10.960
  9
$CUSTOMPROPERTYTAG
  1
F
  9
$CUSTOMPROPERTY
  1
7/8
  9
$CUSTOMPROPERTYTAG
  1
G
  9
$CUSTOMPROPERTY
  1
1.22
  9
$CUSTOMPROPERTYTAG
  1
H
  9
$CUSTOMPROPERTY
  1
2.12
  9
$CUSTOMPROPERTYTAG
  1
J
  9
$CUSTOMPROPERTY
  1
8.27
  9
$CUSTOMPROPERTYTAG
  1
L
  9
$CUSTOMPROPERTY
  1
5.56
  9
$CUSTOMPROPERTYTAG
  1
N
  9
$CUSTOMPROPERTY
  1
4.58
  9
$CUSTOMPROPERTYTAG
  1
P
  9
$CUSTOMPROPERTY
  1
2.02
  9
$CUSTOMPROPERTYTAG
  1
X
  9
$CUSTOMPROPERTY
  1
0.31
  9
$CUSTOMPROPERTYTAG
  1
Y
  9
$CUSTOMPROPERTY
  1
0.025
  9
$CUSTOMPROPERTYTAG
  1
Z
  9
$CUSTOMPROPERTY
  1
4.50
  9
$CUSTOMPROPERTYTAG
  1
COMPANY
  9
$CUSTOMPROPERTY
  1
baldor
  9
$INSBASE
 10
0.0
 20
0.0
 30
0.0
  9
$EXTMIN
 10
1.000000000000000E+20
 20
1.000000000000000E+20
 30
1.000000000000000E+20
  9
$EXTMAX
 10
-1.000000000000000E+20
 20
-1.000000000000000E+20
 30
-1.000000000000000E+20
  9
$LIMMIN
 10
0.0
 20
0.0
  9
$LIMMAX
 10
12.0
 20
9.0
  9
$ORTHOMODE
 70
     0
  9
$REGENMODE
 70
     1
  9
$FILLMODE
 70
     1
  9
$QTEXTMODE
 70
     0
  9
$MIRRTEXT
 70
     1
  9
$LTSCALE
 40
1.0
  9
$ATTMODE
 70
     1
  9
$TEXTSIZE
 40
0.2
  9
$TRACEWID
 40
0.05
  9
$TEXTSTYLE
  7
Standard
  9
$CLAYER
  8
0
  9
$CELTYPE
  6
ByLayer
  9
$CECOLOR
 62
   256
  9
$CELTSCALE
 40
1.0
  9
$DISPSILH
 70
     0
  9
$DIMSCALE
 40
1.0
  9
$DIMASZ
 40
0.18
  9
$DIMEXO
 40
0.0625
  9
$DIMDLI
 40
0.38
  9
$DIMRND
 40
0.0
  9
$DIMDLE
 40
0.0
  9
$DIMEXE
 40
0.18
  9
$DIMTP
 40
0.0
  9
$DIMTM
 40
0.0
  9
$DIMTXT
 40
0.18
  9
$DIMCEN
 40
0.09
  9
$DIMTSZ
 40
0.0
  9
$DIMTOL
 70
     0
  9
$DIMLIM
 70
     0
  9
$DIMTIH
 70
     1
  9
$DIMTOH
 70
     1
  9
$DIMSE1
 70
     0
  9
$DIMSE2
 70
     0
  9
$DIMTAD
 70
     0
  9
$DIMZIN
 70
     0
  9
$DIMBLK
  1

  9
$DIMASO
 70
     1
  9
$DIMSHO
 70
     1
  9
$DIMPOST
  1

  9
$DIMAPOST
  1

  9
$DIMALT
 70
     0
  9
$DIMALTD
 70
     2
  9
$DIMALTF
 40
25.4
  9
$DIMLFAC
 40
1.0
  9
$DIMTOFL
 70
     0
  9
$DIMTVP
 40
0.0
  9
$DIMTIX
 70
     0
  9
$DIMSOXD
 70
     0
  9
$DIMSAH
 70
     0
  9
$DIMBLK1
  1

  9
$DIMBLK2
  1

  9
$DIMSTYLE
  2
Standard
  9
$DIMCLRD
 70
     0
  9
$DIMCLRE
 70
     0
  9
$DIMCLRT
 70
     0
  9
$DIMTFAC
 40
1.0
  9
$DIMGAP
 40
0.09
  9
$DIMJUST
 70
     0
  9
$DIMSD1
 70
     0
  9
$DIMSD2
 70
     0
  9
$DIMTOLJ
 70
     1
  9
$DIMTZIN
 70
     0
  9
$DIMALTZ
 70
     0
  9
$DIMALTTZ
 70
     0
  9
$DIMUPT
 70
     0
  9
$DIMDEC
 70
     4
  9
$DIMTDEC
 70
     4
  9
$DIMALTU
 70
     2
  9
$DIMALTTD
 70
     2
  9
$DIMTXSTY
  7
Standard
  9
$DIMAUNIT
 70
     0
  9
$DIMADEC
 70
     0
  9
$DIMALTRND
 40
0.0
  9
$DIMAZIN
 70
     0
  9
$DIMDSEP
 70
    46
  9
$DIMATFIT
 70
     3
  9
$DIMFRAC
 70
     0
  9
$DIMLDRBLK
  1

  9
$DIMLUNIT
 70
     2
  9
$DIMLWD
 70
    -2
  9
$DIMLWE
 70
    -2
  9
$DIMTMOVE
 70
     0
  9
$DIMFXL
 40
1.0
  9
$DIMFXLON
 70
     0
  9
$DIMJOGANG
 40
0.7853981633974483
  9
$DIMTFILL
 70
     0
  9
$DIMTFILLCLR
 70
     0
  9
$DIMARCSYM
 70
     0
  9
$DIMLTYPE
  6

  9
$DIMLTEX1
  6

  9
$DIMLTEX2
  6

  9
$DIMTXTDIRECTION
 70
     0
  9
$LUNITS
 70
     2
  9
$LUPREC
 70
     4
  9
$SKETCHINC
 40
0.1
  9
$FILLETRAD
 40
0.5
  9
$AUNITS
 70
     0
  9
$AUPREC
 70
     0
  9
$MENU
  1
.
  9
$ELEVATION
 40
0.0
  9
$PELEVATION
 40
0.0
  9
$THICKNESS
 40
0.0
  9
$LIMCHECK
 70
     0
  9
$CHAMFERA
 40
0.0
  9
$CHAMFERB
 40
0.0
  9
$CHAMFERC
 40
0.0
  9
$CHAMFERD
 40
0.0
  9
$SKPOLY
 70
     0
  9
$TDCREATE
 40
2458168.982802384
  9
$TDUCREATE
 40
2458168.941135718
  9
$TDUPDATE
 40
2458168.982802558
  9
$TDUUPDATE
 40
2458168.941135891
  9
$TDINDWG
 40
0.0000000116
  9
$TDUSRTIMER
 40
0.0000000116
  9
$USRTIMER
 70
     1
  9
$ANGBASE
 50
0.0
  9
$ANGDIR
 70
     0
  9
$PDMODE
 70
     0
  9
$PDSIZE
 40
0.0
  9
$PLINEWID
 40
0.0
  9
$SPLFRAME
 70
     0
  9
$SPLINETYPE
 70
     6
  9
$SPLINESEGS
 70
     8
  9
$HANDSEED
  5
253
  9
$SURFTAB1
 70
     6
  9
$SURFTAB2
 70
     6
  9
$SURFTYPE
 70
     6
  9
$SURFU
 70
     6
  9
$SURFV
 70
     6
  9
$UCSBASE
  2

  9
$UCSNAME
  2

  9
$UCSORG
 10
0.0
 20
0.0
 30
0.0
  9
$UCSXDIR
 10
1.0
 20
0.0
 30
0.0
  9
$UCSYDIR
 10
0.0
 20
1.0
 30
0.0
  9
$UCSORTHOREF
  2

  9
$UCSORTHOVIEW
 70
     0
  9
$UCSORGTOP
 10
0.0
 20
0.0
 30
0.0
  9
$UCSORGBOTTOM
 10
0.0
 20
0.0
 30
0.0
  9
$UCSORGLEFT
 10
0.0
 20
0.0
 30
0.0
  9
$UCSORGRIGHT
 10
0.0
 20
0.0
 30
0.0
  9
$UCSORGFRONT
 10
0.0
 20
0.0
 30
0.0
  9
$UCSORGBACK
 10
0.0
 20
0.0
 30
0.0
  9
$PUCSBASE
  2

  9
$PUCSNAME
  2

  9
$PUCSORG
 10
0.0
 20
0.0
 30
0.0
  9
$PUCSXDIR
 10
1.0
 20
0.0
 30
0.0
  9
$PUCSYDIR
 10
0.0
 20
1.0
 30
0.0
  9
$PUCSORTHOREF
  2

  9
$PUCSORTHOVIEW
 70
     0
  9
$PUCSORGTOP
 10
0.0
 20
0.0
 30
0.0
  9
$PUCSORGBOTTOM
 10
0.0
 20
0.0
 30
0.0
  9
$PUCSORGLEFT
 10
0.0
 20
0.0
 30
0.0
  9
$PUCSORGRIGHT
 10
0.0
 20
0.0
 30
0.0
  9
$PUCSORGFRONT
 10
0.0
 20
0.0
 30
0.0
  9
$PUCSORGBACK
 10
0.0
 20
0.0
 30
0.0
  9
$USERI1
 70
     0
  9
$USERI2
 70
     0
  9
$USERI3
 70
     0
  9
$USERI4
 70
     0
  9
$USERI5
 70
     0
  9
$USERR1
 40
0.0
  9
$USERR2
 40
0.0
  9
$USERR3
 40
0.0
  9
$USERR4
 40
0.0
  9
$USERR5
 40
0.0
  9
$WORLDVIEW
 70
     1
  9
$SHADEDGE
 70
     3
  9
$SHADEDIF
 70
    70
  9
$TILEMODE
 70
     1
  9
$MAXACTVP
 70
    64
  9
$PINSBASE
 10
0.0
 20
0.0
 30
0.0
  9
$PLIMCHECK
 70
     0
  9
$PEXTMIN
 10
1.000000000000000E+20
 20
1.000000000000000E+20
 30
1.000000000000000E+20
  9
$PEXTMAX
 10
-1.000000000000000E+20
 20
-1.000000000000000E+20
 30
-1.000000000000000E+20
  9
$PLIMMIN
 10
0.0
 20
0.0
  9
$PLIMMAX
 10
12.0
 20
9.0
  9
$UNITMODE
 70
     0
  9
$VISRETAIN
 70
     1
  9
$PLINEGEN
 70
     0
  9
$PSLTSCALE
 70
     1
  9
$TREEDEPTH
 70
  3020
  9
$CMLSTYLE
  2
Standard
  9
$CMLJUST
 70
     0
  9
$CMLSCALE
 40
1.0
  9
$PROXYGRAPHICS
 70
     1
  9
$MEASUREMENT
 70
     0
  9
$CELWEIGHT
370
    -1
  9
$ENDCAPS
280
     0
  9
$JOINSTYLE
280
     0
  9
$LWDISPLAY
290
     0
  9
$INSUNITS
 70
     1
  9
$HYPERLINKBASE
  1

  9
$STYLESHEET
  1

  9
$XEDIT
290
     1
  9
$CEPSNTYPE
380
     0
  9
$PSTYLEMODE
290
     1
  9
$FINGERPRINTGUID
  2
{D2FDCC04-8FF4-4F1B-AC61-087332ACA4E1}
  9
$VERSIONGUID
  2
{FAEB1C32-E019-11D5-929B-00C0DF256EC4}
  9
$EXTNAMES
290
     1
  9
$PSVPSCALE
 40
0.0
  9
$OLESTARTUP
290
     0
  9
$SORTENTS
280
   127
  9
$INDEXCTL
280
     0
  9
$HIDETEXT
280
     1
  9
$XCLIPFRAME
280
     2
  9
$HALOGAP
280
     0
  9
$OBSCOLOR
 70
   257
  9
$OBSLTYPE
280
     0
  9
$INTERSECTIONDISPLAY
280
     0
  9
$INTERSECTIONCOLOR
 70
   257
  9
$DIMASSOC
280
     2
  9
$PROJECTNAME
  1

  9
$CAMERADISPLAY
290
     0
  9
$LENSLENGTH
 40
50.0
  9
$CAMERAHEIGHT
 40
0.0
  9
$STEPSPERSEC
 40
2.0
  9
$STEPSIZE
 40
6.0
  9
$3DDWFPREC
 40
2.0
  9
$PSOLWIDTH
 40
0.25
  9
$PSOLHEIGHT
 40
4.0
  9
$LOFTANG1
 40
1.570796326794897
  9
$LOFTANG2
 40
1.570796326794897
  9
$LOFTMAG1
 40
0.0
  9
$LOFTMAG2
 40
0.0
  9
$LOFTPARAM
 70
     7
  9
$LOFTNORMALS
280
     1
  9
$LATITUDE
 40
37.795
  9
$LONGITUDE
 40
-122.394
  9
$NORTHDIRECTION
 40
0.0
  9
$TIMEZONE
 70
 -8000
  9
$LIGHTGLYPHDISPLAY
280
     1
  9
$TILEMODELIGHTSYNCH
280
     1
  9
$CMATERIAL
347
44
  9
$SOLIDHIST
280
     0
  9
$SHOWHIST
280
     1
  9
$DWFFRAME
280
     2
  9
$DGNFRAME
280
     2
  9
$REALWORLDSCALE
290
     1
  9
$INTERFERECOLOR
 62
   256
  9
$CSHADOW
280
     0
  9
$SHADOWPLANELOCATION
 40
0.0
  0
ENDSEC
  0
SECTION
  2
CLASSES
  0
CLASS
  1
ACDBDICTIONARYWDFLT
  2
AcDbDictionaryWithDefault
  3
ObjectDBX Classes
 90
        0
 91
        4
280
     0
281
     0
  0
CLASS
  1
VISUALSTYLE
  2
AcDbVisualStyle
  3
ObjectDBX Classes
 90
     4095
 91
        4
280
     0
281
     0
  0
CLASS
  1
MATERIAL
  2
AcDbMaterial
  3
ObjectDBX Classes
 90
     1153
 91
        4
280
     0
281
     0
  0
CLASS
  1
SCALE
  2
AcDbScale
  3
ObjectDBX Classes
 90
     1153
 91
        4
280
     0
281
     0
  0
CLASS
  1
TABLESTYLE
  2
AcDbTableStyle
  3
ObjectDBX Classes
 90
     4095
 91
        4
280
     0
281
     0
  0
CLASS
  1
MLEADERSTYLE
  2
AcDbMLeaderStyle
  3
ACDB_MLEADERSTYLE_CLASS
 90
     4095
 91
        4
280
     0
281
     0
  0
CLASS
  1
SUN
  2
AcDbSun
  3
SCENEOE
 90
     1153
 91
        4
280
     0
281
     0
  0
CLASS
  1
DICTIONARYVAR
  2
AcDbDictionaryVar
  3
ObjectDBX Classes
 90
        0
 91
        4
280
     0
281
     0
  0
CLASS
  1
CELLSTYLEMAP
  2
AcDbCellStyleMap
  3
ObjectDBX Classes
 90
     1152
 91
        4
280
     0
281
     0
  0
ENDSEC
  0
SECTION
  2
TABLES
  0
TABLE
  2
VPORT
  5
8
330
0
100
AcDbSymbolTable
 70
     1
  0
VPORT
  5
29
330
8
100
AcDbSymbolTableRecord
100
AcDbViewportTableRecord
  2
*Active
 70
     0
 10
0.0
 20
0.0
 11
1.0
 21
1.0
 12
-3.323549999972975
 22
0.0
 13
0.0
 23
0.0
 14
0.5
 24
0.5
 15
0.5
 25
0.5
 16
0.0
 26
0.0
 36
1.0
 17
0.0
 27
0.0
 37
0.0
 40
10.455
 41
0.7088195122003952
 42
50.0
 43
0.0
 44
0.0
 50
0.0
 51
0.0
 71
     0
 72
   100
 73
     1
 74
     3
 75
     0
 76
     0
 77
     0
 78
     0
281
     0
 65
     1
110
0.0
120
0.0
130
0.0
111
1.0
121
0.0
131
0.0
112
0.0
122
1.0
132
0.0
 79
     0
146
0.0
348
2F
 60
     3
 61
     5
292
     1
282
     1
141
0.0
142
0.0
 63
   250
361
6D
  0
ENDTAB
  0
TABLE
  2
LTYPE
  5
5
330
0
100
AcDbSymbolTable
 70
     3
  0
LTYPE
  5
14
330
5
100
AcDbSymbolTableRecord
100
AcDbLinetypeTableRecord
  2
ByBlock
 70
     0
  3

 72
    65
 73
     0
 40
0.0
  0
LTYPE
  5
15
330
5
100
AcDbSymbolTableRecord
100
AcDbLinetypeTableRecord
  2
ByLayer
 70
     0
  3

 72
    65
 73
     0
 40
0.0
  0
LTYPE
  5
16
330
5
100
AcDbSymbolTableRecord
100
AcDbLinetypeTableRecord
  2
Continuous
 70
     0
  3
Solid line
 72
    65
 73
     0
 40
0.0
  0
LTYPE
  5
9D
330
5
100
AcDbSymbolTableRecord
100
AcDbLinetypeTableRecord
  2
Dashed
 70
     0
  3

 72
    65
 73
     2
 40
2.0
 49
1.0
 74
     0
 49
-1.0
 74
     0
  0
LTYPE
  5
187
330
5
100
AcDbSymbolTableRecord
100
AcDbLinetypeTableRecord
  2
Center
 70
     0
  3

 72
    65
 73
     4
 40
1.5
 49
0.45
 74
     0
 49
-0.5
 74
     0
 49
0.05
 74
     0
 49
-0.5
 74
     0
  0
ENDTAB
  0
TABLE
  2
LAYER
  5
2
330
0
100
AcDbSymbolTable
 70
     7
  0
LAYER
  5
10
330
2
100
AcDbSymbolTableRecord
100
AcDbLayerTableRecord
  2
0
 70
     0
 62
     7
  6
Continuous
370
    -3
390
F
347
46
348
0
  0
LAYER
  5
72
330
2
100
AcDbSymbolTableRecord
100
AcDbLayerTableRecord
  2
AM_6
 70
     0
 62
    -2
  6
Continuous
370
    35
390
F
347
46
348
0
  0
LAYER
  5
9E
330
2
100
AcDbSymbolTableRecord
100
AcDbLayerTableRecord
  2
AM_9
 70
     0
 62
     6
  6
Dashed
370
    25
390
F
347
46
348
0
  0
LAYER
  5
AA
330
2
100
AcDbSymbolTableRecord
100
AcDbLayerTableRecord
  2
AM_5
 70
     0
 62
     3
  6
Continuous
370
    25
390
F
347
46
348
0
  0
LAYER
  5
AD
330
2
100
AcDbSymbolTableRecord
100
AcDbLayerTableRecord
  2
AM_4
 70
     0
 62
     7
  6
Continuous
370
    50
390
F
347
46
348
0
  0
LAYER
  5
188
330
2
100
AcDbSymbolTableRecord
100
AcDbLayerTableRecord
  2
AM_7
 70
     0
 62
     7
  6
Center
370
    25
390
F
347
46
348
0
  0
LAYER
  5
23E
330
2
100
AcDbSymbolTableRecord
100
AcDbLayerTableRecord
  2
ConnectionPoints
 70
     0
 62
     7
  6
Continuous
370
    50
390
F
347
46
348
0
  0
ENDTAB
  0
TABLE
  2
STYLE
  5
3
330
0
100
AcDbSymbolTable
 70
     1
  0
STYLE
  5
11
330
3
100
AcDbSymbolTableRecord
100
AcDbTextStyleTableRecord
  2
Standard
 70
     0
 40
0.0
 41
1.0
 50
0.0
 71
     0
 42
0.2
  3
txt
  4

  0
ENDTAB
  0
TABLE
  2
VIEW
  5
6
330
0
100
AcDbSymbolTable
 70
     0
  0
ENDTAB
  0
TABLE
  2
UCS
  5
7
330
0
100
AcDbSymbolTable
 70
     0
  0
ENDTAB
  0
TABLE
  2
APPID
  5
9
330
0
100
AcDbSymbolTable
 70
     1
  0
APPID
  5
12
330
9
100
AcDbSymbolTableRecord
100
AcDbRegAppTableRecord
  2
ACAD
 70
     0
  0
ENDTAB
  0
TABLE
  2
DIMSTYLE
  5
A
330
0
100
AcDbSymbolTable
 70
     1
100
AcDbDimStyleTable
  0
DIMSTYLE
105
27
330
A
100
AcDbSymbolTableRecord
100
AcDbDimStyleTableRecord
  2
Standard
 70
     0
178
     0
340
11
  0
ENDTAB
  0
TABLE
  2
BLOCK_RECORD
  5
1
330
0
100
AcDbSymbolTable
 70
     8
  0
BLOCK_RECORD
  5
1F
330
1
100
AcDbSymbolTableRecord
100
AcDbBlockTableRecord
  2
*Model_Space
340
22
 70
     0
280
     1
281
     0
  0
BLOCK_RECORD
  5
1B
330
1
100
AcDbSymbolTableRecord
100
AcDbBlockTableRecord
  2
*Paper_Space
340
1E
 70
     0
280
     1
281
     0
  0
BLOCK_RECORD
  5
23
330
1
100
AcDbSymbolTableRecord
100
AcDbBlockTableRecord
  2
*Paper_Space0
340
26
 70
     0
280
     1
281
     0
  0
BLOCK_RECORD
  5
6E
330
1
100
AcDbSymbolTableRecord
100
AcDbBlockTableRecord
  2
1_071309_2
340
0
102
{BLKREFS
331
6F
102
}
 70
     0
280
     1
281
     0
  0
BLOCK_RECORD
  5
8D
330
1
100
AcDbSymbolTableRecord
100
AcDbBlockTableRecord
  2
2_ASME_B18_3_1_4_1_0_in_071309_2
340
0
102
{BLKREFS
331
8E
102
}
 70
     0
280
     1
281
     0
  0
BLOCK_RECORD
  5
B4
330
1
100
AcDbSymbolTableRecord
100
AcDbBlockTableRecord
  2
3_ASME_B18_3_1_4_2_0_in_071309_2
340
0
102
{BLKREFS
331
B5
102
}
 70
     0
280
     1
281
     0
  0
BLOCK_RECORD
  5
D7
330
1
100
AcDbSymbolTableRecord
100
AcDbBlockTableRecord
  2
4_070906LWE_0_in_071309_2
340
0
102
{BLKREFS
331
D8
102
}
 70
     0
280
     1
281
     0
  0
BLOCK_RECORD
  5
111
330
1
100
AcDbSymbolTableRecord
100
AcDbBlockTableRecord
  2
5_070906E_0_in_071309_2
340
0
102
{BLKREFS
331
112
102
}
 70
     0
280
     1
281
     0
  0
BLOCK_RECORD
  5
19B
330
1
100
AcDbSymbolTableRecord
100
AcDbBlockTableRecord
  2
6_405015E_Inch_0_in_071309_2
340
0
102
{BLKREFS
331
19C
102
}
 70
     0
280
     1
281
     0
  0
BLOCK_RECORD
  5
1DA
330
1
100
AcDbSymbolTableRecord
100
AcDbBlockTableRecord
  2
7_071309H_0_in_071309_2
340
0
102
{BLKREFS
331
1DB
102
}
 70
     0
280
     1
281
     0
  0
ENDTAB
  0
ENDSEC
  0
SECTION
  2
BLOCKS
  0
BLOCK
  5
20
330
1F
100
AcDbEntity
  8
0
100
AcDbBlockBegin
  2
*Model_Space
 70
     0
 10
0.0
 20
0.0
 30
0.0
  3
*Model_Space
  1

  0
ENDBLK
  5
21
330
1F
100
AcDbEntity
  8
0
100
AcDbBlockEnd
  0
BLOCK
  5
1C
330
1B
100
AcDbEntity
 67
     1
  8
0
100
AcDbBlockBegin
  2
*Paper_Space
 70
     0
 10
0.0
 20
0.0
 30
0.0
  3
*Paper_Space
  1

  0
ENDBLK
  5
1D
330
1B
100
AcDbEntity
 67
     1
  8
0
100
AcDbBlockEnd
  0
BLOCK
  5
24
330
23
100
AcDbEntity
  8
0
100
AcDbBlockBegin
  2
*Paper_Space0
 70
     0
 10
0.0
 20
0.0
 30
0.0
  3
*Paper_Space0
  1

  0
ENDBLK
  5
25
330
23
100
AcDbEntity
  8
0
100
AcDbBlockEnd
  0
BLOCK
  5
70
330
6E
100
AcDbEntity
  8
0
100
AcDbBlockBegin
  2
1_071309_2
 70
     2
 10
0.0
 20
0.0
 30
0.0
  3
1_071309_2
  1

  0
ATTDEF
  5
73
330
6E
100
AcDbEntity
  8
AM_6
100
AcDbText
 10
5.309150000054052
 20
5.125
 30
0.0
 40
0.5
  1
Imperial - IP Flange - Square with Type E Dimensions 1-3/8 thru 2-3/16 inch Trident Seal Expansion
100
AcDbAttributeDefinition
  3

  2
NN
 70
     8
280
     0
  0
ATTDEF
  5
74
330
6E
100
AcDbEntity
  8
AM_6
100
AcDbText
 10
5.309150000054052
 20
4.625
 30
0.0
 40
0.5
  1
Imperial/E 4 Bolt Flange Bearings
100
AcDbAttributeDefinition
  3

  2
NT
 70
     8
280
     0
  0
ATTDEF
  5
75
330
6E
100
AcDbEntity
  8
AM_6
100
AcDbText
 10
5.309150000054052
 20
4.125
 30
0.0
 40
0.5
  1
071309
100
AcDbAttributeDefinition
  3

  2
NB
 70
     8
280
     0
  0
ATTDEF
  5
76
330
6E
100
AcDbEntity
  8
AM_6
100
AcDbText
 10
5.309150000054052
 20
3.625
 30
0.0
 40
0.5
  1
$PN.
100
AcDbAttributeDefinition
  3

  2
NBSYN
 70
     8
280
     0
  0
ATTDEF
  5
77
330
6E
100
AcDbEntity
  8
AM_6
100
AcDbText
 10
5.309150000054052
 20
3.125
 30
0.0
 40
0.5
  1
071309
100
AcDbAttributeDefinition
  3

  2
LINA
 70
     8
280
     0
  0
ATTDEF
  5
78
330
6E
100
AcDbEntity
  8
AM_6
100
AcDbText
 10
5.309150000054052
 20
2.625
 30
0.0
 40
0.5
  1
3-15/16
100
AcDbAttributeDefinition
  3

  2
SS
 70
     8
280
     0
  0
ATTDEF
  5
79
330
6E
100
AcDbEntity
  8
AM_6
100
AcDbText
 10
5.309150000054052
 20
2.125
 30
0.0
 40
0.5
  1
Non-Expansion
100
AcDbAttributeDefinition
  3

  2
TYPE
 70
     8
280
     0
  0
ATTDEF
  5
7A
330
6E
100
AcDbEntity
  8
AM_6
100
AcDbText
 10
5.309150000054052
 20
1.625
 30
0.0
 40
0.5
  1
071309
100
AcDbAttributeDefinition
  3

  2
PN
 70
     8
280
     0
  0
ATTDEF
  5
7B
330
6E
100
AcDbEntity
  8
AM_6
100
AcDbText
 10
5.309150000054052
 20
1.125
 30
0.0
 40
0.5
  1
EF4B-IP-315R
100
AcDbAttributeDefinition
  3

  2
DESCRIPTION
 70
     8
280
     0
  0
ATTDEF
  5
7C
330
6E
100
AcDbEntity
  8
AM_6
100
AcDbText
 10
5.309150000054052
 20
0.625
 30
0.0
 40
0.5
  1
Contact Seal
100
AcDbAttributeDefinition
  3

  2
ST
 70
     8
280
     0
  0
ATTDEF
  5
7D
330
6E
100
AcDbEntity
  8
AM_6
100
AcDbText
 10
5.309150000054052
 20
0.125
 30
0.0
 40
0.5
  1
4.70
100
AcDbAttributeDefinition
  3

  2
A
 70
     8
280
     0
  0
ATTDEF
  5
7E
330
6E
100
AcDbEntity
  8
AM_6
100
AcDbText
 10
5.309150000054052
 20
-0.375
 30
0.0
 40
0.5
  1
10.25
100
AcDbAttributeDefinition
  3

  2
B
 70
     8
280
     0
  0
ATTDEF
  5
7F
330
6E
100
AcDbEntity
  8
AM_6
100
AcDbText
 10
5.309150000054052
 20
-0.875
 30
0.0
 40
0.5
  1
6.73
100
AcDbAttributeDefinition
  3

  2
C
 70
     8
280
     0
  0
ATTDEF
  5
80
330
6E
100
AcDbEntity
  8
AM_6
100
AcDbText
 10
5.309150000054052
 20
-1.375
 30
0.0
 40
0.5
  1
7.75
100
AcDbAttributeDefinition
  3

  2
D
 70
     8
280
     0
  0
ATTDEF
  5
81
330
6E
100
AcDbEntity
  8
AM_6
100
AcDbText
 10
5.309150000054052
 20
-1.875
 30
0.0
 40
0.5
  1
10.960
100
AcDbAttributeDefinition
  3

  2
DD
 70
     8
280
     0
  0
ATTDEF
  5
82
330
6E
100
AcDbEntity
  8
AM_6
100
AcDbText
 10
5.309150000054052
 20
-2.375
 30
0.0
 40
0.5
  1
7/8
100
AcDbAttributeDefinition
  3

  2
F
 70
     8
280
     0
  0
ATTDEF
  5
83
330
6E
100
AcDbEntity
  8
AM_6
100
AcDbText
 10
5.309150000054052
 20
-2.875
 30
0.0
 40
0.5
  1
1.22
100
AcDbAttributeDefinition
  3

  2
G
 70
     8
280
     0
  0
ATTDEF
  5
84
330
6E
100
AcDbEntity
  8
AM_6
100
AcDbText
 10
5.309150000054052
 20
-3.375
 30
0.0
 40
0.5
  1
2.12
100
AcDbAttributeDefinition
  3

  2
H
 70
     8
280
     0
  0
ATTDEF
  5
85
330
6E
100
AcDbEntity
  8
AM_6
100
AcDbText
 10
5.309150000054052
 20
-3.875
 30
0.0
 40
0.5
  1
8.27
100
AcDbAttributeDefinition
  3

  2
J
 70
     8
280
     0
  0
ATTDEF
  5
86
330
6E
100
AcDbEntity
  8
AM_6
100
AcDbText
 10
5.309150000054052
 20
-4.375
 30
0.0
 40
0.5
  1
5.56
100
AcDbAttributeDefinition
  3

  2
L
 70
     8
280
     0
  0
ATTDEF
  5
87
330
6E
100
AcDbEntity
  8
AM_6
100
AcDbText
 10
5.309150000054052
 20
-4.875
 30
0.0
 40
0.5
  1
4.58
100
AcDbAttributeDefinition
  3

  2
N
 70
     8
280
     0
  0
ATTDEF
  5
88
330
6E
100
AcDbEntity
  8
AM_6
100
AcDbText
 10
5.309150000054052
 20
-5.375
 30
0.0
 40
0.5
  1
2.02
100
AcDbAttributeDefinition
  3

  2
P
 70
     8
280
     0
  0
ATTDEF
  5
89
330
6E
100
AcDbEntity
  8
AM_6
100
AcDbText
 10
5.309150000054052
 20
-5.875
 30
0.0
 40
0.5
  1
0.31
100
AcDbAttributeDefinition
  3

  2
X
 70
     8
280
     0
  0
ATTDEF
  5
8A
330
6E
100
AcDbEntity
  8
AM_6
100
AcDbText
 10
5.309150000054052
 20
-6.375
 30
0.0
 40
0.5
  1
0.025
100
AcDbAttributeDefinition
  3

  2
Y
 70
     8
280
     0
  0
ATTDEF
  5
8B
330
6E
100
AcDbEntity
  8
AM_6
100
AcDbText
 10
5.309150000054052
 20
-6.875
 30
0.0
 40
0.5
  1
4.50
100
AcDbAttributeDefinition
  3

  2
Z
 70
     8
280
     0
  0
ATTDEF
  5
8C
330
6E
100
AcDbEntity
  8
AM_6
100
AcDbText
 10
5.309150000054052
 20
-7.375
 30
0.0
 40
0.5
  1
baldor
100
AcDbAttributeDefinition
  3

  2
COMPANY
 70
     8
280
     0
  0
INSERT
  5
8E
330
6E
100
AcDbEntity
  8
0
100
AcDbBlockReference
  2
2_ASME_B18_3_1_4_1_0_in_071309_2
 10
0.0
 20
0.0
 30
0.0
  0
INSERT
  5
B5
330
6E
100
AcDbEntity
  8
0
100
AcDbBlockReference
  2
3_ASME_B18_3_1_4_2_0_in_071309_2
 10
0.0
 20
0.0
 30
0.0
  0
INSERT
  5
D8
330
6E
100
AcDbEntity
  8
0
100
AcDbBlockReference
  2
4_070906LWE_0_in_071309_2
 10
0.0
 20
0.0
 30
0.0
  0
INSERT
  5
112
330
6E
100
AcDbEntity
  8
0
100
AcDbBlockReference
  2
5_070906E_0_in_071309_2
 10
0.0
 20
0.0
 30
0.0
  0
INSERT
  5
19C
330
6E
100
AcDbEntity
  8
0
100
AcDbBlockReference
  2
6_405015E_Inch_0_in_071309_2
 10
0.0
 20
0.0
 30
0.0
  0
INSERT
  5
1DB
330
6E
100
AcDbEntity
  8
0
100
AcDbBlockReference
  2
7_071309H_0_in_071309_2
 10
0.0
 20
0.0
 30
0.0
  0
ENDBLK
  5
71
330
6E
100
AcDbEntity
  8
0
100
AcDbBlockEnd
  0
BLOCK
  5
8F
330
8D
100
AcDbEntity
  8
0
100
AcDbBlockBegin
  2
2_ASME_B18_3_1_4_1_0_in_071309_2
 70
     2
 10
0.0
 20
0.0
 30
0.0
  3
2_ASME_B18_3_1_4_1_0_in_071309_2
  1

  0
ATTDEF
  5
91
330
8D
100
AcDbEntity
  8
AM_6
100
AcDbText
 10
-0.645666666666667
 20
-2.265875
 30
0.0
 40
0.5
  1
ANSI/ASME B18.3-1998
100
AcDbAttributeDefinition
  3

  2
NN
 70
     8
280
     0
  0
ATTDEF
  5
92
330
8D
100
AcDbEntity
  8
AM_6
100
AcDbText
 10
-0.645666666666667
 20
-2.765875
 30
0.0
 40
0.5
  1
Socket Button Head Cap Screws
100
AcDbAttributeDefinition
  3

  2
NT
 70
     8
280
     0
  0
ATTDEF
  5
93
330
8D
100
AcDbEntity
  8
AM_6
100
AcDbText
 10
-0.645666666666667
 20
-3.265875
 30
0.0
 40
0.5
  1
ASME B18.3-1/4
100
AcDbAttributeDefinition
  3

  2
NB
 70
     8
280
     0
  0
ATTDEF
  5
94
330
8D
100
AcDbEntity
  8
AM_6
100
AcDbText
 10
-0.645666666666667
 20
-3.765875
 30
0.0
 40
0.5
  1
ASME B18.3-$NS.
100
AcDbAttributeDefinition
  3

  2
NBSYN
 70
     8
280
     0
  0
ATTDEF
  5
95
330
8D
100
AcDbEntity
  8
AM_6
100
AcDbText
 10
-0.645666666666667
 20
-4.265874999999999
 30
0.0
 40
0.5
  1
ASME B18.3-1/4
100
AcDbAttributeDefinition
  3

  2
LINA
 70
     8
280
     0
  0
ATTDEF
  5
96
330
8D
100
AcDbEntity
  8
AM_6
100
AcDbText
 10
-0.645666666666667
 20
-4.765874999999999
 30
0.0
 40
0.5
  1
1/4
100
AcDbAttributeDefinition
  3

  2
NS
 70
     8
280
     0
  0
ATTDEF
  5
97
330
8D
100
AcDbEntity
  8
AM_6
100
AcDbText
 10
-0.645666666666667
 20
-5.265874999999999
 30
0.0
 40
0.5
  1
0.437
100
AcDbAttributeDefinition
  3

  2
A
 70
     8
280
     0
  0
ATTDEF
  5
98
330
8D
100
AcDbEntity
  8
AM_6
100
AcDbText
 10
-0.645666666666667
 20
-5.765874999999999
 30
0.0
 40
0.5
  1
0.132
100
AcDbAttributeDefinition
  3

  2
H
 70
     8
280
     0
  0
ATTDEF
  5
99
330
8D
100
AcDbEntity
  8
AM_6
100
AcDbText
 10
-0.645666666666667
 20
-6.265874999999999
 30
0.0
 40
0.5
  1
0.800
100
AcDbAttributeDefinition
  3

  2
L
 70
     8
280
     0
  0
ATTDEF
  5
9A
330
8D
100
AcDbEntity
  8
AM_6
100
AcDbText
 10
-0.645666666666667
 20
-6.765874999999999
 30
0.0
 40
0.5
  1
0.031
100
AcDbAttributeDefinition
  3

  2
S
 70
     8
280
     0
  0
ATTDEF
  5
9B
330
8D
100
AcDbEntity
  8
AM_6
100
AcDbText
 10
-0.645666666666667
 20
-7.265874999999999
 30
0.0
 40
0.5
  1
0.156250
100
AcDbAttributeDefinition
  3

  2
J
 70
     8
280
     0
  0
ATTDEF
  5
9C
330
8D
100
AcDbEntity
  8
AM_6
100
AcDbText
 10
-0.645666666666667
 20
-7.765874999999999
 30
0.0
 40
0.5
  1
baldor
100
AcDbAttributeDefinition
  3

  2
COMPANY
 70
     8
280
     0
  0
LINE
  5
9F
330
8D
100
AcDbEntity
  8
AM_9
100
AcDbLine
 10
-6.507666666666667
 20
-2.394164020439121
 30
0.0
 11
-6.577666666666667
 21
-2.394164020439121
 31
0.0
  0
LINE
  5
A0
330
8D
100
AcDbEntity
  8
AM_9
100
AcDbLine
 10
-6.507666666666667
 20
-2.574585979560879
 30
0.0
 11
-6.577666666666667
 21
-2.574585979560879
 31
0.0
  0
LINE
  5
A1
330
8D
100
AcDbEntity
  8
AM_9
100
AcDbLine
 10
-6.507666666666667
 20
-2.394164020439121
 30
0.0
 11
-6.507666666666667
 21
-2.574585979560879
 31
0.0
  0
LINE
  5
A2
330
8D
100
AcDbEntity
  8
AM_9
100
AcDbLine
 10
-6.507666666666667
 20
-2.52948048978044
 30
0.0
 11
-6.577666666666667
 21
-2.52948048978044
 31
0.0
  0
LINE
  5
A3
330
8D
100
AcDbEntity
  8
AM_9
100
AcDbLine
 10
-6.507666666666667
 20
-2.43926951021956
 30
0.0
 11
-6.577666666666667
 21
-2.43926951021956
 31
0.0
  0
LINE
  5
A4
330
8D
100
AcDbEntity
  8
AM_9
100
AcDbLine
 10
-5.645666666666667
 20
-2.377975
 30
0.0
 11
-5.645666666666667
 21
-2.590775
 31
0.0
  0
LINE
  5
A5
330
8D
100
AcDbEntity
  8
AM_9
100
AcDbLine
 10
-5.645666666666667
 20
-2.377975
 30
0.0
 11
-5.664266666666668
 21
-2.359375
 31
0.0
  0
LINE
  5
A6
330
8D
100
AcDbEntity
  8
AM_9
100
AcDbLine
 10
-5.664266666666668
 20
-2.609375
 30
0.0
 11
-5.645666666666667
 21
-2.590775
 31
0.0
  0
LINE
  5
A7
330
8D
100
AcDbEntity
  8
AM_9
100
AcDbLine
 10
-5.664266666666668
 20
-2.359375
 30
0.0
 11
-5.664266666666668
 21
-2.609375
 31
0.0
  0
LINE
  5
A8
330
8D
100
AcDbEntity
  8
AM_9
100
AcDbLine
 10
-6.445666666666667
 20
-2.609375
 30
0.0
 11
-5.664266666666668
 21
-2.609375
 31
0.0
  0
LINE
  5
A9
330
8D
100
AcDbEntity
  8
AM_9
100
AcDbLine
 10
-5.664266666666668
 20
-2.359375
 30
0.0
 11
-6.445666666666667
 21
-2.359375
 31
0.0
  0
LINE
  5
AB
330
8D
100
AcDbEntity
  8
AM_5
100
AcDbLine
 10
-6.365666666666667
 20
-2.359374999999999
 30
0.0
 11
-6.365666666666667
 21
-2.609374999999998
 31
0.0
  0
LINE
  5
AC
330
8D
100
AcDbEntity
  8
AM_5
100
AcDbLine
 10
-6.365666666666667
 20
-2.377975
 30
0.0
 11
-6.397882811687449
 21
-2.359375
 31
0.0
  0
LINE
  5
AE
330
8D
100
AcDbEntity
  8
AM_4
100
AcDbLine
 10
-6.577666666666667
 20
-2.366875
 30
0.0
 11
-6.577666666666667
 21
-2.601875
 31
0.0
  0
ARC
  5
AF
330
8D
100
AcDbEntity
  8
AM_4
100
AcDbCircle
 10
-6.476666666666666
 20
-2.601874999999999
 30
0.0
 40
0.1010000000000009
100
AcDbArc
 50
180.0
 51
270.0
  0
ARC
  5
B0
330
8D
100
AcDbEntity
  8
AM_4
100
AcDbCircle
 10
-6.476666666666666
 20
-2.366875
 30
0.0
 40
0.1010000000000004
100
AcDbArc
 50
90.0
 51
180.0
  0
LINE
  5
B1
330
8D
100
AcDbEntity
  8
AM_4
100
AcDbLine
 10
-6.476666666666667
 20
-2.265875
 30
0.0
 11
-6.476666666666667
 21
-2.702875
 31
0.0
  0
LINE
  5
B2
330
8D
100
AcDbEntity
  8
AM_4
100
AcDbLine
 10
-6.476666666666667
 20
-2.702875
 30
0.0
 11
-6.445666666666667
 21
-2.702875
 31
0.0
  0
LINE
  5
B3
330
8D
100
AcDbEntity
  8
AM_4
100
AcDbLine
 10
-6.445666666666667
 20
-2.265875
 30
0.0
 11
-6.476666666666667
 21
-2.265875
 31
0.0
  0
ENDBLK
  5
90
330
8D
100
AcDbEntity
  8
0
100
AcDbBlockEnd
  0
BLOCK
  5
B6
330
B4
100
AcDbEntity
  8
0
100
AcDbBlockBegin
  2
3_ASME_B18_3_1_4_2_0_in_071309_2
 70
     2
 10
0.0
 20
0.0
 30
0.0
  3
3_ASME_B18_3_1_4_2_0_in_071309_2
  1

  0
ATTDEF
  5
B8
330
B4
100
AcDbEntity
  8
AM_6
100
AcDbText
 10
-0.645666666666667
 20
2.702875
 30
0.0
 40
0.5
  1
ANSI/ASME B18.3-1998
100
AcDbAttributeDefinition
  3

  2
NN
 70
     8
280
     0
  0
ATTDEF
  5
B9
330
B4
100
AcDbEntity
  8
AM_6
100
AcDbText
 10
-0.645666666666667
 20
2.202875
 30
0.0
 40
0.5
  1
Socket Button Head Cap Screws
100
AcDbAttributeDefinition
  3

  2
NT
 70
     8
280
     0
  0
ATTDEF
  5
BA
330
B4
100
AcDbEntity
  8
AM_6
100
AcDbText
 10
-0.645666666666667
 20
1.702875
 30
0.0
 40
0.5
  1
ASME B18.3-1/4
100
AcDbAttributeDefinition
  3

  2
NB
 70
     8
280
     0
  0
ATTDEF
  5
BB
330
B4
100
AcDbEntity
  8
AM_6
100
AcDbText
 10
-0.645666666666667
 20
1.202875
 30
0.0
 40
0.5
  1
ASME B18.3-$NS.
100
AcDbAttributeDefinition
  3

  2
NBSYN
 70
     8
280
     0
  0
ATTDEF
  5
BC
330
B4
100
AcDbEntity
  8
AM_6
100
AcDbText
 10
-0.645666666666667
 20
0.7028749999999997
 30
0.0
 40
0.5
  1
ASME B18.3-1/4
100
AcDbAttributeDefinition
  3

  2
LINA
 70
     8
280
     0
  0
ATTDEF
  5
BD
330
B4
100
AcDbEntity
  8
AM_6
100
AcDbText
 10
-0.645666666666667
 20
0.2028749999999997
 30
0.0
 40
0.5
  1
1/4
100
AcDbAttributeDefinition
  3

  2
NS
 70
     8
280
     0
  0
ATTDEF
  5
BE
330
B4
100
AcDbEntity
  8
AM_6
100
AcDbText
 10
-0.645666666666667
 20
-0.2971250000000003
 30
0.0
 40
0.5
  1
0.437
100
AcDbAttributeDefinition
  3

  2
A
 70
     8
280
     0
  0
ATTDEF
  5
BF
330
B4
100
AcDbEntity
  8
AM_6
100
AcDbText
 10
-0.645666666666667
 20
-0.7971250000000003
 30
0.0
 40
0.5
  1
0.132
100
AcDbAttributeDefinition
  3

  2
H
 70
     8
280
     0
  0
ATTDEF
  5
C0
330
B4
100
AcDbEntity
  8
AM_6
100
AcDbText
 10
-0.645666666666667
 20
-1.297125
 30
0.0
 40
0.5
  1
0.800
100
AcDbAttributeDefinition
  3

  2
L
 70
     8
280
     0
  0
ATTDEF
  5
C1
330
B4
100
AcDbEntity
  8
AM_6
100
AcDbText
 10
-0.645666666666667
 20
-1.797125
 30
0.0
 40
0.5
  1
0.031
100
AcDbAttributeDefinition
  3

  2
S
 70
     8
280
     0
  0
ATTDEF
  5
C2
330
B4
100
AcDbEntity
  8
AM_6
100
AcDbText
 10
-0.645666666666667
 20
-2.297125
 30
0.0
 40
0.5
  1
0.156250
100
AcDbAttributeDefinition
  3

  2
J
 70
     8
280
     0
  0
ATTDEF
  5
C3
330
B4
100
AcDbEntity
  8
AM_6
100
AcDbText
 10
-0.645666666666667
 20
-2.797125
 30
0.0
 40
0.5
  1
baldor
100
AcDbAttributeDefinition
  3

  2
COMPANY
 70
     8
280
     0
  0
LINE
  5
C4
330
B4
100
AcDbEntity
  8
AM_9
100
AcDbLine
 10
-6.507666666666667
 20
2.394164020439121
 30
0.0
 11
-6.577666666666667
 21
2.394164020439121
 31
0.0
  0
LINE
  5
C5
330
B4
100
AcDbEntity
  8
AM_9
100
AcDbLine
 10
-6.507666666666667
 20
2.574585979560879
 30
0.0
 11
-6.577666666666667
 21
2.574585979560879
 31
0.0
  0
LINE
  5
C6
330
B4
100
AcDbEntity
  8
AM_9
100
AcDbLine
 10
-6.507666666666667
 20
2.574585979560879
 30
0.0
 11
-6.507666666666667
 21
2.394164020439121
 31
0.0
  0
LINE
  5
C7
330
B4
100
AcDbEntity
  8
AM_9
100
AcDbLine
 10
-6.507666666666667
 20
2.43926951021956
 30
0.0
 11
-6.577666666666667
 21
2.43926951021956
 31
0.0
  0
LINE
  5
C8
330
B4
100
AcDbEntity
  8
AM_9
100
AcDbLine
 10
-6.507666666666667
 20
2.52948048978044
 30
0.0
 11
-6.577666666666667
 21
2.52948048978044
 31
0.0
  0
LINE
  5
C9
330
B4
100
AcDbEntity
  8
AM_9
100
AcDbLine
 10
-5.645666666666667
 20
2.590775
 30
0.0
 11
-5.645666666666667
 21
2.377975
 31
0.0
  0
LINE
  5
CA
330
B4
100
AcDbEntity
  8
AM_9
100
AcDbLine
 10
-5.645666666666667
 20
2.590775
 30
0.0
 11
-5.664266666666668
 21
2.609375
 31
0.0
  0
LINE
  5
CB
330
B4
100
AcDbEntity
  8
AM_9
100
AcDbLine
 10
-5.664266666666668
 20
2.359375
 30
0.0
 11
-5.645666666666667
 21
2.377975
 31
0.0
  0
LINE
  5
CC
330
B4
100
AcDbEntity
  8
AM_9
100
AcDbLine
 10
-5.664266666666668
 20
2.609375
 30
0.0
 11
-5.664266666666668
 21
2.359375
 31
0.0
  0
LINE
  5
CD
330
B4
100
AcDbEntity
  8
AM_9
100
AcDbLine
 10
-6.445666666666667
 20
2.359375
 30
0.0
 11
-5.664266666666668
 21
2.359375
 31
0.0
  0
LINE
  5
CE
330
B4
100
AcDbEntity
  8
AM_9
100
AcDbLine
 10
-5.664266666666668
 20
2.609375
 30
0.0
 11
-6.445666666666667
 21
2.609375
 31
0.0
  0
LINE
  5
CF
330
B4
100
AcDbEntity
  8
AM_5
100
AcDbLine
 10
-6.365666666666667
 20
2.377975
 30
0.0
 11
-6.397882811687449
 21
2.359375
 31
0.0
  0
LINE
  5
D0
330
B4
100
AcDbEntity
  8
AM_5
100
AcDbLine
 10
-6.365666666666667
 20
2.609374999999998
 30
0.0
 11
-6.365666666666667
 21
2.359375
 31
0.0
  0
LINE
  5
D1
330
B4
100
AcDbEntity
  8
AM_4
100
AcDbLine
 10
-6.577666666666667
 20
2.601875
 30
0.0
 11
-6.577666666666667
 21
2.366875
 31
0.0
  0
ARC
  5
D2
330
B4
100
AcDbEntity
  8
AM_4
100
AcDbCircle
 10
-6.476666666666666
 20
2.366875
 30
0.0
 40
0.1010000000000009
100
AcDbArc
 50
180.0
 51
270.0
  0
ARC
  5
D3
330
B4
100
AcDbEntity
  8
AM_4
100
AcDbCircle
 10
-6.476666666666667
 20
2.601874999999999
 30
0.0
 40
0.1010000000000004
100
AcDbArc
 50
90.0
 51
180.0
  0
LINE
  5
D4
330
B4
100
AcDbEntity
  8
AM_4
100
AcDbLine
 10
-6.476666666666667
 20
2.702875
 30
0.0
 11
-6.476666666666667
 21
2.265875
 31
0.0
  0
LINE
  5
D5
330
B4
100
AcDbEntity
  8
AM_4
100
AcDbLine
 10
-6.476666666666667
 20
2.265875
 30
0.0
 11
-6.445666666666667
 21
2.265875
 31
0.0
  0
LINE
  5
D6
330
B4
100
AcDbEntity
  8
AM_4
100
AcDbLine
 10
-6.445666666666667
 20
2.702875
 30
0.0
 11
-6.476666666666667
 21
2.702875
 31
0.0
  0
ENDBLK
  5
B7
330
B4
100
AcDbEntity
  8
0
100
AcDbBlockEnd
  0
BLOCK
  5
D9
330
D7
100
AcDbEntity
  8
0
100
AcDbBlockBegin
  2
4_070906LWE_0_in_071309_2
 70
     2
 10
0.0
 20
0.0
 30
0.0
  3
4_070906LWE_0_in_071309_2
  1

  0
ATTDEF
  5
DB
330
D7
100
AcDbEntity
  8
AM_6
100
AcDbText
 10
-0.9456666666666678
 20
2.78
 30
0.0
 40
0.5
  1
Imperial/E Insert Lockwasher -Inch
100
AcDbAttributeDefinition
  3

  2
NN
 70
     8
280
     0
  0
ATTDEF
  5
DC
330
D7
100
AcDbEntity
  8
AM_6
100
AcDbText
 10
-0.9456666666666678
 20
2.28
 30
0.0
 40
0.5
  1
Imperial/E Bearings
100
AcDbAttributeDefinition
  3

  2
NT
 70
     8
280
     0
  0
ATTDEF
  5
DD
330
D7
100
AcDbEntity
  8
AM_6
100
AcDbText
 10
-0.9456666666666678
 20
1.78
 30
0.0
 40
0.5
  1
070906LWE
100
AcDbAttributeDefinition
  3

  2
NB
 70
     8
280
     0
  0
ATTDEF
  5
DE
330
D7
100
AcDbEntity
  8
AM_6
100
AcDbText
 10
-0.9456666666666678
 20
1.28
 30
0.0
 40
0.5
  1
$PN.LWE
100
AcDbAttributeDefinition
  3

  2
NBSYN
 70
     8
280
     0
  0
ATTDEF
  5
DF
330
D7
100
AcDbEntity
  8
AM_6
100
AcDbText
 10
-0.9456666666666678
 20
0.7800000000000002
 30
0.0
 40
0.5
  1
070906
100
AcDbAttributeDefinition
  3

  2
LINA
 70
     8
280
     0
  0
ATTDEF
  5
E0
330
D7
100
AcDbEntity
  8
AM_6
100
AcDbText
 10
-0.9456666666666678
 20
0.2800000000000002
 30
0.0
 40
0.5
  1
3-15/16
100
AcDbAttributeDefinition
  3

  2
SS
 70
     8
280
     0
  0
ATTDEF
  5
E1
330
D7
100
AcDbEntity
  8
AM_6
100
AcDbText
 10
-0.9456666666666678
 20
-0.2199999999999998
 30
0.0
 40
0.5
  1
5.560000
100
AcDbAttributeDefinition
  3

  2
E1
 70
     8
280
     0
  0
ATTDEF
  5
E2
330
D7
100
AcDbEntity
  8
AM_6
100
AcDbText
 10
-0.9456666666666678
 20
-0.7199999999999998
 30
0.0
 40
0.5
  1
3.937500
100
AcDbAttributeDefinition
  3

  2
SS1
 70
     8
280
     0
  0
ATTDEF
  5
E3
330
D7
100
AcDbEntity
  8
AM_6
100
AcDbText
 10
-0.9456666666666678
 20
-1.22
 30
0.0
 40
0.5
  1
070906
100
AcDbAttributeDefinition
  3

  2
PN
 70
     8
280
     0
  0
ATTDEF
  5
E4
330
D7
100
AcDbEntity
  8
AM_6
100
AcDbText
 10
-0.9456666666666678
 20
-1.72
 30
0.0
 40
0.5
  1
INS-IP-315R
100
AcDbAttributeDefinition
  3

  2
DESCRIPTION
 70
     8
280
     0
  0
ATTDEF
  5
E5
330
D7
100
AcDbEntity
  8
AM_6
100
AcDbText
 10
-0.9456666666666678
 20
-2.22
 30
0.0
 40
0.5
  1
7.0866
100
AcDbAttributeDefinition
  3

  2
A
 70
     8
280
     0
  0
ATTDEF
  5
E6
330
D7
100
AcDbEntity
  8
AM_6
100
AcDbText
 10
-0.9456666666666678
 20
-2.72
 30
0.0
 40
0.5
  1
1-7/8
100
AcDbAttributeDefinition
  3

  2
B
 70
     8
280
     0
  0
ATTDEF
  5
E7
330
D7
100
AcDbEntity
  8
AM_6
100
AcDbText
 10
-0.9456666666666678
 20
-3.22
 30
0.0
 40
0.5
  1
1.875000
100
AcDbAttributeDefinition
  3

  2
B1
 70
     8
280
     0
  0
ATTDEF
  5
E8
330
D7
100
AcDbEntity
  8
AM_6
100
AcDbText
 10
-0.9456666666666678
 20
-3.72
 30
0.0
 40
0.5
  1
4-45/64
100
AcDbAttributeDefinition
  3

  2
C
 70
     8
280
     0
  0
ATTDEF
  5
E9
330
D7
100
AcDbEntity
  8
AM_6
100
AcDbText
 10
-0.9456666666666678
 20
-4.22
 30
0.0
 40
0.5
  1
4.703125
100
AcDbAttributeDefinition
  3

  2
C1
 70
     8
280
     0
  0
ATTDEF
  5
EA
330
D7
100
AcDbEntity
  8
AM_6
100
AcDbText
 10
-0.9456666666666678
 20
-4.72
 30
0.0
 40
0.5
  1
1.646
100
AcDbAttributeDefinition
  3

  2
D
 70
     8
280
     0
  0
ATTDEF
  5
EB
330
D7
100
AcDbEntity
  8
AM_6
100
AcDbText
 10
-0.9456666666666678
 20
-5.22
 30
0.0
 40
0.5
  1
5-9/16
100
AcDbAttributeDefinition
  3

  2
E
 70
     8
280
     0
  0
ATTDEF
  5
EC
330
D7
100
AcDbEntity
  8
AM_6
100
AcDbText
 10
-0.9456666666666678
 20
-5.72
 30
0.0
 40
0.5
  1
0.2500
100
AcDbAttributeDefinition
  3

  2
NDM
 70
     8
280
     0
  0
ATTDEF
  5
ED
330
D7
100
AcDbEntity
  8
AM_6
100
AcDbText
 10
-0.9456666666666678
 20
-6.22
 30
0.0
 40
0.5
  1
0.1960
100
AcDbAttributeDefinition
  3

  2
KDM
 70
     8
280
     0
  0
ATTDEF
  5
EE
330
D7
100
AcDbEntity
  8
AM_6
100
AcDbText
 10
-0.9456666666666678
 20
-6.72
 30
0.0
 40
0.5
  1
4.83
100
AcDbAttributeDefinition
  3

  2
AL
 70
     8
280
     0
  0
ATTDEF
  5
EF
330
D7
100
AcDbEntity
  8
AM_6
100
AcDbText
 10
-0.9456666666666678
 20
-7.22
 30
0.0
 40
0.5
  1
0.50
100
AcDbAttributeDefinition
  3

  2
BL
 70
     8
280
     0
  0
ATTDEF
  5
F0
330
D7
100
AcDbEntity
  8
AM_6
100
AcDbText
 10
-0.9456666666666678
 20
-7.72
 30
0.0
 40
0.5
  1
0.07
100
AcDbAttributeDefinition
  3

  2
CL
 70
     8
280
     0
  0
ATTDEF
  5
F1
330
D7
100
AcDbEntity
  8
AM_6
100
AcDbText
 10
-0.9456666666666678
 20
-8.219999999999999
 30
0.0
 40
0.5
  1
0.50
100
AcDbAttributeDefinition
  3

  2
DL
 70
     8
280
     0
  0
ATTDEF
  5
F2
330
D7
100
AcDbEntity
  8
AM_6
100
AcDbText
 10
-0.9456666666666678
 20
-8.719999999999999
 30
0.0
 40
0.5
  1
baldor
100
AcDbAttributeDefinition
  3

  2
COMPANY
 70
     8
280
     0
  0
LINE
  5
F3
330
D7
100
AcDbEntity
  8
AM_9
100
AcDbLine
 10
-6.375666666666667
 20
1.91513563836945
 30
0.0
 11
-6.445666666666667
 21
1.91513563836945
 31
0.0
  0
LINE
  5
F4
330
D7
100
AcDbEntity
  8
AM_9
100
AcDbLine
 10
-5.945666666666668
 20
1.863297286172533
 30
0.0
 11
-6.445666666666667
 21
1.863053367766472
 31
0.0
  0
LINE
  5
F5
330
D7
100
AcDbEntity
  8
AM_9
100
AcDbLine
 10
-5.945666666666668
 20
1.767382509675199
 30
0.0
 11
-5.945666666666668
 21
1.958968144263806
 31
0.0
  0
LINE
  5
F6
330
D7
100
AcDbEntity
  8
AM_9
100
AcDbLine
 10
-5.945666666666668
 20
1.767382509675199
 30
0.0
 11
-6.445666666666667
 21
1.767382509675199
 31
0.0
  0
LINE
  5
F7
330
D7
100
AcDbEntity
  8
AM_9
100
AcDbLine
 10
-6.375666666666667
 20
1.958968144263807
 30
0.0
 11
-5.945666666666668
 21
1.958968144263806
 31
0.0
  0
LINE
  5
F8
330
D7
100
AcDbEntity
  8
AM_9
100
AcDbLine
 10
-5.945666666666668
 20
1.863053367766472
 30
0.0
 11
-6.375666666666667
 21
1.863053367766472
 31
0.0
  0
LINE
  5
F9
330
D7
100
AcDbEntity
  8
AM_9
100
AcDbLine
 10
-6.375666666666667
 20
2.010806496460722
 30
0.0
 11
-6.445666666666667
 21
2.010806496460722
 31
0.0
  0
LINE
  5
FA
330
D7
100
AcDbEntity
  8
AM_9
100
AcDbLine
 10
-6.375666666666667
 20
2.483749999999999
 30
0.0
 11
-6.445666666666667
 21
2.48375
 31
0.0
  0
LINE
  5
FB
330
D7
100
AcDbEntity
  8
AM_9
100
AcDbLine
 10
-6.375666666666667
 20
2.608789619226237
 30
0.0
 11
-6.445666666666667
 21
2.608789619226237
 31
0.0
  0
LINE
  5
FC
330
D7
100
AcDbEntity
  8
AM_9
100
AcDbLine
 10
-6.375666666666667
 20
-2.483749999999999
 30
0.0
 11
-6.445666666666667
 21
-2.483749999999999
 31
0.0
  0
LINE
  5
FD
330
D7
100
AcDbEntity
  8
AM_9
100
AcDbLine
 10
-6.445666666666667
 20
-2.608789619226237
 30
0.0
 11
-6.375666666666667
 21
-2.608789619226237
 31
0.0
  0
LINE
  5
FE
330
D7
100
AcDbEntity
  8
AM_9
100
AcDbLine
 10
-6.375666666666667
 20
2.124704572769724
 30
0.0
 11
-6.445666666666667
 21
2.124704572769724
 31
0.0
  0
LINE
  5
FF
330
D7
100
AcDbEntity
  8
AM_9
100
AcDbLine
 10
-6.375666666666667
 20
-2.124704572769724
 30
0.0
 11
-6.445666666666667
 21
-2.124704572769724
 31
0.0
  0
LINE
  5
100
330
D7
100
AcDbEntity
  8
AM_9
100
AcDbLine
 10
-6.375666666666667
 20
-1.590781359071856
 30
0.0
 11
-6.445666666666667
 21
-1.590781359071856
 31
0.0
  0
LINE
  5
101
330
D7
100
AcDbEntity
  8
AM_9
100
AcDbLine
 10
-6.375666666666667
 20
1.590781359071856
 30
0.0
 11
-6.445666666666667
 21
1.590781359071859
 31
0.0
  0
LINE
  5
102
330
D7
100
AcDbEntity
  8
AM_9
100
AcDbLine
 10
-6.375666666666667
 20
-1.414004663775221
 30
0.0
 11
-6.445666666666667
 21
-1.414004663775221
 31
0.0
  0
LINE
  5
103
330
D7
100
AcDbEntity
  8
AM_9
100
AcDbLine
 10
-6.375666666666667
 20
1.414004663775219
 30
0.0
 11
-6.445666666666667
 21
1.414004663775219
 31
0.0
  0
LINE
  5
104
330
D7
100
AcDbEntity
  8
AM_9
100
AcDbLine
 10
-6.375666666666667
 20
1.844664815420405
 30
0.0
 11
-6.445666666666667
 21
1.844664815420405
 31
0.0
  0
LINE
  5
105
330
D7
100
AcDbEntity
  8
AM_9
100
AcDbLine
 10
-6.375666666666667
 20
1.667888120123768
 30
0.0
 11
-6.445666666666667
 21
1.667888120123768
 31
0.0
  0
LINE
  5
106
330
D7
100
AcDbEntity
  8
AM_9
100
AcDbLine
 10
-6.375666666666667
 20
1.881304484634041
 30
0.0
 11
-6.445666666666667
 21
1.881304484634041
 31
0.0
  0
LINE
  5
107
330
D7
100
AcDbEntity
  8
AM_9
100
AcDbLine
 10
-6.375666666666667
 20
-1.667888120123769
 30
0.0
 11
-6.445666666666667
 21
-1.667888120123769
 31
0.0
  0
LINE
  5
108
330
D7
100
AcDbEntity
  8
AM_9
100
AcDbLine
 10
-6.375666666666667
 20
-1.844664815420405
 30
0.0
 11
-6.445666666666667
 21
-1.844664815420405
 31
0.0
  0
LINE
  5
109
330
D7
100
AcDbEntity
  8
AM_9
100
AcDbLine
 10
-6.445666666666667
 20
-1.881304484634041
 30
0.0
 11
-6.375666666666667
 21
-1.881304484634041
 31
0.0
  0
LINE
  5
10A
330
D7
100
AcDbEntity
  8
AM_9
100
AcDbLine
 10
-6.375666666666667
 20
0.1250000000000002
 30
0.0
 11
-6.445666666666667
 21
0.1250000000000002
 31
0.0
  0
LINE
  5
10B
330
D7
100
AcDbEntity
  8
AM_9
100
AcDbLine
 10
-6.375666666666667
 20
-0.1250000000000006
 30
0.0
 11
-6.445666666666667
 21
-0.1250000000000006
 31
0.0
  0
LINE
  5
10C
330
D7
100
AcDbEntity
  8
AM_4
100
AcDbLine
 10
-6.375666666666667
 20
2.78
 30
0.0
 11
-6.445666666666667
 21
2.78
 31
0.0
  0
LINE
  5
10D
330
D7
100
AcDbEntity
  8
AM_4
100
AcDbLine
 10
-6.445666666666667
 20
-2.78
 30
0.0
 11
-6.375666666666667
 21
-2.78
 31
0.0
  0
LINE
  5
10E
330
D7
100
AcDbEntity
  8
AM_4
100
AcDbLine
 10
-6.445666666666667
 20
2.78
 30
0.0
 11
-6.445666666666667
 21
-2.78
 31
0.0
  0
LINE
  5
10F
330
D7
100
AcDbEntity
  8
AM_4
100
AcDbLine
 10
-6.375666666666667
 20
-1.781902906182382
 30
0.0
 11
-6.375666666666667
 21
-2.134568819093236
 31
0.0
  0
LINE
  5
110
330
D7
100
AcDbEntity
  8
AM_4
100
AcDbLine
 10
-6.375666666666667
 20
2.135456296775655
 30
0.0
 11
-6.375666666666667
 21
1.781902906182381
 31
0.0
  0
ENDBLK
  5
DA
330
D7
100
AcDbEntity
  8
0
100
AcDbBlockEnd
  0
BLOCK
  5
113
330
111
100
AcDbEntity
  8
0
100
AcDbBlockBegin
  2
5_070906E_0_in_071309_2
 70
     2
 10
0.0
 20
0.0
 30
0.0
  3
5_070906E_0_in_071309_2
  1

  0
ATTDEF
  5
115
330
111
100
AcDbEntity
  8
AM_6
100
AcDbText
 10
3.005000000000003
 20
3.5433
 30
0.0
 40
0.5
  1
Imperial/E Insert -Inch
100
AcDbAttributeDefinition
  3

  2
NN
 70
     8
280
     0
  0
ATTDEF
  5
116
330
111
100
AcDbEntity
  8
AM_6
100
AcDbText
 10
3.005000000000003
 20
3.0433
 30
0.0
 40
0.5
  1
Imperial Bearings
100
AcDbAttributeDefinition
  3

  2
NT
 70
     8
280
     0
  0
ATTDEF
  5
117
330
111
100
AcDbEntity
  8
AM_6
100
AcDbText
 10
3.005000000000003
 20
2.5433
 30
0.0
 40
0.5
  1
070906E
100
AcDbAttributeDefinition
  3

  2
NB
 70
     8
280
     0
  0
ATTDEF
  5
118
330
111
100
AcDbEntity
  8
AM_6
100
AcDbText
 10
3.005000000000003
 20
2.0433
 30
0.0
 40
0.5
  1
$PN.
100
AcDbAttributeDefinition
  3

  2
NBSYN
 70
     8
280
     0
  0
ATTDEF
  5
119
330
111
100
AcDbEntity
  8
AM_6
100
AcDbText
 10
3.005000000000003
 20
1.5433
 30
0.0
 40
0.5
  1
070906E
100
AcDbAttributeDefinition
  3

  2
LINA
 70
     8
280
     0
  0
ATTDEF
  5
11A
330
111
100
AcDbEntity
  8
AM_6
100
AcDbText
 10
3.005000000000003
 20
1.0433
 30
0.0
 40
0.5
  1
3-15/16
100
AcDbAttributeDefinition
  3

  2
SS
 70
     8
280
     0
  0
ATTDEF
  5
11B
330
111
100
AcDbEntity
  8
AM_6
100
AcDbText
 10
3.005000000000003
 20
0.5432999999999999
 30
0.0
 40
0.5
  1
3.937500
100
AcDbAttributeDefinition
  3

  2
SS1
 70
     8
280
     0
  0
ATTDEF
  5
11C
330
111
100
AcDbEntity
  8
AM_6
100
AcDbText
 10
3.005000000000003
 20
0.0432999999999999
 30
0.0
 40
0.5
  1
070906E
100
AcDbAttributeDefinition
  3

  2
PN
 70
     8
280
     0
  0
ATTDEF
  5
11D
330
111
100
AcDbEntity
  8
AM_6
100
AcDbText
 10
3.005000000000003
 20
-0.4567000000000001
 30
0.0
 40
0.5
  1
INS-IP-315R
100
AcDbAttributeDefinition
  3

  2
DESCRIPTION
 70
     8
280
     0
  0
ATTDEF
  5
11E
330
111
100
AcDbEntity
  8
AM_6
100
AcDbText
 10
3.005000000000003
 20
-0.9567000000000001
 30
0.0
 40
0.5
  1
Contact Seal
100
AcDbAttributeDefinition
  3

  2
ST
 70
     8
280
     0
  0
ATTDEF
  5
11F
330
111
100
AcDbEntity
  8
AM_6
100
AcDbText
 10
3.005000000000003
 20
-1.4567
 30
0.0
 40
0.5
  1
1
100
AcDbAttributeDefinition
  3

  2
ST1
 70
     8
280
     0
  0
ATTDEF
  5
120
330
111
100
AcDbEntity
  8
AM_6
100
AcDbText
 10
3.005000000000003
 20
-1.9567
 30
0.0
 40
0.5
  1
7.0866
100
AcDbAttributeDefinition
  3

  2
A
 70
     8
280
     0
  0
ATTDEF
  5
121
330
111
100
AcDbEntity
  8
AM_6
100
AcDbText
 10
3.005000000000003
 20
-2.4567
 30
0.0
 40
0.5
  1
1-7/8
100
AcDbAttributeDefinition
  3

  2
B
 70
     8
280
     0
  0
ATTDEF
  5
122
330
111
100
AcDbEntity
  8
AM_6
100
AcDbText
 10
3.005000000000003
 20
-2.9567
 30
0.0
 40
0.5
  1
1.875000
100
AcDbAttributeDefinition
  3

  2
B1
 70
     8
280
     0
  0
ATTDEF
  5
123
330
111
100
AcDbEntity
  8
AM_6
100
AcDbText
 10
3.005000000000003
 20
-3.4567
 30
0.0
 40
0.5
  1
4-45/64
100
AcDbAttributeDefinition
  3

  2
C
 70
     8
280
     0
  0
ATTDEF
  5
124
330
111
100
AcDbEntity
  8
AM_6
100
AcDbText
 10
3.005000000000003
 20
-3.9567
 30
0.0
 40
0.5
  1
4.700000
100
AcDbAttributeDefinition
  3

  2
C1
 70
     8
280
     0
  0
ATTDEF
  5
125
330
111
100
AcDbEntity
  8
AM_6
100
AcDbText
 10
3.005000000000003
 20
-4.4567
 30
0.0
 40
0.5
  1
6.73000
100
AcDbAttributeDefinition
  3

  2
CR
 70
     8
280
     0
  0
ATTDEF
  5
126
330
111
100
AcDbEntity
  8
AM_6
100
AcDbText
 10
3.005000000000003
 20
-4.9567
 30
0.0
 40
0.5
  1
1.646
100
AcDbAttributeDefinition
  3

  2
D
 70
     8
280
     0
  0
ATTDEF
  5
127
330
111
100
AcDbEntity
  8
AM_6
100
AcDbText
 10
3.005000000000003
 20
-5.4567
 30
0.0
 40
0.5
  1
5-9/16
100
AcDbAttributeDefinition
  3

  2
E
 70
     8
280
     0
  0
ATTDEF
  5
128
330
111
100
AcDbEntity
  8
AM_6
100
AcDbText
 10
3.005000000000003
 20
-5.9567
 30
0.0
 40
0.5
  1
5.562500
100
AcDbAttributeDefinition
  3

  2
E1
 70
     8
280
     0
  0
ATTDEF
  5
129
330
111
100
AcDbEntity
  8
AM_6
100
AcDbText
 10
3.005000000000003
 20
-6.4567
 30
0.0
 40
0.5
  1
0.2500
100
AcDbAttributeDefinition
  3

  2
NDM
 70
     8
280
     0
  0
ATTDEF
  5
12A
330
111
100
AcDbEntity
  8
AM_6
100
AcDbText
 10
3.005000000000003
 20
-6.9567
 30
0.0
 40
0.5
  1
0.1960
100
AcDbAttributeDefinition
  3

  2
KDM
 70
     8
280
     0
  0
ATTDEF
  5
12B
330
111
100
AcDbEntity
  8
AM_6
100
AcDbText
 10
3.005000000000003
 20
-7.4567
 30
0.0
 40
0.5
  1
4.83
100
AcDbAttributeDefinition
  3

  2
AL
 70
     8
280
     0
  0
ATTDEF
  5
12C
330
111
100
AcDbEntity
  8
AM_6
100
AcDbText
 10
3.005000000000003
 20
-7.9567
 30
0.0
 40
0.5
  1
0.50
100
AcDbAttributeDefinition
  3

  2
BL
 70
     8
280
     0
  0
ATTDEF
  5
12D
330
111
100
AcDbEntity
  8
AM_6
100
AcDbText
 10
3.005000000000003
 20
-8.4567
 30
0.0
 40
0.5
  1
0.07
100
AcDbAttributeDefinition
  3

  2
CL
 70
     8
280
     0
  0
ATTDEF
  5
12E
330
111
100
AcDbEntity
  8
AM_6
100
AcDbText
 10
3.005000000000003
 20
-8.9567
 30
0.0
 40
0.5
  1
0.50
100
AcDbAttributeDefinition
  3

  2
DL
 70
     8
280
     0
  0
ATTDEF
  5
12F
330
111
100
AcDbEntity
  8
AM_6
100
AcDbText
 10
3.005000000000003
 20
-9.4567
 30
0.0
 40
0.5
  1
0.8000
100
AcDbAttributeDefinition
  3

  2
LL
 70
     8
280
     0
  0
ATTDEF
  5
130
330
111
100
AcDbEntity
  8
AM_6
100
AcDbText
 10
3.005000000000003
 20
-9.9567
 30
0.0
 40
0.5
  1
0.025
100
AcDbAttributeDefinition
  3

  2
Y
 70
     8
280
     0
  0
ATTDEF
  5
131
330
111
100
AcDbEntity
  8
AM_6
100
AcDbText
 10
3.005000000000003
 20
-10.4567
 30
0.0
 40
0.5
  1
0.025000
100
AcDbAttributeDefinition
  3

  2
Y1
 70
     8
280
     0
  0
ATTDEF
  5
132
330
111
100
AcDbEntity
  8
AM_6
100
AcDbText
 10
3.005000000000003
 20
-10.9567
 30
0.0
 40
0.5
  1
4-1/2
100
AcDbAttributeDefinition
  3

  2
Z
 70
     8
280
     0
  0
ATTDEF
  5
133
330
111
100
AcDbEntity
  8
AM_6
100
AcDbText
 10
3.005000000000003
 20
-11.4567
 30
0.0
 40
0.5
  1
4.500000
100
AcDbAttributeDefinition
  3

  2
Z1
 70
     8
280
     0
  0
ATTDEF
  5
134
330
111
100
AcDbEntity
  8
AM_6
100
AcDbText
 10
3.005000000000003
 20
-11.9567
 30
0.0
 40
0.5
  1
2.02000
100
AcDbAttributeDefinition
  3

  2
P1
 70
     8
280
     0
  0
ATTDEF
  5
135
330
111
100
AcDbEntity
  8
AM_6
100
AcDbText
 10
3.005000000000003
 20
-12.4567
 30
0.0
 40
0.5
  1
2.12000
100
AcDbAttributeDefinition
  3

  2
H1
 70
     8
280
     0
  0
ATTDEF
  5
136
330
111
100
AcDbEntity
  8
AM_6
100
AcDbText
 10
3.005000000000003
 20
-12.9567
 30
0.0
 40
0.5
  1
1.22000
100
AcDbAttributeDefinition
  3

  2
G1
 70
     8
280
     0
  0
ATTDEF
  5
137
330
111
100
AcDbEntity
  8
AM_6
100
AcDbText
 10
3.005000000000003
 20
-13.4567
 30
0.0
 40
0.5
  1
0.13200
100
AcDbAttributeDefinition
  3

  2
CW
 70
     8
280
     0
  0
ATTDEF
  5
138
330
111
100
AcDbEntity
  8
AM_6
100
AcDbText
 10
3.005000000000003
 20
-13.9567
 30
0.0
 40
0.5
  1
5.56000
100
AcDbAttributeDefinition
  3

  2
L1
 70
     8
280
     0
  0
ATTDEF
  5
139
330
111
100
AcDbEntity
  8
AM_6
100
AcDbText
 10
3.005000000000003
 20
-14.4567
 30
0.0
 40
0.5
  1
baldor
100
AcDbAttributeDefinition
  3

  2
COMPANY
 70
     8
280
     0
  0
LINE
  5
13A
330
111
100
AcDbEntity
  8
AM_9
100
AcDbLine
 10
-2.7285
 20
1.964029099314059
 30
0.0
 11
-6.375666666666667
 21
1.964029099314059
 31
0.0
  0
LINE
  5
13B
330
111
100
AcDbEntity
  8
AM_9
100
AcDbLine
 10
-2.7285
 20
1.868358241222787
 30
0.0
 11
-6.375666666666667
 21
1.868358241222787
 31
0.0
  0
LINE
  5
13C
330
111
100
AcDbEntity
  8
AM_9
100
AcDbLine
 10
-5.535666666666668
 20
2.484375
 30
0.0
 11
-5.592218125533791
 21
2.582325
 31
0.0
  0
LINE
  5
13D
330
111
100
AcDbEntity
  8
AM_9
100
AcDbLine
 10
-5.592218125533791
 20
2.386425
 30
0.0
 11
-5.535666666666668
 21
2.484375
 31
0.0
  0
LINE
  5
13E
330
111
100
AcDbEntity
  8
AM_9
100
AcDbLine
 10
-5.535666666666682
 20
-2.484375
 30
0.0
 11
-5.592218125533797
 21
-2.386425
 31
0.0
  0
LINE
  5
13F
330
111
100
AcDbEntity
  8
AM_9
100
AcDbLine
 10
-5.592218125533797
 20
-2.582325
 30
0.0
 11
-5.535666666666682
 21
-2.484375
 31
0.0
  0
LINE
  5
140
330
111
100
AcDbEntity
  8
AM_9
100
AcDbLine
 10
-5.592218125533791
 20
2.386425
 30
0.0
 11
-5.592218125533791
 21
2.582325
 31
0.0
  0
LINE
  5
141
330
111
100
AcDbEntity
  8
AM_9
100
AcDbLine
 10
-5.592218125533791
 20
2.582325
 30
0.0
 11
-6.348616666666667
 21
2.582325
 31
0.0
  0
LINE
  5
142
330
111
100
AcDbEntity
  8
AM_9
100
AcDbLine
 10
-6.348616666666667
 20
2.386425
 30
0.0
 11
-5.592218125533791
 21
2.386425
 31
0.0
  0
LINE
  5
143
330
111
100
AcDbEntity
  8
AM_9
100
AcDbLine
 10
-6.348616666666683
 20
-2.582325
 30
0.0
 11
-5.592218125533797
 21
-2.582325
 31
0.0
  0
LINE
  5
144
330
111
100
AcDbEntity
  8
AM_9
100
AcDbLine
 10
-5.592218125533797
 20
-2.386425
 30
0.0
 11
-6.348616666666683
 21
-2.386425
 31
0.0
  0
LINE
  5
145
330
111
100
AcDbEntity
  8
AM_9
100
AcDbLine
 10
-5.592218125533797
 20
-2.386425
 30
0.0
 11
-5.592218125533797
 21
-2.582325
 31
0.0
  0
LINE
  5
146
330
111
100
AcDbEntity
  8
AM_9
100
AcDbLine
 10
-6.348616666666667
 20
2.386425
 30
0.0
 11
-6.348616666666667
 21
2.582325
 31
0.0
  0
LINE
  5
147
330
111
100
AcDbEntity
  8
AM_9
100
AcDbLine
 10
-6.348616666666667
 20
2.582325
 30
0.0
 11
-6.375666666666667
 21
2.609375
 31
0.0
  0
LINE
  5
148
330
111
100
AcDbEntity
  8
AM_9
100
AcDbLine
 10
-6.375666666666667
 20
2.359375
 30
0.0
 11
-6.348616666666667
 21
2.386425
 31
0.0
  0
LINE
  5
149
330
111
100
AcDbEntity
  8
AM_9
100
AcDbLine
 10
-6.348616666666683
 20
-2.386425
 30
0.0
 11
-6.37566666666666
 21
-2.359375
 31
0.0
  0
LINE
  5
14A
330
111
100
AcDbEntity
  8
AM_9
100
AcDbLine
 10
-6.37566666666666
 20
-2.609375
 30
0.0
 11
-6.348616666666683
 21
-2.582325
 31
0.0
  0
LINE
  5
14B
330
111
100
AcDbEntity
  8
AM_9
100
AcDbLine
 10
-6.348616666666683
 20
-2.386425
 30
0.0
 11
-6.348616666666683
 21
-2.582325
 31
0.0
  0
LINE
  5
14C
330
111
100
AcDbEntity
  8
AM_9
100
AcDbLine
 10
-5.875666666666667
 20
-1.530886181268876
 30
0.0
 11
-6.375666666666667
 21
-1.530886181268876
 31
0.0
  0
LINE
  5
14D
330
111
100
AcDbEntity
  8
AM_9
100
AcDbLine
 10
-5.875666666666667
 20
1.530886181268875
 30
0.0
 11
-6.375666666666667
 21
1.530886181268875
 31
0.0
  0
LINE
  5
14E
330
111
100
AcDbEntity
  8
AM_9
100
AcDbLine
 10
-2.7285
 20
1.863053367766472
 30
0.0
 11
-6.720000000000001
 21
1.863053367766471
 31
0.0
  0
LINE
  5
14F
330
111
100
AcDbEntity
  8
AM_9
100
AcDbLine
 10
-6.720000000000001
 20
1.767382509675199
 30
0.0
 11
-2.7285
 21
1.767382509675199
 31
0.0
  0
LINE
  5
150
330
111
100
AcDbEntity
  8
AM_9
100
AcDbLine
 10
-2.7285
 20
1.96875
 30
0.0
 11
-6.720000000000001
 21
1.96875
 31
0.0
  0
LINE
  5
151
330
111
100
AcDbEntity
  8
AM_9
100
AcDbLine
 10
-6.720000000000001
 20
-1.96875
 30
0.0
 11
-2.7285
 21
-1.96875
 31
0.0
  0
LINE
  5
152
330
111
100
AcDbEntity
  8
AM_9
100
AcDbLine
 10
-2.02
 20
2.072368421052632
 30
0.0
 11
-2.7285
 21
2.072368421052632
 31
0.0
  0
LINE
  5
153
330
111
100
AcDbEntity
  8
AM_9
100
AcDbLine
 10
-2.7285
 20
-2.072368421052632
 30
0.0
 11
-2.02
 21
-2.072368421052632
 31
0.0
  0
LINE
  5
154
330
111
100
AcDbEntity
  8
AM_9
100
AcDbLine
 10
-6.720000000000001
 20
1.958968144263806
 30
0.0
 11
-6.375666666666667
 21
1.958968144263806
 31
0.0
  0
LINE
  5
155
330
111
100
AcDbEntity
  8
AM_9
100
AcDbLine
 10
-6.375666666666667
 20
1.863297286172533
 30
0.0
 11
-6.720000000000001
 21
1.863297286172533
 31
0.0
  0
LINE
  5
156
330
111
100
AcDbEntity
  8
AM_9
100
AcDbLine
 10
-6.375666666666667
 20
2.072368421052632
 30
0.0
 11
-6.445666666666667
 21
2.072368421052632
 31
0.0
  0
LINE
  5
157
330
111
100
AcDbEntity
  8
AM_9
100
AcDbLine
 10
-6.445666666666667
 20
-2.072368421052632
 30
0.0
 11
-6.375666666666667
 21
-2.072368421052632
 31
0.0
  0
LINE
  5
158
330
111
100
AcDbEntity
  8
AM_9
100
AcDbLine
 10
-5.875666666666667
 20
-1.530886181268876
 30
0.0
 11
-5.875666666666667
 21
-1.788099208119979
 31
0.0
  0
LINE
  5
159
330
111
100
AcDbEntity
  8
AM_9
100
AcDbLine
 10
-5.875666666666667
 20
1.788099208119979
 30
0.0
 11
-5.875666666666667
 21
1.530886181268875
 31
0.0
  0
LINE
  5
15A
330
111
100
AcDbEntity
  8
AM_9
100
AcDbLine
 10
-2.02
 20
-2.25
 30
0.0
 11
-2.02
 21
2.25
 31
0.0
  0
LINE
  5
15B
330
111
100
AcDbEntity
  8
AM_9
100
AcDbLine
 10
-1.994999999999997
 20
2.25
 30
0.0
 11
-2.02
 21
2.25
 31
0.0
  0
LINE
  5
15C
330
111
100
AcDbEntity
  8
AM_9
100
AcDbLine
 10
-2.02
 20
-2.25
 30
0.0
 11
-1.994999999999997
 21
-2.25
 31
0.0
  0
LINE
  5
15D
330
111
100
AcDbEntity
  8
AM_9
100
AcDbLine
 10
-5.500000000000002
 20
-2.796534818522145
 30
0.0
 11
-4.652627379678136
 21
-2.811325762628257
 31
0.0
  0
LINE
  5
15E
330
111
100
AcDbEntity
  8
AM_9
100
AcDbLine
 10
-4.652627379678136
 20
2.811325762628257
 30
0.0
 11
-5.500000000000002
 21
2.796534818522145
 31
0.0
  0
LINE
  5
15F
330
111
100
AcDbEntity
  8
AM_9
100
AcDbLine
 10
-4.652627379678136
 20
-2.811325762628257
 30
0.0
 11
-4.652627379678136
 21
2.811325762628257
 31
0.0
  0
ARC
  5
160
330
111
100
AcDbEntity
  8
AM_9
100
AcDbCircle
 10
-4.653500000000003
 20
2.861318147386078
 30
0.0
 40
0.0500000000000021
100
AcDbArc
 50
271.0000000000031
 51
0.0
  0
ARC
  5
161
330
111
100
AcDbEntity
  8
AM_9
100
AcDbCircle
 10
-4.653500000000003
 20
-2.861318147386078
 30
0.0
 40
0.0500000000000025
100
AcDbArc
 50
0.0
 51
88.99999999999685
  0
LINE
  5
162
330
111
100
AcDbEntity
  8
AM_9
100
AcDbLine
 10
-1.994999999999997
 20
-3.0
 30
0.0
 11
-1.994999999999997
 21
3.0
 31
0.0
  0
LINE
  5
163
330
111
100
AcDbEntity
  8
AM_9
100
AcDbLine
 10
-1.994999999999997
 20
3.0
 30
0.0
 11
-2.3535
 21
3.0
 31
0.0
  0
LINE
  5
164
330
111
100
AcDbEntity
  8
AM_9
100
AcDbLine
 10
-2.3535
 20
-3.0
 30
0.0
 11
-1.994999999999997
 21
-3.0
 31
0.0
  0
LINE
  5
165
330
111
100
AcDbEntity
  8
AM_9
100
AcDbLine
 10
-2.3535
 20
-3.069058622134927
 30
0.0
 11
-2.3535
 21
3.069058622134927
 31
0.0
  0
ARC
  5
166
330
111
100
AcDbEntity
  8
AM_9
100
AcDbCircle
 10
-2.453500000000001
 20
3.069058622134927
 30
0.0
 40
0.100000000000001
100
AcDbArc
 50
0.0
 51
59.99999999999989
  0
ARC
  5
167
330
111
100
AcDbEntity
  8
AM_9
100
AcDbCircle
 10
-2.453500000000001
 20
-3.069058622134927
 30
0.0
 40
0.1000000000000011
100
AcDbArc
 50
300.0000000000001
 51
0.0
  0
LINE
  5
168
330
111
100
AcDbEntity
  8
AM_9
100
AcDbLine
 10
-2.4035
 20
-3.155661162513371
 30
0.0
 11
-2.4035
 21
3.155661162513371
 31
0.0
  0
LINE
  5
169
330
111
100
AcDbEntity
  8
AM_9
100
AcDbLine
 10
-2.4035
 20
3.155661162513371
 30
0.0
 11
-2.7285
 21
3.3433
 31
0.0
  0
LINE
  5
16A
330
111
100
AcDbEntity
  8
AM_9
100
AcDbLine
 10
-2.7285
 20
-3.3433
 30
0.0
 11
-2.4035
 21
-3.155661162513371
 31
0.0
  0
LINE
  5
16B
330
111
100
AcDbEntity
  8
AM_9
100
AcDbLine
 10
-3.631873412263473
 20
3.44955
 30
0.0
 11
-3.740126587736527
 21
3.44955
 31
0.0
  0
LINE
  5
16C
330
111
100
AcDbEntity
  8
AM_9
100
AcDbLine
 10
-3.740126587736527
 20
-3.44955
 30
0.0
 11
-3.631873412263473
 21
-3.44955
 31
0.0
  0
LINE
  5
16D
330
111
100
AcDbEntity
  8
AM_9
100
AcDbLine
 10
-2.778500000000001
 20
3.5433
 30
0.0
 11
-3.577746824526945
 21
3.5433
 31
0.0
  0
LINE
  5
16E
330
111
100
AcDbEntity
  8
AM_9
100
AcDbLine
 10
-3.577746824526945
 20
-3.5433
 30
0.0
 11
-2.778500000000001
 21
-3.5433
 31
0.0
  0
LINE
  5
16F
330
111
100
AcDbEntity
  8
AM_9
100
AcDbLine
 10
-3.577746824526945
 20
-3.5433
 30
0.0
 11
-3.577746824526945
 21
3.5433
 31
0.0
  0
LINE
  5
170
330
111
100
AcDbEntity
  8
AM_9
100
AcDbLine
 10
-3.631873412263473
 20
-3.44955
 30
0.0
 11
-3.631873412263473
 21
3.44955
 31
0.0
  0
LINE
  5
171
330
111
100
AcDbEntity
  8
AM_9
100
AcDbLine
 10
-3.631873412263473
 20
-3.44955
 30
0.0
 11
-3.577746824526945
 21
-3.5433
 31
0.0
  0
LINE
  5
172
330
111
100
AcDbEntity
  8
AM_9
100
AcDbLine
 10
-3.577746824526945
 20
3.5433
 30
0.0
 11
-3.631873412263473
 21
3.44955
 31
0.0
  0
LINE
  5
173
330
111
100
AcDbEntity
  8
AM_9
100
AcDbLine
 10
-4.6035
 20
-3.533300000000001
 30
0.0
 11
-4.6035
 21
3.533300000000001
 31
0.0
  0
ARC
  5
174
330
111
100
AcDbEntity
  8
AM_9
100
AcDbCircle
 10
-4.593500000000001
 20
3.533300000000001
 30
0.0
 40
0.0099999999999993
100
AcDbArc
 50
90.0
 51
180.0
  0
ARC
  5
175
330
111
100
AcDbEntity
  8
AM_9
100
AcDbCircle
 10
-4.593500000000001
 20
-3.533300000000001
 30
0.0
 40
0.0099999999999989
100
AcDbArc
 50
180.0
 51
270.0
  0
LINE
  5
176
330
111
100
AcDbEntity
  8
AM_9
100
AcDbLine
 10
-2.7285
 20
-3.4933
 30
0.0
 11
-2.7285
 21
3.4933
 31
0.0
  0
LINE
  5
177
330
111
100
AcDbEntity
  8
AM_9
100
AcDbLine
 10
-2.778500000000001
 20
-3.5433
 30
0.0
 11
-2.778500000000001
 21
3.5433
 31
0.0
  0
ARC
  5
178
330
111
100
AcDbEntity
  8
AM_9
100
AcDbCircle
 10
-2.7785
 20
3.4933
 30
0.0
 40
0.0500000000000003
100
AcDbArc
 50
0.0
 51
90.0
  0
ARC
  5
179
330
111
100
AcDbEntity
  8
AM_9
100
AcDbCircle
 10
-2.7785
 20
-3.4933
 30
0.0
 40
0.0500000000000003
100
AcDbArc
 50
270.0
 51
0.0
  0
LINE
  5
17A
330
111
100
AcDbEntity
  8
AM_9
100
AcDbLine
 10
-3.740126587736527
 20
-3.44955
 30
0.0
 11
-3.740126587736527
 21
3.44955
 31
0.0
  0
LINE
  5
17B
330
111
100
AcDbEntity
  8
AM_9
100
AcDbLine
 10
-3.740126587736527
 20
3.44955
 30
0.0
 11
-3.794253175473055
 21
3.5433
 31
0.0
  0
LINE
  5
17C
330
111
100
AcDbEntity
  8
AM_9
100
AcDbLine
 10
-3.794253175473055
 20
-3.5433
 30
0.0
 11
-3.740126587736527
 21
-3.44955
 31
0.0
  0
LINE
  5
17D
330
111
100
AcDbEntity
  8
AM_9
100
AcDbLine
 10
-3.794253175473055
 20
-3.5433
 30
0.0
 11
-3.794253175473055
 21
3.5433
 31
0.0
  0
LINE
  5
17E
330
111
100
AcDbEntity
  8
AM_9
100
AcDbLine
 10
-4.593500000000001
 20
-3.5433
 30
0.0
 11
-4.593500000000001
 21
3.5433
 31
0.0
  0
LINE
  5
17F
330
111
100
AcDbEntity
  8
AM_9
100
AcDbLine
 10
-3.794253175473055
 20
3.5433
 30
0.0
 11
-4.593500000000001
 21
3.5433
 31
0.0
  0
LINE
  5
180
330
111
100
AcDbEntity
  8
AM_9
100
AcDbLine
 10
-4.593500000000001
 20
-3.5433
 30
0.0
 11
-3.794253175473055
 21
-3.5433
 31
0.0
  0
LINE
  5
181
330
111
100
AcDbEntity
  8
AM_5
100
AcDbLine
 10
-5.675666666666666
 20
2.609375
 30
0.0
 11
-5.648693977063526
 21
2.593802310396858
 31
0.0
  0
LINE
  5
182
330
111
100
AcDbEntity
  8
AM_5
100
AcDbLine
 10
-6.375666666666667
 20
2.359375
 30
0.0
 11
-5.675666666666666
 21
2.359375
 31
0.0
  0
LINE
  5
183
330
111
100
AcDbEntity
  8
AM_5
100
AcDbLine
 10
-5.675666666666666
 20
2.359375
 30
0.0
 11
-5.648693977063526
 21
2.374947689603142
 31
0.0
  0
LINE
  5
184
330
111
100
AcDbEntity
  8
AM_5
100
AcDbLine
 10
-5.675666666666683
 20
-2.609375
 30
0.0
 11
-5.648693977063517
 21
-2.59380231039685
 31
0.0
  0
LINE
  5
185
330
111
100
AcDbEntity
  8
AM_5
100
AcDbLine
 10
-6.375666666666667
 20
-2.359375
 30
0.0
 11
-5.675666666666683
 21
-2.359375
 31
0.0
  0
LINE
  5
186
330
111
100
AcDbEntity
  8
AM_5
100
AcDbLine
 10
-5.675666666666683
 20
-2.359375
 30
0.0
 11
-5.648693977063517
 21
-2.37494768960315
 31
0.0
  0
LINE
  5
189
330
111
100
AcDbEntity
  8
AM_7
100
AcDbLine
 10
-5.493666666666668
 20
2.484375
 30
0.0
 11
-6.624266666666666
 21
2.484375
 31
0.0
  0
LINE
  5
18A
330
111
100
AcDbEntity
  8
AM_7
100
AcDbLine
 10
-5.493666666666683
 20
-2.484375
 30
0.0
 11
-6.624266666666666
 21
-2.484375
 31
0.0
  0
LINE
  5
18B
330
111
100
AcDbEntity
  8
AM_4
100
AcDbLine
 10
-5.875666666666667
 20
-1.884439571862149
 30
0.0
 11
-6.375666666666667
 21
-1.884439571862149
 31
0.0
  0
LINE
  5
18C
330
111
100
AcDbEntity
  8
AM_4
100
AcDbLine
 10
-5.875666666666667
 20
1.884439571862148
 30
0.0
 11
-6.375666666666667
 21
1.884439571862148
 31
0.0
  0
LINE
  5
18D
330
111
100
AcDbEntity
  8
AM_4
100
AcDbLine
 10
-6.445666666666667
 20
2.072368421052632
 30
0.0
 11
-6.720000000000001
 21
2.072368421052632
 31
0.0
  0
LINE
  5
18E
330
111
100
AcDbEntity
  8
AM_4
100
AcDbLine
 10
-6.720000000000001
 20
-2.072368421052632
 30
0.0
 11
-6.445666666666667
 21
-2.072368421052632
 31
0.0
  0
LINE
  5
18F
330
111
100
AcDbEntity
  8
AM_4
100
AcDbLine
 10
-6.720000000000001
 20
-2.072368421052632
 30
0.0
 11
-6.720000000000001
 21
2.072368421052632
 31
0.0
  0
LINE
  5
190
330
111
100
AcDbEntity
  8
AM_4
100
AcDbLine
 10
-6.375666666666667
 20
-1.781902906182382
 30
0.0
 11
-6.375666666666667
 21
1.781902906182381
 31
0.0
  0
LINE
  5
191
330
111
100
AcDbEntity
  8
AM_4
100
AcDbLine
 10
-6.375666666666667
 20
-1.781902906182382
 30
0.0
 11
-5.875666666666667
 21
-1.788099208119979
 31
0.0
  0
LINE
  5
192
330
111
100
AcDbEntity
  8
AM_4
100
AcDbLine
 10
-5.875666666666667
 20
-1.788099208119979
 30
0.0
 11
-5.875666666666667
 21
-2.141652598713253
 31
0.0
  0
LINE
  5
193
330
111
100
AcDbEntity
  8
AM_4
100
AcDbLine
 10
-5.875666666666667
 20
-2.141652598713253
 30
0.0
 11
-6.375666666666667
 21
-2.135456296775655
 31
0.0
  0
LINE
  5
194
330
111
100
AcDbEntity
  8
AM_4
100
AcDbLine
 10
-6.375666666666667
 20
2.135456296775655
 30
0.0
 11
-6.375666666666667
 21
2.781250000000003
 31
0.0
  0
LINE
  5
195
330
111
100
AcDbEntity
  8
AM_4
100
AcDbLine
 10
-6.375666666666667
 20
2.135456296775655
 30
0.0
 11
-5.875666666666667
 21
2.141652598713252
 31
0.0
  0
LINE
  5
196
330
111
100
AcDbEntity
  8
AM_4
100
AcDbLine
 10
-5.875666666666667
 20
2.141652598713252
 30
0.0
 11
-5.875666666666667
 21
1.788099208119979
 31
0.0
  0
LINE
  5
197
330
111
100
AcDbEntity
  8
AM_4
100
AcDbLine
 10
-5.875666666666667
 20
1.788099208119979
 30
0.0
 11
-6.375666666666667
 21
1.781902906182381
 31
0.0
  0
LINE
  5
198
330
111
100
AcDbEntity
  8
AM_4
100
AcDbLine
 10
-6.375666666666667
 20
-2.781250000000003
 30
0.0
 11
-5.500000000000002
 21
-2.796534818522145
 31
0.0
  0
LINE
  5
199
330
111
100
AcDbEntity
  8
AM_4
100
AcDbLine
 10
-5.500000000000002
 20
2.796534818522145
 30
0.0
 11
-6.375666666666667
 21
2.781250000000003
 31
0.0
  0
LINE
  5
19A
330
111
100
AcDbEntity
  8
AM_4
100
AcDbLine
 10
-6.375666666666667
 20
-2.781250000000003
 30
0.0
 11
-6.375666666666667
 21
-2.135456296775655
 31
0.0
  0
ENDBLK
  5
114
330
111
100
AcDbEntity
  8
0
100
AcDbBlockEnd
  0
BLOCK
  5
19D
330
19B
100
AcDbEntity
  8
0
100
AcDbBlockBegin
  2
6_405015E_Inch_0_in_071309_2
 70
     2
 10
0.0
 20
0.0
 30
0.0
  3
6_405015E_Inch_0_in_071309_2
  1

  0
ATTDEF
  5
19F
330
19B
100
AcDbEntity
  8
AM_6
100
AcDbText
 10
1.437590742770461
 20
4.612
 30
0.0
 40
0.5
  1
405015E -Inch
100
AcDbAttributeDefinition
  3

  2
NN
 70
     8
280
     0
  0
ATTDEF
  5
1A0
330
19B
100
AcDbEntity
  8
AM_6
100
AcDbText
 10
1.437590742770461
 20
4.112
 30
0.0
 40
0.5
  1
Grease Fitting
100
AcDbAttributeDefinition
  3

  2
NT
 70
     8
280
     0
  0
ATTDEF
  5
1A1
330
19B
100
AcDbEntity
  8
AM_6
100
AcDbText
 10
1.437590742770461
 20
3.612
 30
0.0
 40
0.5
  1
405015E-Inch
100
AcDbAttributeDefinition
  3

  2
NB
 70
     8
280
     0
  0
ATTDEF
  5
1A2
330
19B
100
AcDbEntity
  8
AM_6
100
AcDbText
 10
1.437590742770461
 20
3.112
 30
0.0
 40
0.5
  1
$MN.-Inch
100
AcDbAttributeDefinition
  3

  2
NBSYN
 70
     8
280
     0
  0
ATTDEF
  5
1A3
330
19B
100
AcDbEntity
  8
AM_6
100
AcDbText
 10
1.437590742770461
 20
2.612
 30
0.0
 40
0.5
  1
405015E
100
AcDbAttributeDefinition
  3

  2
LINA
 70
     8
280
     0
  0
ATTDEF
  5
1A4
330
19B
100
AcDbEntity
  8
AM_6
100
AcDbText
 10
1.437590742770461
 20
2.112
 30
0.0
 40
0.5
  1
405015E
100
AcDbAttributeDefinition
  3

  2
MN
 70
     8
280
     0
  0
ATTDEF
  5
1A5
330
19B
100
AcDbEntity
  8
AM_6
100
AcDbText
 10
1.437590742770461
 20
1.612
 30
0.0
 40
0.5
  1
1/8 x 27PTF
100
AcDbAttributeDefinition
  3

  2
T
 70
     8
280
     0
  0
ATTDEF
  5
1A6
330
19B
100
AcDbEntity
  8
AM_6
100
AcDbText
 10
1.437590742770461
 20
1.112
 30
0.0
 40
0.5
  1
baldor
100
AcDbAttributeDefinition
  3

  2
COMPANY
 70
     8
280
     0
  0
LINE
  5
1A7
330
19B
100
AcDbEntity
  8
AM_9
100
AcDbLine
 10
-3.976902872472269
 20
3.94
 30
0.0
 11
-3.653097127527731
 21
3.94
 31
0.0
  0
LINE
  5
1A8
330
19B
100
AcDbEntity
  8
AM_9
100
AcDbLine
 10
-3.653097127527731
 20
3.94
 30
0.0
 11
-3.616382373218785
 21
3.976714754308947
 31
0.0
  0
LINE
  5
1A9
330
19B
100
AcDbEntity
  8
AM_9
100
AcDbLine
 10
-4.013617626781215
 20
3.976714754308947
 30
0.0
 11
-3.976902872472269
 21
3.94
 31
0.0
  0
LINE
  5
1AA
330
19B
100
AcDbEntity
  8
AM_9
100
AcDbLine
 10
-4.013617626781215
 20
3.976714754308947
 30
0.0
 11
-3.616382373218785
 21
3.976714754308947
 31
0.0
  0
LINE
  5
1AB
330
19B
100
AcDbEntity
  8
AM_9
100
AcDbLine
 10
-3.616382373218785
 20
3.976714754308947
 30
0.0
 11
-3.609248102776931
 21
4.205
 31
0.0
  0
LINE
  5
1AC
330
19B
100
AcDbEntity
  8
AM_9
100
AcDbLine
 10
-4.02075189722307
 20
4.205
 30
0.0
 11
-4.013617626781215
 21
3.976714754308947
 31
0.0
  0
LINE
  5
1AD
330
19B
100
AcDbEntity
  8
AM_5
100
AcDbLine
 10
-3.646850875147652
 20
4.139870087748463
 30
0.0
 11
-3.653097127527731
 21
3.94
 31
0.0
  0
LINE
  5
1AE
330
19B
100
AcDbEntity
  8
AM_5
100
AcDbLine
 10
-3.609248102776931
 20
4.205
 30
0.0
 11
-3.646850875147652
 21
4.139870087748463
 31
0.0
  0
LINE
  5
1AF
330
19B
100
AcDbEntity
  8
AM_5
100
AcDbLine
 10
-4.018716485751557
 20
4.139870087748463
 30
0.0
 11
-3.611283514248443
 21
4.139870087748463
 31
0.0
  0
LINE
  5
1B0
330
19B
100
AcDbEntity
  8
AM_5
100
AcDbLine
 10
-3.983149124852348
 20
4.139870087748463
 30
0.0
 11
-3.976902872472269
 21
3.94
 31
0.0
  0
LINE
  5
1B1
330
19B
100
AcDbEntity
  8
AM_5
100
AcDbLine
 10
-4.02075189722307
 20
4.205
 30
0.0
 11
-3.983149124852348
 21
4.139870087748463
 31
0.0
  0
LINE
  5
1B2
330
19B
100
AcDbEntity
  8
AM_7
100
AcDbLine
 10
-3.815
 20
4.612
 30
0.0
 11
-3.815
 21
3.908
 31
0.0
  0
LINE
  5
1B3
330
19B
100
AcDbEntity
  8
AM_4
100
AcDbLine
 10
-3.71
 20
4.41
 30
0.0
 11
-3.71
 21
4.44
 31
0.0
  0
LINE
  5
1B4
330
19B
100
AcDbEntity
  8
AM_4
100
AcDbLine
 10
-3.92
 20
4.44
 30
0.0
 11
-3.92
 21
4.41
 31
0.0
  0
LINE
  5
1B5
330
19B
100
AcDbEntity
  8
AM_4
100
AcDbLine
 10
-4.03375
 20
4.305
 30
0.0
 11
-3.59625
 21
4.305
 31
0.0
  0
LINE
  5
1B6
330
19B
100
AcDbEntity
  8
AM_4
100
AcDbLine
 10
-3.562409257229539
 20
4.295932400303386
 30
0.0
 11
-3.59625
 21
4.305
 31
0.0
  0
LINE
  5
1B7
330
19B
100
AcDbEntity
  8
AM_4
100
AcDbLine
 10
-4.03375
 20
4.305
 30
0.0
 11
-4.067590742770461
 21
4.295932400303386
 31
0.0
  0
LINE
  5
1B8
330
19B
100
AcDbEntity
  8
AM_4
100
AcDbLine
 10
-3.59625
 20
4.205
 30
0.0
 11
-3.562409257229539
 21
4.214067599696614
 31
0.0
  0
LINE
  5
1B9
330
19B
100
AcDbEntity
  8
AM_4
100
AcDbLine
 10
-4.067590742770461
 20
4.214067599696614
 30
0.0
 11
-4.03375
 21
4.205
 31
0.0
  0
LINE
  5
1BA
330
19B
100
AcDbEntity
  8
AM_4
100
AcDbLine
 10
-3.92
 20
4.41
 30
0.0
 11
-3.71
 21
4.41
 31
0.0
  0
LINE
  5
1BB
330
19B
100
AcDbEntity
  8
AM_4
100
AcDbLine
 10
-3.92
 20
4.41
 30
0.0
 11
-3.933820090734898
 21
4.377753121618572
 31
0.0
  0
LINE
  5
1BC
330
19B
100
AcDbEntity
  8
AM_4
100
AcDbLine
 10
-3.696179909265103
 20
4.377753121618572
 30
0.0
 11
-3.71
 21
4.41
 31
0.0
  0
LINE
  5
1BD
330
19B
100
AcDbEntity
  8
AM_4
100
AcDbLine
 10
-3.92
 20
4.44
 30
0.0
 11
-3.71
 21
4.44
 31
0.0
  0
LINE
  5
1BE
330
19B
100
AcDbEntity
  8
AM_4
100
AcDbLine
 10
-3.71
 20
4.44
 30
0.0
 11
-3.68
 21
4.5
 31
0.0
  0
LINE
  5
1BF
330
19B
100
AcDbEntity
  8
AM_4
100
AcDbLine
 10
-3.95
 20
4.5
 30
0.0
 11
-3.92
 21
4.44
 31
0.0
  0
LINE
  5
1C0
330
19B
100
AcDbEntity
  8
AM_4
100
AcDbLine
 10
-3.917677901933188
 20
4.58
 30
0.0
 11
-3.712322098066813
 21
4.58
 31
0.0
  0
LINE
  5
1C1
330
19B
100
AcDbEntity
  8
AM_4
100
AcDbLine
 10
-3.95
 20
4.5
 30
0.0
 11
-3.68
 21
4.5
 31
0.0
  0
LINE
  5
1C2
330
19B
100
AcDbEntity
  8
AM_4
100
AcDbLine
 10
-3.917677901933188
 20
4.58
 30
0.0
 11
-3.95
 21
4.5
 31
0.0
  0
LINE
  5
1C3
330
19B
100
AcDbEntity
  8
AM_4
100
AcDbLine
 10
-3.68
 20
4.5
 30
0.0
 11
-3.712322098066813
 21
4.58
 31
0.0
  0
LINE
  5
1C4
330
19B
100
AcDbEntity
  8
AM_4
100
AcDbLine
 10
-3.933820090734898
 20
4.377753121618572
 30
0.0
 11
-3.696179909265103
 21
4.377753121618572
 31
0.0
  0
LINE
  5
1C5
330
19B
100
AcDbEntity
  8
AM_4
100
AcDbLine
 10
-3.933820090734898
 20
4.377753121618572
 30
0.0
 11
-3.987534053283015
 21
4.323318198540882
 31
0.0
  0
LINE
  5
1C6
330
19B
100
AcDbEntity
  8
AM_4
100
AcDbLine
 10
-3.642465946716985
 20
4.323318198540882
 30
0.0
 11
-3.696179909265103
 21
4.377753121618572
 31
0.0
  0
LINE
  5
1C7
330
19B
100
AcDbEntity
  8
AM_4
100
AcDbLine
 10
-3.987534053283015
 20
4.323318198540882
 30
0.0
 11
-3.642465946716985
 21
4.323318198540882
 31
0.0
  0
LINE
  5
1C8
330
19B
100
AcDbEntity
  8
AM_4
100
AcDbLine
 10
-3.987534053283015
 20
4.323318198540882
 30
0.0
 11
-4.02875
 21
4.305
 31
0.0
  0
LINE
  5
1C9
330
19B
100
AcDbEntity
  8
AM_4
100
AcDbLine
 10
-3.60125
 20
4.305
 30
0.0
 11
-3.642465946716985
 21
4.323318198540882
 31
0.0
  0
LWPOLYLINE
  5
1CA
330
19B
100
AcDbEntity
  8
AM_4
100
AcDbPolyline
 90
        3
 70
     0
 43
0.0
 10
-3.941295371385231
 20
4.295932400303386
 10
-3.878431614691437
 20
4.30258547505038
 10
-3.815
 20
4.305
  0
LINE
  5
1CB
330
19B
100
AcDbEntity
  8
AM_4
100
AcDbLine
 10
-3.941295371385231
 20
4.295932400303386
 30
0.0
 11
-3.941295371385231
 21
4.214067599696614
 31
0.0
  0
LWPOLYLINE
  5
1CC
330
19B
100
AcDbEntity
  8
AM_4
100
AcDbPolyline
 90
        3
 70
     0
 43
0.0
 10
-4.004443057077847
 20
4.305
 10
-3.972869214231538
 20
4.302606619214965
 10
-3.941295371385231
 20
4.295932400303386
  0
LWPOLYLINE
  5
1CD
330
19B
100
AcDbEntity
  8
AM_4
100
AcDbPolyline
 90
        3
 70
     0
 43
0.0
 10
-4.067590742770461
 20
4.295932400303386
 10
-4.036158864423564
 20
4.30258547505038
 10
-4.004443057077847
 20
4.305
  0
LINE
  5
1CE
330
19B
100
AcDbEntity
  8
AM_4
100
AcDbLine
 10
-4.067590742770461
 20
4.295932400303386
 30
0.0
 11
-4.067590742770461
 21
4.214067599696614
 31
0.0
  0
LWPOLYLINE
  5
1CF
330
19B
100
AcDbEntity
  8
AM_4
100
AcDbPolyline
 90
        3
 70
     0
 43
0.0
 10
-4.004443057077847
 20
4.205
 10
-4.036016899924154
 20
4.207393380785035
 10
-4.067590742770461
 20
4.214067599696614
  0
LWPOLYLINE
  5
1D0
330
19B
100
AcDbEntity
  8
AM_4
100
AcDbPolyline
 90
        3
 70
     0
 43
0.0
 10
-3.815
 20
4.205
 10
-3.878147685692615
 20
4.207393380785035
 10
-3.941295371385231
 20
4.214067599696614
  0
LWPOLYLINE
  5
1D1
330
19B
100
AcDbEntity
  8
AM_4
100
AcDbPolyline
 90
        3
 70
     0
 43
0.0
 10
-3.941295371385231
 20
4.214067599696614
 10
-3.972727249732128
 20
4.20741452494962
 10
-4.004443057077847
 20
4.205
  0
LWPOLYLINE
  5
1D2
330
19B
100
AcDbEntity
  8
AM_4
100
AcDbPolyline
 90
        3
 70
     0
 43
0.0
 10
-3.815
 20
4.305
 10
-3.718200367888202
 20
4.299517587482156
 10
-3.68870462861477
 20
4.295932400303386
  0
LWPOLYLINE
  5
1D3
330
19B
100
AcDbEntity
  8
AM_4
100
AcDbPolyline
 90
        3
 70
     0
 43
0.0
 10
-3.68870462861477
 20
4.214067599696614
 10
-3.718200367888202
 20
4.210482412517844
 10
-3.815
 20
4.205
  0
LINE
  5
1D4
330
19B
100
AcDbEntity
  8
AM_4
100
AcDbLine
 10
-3.562409257229539
 20
4.295932400303386
 30
0.0
 11
-3.562409257229539
 21
4.214067599696614
 31
0.0
  0
LWPOLYLINE
  5
1D5
330
19B
100
AcDbEntity
  8
AM_4
100
AcDbPolyline
 90
        3
 70
     0
 43
0.0
 10
-3.625556942922154
 20
4.305
 10
-3.593983100075846
 20
4.302606619214965
 10
-3.562409257229539
 20
4.295932400303386
  0
LWPOLYLINE
  5
1D6
330
19B
100
AcDbEntity
  8
AM_4
100
AcDbPolyline
 90
        3
 70
     0
 43
0.0
 10
-3.68870462861477
 20
4.295932400303386
 10
-3.657272750267873
 20
4.30258547505038
 10
-3.625556942922154
 20
4.305
  0
LINE
  5
1D7
330
19B
100
AcDbEntity
  8
AM_4
100
AcDbLine
 10
-3.68870462861477
 20
4.295932400303386
 30
0.0
 11
-3.68870462861477
 21
4.214067599696614
 31
0.0
  0
LWPOLYLINE
  5
1D8
330
19B
100
AcDbEntity
  8
AM_4
100
AcDbPolyline
 90
        3
 70
     0
 43
0.0
 10
-3.625556942922154
 20
4.205
 10
-3.657130785768462
 20
4.207393380785035
 10
-3.68870462861477
 20
4.214067599696614
  0
LWPOLYLINE
  5
1D9
330
19B
100
AcDbEntity
  8
AM_4
100
AcDbPolyline
 90
        3
 70
     0
 43
0.0
 10
-3.562409257229539
 20
4.214067599696614
 10
-3.593841135576436
 20
4.20741452494962
 10
-3.625556942922154
 20
4.205
  0
ENDBLK
  5
19E
330
19B
100
AcDbEntity
  8
0
100
AcDbBlockEnd
  0
BLOCK
  5
1DC
330
1DA
100
AcDbEntity
  8
0
100
AcDbBlockBegin
  2
7_071309H_0_in_071309_2
 70
     2
 10
0.0
 20
0.0
 30
0.0
  3
7_071309H_0_in_071309_2
  1

  0
ATTDEF
  5
1DE
330
1DA
100
AcDbEntity
  8
AM_6
100
AcDbText
 10
5.309150000054052
 20
5.125
 30
0.0
 40
0.5
  1
EF4S-IP -(Contact Seal)-Housing -Inch
100
AcDbAttributeDefinition
  3

  2
NN
 70
     8
280
     0
  0
ATTDEF
  5
1DF
330
1DA
100
AcDbEntity
  8
AM_6
100
AcDbText
 10
5.309150000054052
 20
4.625
 30
0.0
 40
0.5
  1
Imperial/E 4 Bolt Square Flange Bearings
100
AcDbAttributeDefinition
  3

  2
NT
 70
     8
280
     0
  0
ATTDEF
  5
1E0
330
1DA
100
AcDbEntity
  8
AM_6
100
AcDbText
 10
5.309150000054052
 20
4.125
 30
0.0
 40
0.5
  1
071309H
100
AcDbAttributeDefinition
  3

  2
NB
 70
     8
280
     0
  0
ATTDEF
  5
1E1
330
1DA
100
AcDbEntity
  8
AM_6
100
AcDbText
 10
5.309150000054052
 20
3.625
 30
0.0
 40
0.5
  1
$PN.H
100
AcDbAttributeDefinition
  3

  2
NBSYN
 70
     8
280
     0
  0
ATTDEF
  5
1E2
330
1DA
100
AcDbEntity
  8
AM_6
100
AcDbText
 10
5.309150000054052
 20
3.125
 30
0.0
 40
0.5
  1
071309
100
AcDbAttributeDefinition
  3

  2
LINA
 70
     8
280
     0
  0
ATTDEF
  5
1E3
330
1DA
100
AcDbEntity
  8
AM_6
100
AcDbText
 10
5.309150000054052
 20
2.625
 30
0.0
 40
0.5
  1
3-15/16
100
AcDbAttributeDefinition
  3

  2
SS
 70
     8
280
     0
  0
ATTDEF
  5
1E4
330
1DA
100
AcDbEntity
  8
AM_6
100
AcDbText
 10
5.309150000054052
 20
2.125
 30
0.0
 40
0.5
  1
3.9375
100
AcDbAttributeDefinition
  3

  2
SS1
 70
     8
280
     0
  0
ATTDEF
  5
1E5
330
1DA
100
AcDbEntity
  8
AM_6
100
AcDbText
 10
5.309150000054052
 20
1.625
 30
0.0
 40
0.5
  1
7.0866
100
AcDbAttributeDefinition
  3

  2
BORE
 70
     8
280
     0
  0
ATTDEF
  5
1E6
330
1DA
100
AcDbEntity
  8
AM_6
100
AcDbText
 10
5.309150000054052
 20
1.125
 30
0.0
 40
0.5
  1
Non-Expansion
100
AcDbAttributeDefinition
  3

  2
TYPE
 70
     8
280
     0
  0
ATTDEF
  5
1E7
330
1DA
100
AcDbEntity
  8
AM_6
100
AcDbText
 10
5.309150000054052
 20
0.625
 30
0.0
 40
0.5
  1
EF4B-IP-315R
100
AcDbAttributeDefinition
  3

  2
DESCRIPTION
 70
     8
280
     0
  0
ATTDEF
  5
1E8
330
1DA
100
AcDbEntity
  8
AM_6
100
AcDbText
 10
5.309150000054052
 20
0.125
 30
0.0
 40
0.5
  1
Non-Expansion Type
100
AcDbAttributeDefinition
  3

  2
EF
 70
     8
280
     0
  0
ATTDEF
  5
1E9
330
1DA
100
AcDbEntity
  8
AM_6
100
AcDbText
 10
5.309150000054052
 20
-0.375
 30
0.0
 40
0.5
  1
1
100
AcDbAttributeDefinition
  3

  2
EF1
 70
     8
280
     0
  0
ATTDEF
  5
1EA
330
1DA
100
AcDbEntity
  8
AM_6
100
AcDbText
 10
5.309150000054052
 20
-0.875
 30
0.0
 40
0.5
  1
Contact Seal
100
AcDbAttributeDefinition
  3

  2
ST
 70
     8
280
     0
  0
ATTDEF
  5
1EB
330
1DA
100
AcDbEntity
  8
AM_6
100
AcDbText
 10
5.309150000054052
 20
-1.375
 30
0.0
 40
0.5
  1
1
100
AcDbAttributeDefinition
  3

  2
ST1
 70
     8
280
     0
  0
ATTDEF
  5
1EC
330
1DA
100
AcDbEntity
  8
AM_6
100
AcDbText
 10
5.309150000054052
 20
-1.875
 30
0.0
 40
0.5
  1
4.70
100
AcDbAttributeDefinition
  3

  2
A
 70
     8
280
     0
  0
ATTDEF
  5
1ED
330
1DA
100
AcDbEntity
  8
AM_6
100
AcDbText
 10
5.309150000054052
 20
-2.375
 30
0.0
 40
0.5
  1
4.700000
100
AcDbAttributeDefinition
  3

  2
A1
 70
     8
280
     0
  0
ATTDEF
  5
1EE
330
1DA
100
AcDbEntity
  8
AM_6
100
AcDbText
 10
5.309150000054052
 20
-2.875
 30
0.0
 40
0.5
  1
10.25
100
AcDbAttributeDefinition
  3

  2
B
 70
     8
280
     0
  0
ATTDEF
  5
1EF
330
1DA
100
AcDbEntity
  8
AM_6
100
AcDbText
 10
5.309150000054052
 20
-3.375
 30
0.0
 40
0.5
  1
10.250000
100
AcDbAttributeDefinition
  3

  2
B1
 70
     8
280
     0
  0
ATTDEF
  5
1F0
330
1DA
100
AcDbEntity
  8
AM_6
100
AcDbText
 10
5.309150000054052
 20
-3.875
 30
0.0
 40
0.5
  1
6.73
100
AcDbAttributeDefinition
  3

  2
C
 70
     8
280
     0
  0
ATTDEF
  5
1F1
330
1DA
100
AcDbEntity
  8
AM_6
100
AcDbText
 10
5.309150000054052
 20
-4.375
 30
0.0
 40
0.5
  1
6.730000
100
AcDbAttributeDefinition
  3

  2
C1
 70
     8
280
     0
  0
ATTDEF
  5
1F2
330
1DA
100
AcDbEntity
  8
AM_6
100
AcDbText
 10
5.309150000054052
 20
-4.875
 30
0.0
 40
0.5
  1
7.75
100
AcDbAttributeDefinition
  3

  2
D
 70
     8
280
     0
  0
ATTDEF
  5
1F3
330
1DA
100
AcDbEntity
  8
AM_6
100
AcDbText
 10
5.309150000054052
 20
-5.375
 30
0.0
 40
0.5
  1
7.750000
100
AcDbAttributeDefinition
  3

  2
D1
 70
     8
280
     0
  0
ATTDEF
  5
1F4
330
1DA
100
AcDbEntity
  8
AM_6
100
AcDbText
 10
5.309150000054052
 20
-5.875
 30
0.0
 40
0.5
  1
7/8
100
AcDbAttributeDefinition
  3

  2
F
 70
     8
280
     0
  0
ATTDEF
  5
1F5
330
1DA
100
AcDbEntity
  8
AM_6
100
AcDbText
 10
5.309150000054052
 20
-6.375
 30
0.0
 40
0.5
  1
0.875
100
AcDbAttributeDefinition
  3

  2
F1
 70
     8
280
     0
  0
ATTDEF
  5
1F6
330
1DA
100
AcDbEntity
  8
AM_6
100
AcDbText
 10
5.309150000054052
 20
-6.875
 30
0.0
 40
0.5
  1
1.22
100
AcDbAttributeDefinition
  3

  2
G
 70
     8
280
     0
  0
ATTDEF
  5
1F7
330
1DA
100
AcDbEntity
  8
AM_6
100
AcDbText
 10
5.309150000054052
 20
-7.375
 30
0.0
 40
0.5
  1
1.220000
100
AcDbAttributeDefinition
  3

  2
G1
 70
     8
280
     0
  0
ATTDEF
  5
1F8
330
1DA
100
AcDbEntity
  8
AM_6
100
AcDbText
 10
5.309150000054052
 20
-7.875
 30
0.0
 40
0.5
  1
2.12
100
AcDbAttributeDefinition
  3

  2
H
 70
     8
280
     0
  0
ATTDEF
  5
1F9
330
1DA
100
AcDbEntity
  8
AM_6
100
AcDbText
 10
5.309150000054052
 20
-8.375
 30
0.0
 40
0.5
  1
2.120000
100
AcDbAttributeDefinition
  3

  2
H1
 70
     8
280
     0
  0
ATTDEF
  5
1FA
330
1DA
100
AcDbEntity
  8
AM_6
100
AcDbText
 10
5.309150000054052
 20
-8.875
 30
0.0
 40
0.5
  1
8.27
100
AcDbAttributeDefinition
  3

  2
J
 70
     8
280
     0
  0
ATTDEF
  5
1FB
330
1DA
100
AcDbEntity
  8
AM_6
100
AcDbText
 10
5.309150000054052
 20
-9.375
 30
0.0
 40
0.5
  1
8.270000
100
AcDbAttributeDefinition
  3

  2
J1
 70
     8
280
     0
  0
ATTDEF
  5
1FC
330
1DA
100
AcDbEntity
  8
AM_6
100
AcDbText
 10
5.309150000054052
 20
-9.875
 30
0.0
 40
0.5
  1
10-3/4
100
AcDbAttributeDefinition
  3

  2
K
 70
     8
280
     0
  0
ATTDEF
  5
1FD
330
1DA
100
AcDbEntity
  8
AM_6
100
AcDbText
 10
5.309150000054052
 20
-10.375
 30
0.0
 40
0.5
  1
10.750
100
AcDbAttributeDefinition
  3

  2
K1
 70
     8
280
     0
  0
ATTDEF
  5
1FE
330
1DA
100
AcDbEntity
  8
AM_6
100
AcDbText
 10
5.309150000054052
 20
-10.875
 30
0.0
 40
0.5
  1
5.56
100
AcDbAttributeDefinition
  3

  2
L
 70
     8
280
     0
  0
ATTDEF
  5
1FF
330
1DA
100
AcDbEntity
  8
AM_6
100
AcDbText
 10
5.309150000054052
 20
-11.375
 30
0.0
 40
0.5
  1
5.56000
100
AcDbAttributeDefinition
  3

  2
L1
 70
     8
280
     0
  0
ATTDEF
  5
200
330
1DA
100
AcDbEntity
  8
AM_6
100
AcDbText
 10
5.309150000054052
 20
-11.875
 30
0.0
 40
0.5
  1
4.58
100
AcDbAttributeDefinition
  3

  2
N
 70
     8
280
     0
  0
ATTDEF
  5
201
330
1DA
100
AcDbEntity
  8
AM_6
100
AcDbText
 10
5.309150000054052
 20
-12.375
 30
0.0
 40
0.5
  1
4.580000
100
AcDbAttributeDefinition
  3

  2
N1
 70
     8
280
     0
  0
ATTDEF
  5
202
330
1DA
100
AcDbEntity
  8
AM_6
100
AcDbText
 10
5.309150000054052
 20
-12.875
 30
0.0
 40
0.5
  1
2.02
100
AcDbAttributeDefinition
  3

  2
P
 70
     8
280
     0
  0
ATTDEF
  5
203
330
1DA
100
AcDbEntity
  8
AM_6
100
AcDbText
 10
5.309150000054052
 20
-13.375
 30
0.0
 40
0.5
  1
2.020000
100
AcDbAttributeDefinition
  3

  2
P1
 70
     8
280
     0
  0
ATTDEF
  5
204
330
1DA
100
AcDbEntity
  8
AM_6
100
AcDbText
 10
5.309150000054052
 20
-13.875
 30
0.0
 40
0.5
  1
0.31
100
AcDbAttributeDefinition
  3

  2
X
 70
     8
280
     0
  0
ATTDEF
  5
205
330
1DA
100
AcDbEntity
  8
AM_6
100
AcDbText
 10
5.309150000054052
 20
-14.375
 30
0.0
 40
0.5
  1
0.3100
100
AcDbAttributeDefinition
  3

  2
X1
 70
     8
280
     0
  0
ATTDEF
  5
206
330
1DA
100
AcDbEntity
  8
AM_6
100
AcDbText
 10
5.309150000054052
 20
-14.875
 30
0.0
 40
0.5
  1
0.310
100
AcDbAttributeDefinition
  3

  2
Y
 70
     8
280
     0
  0
ATTDEF
  5
207
330
1DA
100
AcDbEntity
  8
AM_6
100
AcDbText
 10
5.309150000054052
 20
-15.375
 30
0.0
 40
0.5
  1
4.50
100
AcDbAttributeDefinition
  3

  2
Z
 70
     8
280
     0
  0
ATTDEF
  5
208
330
1DA
100
AcDbEntity
  8
AM_6
100
AcDbText
 10
5.309150000054052
 20
-15.875
 30
0.0
 40
0.5
  1
4.500000
100
AcDbAttributeDefinition
  3

  2
Z1
 70
     8
280
     0
  0
ATTDEF
  5
209
330
1DA
100
AcDbEntity
  8
AM_6
100
AcDbText
 10
5.309150000054052
 20
-16.375
 30
0.0
 40
0.5
  1
071309
100
AcDbAttributeDefinition
  3

  2
PN1
 70
     8
280
     0
  0
ATTDEF
  5
20A
330
1DA
100
AcDbEntity
  8
AM_6
100
AcDbText
 10
5.309150000054052
 20
-16.875
 30
0.0
 40
0.5
  1
071334
100
AcDbAttributeDefinition
  3

  2
PN2
 70
     8
280
     0
  0
ATTDEF
  5
20B
330
1DA
100
AcDbEntity
  8
AM_6
100
AcDbText
 10
5.309150000054052
 20
-17.375
 30
0.0
 40
0.5
  1
baldor
100
AcDbAttributeDefinition
  3

  2
COMPANY
 70
     8
280
     0
  0
LINE
  5
20C
330
1DA
100
AcDbEntity
  8
AM_9
100
AcDbLine
 10
-1.211428571428571
 20
5.125
 30
0.0
 11
-1.211428571428571
 21
2.527272727272727
 31
0.0
  0
LINE
  5
20D
330
1DA
100
AcDbEntity
  8
AM_9
100
AcDbLine
 10
-1.211428571428571
 20
-2.527272727272727
 30
0.0
 11
-1.211428571428571
 21
-5.125
 31
0.0
  0
LINE
  5
20E
330
1DA
100
AcDbEntity
  8
AM_9
100
AcDbLine
 10
-1.908
 20
5.008241547896613
 30
0.0
 11
-2.12
 21
5.008241547896613
 31
0.0
  0
LINE
  5
20F
330
1DA
100
AcDbEntity
  8
AM_9
100
AcDbLine
 10
-1.908
 20
-5.008241547896618
 30
0.0
 11
-2.12
 21
-5.008241547896618
 31
0.0
  0
LINE
  5
210
330
1DA
100
AcDbEntity
  8
AM_9
100
AcDbLine
 10
-1.908
 20
-3.843624739039852
 30
0.0
 11
-1.908
 21
-5.125
 31
0.0
  0
LINE
  5
211
330
1DA
100
AcDbEntity
  8
AM_9
100
AcDbLine
 10
-1.211428571428572
 20
3.5433
 30
0.0
 11
-5.500000000000002
 21
3.5433
 31
0.0
  0
LINE
  5
212
330
1DA
100
AcDbEntity
  8
AM_9
100
AcDbLine
 10
-5.500000000000002
 20
-3.5433
 30
0.0
 11
-1.211428571428572
 21
-3.5433
 31
0.0
  0
LINE
  5
213
330
1DA
100
AcDbEntity
  8
AM_9
100
AcDbLine
 10
-1.908
 20
5.125
 30
0.0
 11
-1.908
 21
3.843624739039797
 31
0.0
  0
LINE
  5
214
330
1DA
100
AcDbEntity
  8
AM_9
100
AcDbLine
 10
-2.12
 20
3.802495714951407
 30
0.0
 11
-1.908
 21
3.802495714951407
 31
0.0
  0
LINE
  5
215
330
1DA
100
AcDbEntity
  8
AM_9
100
AcDbLine
 10
-1.908
 20
-3.802495714951409
 30
0.0
 11
-2.12
 21
-3.802495714951409
 31
0.0
  0
LINE
  5
216
330
1DA
100
AcDbEntity
  8
AM_9
100
AcDbLine
 10
-1.908
 20
4.135
 30
0.0
 11
-2.12
 21
4.135
 31
0.0
  0
LINE
  5
217
330
1DA
100
AcDbEntity
  8
AM_9
100
AcDbLine
 10
-2.120000000000001
 20
-4.135
 30
0.0
 11
-1.908
 21
-4.135
 31
0.0
  0
LINE
  5
218
330
1DA
100
AcDbEntity
  8
AM_9
100
AcDbLine
 10
-2.12
 20
3.4375
 30
0.0
 11
0.0000000000000002
 21
3.4375
 31
0.0
  0
LINE
  5
219
330
1DA
100
AcDbEntity
  8
AM_9
100
AcDbLine
 10
0.0000000000000002
 20
4.3125
 30
0.0
 11
-2.12
 21
4.3125
 31
0.0
  0
LINE
  5
21A
330
1DA
100
AcDbEntity
  8
AM_9
100
AcDbLine
 10
-2.12
 20
-4.3125
 30
0.0
 11
0.0000000000000002
 21
-4.3125
 31
0.0
  0
LINE
  5
21B
330
1DA
100
AcDbEntity
  8
AM_9
100
AcDbLine
 10
0.0000000000000002
 20
-3.4375
 30
0.0
 11
-2.12
 21
-3.4375
 31
0.0
  0
LINE
  5
21C
330
1DA
100
AcDbEntity
  8
AM_7
100
AcDbLine
 10
0.3091500000540516
 20
0.0
 30
0.0
 11
-6.95625
 21
0.0
 31
0.0
  0
LINE
  5
21D
330
1DA
100
AcDbEntity
  8
AM_7
100
AcDbLine
 10
0.1272000000000003
 20
3.875
 30
0.0
 11
-2.6712
 21
3.875
 31
0.0
  0
LINE
  5
21E
330
1DA
100
AcDbEntity
  8
AM_7
100
AcDbLine
 10
0.1272000000000003
 20
-3.875
 30
0.0
 11
-2.6712
 21
-3.875
 31
0.0
  0
LINE
  5
21F
330
1DA
100
AcDbEntity
  8
AM_4
100
AcDbLine
 10
-3.415
 20
4.205
 30
0.0
 11
-4.214999999906401
 21
4.205
 31
0.0
  0
ARC
  5
220
330
1DA
100
AcDbEntity
  8
AM_4
100
AcDbCircle
 10
-4.215000000000003
 20
4.105000000000002
 30
0.0
 40
0.0999999999999979
100
AcDbArc
 50
90.0
 51
162.4822918644611
  0
ARC
  5
221
330
1DA
100
AcDbEntity
  8
AM_4
100
AcDbCircle
 10
-3.415000000000001
 20
4.104999999999999
 30
0.0
 40
0.1000000000000014
100
AcDbArc
 50
17.55897263797672
 51
90.0
  0
LINE
  5
222
330
1DA
100
AcDbEntity
  8
AM_4
100
AcDbLine
 10
-5.500000000000002
 20
-4.013
 30
0.0
 11
-5.500000000000002
 21
4.013
 31
0.0
  0
ARC
  5
223
330
1DA
100
AcDbEntity
  8
AM_4
100
AcDbCircle
 10
-5.378000000000003
 20
4.013
 30
0.0
 40
0.1219999999999999
100
AcDbArc
 50
90.0
 51
179.9999991462263
  0
ARC
  5
224
330
1DA
100
AcDbEntity
  8
AM_4
100
AcDbCircle
 10
-5.378000000000003
 20
-4.013
 30
0.0
 40
0.121999999999999
100
AcDbArc
 50
179.9999991462263
 51
270.0
  0
LINE
  5
225
330
1DA
100
AcDbEntity
  8
AM_4
100
AcDbLine
 10
-5.378000000000003
 20
-4.135
 30
0.0
 11
-5.378000000000003
 21
4.135
 31
0.0
  0
LWPOLYLINE
  5
226
330
1DA
100
AcDbEntity
  8
AM_4
100
AcDbPolyline
 90
       10
 70
     0
 43
0.0
 10
-3.762084973778581
 20
4.105000000000001
 10
-3.681612179478773
 20
4.106827731326035
 10
-3.602650116739138
 20
4.110164339311698
 10
-3.531579127237803
 20
4.11448699354743
 10
-3.466678421664873
 20
4.119540579022628
 10
-3.413876833689591
 20
4.124442932049986
 10
-3.37093501259318
 20
4.128961544796264
 10
-3.341075809472374
 20
4.132388945681695
 10
-3.323642709376389
 20
4.134499649231815
 10
-3.319606079858965
 20
4.134999999999917
  0
LINE
  5
227
330
1DA
100
AcDbEntity
  8
AM_4
100
AcDbLine
 10
-3.762084973778581
 20
4.105000000000001
 30
0.0
 11
-3.867915026221419
 21
4.105000000000001
 31
0.0
  0
LINE
  5
228
330
1DA
100
AcDbEntity
  8
AM_4
100
AcDbLine
 10
-2.12
 20
4.135
 30
0.0
 11
-3.320827222249728
 21
4.135
 31
0.0
  0
LINE
  5
229
330
1DA
100
AcDbEntity
  8
AM_4
100
AcDbLine
 10
-4.309172777750258
 20
4.135
 30
0.0
 11
-5.378000000000003
 21
4.135
 31
0.0
  0
LINE
  5
22A
330
1DA
100
AcDbEntity
  8
AM_4
100
AcDbLine
 10
-5.378000000000003
 20
-4.135
 30
0.0
 11
-2.120000000000001
 21
-4.135
 31
0.0
  0
LWPOLYLINE
  5
22B
330
1DA
100
AcDbEntity
  8
AM_4
100
AcDbPolyline
 90
       11
 70
     0
 43
0.0
 10
-4.310393920141036
 20
4.134999999999917
 10
-4.310025280605055
 20
4.134954124265535
 10
-4.299537921054445
 20
4.133664312104495
 10
-4.275369242494998
 20
4.130803782488206
 10
-4.236660021616498
 20
4.126543946159976
 10
-4.187424577606311
 20
4.121689660631968
 10
-4.125583493661482
 20
4.116472635309727
 10
-4.057900975797537
 20
4.111868429772374
 10
-3.981268896926038
 20
4.108030705875523
 10
-3.925749644767033
 20
4.106153569657117
 10
-3.867915026221419
 20
4.105000000000001
  0
LINE
  5
22C
330
1DA
100
AcDbEntity
  8
AM_4
100
AcDbLine
 10
-2.12
 20
-1.624577279718075
 30
0.0
 11
-1.908
 21
-1.624577279718075
 31
0.0
  0
LINE
  5
22D
330
1DA
100
AcDbEntity
  8
AM_4
100
AcDbLine
 10
-2.12
 20
1.624577279718075
 30
0.0
 11
-2.12
 21
5.125
 31
0.0
  0
LINE
  5
22E
330
1DA
100
AcDbEntity
  8
AM_4
100
AcDbLine
 10
-1.908
 20
1.624577279718075
 30
0.0
 11
-2.12
 21
1.624577279718075
 31
0.0
  0
LINE
  5
22F
330
1DA
100
AcDbEntity
  8
AM_4
100
AcDbLine
 10
-1.908
 20
-3.346560787676375
 30
0.0
 11
-2.12
 21
-3.346560787676375
 31
0.0
  0
LINE
  5
230
330
1DA
100
AcDbEntity
  8
AM_4
100
AcDbLine
 10
0.0000000000000003
 20
2.527272727272727
 30
0.0
 11
0.0000000000000002
 21
5.125
 31
0.0
  0
LINE
  5
231
330
1DA
100
AcDbEntity
  8
AM_4
100
AcDbLine
 10
-2.12
 20
5.125
 30
0.0
 11
0.0000000000000002
 21
5.125
 31
0.0
  0
LINE
  5
232
330
1DA
100
AcDbEntity
  8
AM_4
100
AcDbLine
 10
0.0000000000000002
 20
-5.125
 30
0.0
 11
0.0000000000000003
 21
-2.527272727272727
 31
0.0
  0
LINE
  5
233
330
1DA
100
AcDbEntity
  8
AM_4
100
AcDbLine
 10
-2.12
 20
-5.125
 30
0.0
 11
-2.12
 21
-1.624577279718075
 31
0.0
  0
LINE
  5
234
330
1DA
100
AcDbEntity
  8
AM_4
100
AcDbLine
 10
-2.12
 20
-5.125
 30
0.0
 11
0.0000000000000002
 21
-5.125
 31
0.0
  0
LINE
  5
235
330
1DA
100
AcDbEntity
  8
AM_4
100
AcDbLine
 10
-1.211428571428571
 20
2.527272727272727
 30
0.0
 11
-1.211428571428571
 21
-2.527272727272727
 31
0.0
  0
LINE
  5
236
330
1DA
100
AcDbEntity
  8
AM_4
100
AcDbLine
 10
0.0000000000000003
 20
2.527272727272727
 30
0.0
 11
-1.211428571428571
 21
2.527272727272727
 31
0.0
  0
LINE
  5
237
330
1DA
100
AcDbEntity
  8
AM_4
100
AcDbLine
 10
-2.12
 20
3.875
 30
0.0
 11
0.0000000000000003
 21
3.875
 31
0.0
  0
LINE
  5
238
330
1DA
100
AcDbEntity
  8
AM_4
100
AcDbLine
 10
-1.908
 20
-3.843624739039852
 30
0.0
 11
-1.908
 21
3.843624739039796
 31
0.0
  0
LINE
  5
239
330
1DA
100
AcDbEntity
  8
AM_4
100
AcDbLine
 10
-2.12
 20
-3.843624739039852
 30
0.0
 11
-1.908
 21
-3.843624739039852
 31
0.0
  0
LINE
  5
23A
330
1DA
100
AcDbEntity
  8
AM_4
100
AcDbLine
 10
-2.12
 20
-3.875
 30
0.0
 11
0.0000000000000003
 21
-3.875
 31
0.0
  0
LINE
  5
23B
330
1DA
100
AcDbEntity
  8
AM_4
100
AcDbLine
 10
-1.211428571428571
 20
-2.527272727272727
 30
0.0
 11
0.0000000000000003
 21
-2.527272727272727
 31
0.0
  0
LINE
  5
23C
330
1DA
100
AcDbEntity
  8
AM_4
100
AcDbLine
 10
-1.908
 20
3.843624739039796
 30
0.0
 11
-2.12
 21
3.843624739039796
 31
0.0
  0
LINE
  5
23D
330
1DA
100
AcDbEntity
  8
AM_4
100
AcDbLine
 10
-1.908
 20
3.346560787676381
 30
0.0
 11
-2.12
 21
3.346560787676381
 31
0.0
  0
ENDBLK
  5
1DD
330
1DA
100
AcDbEntity
  8
0
100
AcDbBlockEnd
  0
ENDSEC
  0
SECTION
  2
ENTITIES
  0
INSERT
  5
6F
330
1F
100
AcDbEntity
  8
0
100
AcDbBlockReference
  2
1_071309_2
 10
0.0
 20
0.0
 30
0.0
  0
POINT
  5
23F
330
1F
100
AcDbEntity
  8
ConnectionPoints
100
AcDbPoint
 10
-6.445666666666668
 20
2.484375
 30
0.0000000000000004
  0
POINT
  5
240
330
1F
100
AcDbEntity
  8
ConnectionPoints
100
AcDbPoint
 10
-6.375666666666667
 20
0.0
 30
0.0000000000000004
  0
POINT
  5
241
330
1F
100
AcDbEntity
  8
ConnectionPoints
100
AcDbPoint
 10
-6.720000000000001
 20
0.0
 30
0.0000000000000004
  0
POINT
  5
242
330
1F
100
AcDbEntity
  8
ConnectionPoints
100
AcDbPoint
 10
-6.574666666666667
 20
0.0
 30
0.0000000000000004
  0
POINT
  5
243
330
1F
100
AcDbEntity
  8
ConnectionPoints
100
AcDbPoint
 10
-6.375666666666667
 20
2.484375
 30
0.0000000000000004
  0
POINT
  5
244
330
1F
100
AcDbEntity
  8
ConnectionPoints
100
AcDbPoint
 10
-6.375666666666667
 20
-2.484375
 30
0.0000000000000004
  0
POINT
  5
245
330
1F
100
AcDbEntity
  8
ConnectionPoints
100
AcDbPoint
 10
-6.375666666666667
 20
0.0
 30
0.0000000000000004
  0
POINT
  5
246
330
1F
100
AcDbEntity
  8
ConnectionPoints
100
AcDbPoint
 10
-3.815
 20
4.205
 30
0.0000000000000002
  0
POINT
  5
247
330
1F
100
AcDbEntity
  8
ConnectionPoints
100
AcDbPoint
 10
-3.815
 20
4.205
 30
0.0000000000000002
  0
POINT
  5
248
330
1F
100
AcDbEntity
  8
ConnectionPoints
100
AcDbPoint
 10
-6.410000000000001
 20
0.0
 30
0.0000000000000004
  0
POINT
  5
249
330
1F
100
AcDbEntity
  8
ConnectionPoints
100
AcDbPoint
 10
-6.720000000000001
 20
0.0
 30
0.0000000000000004
  0
ENDSEC
  0
SECTION
  2
OBJECTS
  0
DICTIONARY
  5
C
330
0
100
AcDbDictionary
281
     1
  3
ACAD_DETAILVIEWSTYLE
350
251
  3
ACAD_GROUP
350
D
  3
ACAD_LAYOUT
350
1A
  3
ACAD_MATERIAL
350
43
  3
ACAD_MLEADERSTYLE
350
6B
  3
ACAD_MLINESTYLE
350
17
  3
ACAD_PLOTSETTINGS
350
19
  3
ACAD_PLOTSTYLENAME
350
E
  3
ACAD_SCALELIST
350
47
  3
ACAD_SECTIONVIEWSTYLE
350
252
  3
ACAD_TABLESTYLE
350
69
  3
ACAD_VISUALSTYLE
350
2A
  3
ACDB_RECOMPOSE_DATA
350
24E
  3
AcDbVariableDictionary
350
24A
  0
SUN
  5
6D
330
29
100
AcDbSun
 90
        1
290
     0
 63
     7
421
 16777215
 40
1.0
291
     1
 91
  2455826
 92
 54000000
292
     0
 70
     2
 71
   256
280
     1
  0
DICTIONARY
  5
251
102
{ACAD_REACTORS
330
C
102
}
330
C
100
AcDbDictionary
281
     1
  0
DICTIONARY
  5
D
102
{ACAD_REACTORS
330
C
102
}
330
C
100
AcDbDictionary
281
     1
  0
DICTIONARY
  5
1A
102
{ACAD_REACTORS
330
C
102
}
330
C
100
AcDbDictionary
281
     1
  3
Layout1
350
1E
  3
Layout2
350
26
  3
Model
350
22
  0
DICTIONARY
  5
43
102
{ACAD_REACTORS
330
C
102
}
330
C
100
AcDbDictionary
281
     1
  3
ByBlock
350
45
  3
ByLayer
350
44
  3
Global
350
46
  0
DICTIONARY
  5
6B
102
{ACAD_REACTORS
330
C
102
}
330
C
100
AcDbDictionary
281
     1
  3
Standard
350
6C
  0
DICTIONARY
  5
17
102
{ACAD_REACTORS
330
C
102
}
330
C
100
AcDbDictionary
281
     1
  3
Standard
350
18
  0
DICTIONARY
  5
19
102
{ACAD_REACTORS
330
C
102
}
330
C
100
AcDbDictionary
281
     1
  0
ACDBDICTIONARYWDFLT
  5
E
102
{ACAD_REACTORS
330
C
102
}
330
C
100
AcDbDictionary
281
     1
  3
Normal
350
F
100
AcDbDictionaryWithDefault
340
F
  0
DICTIONARY
  5
47
102
{ACAD_REACTORS
330
C
102
}
330
C
100
AcDbDictionary
281
     1
  3
A0
350
48
  3
A1
350
49
  3
A2
350
4A
  3
A3
350
4B
  3
A4
350
4C
  3
A5
350
4D
  3
A6
350
4E
  3
A7
350
4F
  3
A8
350
50
  3
A9
350
51
  3
B0
350
52
  3
B1
350
53
  3
B2
350
54
  3
B3
350
55
  3
B4
350
56
  3
B5
350
57
  3
B6
350
58
  3
B7
350
59
  3
B8
350
5A
  3
B9
350
5B
  3
C0
350
5C
  3
C1
350
5D
  3
C2
350
5E
  3
C3
350
5F
  3
C4
350
60
  3
C5
350
61
  3
C6
350
62
  3
C7
350
63
  3
C8
350
64
  3
C9
350
65
  3
D0
350
66
  3
D1
350
67
  3
D2
350
68
  0
DICTIONARY
  5
252
102
{ACAD_REACTORS
330
C
102
}
330
C
100
AcDbDictionary
281
     1
  0
DICTIONARY
  5
69
102
{ACAD_REACTORS
330
C
102
}
330
C
100
AcDbDictionary
281
     1
  3
Standard
350
6A
  0
DICTIONARY
  5
2A
102
{ACAD_REACTORS
330
C
102
}
330
C
100
AcDbDictionary
281
     1
  3
2dWireframe
350
2F
  3
Basic
350
32
  3
Brighten
350
36
  3
ColorChange
350
3A
  3
Conceptual
350
34
  3
Dim
350
35
  3
EdgeColorOff
350
3D
  3
Facepattern
350
39
  3
Flat
350
2B
  3
FlatWithEdges
350
2C
  3
Gouraud
350
2D
  3
GouraudWithEdges
350
2E
  3
Hidden
350
31
  3
JitterOff
350
3B
  3
Linepattern
350
38
  3
OverhangOff
350
3C
  3
Realistic
350
33
  3
Shaded
350
42
  3
Shaded with edges
350
41
  3
Shades of Gray
350
3E
  3
Sketchy
350
3F
  3
Thicken
350
37
  3
Wireframe
350
30
  3
X-Ray
350
40
  0
XRECORD
  5
24E
102
{ACAD_REACTORS
330
C
102
}
330
C
100
AcDbXrecord
280
     1
 90
        1
330
6A
  0
DICTIONARY
  5
24A
102
{ACAD_REACTORS
330
C
102
}
330
C
100
AcDbDictionary
281
     1
  3
CANNOSCALE
350
24B
  3
CMLEADERSTYLE
350
250
  3
CTABLESTYLE
350
24F
  0
LAYOUT
  5
1E
102
{ACAD_REACTORS
330
1A
102
}
330
1A
100
AcDbPlotSettings
  1

  2
none_device
  4

  6

 40
0.0
 41
0.0
 42
0.0
 43
0.0
 44
0.0
 45
0.0
 46
0.0
 47
0.0
 48
0.0
 49
0.0
140
0.0
141
0.0
142
1.0
143
1.0
 70
   688
 72
     0
 73
     0
 74
     5
  7

 75
    16
 76
     0
 77
     2
 78
   300
147
1.0
148
0.0
149
0.0
100
AcDbLayout
  1
Layout1
 70
     1
 71
     1
 10
0.0
 20
0.0
 11
12.0
 21
9.0
 12
0.0
 22
0.0
 32
0.0
 14
1.000000000000000E+20
 24
1.000000000000000E+20
 34
1.000000000000000E+20
 15
-1.000000000000000E+20
 25
-1.000000000000000E+20
 35
-1.000000000000000E+20
146
0.0
 13
0.0
 23
0.0
 33
0.0
 16
1.0
 26
0.0
 36
0.0
 17
0.0
 27
1.0
 37
0.0
 76
     0
330
1B
  0
LAYOUT
  5
26
102
{ACAD_REACTORS
330
1A
102
}
330
1A
100
AcDbPlotSettings
  1

  2
none_device
  4

  6

 40
0.0
 41
0.0
 42
0.0
 43
0.0
 44
0.0
 45
0.0
 46
0.0
 47
0.0
 48
0.0
 49
0.0
140
0.0
141
0.0
142
1.0
143
1.0
 70
   688
 72
     0
 73
     0
 74
     5
  7

 75
    16
 76
     0
 77
     2
 78
   300
147
1.0
148
0.0
149
0.0
100
AcDbLayout
  1
Layout2
 70
     1
 71
     2
 10
0.0
 20
0.0
 11
0.0
 21
0.0
 12
0.0
 22
0.0
 32
0.0
 14
0.0
 24
0.0
 34
0.0
 15
0.0
 25
0.0
 35
0.0
146
0.0
 13
0.0
 23
0.0
 33
0.0
 16
1.0
 26
0.0
 36
0.0
 17
0.0
 27
1.0
 37
0.0
 76
     0
330
23
  0
LAYOUT
  5
22
102
{ACAD_REACTORS
330
1A
102
}
330
1A
100
AcDbPlotSettings
  1

  2
none_device
  4
Letter_(8.50_x_11.00_Inches)
  6

 40
6.35
 41
6.35
 42
6.35000508
 43
6.35000508
 44
215.9
 45
279.4
 46
0.0
 47
0.0
 48
0.0
 49
0.0
140
0.0
141
0.0
142
1.0
143
1.0
 70
  1712
 72
     0
 73
     0
 74
     0
  7

 75
     0
 76
     0
 77
     2
 78
   300
147
1.0
148
0.0
149
0.0
100
AcDbLayout
  1
Model
 70
     1
 71
     0
 10
0.0
 20
0.0
 11
12.0
 21
9.0
 12
0.0
 22
0.0
 32
0.0
 14
1.000000000000000E+20
 24
1.000000000000000E+20
 34
1.000000000000000E+20
 15
-1.000000000000000E+20
 25
-1.000000000000000E+20
 35
-1.000000000000000E+20
146
0.0
 13
0.0
 23
0.0
 33
0.0
 16
1.0
 26
0.0
 36
0.0
 17
0.0
 27
1.0
 37
0.0
 76
     0
330
1F
331
29
  0
MATERIAL
  5
45
102
{ACAD_REACTORS
330
43
102
}
330
43
100
AcDbMaterial
  1
ByBlock
 72
     1
 94
      127
  0
MATERIAL
  5
44
102
{ACAD_REACTORS
330
43
102
}
330
43
100
AcDbMaterial
  1
ByLayer
 72
     1
 94
      127
  0
MATERIAL
  5
46
102
{ACAD_REACTORS
330
43
102
}
330
43
100
AcDbMaterial
  1
Global
 72
     1
 94
      127
  0
MLEADERSTYLE
  5
6C
102
{ACAD_REACTORS
330
6B
102
}
330
6B
100
AcDbMLeaderStyle
179
     2
170
     2
171
     1
172
     0
 90
        2
 40
0.0
 41
0.0
173
     1
 91
-1056964608
340
14
 92
       -2
290
     1
 42
0.09
291
     1
 43
0.36
  3
Standard
341
0
 44
0.18
300

342
11
174
     1
178
     6
175
     1
176
     0
 93
-1056964608
 45
0.18
292
     0
297
     0
 46
0.18
343
0
 94
-1056964608
 47
1.0
 49
1.0
140
1.0
293
     1
141
0.0
294
     1
177
     0
142
1.0
295
     0
296
     0
143
0.125
271
     0
272
     9
273
     9
298
     0
  0
MLINESTYLE
  5
18
102
{ACAD_REACTORS
330
17
102
}
330
17
100
AcDbMlineStyle
  2
Standard
 70
     0
  3

 62
   256
 51
90.0
 52
90.0
 71
     2
 49
0.5
 62
   256
  6
BYLAYER
 49
-0.5
 62
   256
  6
BYLAYER
  0
ACDBPLACEHOLDER
  5
F
102
{ACAD_REACTORS
330
E
102
}
330
E
  0
SCALE
  5
48
102
{ACAD_REACTORS
330
47
102
}
330
47
100
AcDbScale
 70
     0
300
1:1
140
1.0
141
1.0
290
     1
  0
SCALE
  5
49
102
{ACAD_REACTORS
330
47
102
}
330
47
100
AcDbScale
 70
     0
300
1:2
140
1.0
141
2.0
290
     0
  0
SCALE
  5
4A
102
{ACAD_REACTORS
330
47
102
}
330
47
100
AcDbScale
 70
     0
300
1:4
140
1.0
141
4.0
290
     0
  0
SCALE
  5
4B
102
{ACAD_REACTORS
330
47
102
}
330
47
100
AcDbScale
 70
     0
300
1:5
140
1.0
141
5.0
290
     0
  0
SCALE
  5
4C
102
{ACAD_REACTORS
330
47
102
}
330
47
100
AcDbScale
 70
     0
300
1:8
140
1.0
141
8.0
290
     0
  0
SCALE
  5
4D
102
{ACAD_REACTORS
330
47
102
}
330
47
100
AcDbScale
 70
     0
300
1:10
140
1.0
141
10.0
290
     0
  0
SCALE
  5
4E
102
{ACAD_REACTORS
330
47
102
}
330
47
100
AcDbScale
 70
     0
300
1:16
140
1.0
141
16.0
290
     0
  0
SCALE
  5
4F
102
{ACAD_REACTORS
330
47
102
}
330
47
100
AcDbScale
 70
     0
300
1:20
140
1.0
141
20.0
290
     0
  0
SCALE
  5
50
102
{ACAD_REACTORS
330
47
102
}
330
47
100
AcDbScale
 70
     0
300
1:30
140
1.0
141
30.0
290
     0
  0
SCALE
  5
51
102
{ACAD_REACTORS
330
47
102
}
330
47
100
AcDbScale
 70
     0
300
1:40
140
1.0
141
40.0
290
     0
  0
SCALE
  5
52
102
{ACAD_REACTORS
330
47
102
}
330
47
100
AcDbScale
 70
     0
300
1:50
140
1.0
141
50.0
290
     0
  0
SCALE
  5
53
102
{ACAD_REACTORS
330
47
102
}
330
47
100
AcDbScale
 70
     0
300
1:100
140
1.0
141
100.0
290
     0
  0
SCALE
  5
54
102
{ACAD_REACTORS
330
47
102
}
330
47
100
AcDbScale
 70
     0
300
2:1
140
2.0
141
1.0
290
     0
  0
SCALE
  5
55
102
{ACAD_REACTORS
330
47
102
}
330
47
100
AcDbScale
 70
     0
300
4:1
140
4.0
141
1.0
290
     0
  0
SCALE
  5
56
102
{ACAD_REACTORS
330
47
102
}
330
47
100
AcDbScale
 70
     0
300
8:1
140
8.0
141
1.0
290
     0
  0
SCALE
  5
57
102
{ACAD_REACTORS
330
47
102
}
330
47
100
AcDbScale
 70
     0
300
10:1
140
10.0
141
1.0
290
     0
  0
SCALE
  5
58
102
{ACAD_REACTORS
330
47
102
}
330
47
100
AcDbScale
 70
     0
300
100:1
140
100.0
141
1.0
290
     0
  0
SCALE
  5
59
102
{ACAD_REACTORS
330
47
102
}
330
47
100
AcDbScale
 70
     0
300
1/128" = 1'-0"
140
0.0078125
141
12.0
290
     0
  0
SCALE
  5
5A
102
{ACAD_REACTORS
330
47
102
}
330
47
100
AcDbScale
 70
     0
300
1/64" = 1'-0"
140
0.015625
141
12.0
290
     0
  0
SCALE
  5
5B
102
{ACAD_REACTORS
330
47
102
}
330
47
100
AcDbScale
 70
     0
300
1/32" = 1'-0"
140
0.03125
141
12.0
290
     0
  0
SCALE
  5
5C
102
{ACAD_REACTORS
330
47
102
}
330
47
100
AcDbScale
 70
     0
300
1/16" = 1'-0"
140
0.0625
141
12.0
290
     0
  0
SCALE
  5
5D
102
{ACAD_REACTORS
330
47
102
}
330
47
100
AcDbScale
 70
     0
300
3/32" = 1'-0"
140
0.09375
141
12.0
290
     0
  0
SCALE
  5
5E
102
{ACAD_REACTORS
330
47
102
}
330
47
100
AcDbScale
 70
     0
300
1/8" = 1'-0"
140
0.125
141
12.0
290
     0
  0
SCALE
  5
5F
102
{ACAD_REACTORS
330
47
102
}
330
47
100
AcDbScale
 70
     0
300
3/16" = 1'-0"
140
0.1875
141
12.0
290
     0
  0
SCALE
  5
60
102
{ACAD_REACTORS
330
47
102
}
330
47
100
AcDbScale
 70
     0
300
1/4" = 1'-0"
140
0.25
141
12.0
290
     0
  0
SCALE
  5
61
102
{ACAD_REACTORS
330
47
102
}
330
47
100
AcDbScale
 70
     0
300
3/8" = 1'-0"
140
0.375
141
12.0
290
     0
  0
SCALE
  5
62
102
{ACAD_REACTORS
330
47
102
}
330
47
100
AcDbScale
 70
     0
300
1/2" = 1'-0"
140
0.5
141
12.0
290
     0
  0
SCALE
  5
63
102
{ACAD_REACTORS
330
47
102
}
330
47
100
AcDbScale
 70
     0
300
3/4" = 1'-0"
140
0.75
141
12.0
290
     0
  0
SCALE
  5
64
102
{ACAD_REACTORS
330
47
102
}
330
47
100
AcDbScale
 70
     0
300
1" = 1'-0"
140
1.0
141
12.0
290
     0
  0
SCALE
  5
65
102
{ACAD_REACTORS
330
47
102
}
330
47
100
AcDbScale
 70
     0
300
1-1/2" = 1'-0"
140
1.5
141
12.0
290
     0
  0
SCALE
  5
66
102
{ACAD_REACTORS
330
47
102
}
330
47
100
AcDbScale
 70
     0
300
3" = 1'-0"
140
3.0
141
12.0
290
     0
  0
SCALE
  5
67
102
{ACAD_REACTORS
330
47
102
}
330
47
100
AcDbScale
 70
     0
300
6" = 1'-0"
140
6.0
141
12.0
290
     0
  0
SCALE
  5
68
102
{ACAD_REACTORS
330
47
102
}
330
47
100
AcDbScale
 70
     0
300
1'-0" = 1'-0"
140
12.0
141
12.0
290
     0
  0
TABLESTYLE
  5
6A
102
{ACAD_REACTORS
330
69
102
}
102
{ACAD_XDICTIONARY
360
24C
102
}
330
69
100
AcDbTableStyle
  3
Standard
 70
     0
 71
     0
 40
0.06
 41
0.06
280
     0
281
     0
  7
Standard
140
0.18
170
     2
 62
     0
 63
   257
283
     0
 90
        4
 91
        0
  1

274
    -2
284
     1
 64
     0
275
    -2
285
     1
 65
     0
276
    -2
286
     1
 66
     0
277
    -2
287
     1
 67
     0
278
    -2
288
     1
 68
     0
279
    -2
289
     1
 69
     0
  7
Standard
140
0.25
170
     5
 62
     0
 63
   257
283
     0
 90
        4
 91
        0
  1

274
    -2
284
     1
 64
     0
275
    -2
285
     1
 65
     0
276
    -2
286
     1
 66
     0
277
    -2
287
     1
 67
     0
278
    -2
288
     1
 68
     0
279
    -2
289
     1
 69
     0
  7
Standard
140
0.18
170
     5
 62
     0
 63
   257
283
     0
 90
        4
 91
        0
  1

274
    -2
284
     1
 64
     0
275
    -2
285
     1
 65
     0
276
    -2
286
     1
 66
     0
277
    -2
287
     1
 67
     0
278
    -2
288
     1
 68
     0
279
    -2
289
     1
 69
     0
  0
VISUALSTYLE
  5
2F
102
{ACAD_REACTORS
330
2A
102
}
330
2A
100
AcDbVisualStyle
  2
2dWireframe
 70
     4
177
     3
291
     0
 70
    58
 90
        0
176
     1
 90
        2
176
     1
 90
        0
176
     1
 90
        0
176
     1
 40
0.6
176
     1
 40
30.0
176
     1
 62
     7
420
 16777215
176
     1
 90
        1
176
     1
 90
        4
176
     1
 62
     7
176
     1
 62
   257
176
     1
 90
        1
176
     1
 90
        1
176
     1
 40
1.0
176
     1
 90
        0
176
     1
 62
   257
176
     1
 40
1.0
176
     1
 90
        1
176
     1
 90
        6
176
     1
 90
        2
176
     1
 62
     7
176
     1
 90
        5
176
     1
 90
        0
176
     1
 90
        0
176
     1
290
     0
176
     1
 90
        1
176
     1
 40
0.0
176
     1
 90
        0
176
     1
290
     1
176
     1
290
     1
176
     1
290
     0
176
     1
290
     0
176
     1
290
     0
176
     1
290
     0
176
     1
290
     0
176
     1
290
     0
176
     1
290
     0
176
     1
 90
       50
176
     1
 40
0.0
176
     1
 40
1.0
176
     1
 90
        0
176
     1
 62
    18
420
        0
176
     1
 90
       50
176
     1
 90
        3
176
     1
 62
     5
420
      255
176
     1
290
     0
176
     1
 90
       50
176
     1
 90
       50
176
     1
 90
       50
176
     1
290
     0
176
     1
 90
       50
176
     1
 62
   256
176
     0
 40
1.0
176
     0
 90
        2
176
     1
  1
strokes_ogs.tif
176
     1
290
     0
176
     1
 40
1.0
176
     1
 40
1.0
176
     1
  0
VISUALSTYLE
  5
32
102
{ACAD_REACTORS
330
2A
102
}
330
2A
100
AcDbVisualStyle
  2
Basic
 70
     7
177
     3
291
     1
 70
    58
 90
        1
176
     1
 90
        0
176
     1
 90
        1
176
     1
 90
        0
176
     1
 40
0.6
176
     1
 40
30.0
176
     1
 62
     7
420
 16777215
176
     1
 90
        0
176
     1
 90
        4
176
     1
 62
     7
176
     1
 62
   257
176
     1
 90
        1
176
     1
 90
        1
176
     1
 40
1.0
176
     1
 90
        8
176
     1
 62
     7
176
     1
 40
1.0
176
     1
 90
        1
176
     1
 90
        6
176
     1
 90
        2
176
     1
 62
     7
176
     1
 90
        5
176
     1
 90
        0
176
     1
 90
        0
176
     1
290
     0
176
     1
 90
        1
176
     1
 40
0.0
176
     1
 90
        0
176
     1
290
     0
176
     1
290
     1
176
     1
290
     1
176
     1
290
     0
176
     1
290
     0
176
     1
290
     0
176
     1
290
     0
176
     1
290
     0
176
     1
290
     0
176
     1
 90
       50
176
     1
 40
0.0
176
     1
 40
1.0
176
     1
 90
        0
176
     1
 62
    18
420
        0
176
     1
 90
       50
176
     1
 90
        3
176
     1
 62
     5
420
      255
176
     1
290
     0
176
     1
 90
       50
176
     1
 90
       50
176
     1
 90
       50
176
     1
290
     0
176
     1
 90
       50
176
     1
 62
   256
176
     0
 40
1.0
176
     0
 90
        2
176
     1
  1
strokes_ogs.tif
176
     1
290
     0
176
     1
 40
1.0
176
     1
 40
1.0
176
     1
  0
VISUALSTYLE
  5
36
102
{ACAD_REACTORS
330
2A
102
}
330
2A
100
AcDbVisualStyle
  2
Brighten
 70
    12
177
     3
291
     1
 70
    58
 90
        2
176
     1
 90
        2
176
     1
 90
        0
176
     1
 90
        0
176
     1
 40
0.6
176
     1
 40
30.0
176
     1
 62
     7
420
 16777215
176
     1
 90
        1
176
     1
 90
        4
176
     1
 62
     7
176
     1
 62
   257
176
     1
 90
        1
176
     1
 90
        1
176
     1
 40
1.0
176
     1
 90
        8
176
     1
 62
     7
176
     1
 40
1.0
176
     1
 90
        1
176
     1
 90
        6
176
     1
 90
        2
176
     1
 62
     7
176
     1
 90
        5
176
     1
 90
        0
176
     1
 90
        0
176
     1
290
     0
176
     1
 90
        1
176
     1
 40
50.0
176
     1
 90
        0
176
     1
290
     0
176
     1
290
     1
176
     1
290
     1
176
     1
290
     0
176
     1
290
     0
176
     1
290
     0
176
     1
290
     0
176
     1
290
     0
176
     1
290
     0
176
     1
 90
       50
176
     1
 40
0.0
176
     1
 40
1.0
176
     1
 90
        0
176
     1
 62
    18
420
        0
176
     1
 90
       50
176
     1
 90
        3
176
     1
 62
     5
420
      255
176
     1
290
     0
176
     1
 90
       50
176
     1
 90
       50
176
     1
 90
       50
176
     1
290
     0
176
     1
 90
       50
176
     1
 62
   256
176
     0
 40
1.0
176
     0
 90
        2
176
     1
  1
strokes_ogs.tif
176
     1
290
     0
176
     1
 40
1.0
176
     1
 40
1.0
176
     1
  0
VISUALSTYLE
  5
3A
102
{ACAD_REACTORS
330
2A
102
}
330
2A
100
AcDbVisualStyle
  2
ColorChange
 70
    16
177
     3
291
     1
 70
    58
 90
        2
176
     1
 90
        2
176
     1
 90
        3
176
     1
 90
        0
176
     1
 40
0.6
176
     1
 40
30.0
176
     1
 62
     8
420
  8421504
176
     1
 90
        1
176
     1
 90
        4
176
     1
 62
     7
176
     1
 62
   257
176
     1
 90
        1
176
     1
 90
        1
176
     1
 40
1.0
176
     1
 90
        8
176
     1
 62
     8
420
  8421504
176
     1
 40
1.0
176
     1
 90
        1
176
     1
 90
        6
176
     1
 90
        2
176
     1
 62
     7
176
     1
 90
        5
176
     1
 90
        0
176
     1
 90
        0
176
     1
290
     0
176
     1
 90
        1
176
     1
 40
0.0
176
     1
 90
        0
176
     1
290
     0
176
     1
290
     1
176
     1
290
     1
176
     1
290
     0
176
     1
290
     0
176
     1
290
     0
176
     1
290
     0
176
     1
290
     0
176
     1
290
     0
176
     1
 90
       50
176
     1
 40
0.0
176
     1
 40
1.0
176
     1
 90
        0
176
     1
 62
    18
420
        0
176
     1
 90
       50
176
     1
 90
        3
176
     1
 62
     5
420
      255
176
     1
290
     0
176
     1
 90
       50
176
     1
 90
       50
176
     1
 90
       50
176
     1
290
     0
176
     1
 90
       50
176
     1
 62
   256
176
     0
 40
1.0
176
     0
 90
        2
176
     1
  1
strokes_ogs.tif
176
     1
290
     0
176
     1
 40
1.0
176
     1
 40
1.0
176
     1
  0
VISUALSTYLE
  5
34
102
{ACAD_REACTORS
330
2A
102
}
330
2A
100
AcDbVisualStyle
  2
Conceptual
 70
     9
177
     3
291
     0
 70
    58
 90
        3
176
     1
 90
        2
176
     1
 90
        0
176
     1
 90
        0
176
     1
 40
0.6
176
     1
 40
30.0
176
     1
 62
     7
420
 16777215
176
     1
 90
        2
176
     1
 90
        2
176
     1
 62
     7
176
     1
 62
   257
176
     1
 90
        1
176
     1
 90
        1
176
     1
 40
179.0
176
     1
 90
        8
176
     1
 62
     7
176
     1
 40
1.0
176
     1
 90
        1
176
     1
 90
        6
176
     1
 90
        2
176
     1
 62
     7
176
     1
 90
        3
176
     1
 90
        0
176
     1
 90
        0
176
     1
290
     0
176
     1
 90
        1
176
     1
 40
0.0
176
     1
 90
        0
176
     1
290
     0
176
     1
290
     1
176
     1
290
     1
176
     1
290
     0
176
     1
290
     0
176
     1
290
     0
176
     1
290
     0
176
     1
290
     0
176
     1
290
     0
176
     1
 90
       50
176
     1
 40
0.0
176
     1
 40
1.0
176
     1
 90
        0
176
     1
 62
    18
420
        0
176
     1
 90
       50
176
     1
 90
        3
176
     1
 62
     5
420
      255
176
     1
290
     0
176
     1
 90
       50
176
     1
 90
       50
176
     1
 90
       50
176
     1
290
     0
176
     1
 90
       50
176
     1
 62
   256
176
     0
 40
1.0
176
     0
 90
        2
176
     1
  1
strokes_ogs.tif
176
     1
290
     0
176
     1
 40
1.0
176
     1
 40
1.0
176
     1
  0
VISUALSTYLE
  5
35
102
{ACAD_REACTORS
330
2A
102
}
330
2A
100
AcDbVisualStyle
  2
Dim
 70
    11
177
     3
291
     1
 70
    58
 90
        2
176
     1
 90
        2
176
     1
 90
        0
176
     1
 90
        0
176
     1
 40
0.6
176
     1
 40
30.0
176
     1
 62
     7
420
 16777215
176
     1
 90
        1
176
     1
 90
        4
176
     1
 62
     7
176
     1
 62
   257
176
     1
 90
        1
176
     1
 90
        1
176
     1
 40
1.0
176
     1
 90
        8
176
     1
 62
     7
176
     1
 40
1.0
176
     1
 90
        1
176
     1
 90
        6
176
     1
 90
        2
176
     1
 62
     7
176
     1
 90
        5
176
     1
 90
        0
176
     1
 90
        0
176
     1
290
     0
176
     1
 90
        1
176
     1
 40
-50.0
176
     1
 90
        0
176
     1
290
     0
176
     1
290
     1
176
     1
290
     1
176
     1
290
     0
176
     1
290
     0
176
     1
290
     0
176
     1
290
     0
176
     1
290
     0
176
     1
290
     0
176
     1
 90
       50
176
     1
 40
0.0
176
     1
 40
1.0
176
     1
 90
        0
176
     1
 62
    18
420
        0
176
     1
 90
       50
176
     1
 90
        3
176
     1
 62
     5
420
      255
176
     1
290
     0
176
     1
 90
       50
176
     1
 90
       50
176
     1
 90
       50
176
     1
290
     0
176
     1
 90
       50
176
     1
 62
   256
176
     0
 40
1.0
176
     0
 90
        2
176
     1
  1
strokes_ogs.tif
176
     1
290
     0
176
     1
 40
1.0
176
     1
 40
1.0
176
     1
  0
VISUALSTYLE
  5
3D
102
{ACAD_REACTORS
330
2A
102
}
330
2A
100
AcDbVisualStyle
  2
EdgeColorOff
 70
    22
177
     3
291
     1
 70
    58
 90
        2
176
     0
 90
        2
176
     0
 90
        0
176
     0
 90
        0
176
     0
 40
0.6
176
     0
 40
30.0
176
     0
 62
     7
420
 16777215
176
     0
 90
        1
176
     0
 90
        4
176
     0
 62
     7
176
     0
 62
   257
176
     0
 90
        1
176
     0
 90
        1
176
     0
 40
1.0
176
     0
 90
        8
176
     2
 62
     7
176
     0
 40
1.0
176
     0
 90
        1
176
     0
 90
        6
176
     0
 90
        2
176
     0
 62
     7
176
     0
 90
        5
176
     0
 90
        0
176
     0
 90
        0
176
     0
290
     0
176
     0
 90
        1
176
     0
 40
0.0
176
     0
 90
        0
176
     0
290
     0
176
     0
290
     1
176
     0
290
     1
176
     0
290
     0
176
     0
290
     0
176
     0
290
     0
176
     0
290
     0
176
     0
290
     0
176
     0
290
     0
176
     0
 90
       50
176
     0
 40
0.0
176
     0
 40
1.0
176
     0
 90
        0
176
     0
 62
    18
420
        0
176
     0
 90
       50
176
     0
 90
        3
176
     0
 62
     5
420
      255
176
     0
290
     0
176
     0
 90
       50
176
     0
 90
       50
176
     0
 90
       50
176
     0
290
     0
176
     0
 90
       50
176
     0
 62
   256
176
     0
 40
1.0
176
     0
 90
        2
176
     0
  1
strokes_ogs.tif
176
     0
290
     0
176
     0
 40
1.0
176
     0
 40
1.0
176
     0
  0
VISUALSTYLE
  5
39
102
{ACAD_REACTORS
330
2A
102
}
330
2A
100
AcDbVisualStyle
  2
Facepattern
 70
    15
177
     3
291
     1
 70
    58
 90
        2
176
     1
 90
        2
176
     1
 90
        0
176
     1
 90
        0
176
     1
 40
0.6
176
     1
 40
30.0
176
     1
 62
     7
420
 16777215
176
     1
 90
        1
176
     1
 90
        4
176
     1
 62
     7
176
     1
 62
   257
176
     1
 90
        1
176
     1
 90
        1
176
     1
 40
1.0
176
     1
 90
        8
176
     1
 62
     7
176
     1
 40
1.0
176
     1
 90
        1
176
     1
 90
        6
176
     1
 90
        2
176
     1
 62
     7
176
     1
 90
        5
176
     1
 90
        0
176
     1
 90
        0
176
     1
290
     0
176
     1
 90
        1
176
     1
 40
0.0
176
     1
 90
        0
176
     1
290
     0
176
     1
290
     1
176
     1
290
     1
176
     1
290
     0
176
     1
290
     0
176
     1
290
     0
176
     1
290
     0
176
     1
290
     0
176
     1
290
     0
176
     1
 90
       50
176
     1
 40
0.0
176
     1
 40
1.0
176
     1
 90
        0
176
     1
 62
    18
420
        0
176
     1
 90
       50
176
     1
 90
        3
176
     1
 62
     5
420
      255
176
     1
290
     0
176
     1
 90
       50
176
     1
 90
       50
176
     1
 90
       50
176
     1
290
     0
176
     1
 90
       50
176
     1
 62
   256
176
     0
 40
1.0
176
     0
 90
        2
176
     1
  1
strokes_ogs.tif
176
     1
290
     0
176
     1
 40
1.0
176
     1
 40
1.0
176
     1
  0
VISUALSTYLE
  5
2B
102
{ACAD_REACTORS
330
2A
102
}
330
2A
100
AcDbVisualStyle
  2
Flat
 70
     0
177
     3
291
     1
 70
    58
 90
        2
176
     1
 90
        1
176
     1
 90
        1
176
     1
 90
        2
176
     1
 40
0.6
176
     1
 40
30.0
176
     1
 62
     7
420
 16777215
176
     1
 90
        0
176
     1
 90
        0
176
     1
 62
     7
176
     1
 62
   257
176
     1
 90
        1
176
     1
 90
        1
176
     1
 40
1.0
176
     1
 90
        8
176
     1
 62
     7
176
     1
 40
1.0
176
     1
 90
        1
176
     1
 90
        6
176
     1
 90
        2
176
     1
 62
     7
176
     1
 90
        5
176
     1
 90
        0
176
     1
 90
        0
176
     1
290
     0
176
     1
 90
       13
176
     1
 40
0.0
176
     1
 90
        0
176
     1
290
     0
176
     1
290
     1
176
     1
290
     1
176
     1
290
     0
176
     1
290
     0
176
     1
290
     0
176
     1
290
     0
176
     1
290
     0
176
     1
290
     0
176
     1
 90
       50
176
     1
 40
0.0
176
     1
 40
1.0
176
     1
 90
        0
176
     1
 62
    18
420
        0
176
     1
 90
       50
176
     1
 90
        3
176
     1
 62
     5
420
      255
176
     1
290
     0
176
     1
 90
       50
176
     1
 90
       50
176
     1
 90
       50
176
     1
290
     0
176
     1
 90
       50
176
     1
 62
   256
176
     0
 40
1.0
176
     0
 90
        2
176
     1
  1
strokes_ogs.tif
176
     1
290
     0
176
     1
 40
1.0
176
     1
 40
1.0
176
     1
  0
VISUALSTYLE
  5
2C
102
{ACAD_REACTORS
330
2A
102
}
330
2A
100
AcDbVisualStyle
  2
FlatWithEdges
 70
     1
177
     3
291
     1
 70
    58
 90
        2
176
     1
 90
        1
176
     1
 90
        1
176
     1
 90
        2
176
     1
 40
0.6
176
     1
 40
30.0
176
     1
 62
     7
420
 16777215
176
     1
 90
        1
176
     1
 90
        0
176
     1
 62
     7
176
     1
 62
   257
176
     1
 90
        1
176
     1
 90
        1
176
     1
 40
1.0
176
     1
 90
        0
176
     1
 62
   257
176
     1
 40
1.0
176
     1
 90
        1
176
     1
 90
        6
176
     1
 90
        2
176
     1
 62
     7
176
     1
 90
        5
176
     1
 90
        0
176
     1
 90
        0
176
     1
290
     0
176
     1
 90
       13
176
     1
 40
0.0
176
     1
 90
        0
176
     1
290
     0
176
     1
290
     1
176
     1
290
     1
176
     1
290
     0
176
     1
290
     0
176
     1
290
     0
176
     1
290
     0
176
     1
290
     0
176
     1
290
     0
176
     1
 90
       50
176
     1
 40
0.0
176
     1
 40
1.0
176
     1
 90
        0
176
     1
 62
    18
420
        0
176
     1
 90
       50
176
     1
 90
        3
176
     1
 62
     5
420
      255
176
     1
290
     0
176
     1
 90
       50
176
     1
 90
       50
176
     1
 90
       50
176
     1
290
     0
176
     1
 90
       50
176
     1
 62
   256
176
     0
 40
1.0
176
     0
 90
        2
176
     1
  1
strokes_ogs.tif
176
     1
290
     0
176
     1
 40
1.0
176
     1
 40
1.0
176
     1
  0
VISUALSTYLE
  5
2D
102
{ACAD_REACTORS
330
2A
102
}
330
2A
100
AcDbVisualStyle
  2
Gouraud
 70
     2
177
     3
291
     1
 70
    58
 90
        2
176
     1
 90
        2
176
     1
 90
        1
176
     1
 90
        2
176
     1
 40
0.6
176
     1
 40
30.0
176
     1
 62
     7
420
 16777215
176
     1
 90
        0
176
     1
 90
        0
176
     1
 62
     7
176
     1
 62
   257
176
     1
 90
        1
176
     1
 90
        1
176
     1
 40
1.0
176
     1
 90
        0
176
     1
 62
     7
176
     1
 40
1.0
176
     1
 90
        1
176
     1
 90
        6
176
     1
 90
        2
176
     1
 62
     7
176
     1
 90
        5
176
     1
 90
        0
176
     1
 90
        0
176
     1
290
     0
176
     1
 90
       13
176
     1
 40
0.0
176
     1
 90
        0
176
     1
290
     0
176
     1
290
     1
176
     1
290
     1
176
     1
290
     0
176
     1
290
     0
176
     1
290
     0
176
     1
290
     0
176
     1
290
     0
176
     1
290
     0
176
     1
 90
       50
176
     1
 40
0.0
176
     1
 40
1.0
176
     1
 90
        0
176
     1
 62
    18
420
        0
176
     1
 90
       50
176
     1
 90
        3
176
     1
 62
     5
420
      255
176
     1
290
     0
176
     1
 90
       50
176
     1
 90
       50
176
     1
 90
       50
176
     1
290
     0
176
     1
 90
       50
176
     1
 62
   256
176
     0
 40
1.0
176
     0
 90
        2
176
     1
  1
strokes_ogs.tif
176
     1
290
     0
176
     1
 40
1.0
176
     1
 40
1.0
176
     1
  0
VISUALSTYLE
  5
2E
102
{ACAD_REACTORS
330
2A
102
}
330
2A
100
AcDbVisualStyle
  2
GouraudWithEdges
 70
     3
177
     3
291
     1
 70
    58
 90
        2
176
     1
 90
        2
176
     1
 90
        1
176
     1
 90
        2
176
     1
 40
0.6
176
     1
 40
30.0
176
     1
 62
     7
420
 16777215
176
     1
 90
        1
176
     1
 90
        0
176
     1
 62
     7
176
     1
 62
   257
176
     1
 90
        1
176
     1
 90
        1
176
     1
 40
1.0
176
     1
 90
        0
176
     1
 62
   257
176
     1
 40
1.0
176
     1
 90
        1
176
     1
 90
        6
176
     1
 90
        2
176
     1
 62
     7
176
     1
 90
        5
176
     1
 90
        0
176
     1
 90
        0
176
     1
290
     0
176
     1
 90
       13
176
     1
 40
0.0
176
     1
 90
        0
176
     1
290
     0
176
     1
290
     1
176
     1
290
     1
176
     1
290
     0
176
     1
290
     0
176
     1
290
     0
176
     1
290
     0
176
     1
290
     0
176
     1
290
     0
176
     1
 90
       50
176
     1
 40
0.0
176
     1
 40
1.0
176
     1
 90
        0
176
     1
 62
    18
420
        0
176
     1
 90
       50
176
     1
 90
        3
176
     1
 62
     5
420
      255
176
     1
290
     0
176
     1
 90
       50
176
     1
 90
       50
176
     1
 90
       50
176
     1
290
     0
176
     1
 90
       50
176
     1
 62
   256
176
     0
 40
1.0
176
     0
 90
        2
176
     1
  1
strokes_ogs.tif
176
     1
290
     0
176
     1
 40
1.0
176
     1
 40
1.0
176
     1
  0
VISUALSTYLE
  5
31
102
{ACAD_REACTORS
330
2A
102
}
330
2A
100
AcDbVisualStyle
  2
Hidden
 70
     6
177
     3
291
     0
 70
    58
 90
        1
176
     1
 90
        2
176
     1
 90
        2
176
     1
 90
        0
176
     1
 40
0.6
176
     1
 40
30.0
176
     1
 62
     7
420
 16777215
176
     1
 90
        2
176
     1
 90
        2
176
     1
 62
     7
176
     1
 62
   257
176
     1
 90
        2
176
     1
 90
        1
176
     1
 40
40.0
176
     1
 90
        0
176
     1
 62
   257
176
     1
 40
1.0
176
     1
 90
        1
176
     1
 90
        6
176
     1
 90
        2
176
     1
 62
     7
176
     1
 90
        3
176
     1
 90
        0
176
     1
 90
        0
176
     1
290
     0
176
     1
 90
        1
176
     1
 40
0.0
176
     1
 90
        0
176
     1
290
     0
176
     1
290
     1
176
     1
290
     1
176
     1
290
     0
176
     1
290
     0
176
     1
290
     0
176
     1
290
     0
176
     1
290
     0
176
     1
290
     0
176
     1
 90
       50
176
     1
 40
0.0
176
     1
 40
1.0
176
     1
 90
        0
176
     1
 62
    18
420
        0
176
     1
 90
       50
176
     1
 90
        3
176
     1
 62
     5
420
      255
176
     1
290
     0
176
     1
 90
       50
176
     1
 90
       50
176
     1
 90
       50
176
     1
290
     0
176
     1
 90
       50
176
     1
 62
   256
176
     0
 40
1.0
176
     0
 90
        2
176
     1
  1
strokes_ogs.tif
176
     1
290
     0
176
     1
 40
1.0
176
     1
 40
1.0
176
     1
  0
VISUALSTYLE
  5
3B
102
{ACAD_REACTORS
330
2A
102
}
330
2A
100
AcDbVisualStyle
  2
JitterOff
 70
    20
177
     3
291
     1
 70
    58
 90
        2
176
     0
 90
        2
176
     0
 90
        0
176
     0
 90
        0
176
     0
 40
0.6
176
     0
 40
30.0
176
     0
 62
     7
420
 16777215
176
     0
 90
        1
176
     0
 90
        4
176
     0
 62
     7
176
     0
 62
   257
176
     0
 90
        1
176
     0
 90
        1
176
     0
 40
1.0
176
     0
 90
       10
176
     2
 62
     7
176
     0
 40
1.0
176
     0
 90
        1
176
     0
 90
        6
176
     0
 90
        2
176
     0
 62
     7
176
     0
 90
        5
176
     0
 90
        0
176
     0
 90
        0
176
     0
290
     0
176
     0
 90
        1
176
     0
 40
0.0
176
     0
 90
        0
176
     0
290
     0
176
     0
290
     1
176
     0
290
     1
176
     0
290
     0
176
     0
290
     0
176
     0
290
     0
176
     0
290
     0
176
     0
290
     0
176
     0
290
     0
176
     0
 90
       50
176
     0
 40
0.0
176
     0
 40
1.0
176
     0
 90
        0
176
     0
 62
    18
420
        0
176
     0
 90
       50
176
     0
 90
        3
176
     0
 62
     5
420
      255
176
     0
290
     0
176
     0
 90
       50
176
     0
 90
       50
176
     0
 90
       50
176
     0
290
     0
176
     0
 90
       50
176
     0
 62
   256
176
     0
 40
1.0
176
     0
 90
        2
176
     0
  1
strokes_ogs.tif
176
     0
290
     0
176
     0
 40
1.0
176
     0
 40
1.0
176
     0
  0
VISUALSTYLE
  5
38
102
{ACAD_REACTORS
330
2A
102
}
330
2A
100
AcDbVisualStyle
  2
Linepattern
 70
    14
177
     3
291
     1
 70
    58
 90
        2
176
     1
 90
        2
176
     1
 90
        0
176
     1
 90
        0
176
     1
 40
0.6
176
     1
 40
30.0
176
     1
 62
     7
420
 16777215
176
     1
 90
        1
176
     1
 90
        4
176
     1
 62
     7
176
     1
 62
   257
176
     1
 90
        7
176
     1
 90
        7
176
     1
 40
1.0
176
     1
 90
        8
176
     1
 62
     7
176
     1
 40
1.0
176
     1
 90
        1
176
     1
 90
        6
176
     1
 90
        2
176
     1
 62
     7
176
     1
 90
        5
176
     1
 90
        0
176
     1
 90
        0
176
     1
290
     0
176
     1
 90
        1
176
     1
 40
0.0
176
     1
 90
        0
176
     1
290
     0
176
     1
290
     1
176
     1
290
     1
176
     1
290
     0
176
     1
290
     0
176
     1
290
     0
176
     1
290
     0
176
     1
290
     0
176
     1
290
     0
176
     1
 90
       50
176
     1
 40
0.0
176
     1
 40
1.0
176
     1
 90
        0
176
     1
 62
    18
420
        0
176
     1
 90
       50
176
     1
 90
        3
176
     1
 62
     5
420
      255
176
     1
290
     0
176
     1
 90
       50
176
     1
 90
       50
176
     1
 90
       50
176
     1
290
     0
176
     1
 90
       50
176
     1
 62
   256
176
     0
 40
1.0
176
     0
 90
        2
176
     1
  1
strokes_ogs.tif
176
     1
290
     0
176
     1
 40
1.0
176
     1
 40
1.0
176
     1
  0
VISUALSTYLE
  5
3C
102
{ACAD_REACTORS
330
2A
102
}
330
2A
100
AcDbVisualStyle
  2
OverhangOff
 70
    21
177
     3
291
     1
 70
    58
 90
        2
176
     0
 90
        2
176
     0
 90
        0
176
     0
 90
        0
176
     0
 40
0.6
176
     0
 40
30.0
176
     0
 62
     7
420
 16777215
176
     0
 90
        1
176
     0
 90
        4
176
     0
 62
     7
176
     0
 62
   257
176
     0
 90
        1
176
     0
 90
        1
176
     0
 40
1.0
176
     0
 90
        9
176
     2
 62
     7
176
     0
 40
1.0
176
     0
 90
        1
176
     0
 90
        6
176
     0
 90
        2
176
     0
 62
     7
176
     0
 90
        5
176
     0
 90
        0
176
     0
 90
        0
176
     0
290
     0
176
     0
 90
        1
176
     0
 40
0.0
176
     0
 90
        0
176
     0
290
     0
176
     0
290
     1
176
     0
290
     1
176
     0
290
     0
176
     0
290
     0
176
     0
290
     0
176
     0
290
     0
176
     0
290
     0
176
     0
290
     0
176
     0
 90
       50
176
     0
 40
0.0
176
     0
 40
1.0
176
     0
 90
        0
176
     0
 62
    18
420
        0
176
     0
 90
       50
176
     0
 90
        3
176
     0
 62
     5
420
      255
176
     0
290
     0
176
     0
 90
       50
176
     0
 90
       50
176
     0
 90
       50
176
     0
290
     0
176
     0
 90
       50
176
     0
 62
   256
176
     0
 40
1.0
176
     0
 90
        2
176
     0
  1
strokes_ogs.tif
176
     0
290
     0
176
     0
 40
1.0
176
     0
 40
1.0
176
     0
  0
VISUALSTYLE
  5
33
102
{ACAD_REACTORS
330
2A
102
}
330
2A
100
AcDbVisualStyle
  2
Realistic
 70
     8
177
     3
291
     0
 70
    58
 90
        2
176
     1
 90
        3
176
     1
 90
        0
176
     1
 90
        2
176
     1
 40
0.6
176
     1
 40
30.0
176
     1
 62
     7
420
 16777215
176
     1
 90
        0
176
     1
 90
        0
176
     1
 62
     7
176
     1
 62
   257
176
     1
 90
        1
176
     1
 90
        1
176
     1
 40
1.0
176
     1
 90
        8
176
     1
 62
   257
176
     1
 40
1.0
176
     1
 90
        1
176
     1
 90
        6
176
     1
 90
        2
176
     1
 62
     7
176
     1
 90
        3
176
     1
 90
        0
176
     1
 90
        0
176
     1
290
     0
176
     1
 90
       13
176
     1
 40
0.0
176
     1
 90
        0
176
     1
290
     0
176
     1
290
     1
176
     1
290
     1
176
     1
290
     0
176
     1
290
     0
176
     1
290
     0
176
     1
290
     0
176
     1
290
     0
176
     1
290
     0
176
     1
 90
       50
176
     1
 40
0.0
176
     1
 40
1.0
176
     1
 90
        0
176
     1
 62
    18
420
        0
176
     1
 90
       50
176
     1
 90
        3
176
     1
 62
     5
420
      255
176
     1
290
     0
176
     1
 90
       50
176
     1
 90
       50
176
     1
 90
       50
176
     1
290
     0
176
     1
 90
       50
176
     1
 62
   256
176
     0
 40
1.0
176
     0
 90
        2
176
     1
  1
strokes_ogs.tif
176
     1
290
     0
176
     1
 40
1.0
176
     1
 40
1.0
176
     1
  0
VISUALSTYLE
  5
42
102
{ACAD_REACTORS
330
2A
102
}
330
2A
100
AcDbVisualStyle
  2
Shaded
 70
    27
177
     3
291
     0
 70
    58
 90
        2
176
     1
 90
        2
176
     1
 90
        1
176
     1
 90
        2
176
     1
 40
0.6
176
     1
 40
30.0
176
     1
 62
     7
420
 16777215
176
     1
 90
        0
176
     1
 90
        4
176
     1
 62
     7
176
     1
 62
   257
176
     1
 90
        1
176
     1
 90
        1
176
     1
 40
1.0
176
     1
 90
        8
176
     1
 62
   257
176
     1
 40
1.0
176
     1
 90
        1
176
     1
 90
        6
176
     1
 90
        2
176
     1
 62
     8
420
  7895160
176
     1
 90
        3
176
     1
 90
        0
176
     1
 90
        0
176
     1
290
     0
176
     1
 90
        5
176
     1
 40
0.0
176
     1
 90
        0
176
     1
290
     0
176
     1
290
     1
176
     1
290
     1
176
     1
290
     0
176
     1
290
     0
176
     1
290
     0
176
     1
290
     0
176
     1
290
     0
176
     1
290
     0
176
     1
 90
       50
176
     1
 40
0.0
176
     1
 40
1.0
176
     1
 90
        0
176
     1
 62
    18
420
        0
176
     1
 90
       50
176
     1
 90
        3
176
     1
 62
     5
420
      255
176
     1
290
     0
176
     1
 90
       50
176
     1
 90
       50
176
     1
 90
       50
176
     1
290
     0
176
     1
 90
       50
176
     1
 62
   256
176
     0
 40
1.0
176
     0
 90
        2
176
     1
  1
strokes_ogs.tif
176
     1
290
     0
176
     1
 40
1.0
176
     1
 40
1.0
176
     1
  0
VISUALSTYLE
  5
41
102
{ACAD_REACTORS
330
2A
102
}
330
2A
100
AcDbVisualStyle
  2
Shaded with edges
 70
    26
177
     3
291
     0
 70
    58
 90
        2
176
     1
 90
        2
176
     1
 90
        1
176
     1
 90
        2
176
     1
 40
0.6
176
     1
 40
30.0
176
     1
 62
     7
420
 16777215
176
     1
 90
        1
176
     1
 90
       10
176
     1
 62
     7
176
     1
 62
   257
176
     1
 90
        2
176
     1
 90
        1
176
     1
 40
1.0
176
     1
 90
        8
176
     1
 62
   257
176
     1
 40
1.0
176
     1
 90
        1
176
     1
 90
        6
176
     1
 90
        2
176
     1
 62
     7
176
     1
 90
        3
176
     1
 90
        0
176
     1
 90
        0
176
     1
290
     0
176
     1
 90
        5
176
     1
 40
0.0
176
     1
 90
        0
176
     1
290
     0
176
     1
290
     1
176
     1
290
     1
176
     1
290
     0
176
     1
290
     0
176
     1
290
     0
176
     1
290
     0
176
     1
290
     0
176
     1
290
     0
176
     1
 90
       50
176
     1
 40
0.0
176
     1
 40
1.0
176
     1
 90
        0
176
     1
 62
    18
420
        0
176
     1
 90
       50
176
     1
 90
        3
176
     1
 62
     5
420
      255
176
     1
290
     0
176
     1
 90
       50
176
     1
 90
       50
176
     1
 90
       50
176
     1
290
     0
176
     1
 90
       50
176
     1
 62
   256
176
     0
 40
1.0
176
     0
 90
        2
176
     1
  1
strokes_ogs.tif
176
     1
290
     0
176
     1
 40
1.0
176
     1
 40
1.0
176
     1
  0
VISUALSTYLE
  5
3E
102
{ACAD_REACTORS
330
2A
102
}
330
2A
100
AcDbVisualStyle
  2
Shades of Gray
 70
    23
177
     3
291
     0
 70
    58
 90
        2
176
     1
 90
        2
176
     1
 90
        3
176
     1
 90
        0
176
     1
 40
0.6
176
     1
 40
30.0
176
     1
 62
     7
420
 16777215
176
     1
 90
        2
176
     1
 90
        2
176
     1
 62
     7
176
     1
 62
     7
176
     1
 90
        1
176
     1
 90
        1
176
     1
 40
40.0
176
     1
 90
        8
176
     1
 62
     7
176
     1
 40
1.0
176
     1
 90
        1
176
     1
 90
        6
176
     1
 90
        2
176
     1
 62
     7
176
     1
 90
        3
176
     1
 90
        0
176
     1
 90
        0
176
     1
290
     0
176
     1
 90
        1
176
     1
 40
0.0
176
     1
 90
        0
176
     1
290
     0
176
     1
290
     1
176
     1
290
     1
176
     1
290
     0
176
     1
290
     0
176
     1
290
     0
176
     1
290
     0
176
     1
290
     0
176
     1
290
     0
176
     1
 90
       50
176
     1
 40
0.0
176
     1
 40
1.0
176
     1
 90
        0
176
     1
 62
    18
420
        0
176
     1
 90
       50
176
     1
 90
        3
176
     1
 62
     5
420
      255
176
     1
290
     0
176
     1
 90
       50
176
     1
 90
       50
176
     1
 90
       50
176
     1
290
     0
176
     1
 90
       50
176
     1
 62
   256
176
     0
 40
1.0
176
     0
 90
        2
176
     1
  1
strokes_ogs.tif
176
     1
290
     0
176
     1
 40
1.0
176
     1
 40
1.0
176
     1
  0
VISUALSTYLE
  5
3F
102
{ACAD_REACTORS
330
2A
102
}
330
2A
100
AcDbVisualStyle
  2
Sketchy
 70
    24
177
     3
291
     0
 70
    58
 90
        1
176
     1
 90
        2
176
     1
 90
        2
176
     1
 90
        0
176
     1
 40
0.6
176
     1
 40
30.0
176
     1
 62
     7
420
 16777215
176
     1
 90
        2
176
     1
 90
        2
176
     1
 62
     7
176
     1
 62
     7
176
     1
 90
        1
176
     1
 90
        1
176
     1
 40
40.0
176
     1
 90
       11
176
     1
 62
     7
176
     1
 40
1.0
176
     1
 90
        1
176
     1
 90
        6
176
     1
 90
        2
176
     1
 62
     7
176
     1
 90
        6
176
     1
 90
        0
176
     1
 90
        0
176
     1
290
     0
176
     1
 90
        1
176
     1
 40
0.0
176
     1
 90
        0
176
     1
290
     0
176
     1
290
     1
176
     1
290
     1
176
     1
290
     0
176
     1
290
     0
176
     1
290
     0
176
     1
290
     0
176
     1
290
     0
176
     1
290
     0
176
     1
 90
       50
176
     1
 40
0.0
176
     1
 40
1.0
176
     1
 90
        0
176
     1
 62
    18
420
        0
176
     1
 90
       50
176
     1
 90
        3
176
     1
 62
     5
420
      255
176
     1
290
     0
176
     1
 90
       50
176
     1
 90
       50
176
     1
 90
       50
176
     1
290
     0
176
     1
 90
       50
176
     1
 62
   256
176
     0
 40
1.0
176
     0
 90
        2
176
     1
  1
strokes_ogs.tif
176
     1
290
     0
176
     1
 40
1.0
176
     1
 40
1.0
176
     1
  0
VISUALSTYLE
  5
37
102
{ACAD_REACTORS
330
2A
102
}
330
2A
100
AcDbVisualStyle
  2
Thicken
 70
    13
177
     3
291
     1
 70
    58
 90
        2
176
     1
 90
        2
176
     1
 90
        0
176
     1
 90
        0
176
     1
 40
0.6
176
     1
 40
30.0
176
     1
 62
     7
420
 16777215
176
     1
 90
        1
176
     1
 90
        4
176
     1
 62
     7
176
     1
 62
   257
176
     1
 90
        1
176
     1
 90
        1
176
     1
 40
1.0
176
     1
 90
       12
176
     1
 62
     7
176
     1
 40
1.0
176
     1
 90
        1
176
     1
 90
        6
176
     1
 90
        2
176
     1
 62
     7
176
     1
 90
        5
176
     1
 90
        0
176
     1
 90
        0
176
     1
290
     0
176
     1
 90
        1
176
     1
 40
0.0
176
     1
 90
        0
176
     1
290
     0
176
     1
290
     1
176
     1
290
     1
176
     1
290
     0
176
     1
290
     0
176
     1
290
     0
176
     1
290
     0
176
     1
290
     0
176
     1
290
     0
176
     1
 90
       50
176
     1
 40
0.0
176
     1
 40
1.0
176
     1
 90
        0
176
     1
 62
    18
420
        0
176
     1
 90
       50
176
     1
 90
        3
176
     1
 62
     5
420
      255
176
     1
290
     0
176
     1
 90
       50
176
     1
 90
       50
176
     1
 90
       50
176
     1
290
     0
176
     1
 90
       50
176
     1
 62
   256
176
     0
 40
1.0
176
     0
 90
        2
176
     1
  1
strokes_ogs.tif
176
     1
290
     0
176
     1
 40
1.0
176
     1
 40
1.0
176
     1
  0
VISUALSTYLE
  5
30
102
{ACAD_REACTORS
330
2A
102
}
330
2A
100
AcDbVisualStyle
  2
Wireframe
 70
     5
177
     3
291
     0
 70
    58
 90
        0
176
     1
 90
        2
176
     1
 90
        0
176
     1
 90
        0
176
     1
 40
0.6
176
     1
 40
30.0
176
     1
 62
     7
420
 16777215
176
     1
 90
        1
176
     1
 90
        4
176
     1
 62
     7
176
     1
 62
   257
176
     1
 90
        1
176
     1
 90
        1
176
     1
 40
1.0
176
     1
 90
        0
176
     1
 62
   257
176
     1
 40
1.0
176
     1
 90
        1
176
     1
 90
        6
176
     1
 90
        2
176
     1
 62
     7
176
     1
 90
        3
176
     1
 90
        0
176
     1
 90
        0
176
     1
290
     0
176
     1
 90
        1
176
     1
 40
0.0
176
     1
 90
        0
176
     1
290
     0
176
     1
290
     1
176
     1
290
     1
176
     1
290
     0
176
     1
290
     0
176
     1
290
     0
176
     1
290
     0
176
     1
290
     0
176
     1
290
     0
176
     1
 90
       50
176
     1
 40
0.0
176
     1
 40
1.0
176
     1
 90
        0
176
     1
 62
    18
420
        0
176
     1
 90
       50
176
     1
 90
        3
176
     1
 62
     5
420
      255
176
     1
290
     0
176
     1
 90
       50
176
     1
 90
       50
176
     1
 90
       50
176
     1
290
     0
176
     1
 90
       50
176
     1
 62
   256
176
     0
 40
1.0
176
     0
 90
        2
176
     1
  1
strokes_ogs.tif
176
     1
290
     0
176
     1
 40
1.0
176
     1
 40
1.0
176
     1
  0
VISUALSTYLE
  5
40
102
{ACAD_REACTORS
330
2A
102
}
330
2A
100
AcDbVisualStyle
  2
X-Ray
 70
    25
177
     3
291
     0
 70
    58
 90
        2
176
     1
 90
        2
176
     1
 90
        1
176
     1
 90
        1
176
     1
 40
0.5
176
     1
 40
30.0
176
     1
 62
     7
420
 16777215
176
     1
 90
        1
176
     1
 90
        0
176
     1
 62
     7
176
     1
 62
   257
176
     1
 90
        1
176
     1
 90
        1
176
     1
 40
1.0
176
     1
 90
        8
176
     1
 62
     7
176
     1
 40
1.0
176
     1
 90
        1
176
     1
 90
        6
176
     1
 90
        2
176
     1
 62
     7
176
     1
 90
        3
176
     1
 90
        0
176
     1
 90
        0
176
     1
290
     0
176
     1
 90
       13
176
     1
 40
0.0
176
     1
 90
        0
176
     1
290
     0
176
     1
290
     1
176
     1
290
     1
176
     1
290
     0
176
     1
290
     0
176
     1
290
     0
176
     1
290
     0
176
     1
290
     0
176
     1
290
     0
176
     1
 90
       50
176
     1
 40
0.0
176
     1
 40
1.0
176
     1
 90
        0
176
     1
 62
    18
420
        0
176
     1
 90
       50
176
     1
 90
        3
176
     1
 62
     5
420
      255
176
     1
290
     0
176
     1
 90
       50
176
     1
 90
       50
176
     1
 90
       50
176
     1
290
     0
176
     1
 90
       50
176
     1
 62
   256
176
     0
 40
1.0
176
     0
 90
        2
176
     1
  1
strokes_ogs.tif
176
     1
290
     0
176
     1
 40
1.0
176
     1
 40
1.0
176
     1
  0
DICTIONARYVAR
  5
24B
102
{ACAD_REACTORS
330
24A
102
}
330
24A
100
DictionaryVariables
280
     0
  1
1:1
  0
DICTIONARYVAR
  5
250
102
{ACAD_REACTORS
330
24A
102
}
330
24A
100
DictionaryVariables
280
     0
  1
Standard
  0
DICTIONARYVAR
  5
24F
102
{ACAD_REACTORS
330
24A
102
}
330
24A
100
DictionaryVariables
280
     0
  1
Standard
  0
DICTIONARY
  5
24C
330
6A
100
AcDbDictionary
280
     1
281
     1
  3
ACAD_ROUNDTRIP_2008_TABLESTYLE_CELLSTYLEMAP
360
24D
  0
CELLSTYLEMAP
  5
24D
102
{ACAD_REACTORS
330
24C
102
}
330
24C
100
AcDbCellStyleMap
 90
        3
300
CELLSTYLE
  1
TABLEFORMAT_BEGIN
 90
        5
170
     1
 91
        0
 92
    32768
 62
   257
 93
        1
300
CONTENTFORMAT
  1
CONTENTFORMAT_BEGIN
 90
        0
 91
        0
 92
        4
 93
        0
300

 40
0.0
140
1.0
 94
        5
 62
     0
340
11
144
0.25
309
CONTENTFORMAT_END
171
     1
301
MARGIN
  1
CELLMARGIN_BEGIN
 40
0.06
 40
0.06
 40
0.06
 40
0.06
 40
0.06
 40
0.06
309
CELLMARGIN_END
 94
        6
 95
        1
302
GRIDFORMAT
  1
GRIDFORMAT_BEGIN
 90
        0
 91
        1
 62
     0
 92
       -2
340
14
 93
        0
 40
0.045
309
GRIDFORMAT_END
 95
        2
302
GRIDFORMAT
  1
GRIDFORMAT_BEGIN
 90
        0
 91
        1
 62
     0
 92
       -2
340
14
 93
        0
 40
0.045
309
GRIDFORMAT_END
 95
        4
302
GRIDFORMAT
  1
GRIDFORMAT_BEGIN
 90
        0
 91
        1
 62
     0
 92
       -2
340
14
 93
        0
 40
0.045
309
GRIDFORMAT_END
 95
        8
302
GRIDFORMAT
  1
GRIDFORMAT_BEGIN
 90
        0
 91
        1
 62
     0
 92
       -2
340
14
 93
        0
 40
0.045
309
GRIDFORMAT_END
 95
       16
302
GRIDFORMAT
  1
GRIDFORMAT_BEGIN
 90
        0
 91
        1
 62
     0
 92
       -2
340
14
 93
        0
 40
0.045
309
GRIDFORMAT_END
 95
       32
302
GRIDFORMAT
  1
GRIDFORMAT_BEGIN
 90
        0
 91
        1
 62
     0
 92
       -2
340
14
 93
        0
 40
0.045
309
GRIDFORMAT_END
309
TABLEFORMAT_END
  1
CELLSTYLE_BEGIN
 90
        1
 91
        1
300
_TITLE
309
CELLSTYLE_END
300
CELLSTYLE
  1
TABLEFORMAT_BEGIN
 90
        5
170
     1
 91
        0
 92
        0
 62
   257
 93
        1
300
CONTENTFORMAT
  1
CONTENTFORMAT_BEGIN
 90
        0
 91
        0
 92
        4
 93
        0
300

 40
0.0
140
1.0
 94
        5
 62
     0
340
11
144
0.18
309
CONTENTFORMAT_END
171
     1
301
MARGIN
  1
CELLMARGIN_BEGIN
 40
0.06
 40
0.06
 40
0.06
 40
0.06
 40
0.06
 40
0.06
309
CELLMARGIN_END
 94
        6
 95
        1
302
GRIDFORMAT
  1
GRIDFORMAT_BEGIN
 90
        0
 91
        1
 62
     0
 92
       -2
340
14
 93
        0
 40
0.045
309
GRIDFORMAT_END
 95
        2
302
GRIDFORMAT
  1
GRIDFORMAT_BEGIN
 90
        0
 91
        1
 62
     0
 92
       -2
340
14
 93
        0
 40
0.045
309
GRIDFORMAT_END
 95
        4
302
GRIDFORMAT
  1
GRIDFORMAT_BEGIN
 90
        0
 91
        1
 62
     0
 92
       -2
340
14
 93
        0
 40
0.045
309
GRIDFORMAT_END
 95
        8
302
GRIDFORMAT
  1
GRIDFORMAT_BEGIN
 90
        0
 91
        1
 62
     0
 92
       -2
340
14
 93
        0
 40
0.045
309
GRIDFORMAT_END
 95
       16
302
GRIDFORMAT
  1
GRIDFORMAT_BEGIN
 90
        0
 91
        1
 62
     0
 92
       -2
340
14
 93
        0
 40
0.045
309
GRIDFORMAT_END
 95
       32
302
GRIDFORMAT
  1
GRIDFORMAT_BEGIN
 90
        0
 91
        1
 62
     0
 92
       -2
340
14
 93
        0
 40
0.045
309
GRIDFORMAT_END
309
TABLEFORMAT_END
  1
CELLSTYLE_BEGIN
 90
        2
 91
        1
300
_HEADER
309
CELLSTYLE_END
300
CELLSTYLE
  1
TABLEFORMAT_BEGIN
 90
        5
170
     1
 91
        0
 92
        0
 62
   257
 93
        1
300
CONTENTFORMAT
  1
CONTENTFORMAT_BEGIN
 90
        0
 91
        0
 92
        4
 93
        0
300

 40
0.0
140
1.0
 94
        2
 62
     0
340
11
144
0.18
309
CONTENTFORMAT_END
171
     1
301
MARGIN
  1
CELLMARGIN_BEGIN
 40
0.06
 40
0.06
 40
0.06
 40
0.06
 40
0.06
 40
0.06
309
CELLMARGIN_END
 94
        6
 95
        1
302
GRIDFORMAT
  1
GRIDFORMAT_BEGIN
 90
        0
 91
        1
 62
     0
 92
       -2
340
14
 93
        0
 40
0.045
309
GRIDFORMAT_END
 95
        2
302
GRIDFORMAT
  1
GRIDFORMAT_BEGIN
 90
        0
 91
        1
 62
     0
 92
       -2
340
14
 93
        0
 40
0.045
309
GRIDFORMAT_END
 95
        4
302
GRIDFORMAT
  1
GRIDFORMAT_BEGIN
 90
        0
 91
        1
 62
     0
 92
       -2
340
14
 93
        0
 40
0.045
309
GRIDFORMAT_END
 95
        8
302
GRIDFORMAT
  1
GRIDFORMAT_BEGIN
 90
        0
 91
        1
 62
     0
 92
       -2
340
14
 93
        0
 40
0.045
309
GRIDFORMAT_END
 95
       16
302
GRIDFORMAT
  1
GRIDFORMAT_BEGIN
 90
        0
 91
        1
 62
     0
 92
       -2
340
14
 93
        0
 40
0.045
309
GRIDFORMAT_END
 95
       32
302
GRIDFORMAT
  1
GRIDFORMAT_BEGIN
 90
        0
 91
        1
 62
     0
 92
       -2
340
14
 93
        0
 40
0.045
309
GRIDFORMAT_END
309
TABLEFORMAT_END
  1
CELLSTYLE_BEGIN
 90
        3
 91
        2
300
_DATA
309
CELLSTYLE_END
  0
ENDSEC
  0
EOF