0
SECTION
  2
HEADER
  9
$ACADVER
  1
AC1027
  9
$ACADMAINTVER
 70
     8
  9
$DWGCODEPAGE
  3
ANSI_1252
  9
$REQUIREDVERSIONS
160
                 0
  9
$COMMENTS
  1
File was created by Cadenas
  9
$CUSTOMPROPERTYTAG
  1
NN
  9
$CUSTOMPROPERTY
  1
Imperial - IP Flange - Square with Type E Dimensions 1-3/8 thru 2-3/16 inch Trident Seal Expansion
  9
$CUSTOMPROPERTYTAG
  1
NT
  9
$CUSTOMPROPERTY
  1
Imperial/E 4 Bolt Flange Bearings
  9
$CUSTOMPROPERTYTAG
  1
NB
  9
$CUSTOMPROPERTY
  1
071289
  9
$CUSTOMPROPERTYTAG
  1
NBSYN
  9
$CUSTOMPROPERTY
  1
$PN.
  9
$CUSTOMPROPERTYTAG
  1
LINA
  9
$CUSTOMPROPERTY
  1
071289
  9
$CUSTOMPROPERTYTAG
  1
SS
  9
$CUSTOMPROPERTY
  1
1-7/16
  9
$CUSTOMPROPERTYTAG
  1
TYPE
  9
$CUSTOMPROPERTY
  1
Non-Expansion
  9
$CUSTOMPROPERTYTAG
  1
PN
  9
$CUSTOMPROPERTY
  1
071289
  9
$CUSTOMPROPERTYTAG
  1
DESCRIPTION
  9
$CUSTOMPROPERTY
  1
EF4B-IP-107R
  9
$CUSTOMPROPERTYTAG
  1
ST
  9
$CUSTOMPROPERTY
  1
Contact Seal
  9
$CUSTOMPROPERTYTAG
  1
A
  9
$CUSTOMPROPERTY
  1
2.63
  9
$CUSTOMPROPERTYTAG
  1
B
  9
$CUSTOMPROPERTY
  1
4.63
  9
$CUSTOMPROPERTYTAG
  1
C
  9
$CUSTOMPROPERTY
  1
3.15
  9
$CUSTOMPROPERTYTAG
  1
D
  9
$CUSTOMPROPERTY
  1
3.5
  9
$CUSTOMPROPERTYTAG
  1
DD
  9
$CUSTOMPROPERTY
  1
4.95
  9
$CUSTOMPROPERTYTAG
  1
F
  9
$CUSTOMPROPERTY
  1
1/2
  9
$CUSTOMPROPERTYTAG
  1
G
  9
$CUSTOMPROPERTY
  1
0.66
  9
$CUSTOMPROPERTYTAG
  1
H
  9
$CUSTOMPROPERTY
  1
1.06
  9
$CUSTOMPROPERTYTAG
  1
J
  9
$CUSTOMPROPERTY
  1
3.88
  9
$CUSTOMPROPERTYTAG
  1
L
  9
$CUSTOMPROPERTY
  1
2.72
  9
$CUSTOMPROPERTYTAG
  1
N
  9
$CUSTOMPROPERTY
  1
2.34
  9
$CUSTOMPROPERTYTAG
  1
P
  9
$CUSTOMPROPERTY
  1
0.53
  9
$CUSTOMPROPERTYTAG
  1
X
  9
$CUSTOMPROPERTY
  1
0.16
  9
$CUSTOMPROPERTYTAG
  1
Y
  9
$CUSTOMPROPERTY
  1
0.020
  9
$CUSTOMPROPERTYTAG
  1
Z
  9
$CUSTOMPROPERTY
  1
1.8
  9
$CUSTOMPROPERTYTAG
  1
COMPANY
  9
$CUSTOMPROPERTY
  1
baldor
  9
$INSBASE
 10
0.0
 20
0.0
 30
0.0
  9
$EXTMIN
 10
1.000000000000000E+20
 20
1.000000000000000E+20
 30
1.000000000000000E+20
  9
$EXTMAX
 10
-1.000000000000000E+20
 20
-1.000000000000000E+20
 30
-1.000000000000000E+20
  9
$LIMMIN
 10
0.0
 20
0.0
  9
$LIMMAX
 10
12.0
 20
9.0
  9
$ORTHOMODE
 70
     0
  9
$REGENMODE
 70
     1
  9
$FILLMODE
 70
     1
  9
$QTEXTMODE
 70
     0
  9
$MIRRTEXT
 70
     1
  9
$LTSCALE
 40
1.0
  9
$ATTMODE
 70
     1
  9
$TEXTSIZE
 40
0.2
  9
$TRACEWID
 40
0.05
  9
$TEXTSTYLE
  7
Standard
  9
$CLAYER
  8
0
  9
$CELTYPE
  6
ByLayer
  9
$CECOLOR
 62
   256
  9
$CELTSCALE
 40
1.0
  9
$DISPSILH
 70
     0
  9
$DIMSCALE
 40
1.0
  9
$DIMASZ
 40
0.18
  9
$DIMEXO
 40
0.0625
  9
$DIMDLI
 40
0.38
  9
$DIMRND
 40
0.0
  9
$DIMDLE
 40
0.0
  9
$DIMEXE
 40
0.18
  9
$DIMTP
 40
0.0
  9
$DIMTM
 40
0.0
  9
$DIMTXT
 40
0.18
  9
$DIMCEN
 40
0.09
  9
$DIMTSZ
 40
0.0
  9
$DIMTOL
 70
     0
  9
$DIMLIM
 70
     0
  9
$DIMTIH
 70
     1
  9
$DIMTOH
 70
     1
  9
$DIMSE1
 70
     0
  9
$DIMSE2
 70
     0
  9
$DIMTAD
 70
     0
  9
$DIMZIN
 70
     0
  9
$DIMBLK
  1

  9
$DIMASO
 70
     1
  9
$DIMSHO
 70
     1
  9
$DIMPOST
  1

  9
$DIMAPOST
  1

  9
$DIMALT
 70
     0
  9
$DIMALTD
 70
     2
  9
$DIMALTF
 40
25.4
  9
$DIMLFAC
 40
1.0
  9
$DIMTOFL
 70
     0
  9
$DIMTVP
 40
0.0
  9
$DIMTIX
 70
     0
  9
$DIMSOXD
 70
     0
  9
$DIMSAH
 70
     0
  9
$DIMBLK1
  1

  9
$DIMBLK2
  1

  9
$DIMSTYLE
  2
Standard
  9
$DIMCLRD
 70
     0
  9
$DIMCLRE
 70
     0
  9
$DIMCLRT
 70
     0
  9
$DIMTFAC
 40
1.0
  9
$DIMGAP
 40
0.09
  9
$DIMJUST
 70
     0
  9
$DIMSD1
 70
     0
  9
$DIMSD2
 70
     0
  9
$DIMTOLJ
 70
     1
  9
$DIMTZIN
 70
     0
  9
$DIMALTZ
 70
     0
  9
$DIMALTTZ
 70
     0
  9
$DIMUPT
 70
     0
  9
$DIMDEC
 70
     4
  9
$DIMTDEC
 70
     4
  9
$DIMALTU
 70
     2
  9
$DIMALTTD
 70
     2
  9
$DIMTXSTY
  7
Standard
  9
$DIMAUNIT
 70
     0
  9
$DIMADEC
 70
     0
  9
$DIMALTRND
 40
0.0
  9
$DIMAZIN
 70
     0
  9
$DIMDSEP
 70
    46
  9
$DIMATFIT
 70
     3
  9
$DIMFRAC
 70
     0
  9
$DIMLDRBLK
  1

  9
$DIMLUNIT
 70
     2
  9
$DIMLWD
 70
    -2
  9
$DIMLWE
 70
    -2
  9
$DIMTMOVE
 70
     0
  9
$DIMFXL
 40
1.0
  9
$DIMFXLON
 70
     0
  9
$DIMJOGANG
 40
0.7853981633974483
  9
$DIMTFILL
 70
     0
  9
$DIMTFILLCLR
 70
     0
  9
$DIMARCSYM
 70
     0
  9
$DIMLTYPE
  6

  9
$DIMLTEX1
  6

  9
$DIMLTEX2
  6

  9
$DIMTXTDIRECTION
 70
     0
  9
$LUNITS
 70
     2
  9
$LUPREC
 70
     4
  9
$SKETCHINC
 40
0.1
  9
$FILLETRAD
 40
0.5
  9
$AUNITS
 70
     0
  9
$AUPREC
 70
     0
  9
$MENU
  1
.
  9
$ELEVATION
 40
0.0
  9
$PELEVATION
 40
0.0
  9
$THICKNESS
 40
0.0
  9
$LIMCHECK
 70
     0
  9
$CHAMFERA
 40
0.0
  9
$CHAMFERB
 40
0.0
  9
$CHAMFERC
 40
0.0
  9
$CHAMFERD
 40
0.0
  9
$SKPOLY
 70
     0
  9
$TDCREATE
 40
2458168.976288507
  9
$TDUCREATE
 40
2458168.93462184
  9
$TDUPDATE
 40
2458168.976288692
  9
$TDUUPDATE
 40
2458168.934622026
  9
$TDINDWG
 40
0.0000000116
  9
$TDUSRTIMER
 40
0.0000000116
  9
$USRTIMER
 70
     1
  9
$ANGBASE
 50
0.0
  9
$ANGDIR
 70
     0
  9
$PDMODE
 70
     0
  9
$PDSIZE
 40
0.0
  9
$PLINEWID
 40
0.0
  9
$SPLFRAME
 70
     0
  9
$SPLINETYPE
 70
     6
  9
$SPLINESEGS
 70
     8
  9
$HANDSEED
  5
253
  9
$SURFTAB1
 70
     6
  9
$SURFTAB2
 70
     6
  9
$SURFTYPE
 70
     6
  9
$SURFU
 70
     6
  9
$SURFV
 70
     6
  9
$UCSBASE
  2

  9
$UCSNAME
  2

  9
$UCSORG
 10
0.0
 20
0.0
 30
0.0
  9
$UCSXDIR
 10
1.0
 20
0.0
 30
0.0
  9
$UCSYDIR
 10
0.0
 20
1.0
 30
0.0
  9
$UCSORTHOREF
  2

  9
$UCSORTHOVIEW
 70
     0
  9
$UCSORGTOP
 10
0.0
 20
0.0
 30
0.0
  9
$UCSORGBOTTOM
 10
0.0
 20
0.0
 30
0.0
  9
$UCSORGLEFT
 10
0.0
 20
0.0
 30
0.0
  9
$UCSORGRIGHT
 10
0.0
 20
0.0
 30
0.0
  9
$UCSORGFRONT
 10
0.0
 20
0.0
 30
0.0
  9
$UCSORGBACK
 10
0.0
 20
0.0
 30
0.0
  9
$PUCSBASE
  2

  9
$PUCSNAME
  2

  9
$PUCSORG
 10
0.0
 20
0.0
 30
0.0
  9
$PUCSXDIR
 10
1.0
 20
0.0
 30
0.0
  9
$PUCSYDIR
 10
0.0
 20
1.0
 30
0.0
  9
$PUCSORTHOREF
  2

  9
$PUCSORTHOVIEW
 70
     0
  9
$PUCSORGTOP
 10
0.0
 20
0.0
 30
0.0
  9
$PUCSORGBOTTOM
 10
0.0
 20
0.0
 30
0.0
  9
$PUCSORGLEFT
 10
0.0
 20
0.0
 30
0.0
  9
$PUCSORGRIGHT
 10
0.0
 20
0.0
 30
0.0
  9
$PUCSORGFRONT
 10
0.0
 20
0.0
 30
0.0
  9
$PUCSORGBACK
 10
0.0
 20
0.0
 30
0.0
  9
$USERI1
 70
     0
  9
$USERI2
 70
     0
  9
$USERI3
 70
     0
  9
$USERI4
 70
     0
  9
$USERI5
 70
     0
  9
$USERR1
 40
0.0
  9
$USERR2
 40
0.0
  9
$USERR3
 40
0.0
  9
$USERR4
 40
0.0
  9
$USERR5
 40
0.0
  9
$WORLDVIEW
 70
     1
  9
$SHADEDGE
 70
     3
  9
$SHADEDIF
 70
    70
  9
$TILEMODE
 70
     1
  9
$MAXACTVP
 70
    64
  9
$PINSBASE
 10
0.0
 20
0.0
 30
0.0
  9
$PLIMCHECK
 70
     0
  9
$PEXTMIN
 10
1.000000000000000E+20
 20
1.000000000000000E+20
 30
1.000000000000000E+20
  9
$PEXTMAX
 10
-1.000000000000000E+20
 20
-1.000000000000000E+20
 30
-1.000000000000000E+20
  9
$PLIMMIN
 10
0.0
 20
0.0
  9
$PLIMMAX
 10
12.0
 20
9.0
  9
$UNITMODE
 70
     0
  9
$VISRETAIN
 70
     1
  9
$PLINEGEN
 70
     0
  9
$PSLTSCALE
 70
     1
  9
$TREEDEPTH
 70
  3020
  9
$CMLSTYLE
  2
Standard
  9
$CMLJUST
 70
     0
  9
$CMLSCALE
 40
1.0
  9
$PROXYGRAPHICS
 70
     1
  9
$MEASUREMENT
 70
     0
  9
$CELWEIGHT
370
    -1
  9
$ENDCAPS
280
     0
  9
$JOINSTYLE
280
     0
  9
$LWDISPLAY
290
     0
  9
$INSUNITS
 70
     1
  9
$HYPERLINKBASE
  1

  9
$STYLESHEET
  1

  9
$XEDIT
290
     1
  9
$CEPSNTYPE
380
     0
  9
$PSTYLEMODE
290
     1
  9
$FINGERPRINTGUID
  2
{7FCF200E-119F-4109-AB32-144D24A3141E}
  9
$VERSIONGUID
  2
{FAEB1C32-E019-11D5-929B-00C0DF256EC4}
  9
$EXTNAMES
290
     1
  9
$PSVPSCALE
 40
0.0
  9
$OLESTARTUP
290
     0
  9
$SORTENTS
280
   127
  9
$INDEXCTL
280
     0
  9
$HIDETEXT
280
     1
  9
$XCLIPFRAME
280
     2
  9
$HALOGAP
280
     0
  9
$OBSCOLOR
 70
   257
  9
$OBSLTYPE
280
     0
  9
$INTERSECTIONDISPLAY
280
     0
  9
$INTERSECTIONCOLOR
 70
   257
  9
$DIMASSOC
280
     2
  9
$PROJECTNAME
  1

  9
$CAMERADISPLAY
290
     0
  9
$LENSLENGTH
 40
50.0
  9
$CAMERAHEIGHT
 40
0.0
  9
$STEPSPERSEC
 40
2.0
  9
$STEPSIZE
 40
6.0
  9
$3DDWFPREC
 40
2.0
  9
$PSOLWIDTH
 40
0.25
  9
$PSOLHEIGHT
 40
4.0
  9
$LOFTANG1
 40
1.570796326794897
  9
$LOFTANG2
 40
1.570796326794897
  9
$LOFTMAG1
 40
0.0
  9
$LOFTMAG2
 40
0.0
  9
$LOFTPARAM
 70
     7
  9
$LOFTNORMALS
280
     1
  9
$LATITUDE
 40
37.795
  9
$LONGITUDE
 40
-122.394
  9
$NORTHDIRECTION
 40
0.0
  9
$TIMEZONE
 70
 -8000
  9
$LIGHTGLYPHDISPLAY
280
     1
  9
$TILEMODELIGHTSYNCH
280
     1
  9
$CMATERIAL
347
44
  9
$SOLIDHIST
280
     0
  9
$SHOWHIST
280
     1
  9
$DWFFRAME
280
     2
  9
$DGNFRAME
280
     2
  9
$REALWORLDSCALE
290
     1
  9
$INTERFERECOLOR
 62
   256
  9
$CSHADOW
280
     0
  9
$SHADOWPLANELOCATION
 40
0.0
  0
ENDSEC
  0
SECTION
  2
CLASSES
  0
CLASS
  1
ACDBDICTIONARYWDFLT
  2
AcDbDictionaryWithDefault
  3
ObjectDBX Classes
 90
        0
 91
        4
280
     0
281
     0
  0
CLASS
  1
VISUALSTYLE
  2
AcDbVisualStyle
  3
ObjectDBX Classes
 90
     4095
 91
        4
280
     0
281
     0
  0
CLASS
  1
MATERIAL
  2
AcDbMaterial
  3
ObjectDBX Classes
 90
     1153
 91
        4
280
     0
281
     0
  0
CLASS
  1
SCALE
  2
AcDbScale
  3
ObjectDBX Classes
 90
     1153
 91
        4
280
     0
281
     0
  0
CLASS
  1
TABLESTYLE
  2
AcDbTableStyle
  3
ObjectDBX Classes
 90
     4095
 91
        4
280
     0
281
     0
  0
CLASS
  1
MLEADERSTYLE
  2
AcDbMLeaderStyle
  3
ACDB_MLEADERSTYLE_CLASS
 90
     4095
 91
        4
280
     0
281
     0
  0
CLASS
  1
SUN
  2
AcDbSun
  3
SCENEOE
 90
     1153
 91
        4
280
     0
281
     0
  0
CLASS
  1
DICTIONARYVAR
  2
AcDbDictionaryVar
  3
ObjectDBX Classes
 90
        0
 91
        4
280
     0
281
     0
  0
CLASS
  1
CELLSTYLEMAP
  2
AcDbCellStyleMap
  3
ObjectDBX Classes
 90
     1152
 91
        4
280
     0
281
     0
  0
ENDSEC
  0
SECTION
  2
TABLES
  0
TABLE
  2
VPORT
  5
8
330
0
100
AcDbSymbolTable
 70
     1
  0
VPORT
  5
29
330
8
100
AcDbSymbolTableRecord
100
AcDbViewportTableRecord
  2
*Active
 70
     0
 10
0.0
 20
0.0
 11
1.0
 21
1.0
 12
-1.57612499998735
 22
0.0284999999999993
 13
0.0
 23
0.0
 14
0.5
 24
0.5
 15
0.5
 25
0.5
 16
0.0
 26
0.0
 36
1.0
 17
0.0
 27
0.0
 37
0.0
 40
4.78074
 41
0.7323981224717946
 42
50.0
 43
0.0
 44
0.0
 50
0.0
 51
0.0
 71
     0
 72
   100
 73
     1
 74
     3
 75
     0
 76
     0
 77
     0
 78
     0
281
     0
 65
     1
110
0.0
120
0.0
130
0.0
111
1.0
121
0.0
131
0.0
112
0.0
122
1.0
132
0.0
 79
     0
146
0.0
348
2F
 60
     3
 61
     5
292
     1
282
     1
141
0.0
142
0.0
 63
   250
361
6D
  0
ENDTAB
  0
TABLE
  2
LTYPE
  5
5
330
0
100
AcDbSymbolTable
 70
     3
  0
LTYPE
  5
14
330
5
100
AcDbSymbolTableRecord
100
AcDbLinetypeTableRecord
  2
ByBlock
 70
     0
  3

 72
    65
 73
     0
 40
0.0
  0
LTYPE
  5
15
330
5
100
AcDbSymbolTableRecord
100
AcDbLinetypeTableRecord
  2
ByLayer
 70
     0
  3

 72
    65
 73
     0
 40
0.0
  0
LTYPE
  5
16
330
5
100
AcDbSymbolTableRecord
100
AcDbLinetypeTableRecord
  2
Continuous
 70
     0
  3
Solid line
 72
    65
 73
     0
 40
0.0
  0
LTYPE
  5
9D
330
5
100
AcDbSymbolTableRecord
100
AcDbLinetypeTableRecord
  2
Dashed
 70
     0
  3

 72
    65
 73
     2
 40
2.0
 49
1.0
 74
     0
 49
-1.0
 74
     0
  0
LTYPE
  5
18B
330
5
100
AcDbSymbolTableRecord
100
AcDbLinetypeTableRecord
  2
Center
 70
     0
  3

 72
    65
 73
     4
 40
1.5
 49
0.45
 74
     0
 49
-0.5
 74
     0
 49
0.05
 74
     0
 49
-0.5
 74
     0
  0
ENDTAB
  0
TABLE
  2
LAYER
  5
2
330
0
100
AcDbSymbolTable
 70
     7
  0
LAYER
  5
10
330
2
100
AcDbSymbolTableRecord
100
AcDbLayerTableRecord
  2
0
 70
     0
 62
     7
  6
Continuous
370
    -3
390
F
347
46
348
0
  0
LAYER
  5
72
330
2
100
AcDbSymbolTableRecord
100
AcDbLayerTableRecord
  2
AM_6
 70
     0
 62
    -2
  6
Continuous
370
    35
390
F
347
46
348
0
  0
LAYER
  5
9E
330
2
100
AcDbSymbolTableRecord
100
AcDbLayerTableRecord
  2
AM_9
 70
     0
 62
     6
  6
Dashed
370
    25
390
F
347
46
348
0
  0
LAYER
  5
AA
330
2
100
AcDbSymbolTableRecord
100
AcDbLayerTableRecord
  2
AM_5
 70
     0
 62
     3
  6
Continuous
370
    25
390
F
347
46
348
0
  0
LAYER
  5
AD
330
2
100
AcDbSymbolTableRecord
100
AcDbLayerTableRecord
  2
AM_4
 70
     0
 62
     7
  6
Continuous
370
    50
390
F
347
46
348
0
  0
LAYER
  5
18C
330
2
100
AcDbSymbolTableRecord
100
AcDbLayerTableRecord
  2
AM_7
 70
     0
 62
     7
  6
Center
370
    25
390
F
347
46
348
0
  0
LAYER
  5
23E
330
2
100
AcDbSymbolTableRecord
100
AcDbLayerTableRecord
  2
ConnectionPoints
 70
     0
 62
     7
  6
Continuous
370
    50
390
F
347
46
348
0
  0
ENDTAB
  0
TABLE
  2
STYLE
  5
3
330
0
100
AcDbSymbolTable
 70
     1
  0
STYLE
  5
11
330
3
100
AcDbSymbolTableRecord
100
AcDbTextStyleTableRecord
  2
Standard
 70
     0
 40
0.0
 41
1.0
 50
0.0
 71
     0
 42
0.2
  3
txt
  4

  0
ENDTAB
  0
TABLE
  2
VIEW
  5
6
330
0
100
AcDbSymbolTable
 70
     0
  0
ENDTAB
  0
TABLE
  2
UCS
  5
7
330
0
100
AcDbSymbolTable
 70
     0
  0
ENDTAB
  0
TABLE
  2
APPID
  5
9
330
0
100
AcDbSymbolTable
 70
     1
  0
APPID
  5
12
330
9
100
AcDbSymbolTableRecord
100
AcDbRegAppTableRecord
  2
ACAD
 70
     0
  0
ENDTAB
  0
TABLE
  2
DIMSTYLE
  5
A
330
0
100
AcDbSymbolTable
 70
     1
100
AcDbDimStyleTable
  0
DIMSTYLE
105
27
330
A
100
AcDbSymbolTableRecord
100
AcDbDimStyleTableRecord
  2
Standard
 70
     0
178
     0
340
11
  0
ENDTAB
  0
TABLE
  2
BLOCK_RECORD
  5
1
330
0
100
AcDbSymbolTable
 70
     8
  0
BLOCK_RECORD
  5
1F
330
1
100
AcDbSymbolTableRecord
100
AcDbBlockTableRecord
  2
*Model_Space
340
22
 70
     0
280
     1
281
     0
  0
BLOCK_RECORD
  5
1B
330
1
100
AcDbSymbolTableRecord
100
AcDbBlockTableRecord
  2
*Paper_Space
340
1E
 70
     0
280
     1
281
     0
  0
BLOCK_RECORD
  5
23
330
1
100
AcDbSymbolTableRecord
100
AcDbBlockTableRecord
  2
*Paper_Space0
340
26
 70
     0
280
     1
281
     0
  0
BLOCK_RECORD
  5
6E
330
1
100
AcDbSymbolTableRecord
100
AcDbBlockTableRecord
  2
1_071289_2
340
0
102
{BLKREFS
331
6F
102
}
 70
     0
280
     1
281
     0
  0
BLOCK_RECORD
  5
8D
330
1
100
AcDbSymbolTableRecord
100
AcDbBlockTableRecord
  2
2_ASME_B18_3_10_1_0_in_071289_2
340
0
102
{BLKREFS
331
8E
102
}
 70
     0
280
     1
281
     0
  0
BLOCK_RECORD
  5
B4
330
1
100
AcDbSymbolTableRecord
100
AcDbBlockTableRecord
  2
3_ASME_B18_3_10_2_0_in_071289_2
340
0
102
{BLKREFS
331
B5
102
}
 70
     0
280
     1
281
     0
  0
BLOCK_RECORD
  5
D7
330
1
100
AcDbSymbolTableRecord
100
AcDbBlockTableRecord
  2
4_070884LWE_0_in_071289_2
340
0
102
{BLKREFS
331
D8
102
}
 70
     0
280
     1
281
     0
  0
BLOCK_RECORD
  5
110
330
1
100
AcDbSymbolTableRecord
100
AcDbBlockTableRecord
  2
5_070884E_0_in_071289_2
340
0
102
{BLKREFS
331
111
102
}
 70
     0
280
     1
281
     0
  0
BLOCK_RECORD
  5
19D
330
1
100
AcDbSymbolTableRecord
100
AcDbBlockTableRecord
  2
6_405015E_Inch_0_in_071289_2
340
0
102
{BLKREFS
331
19E
102
}
 70
     0
280
     1
281
     0
  0
BLOCK_RECORD
  5
1DC
330
1
100
AcDbSymbolTableRecord
100
AcDbBlockTableRecord
  2
7_071289H_0_in_071289_2
340
0
102
{BLKREFS
331
1DD
102
}
 70
     0
280
     1
281
     0
  0
ENDTAB
  0
ENDSEC
  0
SECTION
  2
BLOCKS
  0
BLOCK
  5
20
330
1F
100
AcDbEntity
  8
0
100
AcDbBlockBegin
  2
*Model_Space
 70
     0
 10
0.0
 20
0.0
 30
0.0
  3
*Model_Space
  1

  0
ENDBLK
  5
21
330
1F
100
AcDbEntity
  8
0
100
AcDbBlockEnd
  0
BLOCK
  5
1C
330
1B
100
AcDbEntity
 67
     1
  8
0
100
AcDbBlockBegin
  2
*Paper_Space
 70
     0
 10
0.0
 20
0.0
 30
0.0
  3
*Paper_Space
  1

  0
ENDBLK
  5
1D
330
1B
100
AcDbEntity
 67
     1
  8
0
100
AcDbBlockEnd
  0
BLOCK
  5
24
330
23
100
AcDbEntity
  8
0
100
AcDbBlockBegin
  2
*Paper_Space0
 70
     0
 10
0.0
 20
0.0
 30
0.0
  3
*Paper_Space0
  1

  0
ENDBLK
  5
25
330
23
100
AcDbEntity
  8
0
100
AcDbBlockEnd
  0
BLOCK
  5
70
330
6E
100
AcDbEntity
  8
0
100
AcDbBlockBegin
  2
1_071289_2
 70
     2
 10
0.0
 20
0.0
 30
0.0
  3
1_071289_2
  1

  0
ATTDEF
  5
73
330
6E
100
AcDbEntity
  8
AM_6
100
AcDbText
 10
5.140250000025299
 20
2.372
 30
0.0
 40
0.5
  1
Imperial - IP Flange - Square with Type E Dimensions 1-3/8 thru 2-3/16 inch Trident Seal Expansion
100
AcDbAttributeDefinition
  3

  2
NN
 70
     8
280
     0
  0
ATTDEF
  5
74
330
6E
100
AcDbEntity
  8
AM_6
100
AcDbText
 10
5.140250000025299
 20
1.872
 30
0.0
 40
0.5
  1
Imperial/E 4 Bolt Flange Bearings
100
AcDbAttributeDefinition
  3

  2
NT
 70
     8
280
     0
  0
ATTDEF
  5
75
330
6E
100
AcDbEntity
  8
AM_6
100
AcDbText
 10
5.140250000025299
 20
1.372
 30
0.0
 40
0.5
  1
071289
100
AcDbAttributeDefinition
  3

  2
NB
 70
     8
280
     0
  0
ATTDEF
  5
76
330
6E
100
AcDbEntity
  8
AM_6
100
AcDbText
 10
5.140250000025299
 20
0.8719999999999999
 30
0.0
 40
0.5
  1
$PN.
100
AcDbAttributeDefinition
  3

  2
NBSYN
 70
     8
280
     0
  0
ATTDEF
  5
77
330
6E
100
AcDbEntity
  8
AM_6
100
AcDbText
 10
5.140250000025299
 20
0.3719999999999999
 30
0.0
 40
0.5
  1
071289
100
AcDbAttributeDefinition
  3

  2
LINA
 70
     8
280
     0
  0
ATTDEF
  5
78
330
6E
100
AcDbEntity
  8
AM_6
100
AcDbText
 10
5.140250000025299
 20
-0.1280000000000001
 30
0.0
 40
0.5
  1
1-7/16
100
AcDbAttributeDefinition
  3

  2
SS
 70
     8
280
     0
  0
ATTDEF
  5
79
330
6E
100
AcDbEntity
  8
AM_6
100
AcDbText
 10
5.140250000025299
 20
-0.6280000000000001
 30
0.0
 40
0.5
  1
Non-Expansion
100
AcDbAttributeDefinition
  3

  2
TYPE
 70
     8
280
     0
  0
ATTDEF
  5
7A
330
6E
100
AcDbEntity
  8
AM_6
100
AcDbText
 10
5.140250000025299
 20
-1.128
 30
0.0
 40
0.5
  1
071289
100
AcDbAttributeDefinition
  3

  2
PN
 70
     8
280
     0
  0
ATTDEF
  5
7B
330
6E
100
AcDbEntity
  8
AM_6
100
AcDbText
 10
5.140250000025299
 20
-1.628
 30
0.0
 40
0.5
  1
EF4B-IP-107R
100
AcDbAttributeDefinition
  3

  2
DESCRIPTION
 70
     8
280
     0
  0
ATTDEF
  5
7C
330
6E
100
AcDbEntity
  8
AM_6
100
AcDbText
 10
5.140250000025299
 20
-2.128
 30
0.0
 40
0.5
  1
Contact Seal
100
AcDbAttributeDefinition
  3

  2
ST
 70
     8
280
     0
  0
ATTDEF
  5
7D
330
6E
100
AcDbEntity
  8
AM_6
100
AcDbText
 10
5.140250000025299
 20
-2.628
 30
0.0
 40
0.5
  1
2.63
100
AcDbAttributeDefinition
  3

  2
A
 70
     8
280
     0
  0
ATTDEF
  5
7E
330
6E
100
AcDbEntity
  8
AM_6
100
AcDbText
 10
5.140250000025299
 20
-3.128
 30
0.0
 40
0.5
  1
4.63
100
AcDbAttributeDefinition
  3

  2
B
 70
     8
280
     0
  0
ATTDEF
  5
7F
330
6E
100
AcDbEntity
  8
AM_6
100
AcDbText
 10
5.140250000025299
 20
-3.628
 30
0.0
 40
0.5
  1
3.15
100
AcDbAttributeDefinition
  3

  2
C
 70
     8
280
     0
  0
ATTDEF
  5
80
330
6E
100
AcDbEntity
  8
AM_6
100
AcDbText
 10
5.140250000025299
 20
-4.128
 30
0.0
 40
0.5
  1
3.5
100
AcDbAttributeDefinition
  3

  2
D
 70
     8
280
     0
  0
ATTDEF
  5
81
330
6E
100
AcDbEntity
  8
AM_6
100
AcDbText
 10
5.140250000025299
 20
-4.628
 30
0.0
 40
0.5
  1
4.95
100
AcDbAttributeDefinition
  3

  2
DD
 70
     8
280
     0
  0
ATTDEF
  5
82
330
6E
100
AcDbEntity
  8
AM_6
100
AcDbText
 10
5.140250000025299
 20
-5.128
 30
0.0
 40
0.5
  1
1/2
100
AcDbAttributeDefinition
  3

  2
F
 70
     8
280
     0
  0
ATTDEF
  5
83
330
6E
100
AcDbEntity
  8
AM_6
100
AcDbText
 10
5.140250000025299
 20
-5.628
 30
0.0
 40
0.5
  1
0.66
100
AcDbAttributeDefinition
  3

  2
G
 70
     8
280
     0
  0
ATTDEF
  5
84
330
6E
100
AcDbEntity
  8
AM_6
100
AcDbText
 10
5.140250000025299
 20
-6.128
 30
0.0
 40
0.5
  1
1.06
100
AcDbAttributeDefinition
  3

  2
H
 70
     8
280
     0
  0
ATTDEF
  5
85
330
6E
100
AcDbEntity
  8
AM_6
100
AcDbText
 10
5.140250000025299
 20
-6.628
 30
0.0
 40
0.5
  1
3.88
100
AcDbAttributeDefinition
  3

  2
J
 70
     8
280
     0
  0
ATTDEF
  5
86
330
6E
100
AcDbEntity
  8
AM_6
100
AcDbText
 10
5.140250000025299
 20
-7.128
 30
0.0
 40
0.5
  1
2.72
100
AcDbAttributeDefinition
  3

  2
L
 70
     8
280
     0
  0
ATTDEF
  5
87
330
6E
100
AcDbEntity
  8
AM_6
100
AcDbText
 10
5.140250000025299
 20
-7.628
 30
0.0
 40
0.5
  1
2.34
100
AcDbAttributeDefinition
  3

  2
N
 70
     8
280
     0
  0
ATTDEF
  5
88
330
6E
100
AcDbEntity
  8
AM_6
100
AcDbText
 10
5.140250000025299
 20
-8.128
 30
0.0
 40
0.5
  1
0.53
100
AcDbAttributeDefinition
  3

  2
P
 70
     8
280
     0
  0
ATTDEF
  5
89
330
6E
100
AcDbEntity
  8
AM_6
100
AcDbText
 10
5.140250000025299
 20
-8.628
 30
0.0
 40
0.5
  1
0.16
100
AcDbAttributeDefinition
  3

  2
X
 70
     8
280
     0
  0
ATTDEF
  5
8A
330
6E
100
AcDbEntity
  8
AM_6
100
AcDbText
 10
5.140250000025299
 20
-9.128
 30
0.0
 40
0.5
  1
0.020
100
AcDbAttributeDefinition
  3

  2
Y
 70
     8
280
     0
  0
ATTDEF
  5
8B
330
6E
100
AcDbEntity
  8
AM_6
100
AcDbText
 10
5.140250000025299
 20
-9.628
 30
0.0
 40
0.5
  1
1.8
100
AcDbAttributeDefinition
  3

  2
Z
 70
     8
280
     0
  0
ATTDEF
  5
8C
330
6E
100
AcDbEntity
  8
AM_6
100
AcDbText
 10
5.140250000025299
 20
-10.128
 30
0.0
 40
0.5
  1
baldor
100
AcDbAttributeDefinition
  3

  2
COMPANY
 70
     8
280
     0
  0
INSERT
  5
8E
330
6E
100
AcDbEntity
  8
0
100
AcDbBlockReference
  2
2_ASME_B18_3_10_1_0_in_071289_2
 10
0.0
 20
0.0
 30
0.0
  0
INSERT
  5
B5
330
6E
100
AcDbEntity
  8
0
100
AcDbBlockReference
  2
3_ASME_B18_3_10_2_0_in_071289_2
 10
0.0
 20
0.0
 30
0.0
  0
INSERT
  5
D8
330
6E
100
AcDbEntity
  8
0
100
AcDbBlockReference
  2
4_070884LWE_0_in_071289_2
 10
0.0
 20
0.0
 30
0.0
  0
INSERT
  5
111
330
6E
100
AcDbEntity
  8
0
100
AcDbBlockReference
  2
5_070884E_0_in_071289_2
 10
0.0
 20
0.0
 30
0.0
  0
INSERT
  5
19E
330
6E
100
AcDbEntity
  8
0
100
AcDbBlockReference
  2
6_405015E_Inch_0_in_071289_2
 10
0.0
 20
0.0
 30
0.0
  0
INSERT
  5
1DD
330
6E
100
AcDbEntity
  8
0
100
AcDbBlockReference
  2
7_071289H_0_in_071289_2
 10
0.0
 20
0.0
 30
0.0
  0
ENDBLK
  5
71
330
6E
100
AcDbEntity
  8
0
100
AcDbBlockEnd
  0
BLOCK
  5
8F
330
8D
100
AcDbEntity
  8
0
100
AcDbBlockBegin
  2
2_ASME_B18_3_10_1_0_in_071289_2
 70
     2
 10
0.0
 20
0.0
 30
0.0
  3
2_ASME_B18_3_10_1_0_in_071289_2
  1

  0
ATTDEF
  5
91
330
8D
100
AcDbEntity
  8
AM_6
100
AcDbText
 10
2.801666666666667
 20
-0.8984930555555557
 30
0.0
 40
0.5
  1
ANSI/ASME B18.3-1998
100
AcDbAttributeDefinition
  3

  2
NN
 70
     8
280
     0
  0
ATTDEF
  5
92
330
8D
100
AcDbEntity
  8
AM_6
100
AcDbText
 10
2.801666666666667
 20
-1.398493055555556
 30
0.0
 40
0.5
  1
Socket Button Head Cap Screws
100
AcDbAttributeDefinition
  3

  2
NT
 70
     8
280
     0
  0
ATTDEF
  5
93
330
8D
100
AcDbEntity
  8
AM_6
100
AcDbText
 10
2.801666666666667
 20
-1.898493055555556
 30
0.0
 40
0.5
  1
ASME B18.3-10
100
AcDbAttributeDefinition
  3

  2
NB
 70
     8
280
     0
  0
ATTDEF
  5
94
330
8D
100
AcDbEntity
  8
AM_6
100
AcDbText
 10
2.801666666666667
 20
-2.398493055555556
 30
0.0
 40
0.5
  1
ASME B18.3-$NS.
100
AcDbAttributeDefinition
  3

  2
NBSYN
 70
     8
280
     0
  0
ATTDEF
  5
95
330
8D
100
AcDbEntity
  8
AM_6
100
AcDbText
 10
2.801666666666667
 20
-2.898493055555556
 30
0.0
 40
0.5
  1
ASME B18.3-10
100
AcDbAttributeDefinition
  3

  2
LINA
 70
     8
280
     0
  0
ATTDEF
  5
96
330
8D
100
AcDbEntity
  8
AM_6
100
AcDbText
 10
2.801666666666667
 20
-3.398493055555556
 30
0.0
 40
0.5
  1
10
100
AcDbAttributeDefinition
  3

  2
NS
 70
     8
280
     0
  0
ATTDEF
  5
97
330
8D
100
AcDbEntity
  8
AM_6
100
AcDbText
 10
2.801666666666667
 20
-3.898493055555556
 30
0.0
 40
0.5
  1
0.361
100
AcDbAttributeDefinition
  3

  2
A
 70
     8
280
     0
  0
ATTDEF
  5
98
330
8D
100
AcDbEntity
  8
AM_6
100
AcDbText
 10
2.801666666666667
 20
-4.398493055555556
 30
0.0
 40
0.5
  1
0.101
100
AcDbAttributeDefinition
  3

  2
H
 70
     8
280
     0
  0
ATTDEF
  5
99
330
8D
100
AcDbEntity
  8
AM_6
100
AcDbText
 10
2.801666666666667
 20
-4.898493055555556
 30
0.0
 40
0.5
  1
0.800
100
AcDbAttributeDefinition
  3

  2
L
 70
     8
280
     0
  0
ATTDEF
  5
9A
330
8D
100
AcDbEntity
  8
AM_6
100
AcDbText
 10
2.801666666666667
 20
-5.398493055555556
 30
0.0
 40
0.5
  1
0.020
100
AcDbAttributeDefinition
  3

  2
S
 70
     8
280
     0
  0
ATTDEF
  5
9B
330
8D
100
AcDbEntity
  8
AM_6
100
AcDbText
 10
2.801666666666667
 20
-5.898493055555556
 30
0.0
 40
0.5
  1
0.125000
100
AcDbAttributeDefinition
  3

  2
J
 70
     8
280
     0
  0
ATTDEF
  5
9C
330
8D
100
AcDbEntity
  8
AM_6
100
AcDbText
 10
2.801666666666667
 20
-6.398493055555556
 30
0.0
 40
0.5
  1
baldor
100
AcDbAttributeDefinition
  3

  2
COMPANY
 70
     8
280
     0
  0
LINE
  5
9F
330
8D
100
AcDbEntity
  8
AM_9
100
AcDbLine
 10
-3.038333333333334
 20
-1.006824271906852
 30
0.0
 11
-3.099333333333333
 21
-1.006824271906852
 31
0.0
  0
LINE
  5
A0
330
8D
100
AcDbEntity
  8
AM_9
100
AcDbLine
 10
-3.038333333333334
 20
-1.151161839204259
 30
0.0
 11
-3.099333333333333
 21
-1.151161839204259
 31
0.0
  0
LINE
  5
A1
330
8D
100
AcDbEntity
  8
AM_9
100
AcDbLine
 10
-3.038333333333334
 20
-1.006824271906852
 30
0.0
 11
-3.038333333333334
 21
-1.151161839204259
 31
0.0
  0
LINE
  5
A2
330
8D
100
AcDbEntity
  8
AM_9
100
AcDbLine
 10
-3.038333333333334
 20
-1.042908663731204
 30
0.0
 11
-3.099333333333333
 21
-1.042908663731204
 31
0.0
  0
LINE
  5
A3
330
8D
100
AcDbEntity
  8
AM_9
100
AcDbLine
 10
-3.038333333333334
 20
-1.115077447379907
 30
0.0
 11
-3.099333333333333
 21
-1.115077447379907
 31
0.0
  0
LINE
  5
A4
330
8D
100
AcDbEntity
  8
AM_9
100
AcDbLine
 10
-2.198333333333333
 20
-1.002593055555556
 30
0.0
 11
-2.198333333333333
 21
-1.155393055555556
 31
0.0
  0
LINE
  5
A5
330
8D
100
AcDbEntity
  8
AM_9
100
AcDbLine
 10
-2.198333333333333
 20
-1.002593055555556
 30
0.0
 11
-2.216933333333333
 21
-0.9839930555555557
 31
0.0
  0
LINE
  5
A6
330
8D
100
AcDbEntity
  8
AM_9
100
AcDbLine
 10
-2.216933333333333
 20
-1.173993055555556
 30
0.0
 11
-2.198333333333333
 21
-1.155393055555556
 31
0.0
  0
LINE
  5
A7
330
8D
100
AcDbEntity
  8
AM_9
100
AcDbLine
 10
-2.216933333333333
 20
-0.9839930555555557
 30
0.0
 11
-2.216933333333333
 21
-1.173993055555556
 31
0.0
  0
LINE
  5
A8
330
8D
100
AcDbEntity
  8
AM_9
100
AcDbLine
 10
-2.998333333333334
 20
-1.173993055555556
 30
0.0
 11
-2.216933333333333
 21
-1.173993055555556
 31
0.0
  0
LINE
  5
A9
330
8D
100
AcDbEntity
  8
AM_9
100
AcDbLine
 10
-2.216933333333333
 20
-0.9839930555555557
 30
0.0
 11
-2.998333333333334
 21
-0.9839930555555557
 31
0.0
  0
LINE
  5
AB
330
8D
100
AcDbEntity
  8
AM_5
100
AcDbLine
 10
-2.918333333333333
 20
-0.9839930555555554
 30
0.0
 11
-2.918333333333333
 21
-1.173993055555548
 31
0.0
  0
LINE
  5
AC
330
8D
100
AcDbEntity
  8
AM_5
100
AcDbLine
 10
-2.918333333333333
 20
-1.002593055555556
 30
0.0
 11
-2.950549478354115
 21
-0.9839930555555553
 31
0.0
  0
LINE
  5
AE
330
8D
100
AcDbEntity
  8
AM_4
100
AcDbLine
 10
-3.099333333333333
 20
-0.9794930555555557
 30
0.0
 11
-3.099333333333333
 21
-1.178493055555556
 31
0.0
  0
ARC
  5
AF
330
8D
100
AcDbEntity
  8
AM_4
100
AcDbCircle
 10
-3.018333333333333
 20
-1.178493055555556
 30
0.0
 40
0.081
100
AcDbArc
 50
179.9999991462263
 51
270.0
  0
ARC
  5
B0
330
8D
100
AcDbEntity
  8
AM_4
100
AcDbCircle
 10
-3.018333333333333
 20
-0.9794930555555555
 30
0.0
 40
0.0809999999999998
100
AcDbArc
 50
90.0
 51
179.9999991462263
  0
LINE
  5
B1
330
8D
100
AcDbEntity
  8
AM_4
100
AcDbLine
 10
-3.018333333333333
 20
-0.8984930555555557
 30
0.0
 11
-3.018333333333333
 21
-1.259493055555555
 31
0.0
  0
LINE
  5
B2
330
8D
100
AcDbEntity
  8
AM_4
100
AcDbLine
 10
-3.018333333333333
 20
-1.259493055555555
 30
0.0
 11
-2.998333333333334
 21
-1.259493055555555
 31
0.0
  0
LINE
  5
B3
330
8D
100
AcDbEntity
  8
AM_4
100
AcDbLine
 10
-2.998333333333334
 20
-0.8984930555555557
 30
0.0
 11
-3.018333333333333
 21
-0.8984930555555557
 31
0.0
  0
ENDBLK
  5
90
330
8D
100
AcDbEntity
  8
0
100
AcDbBlockEnd
  0
BLOCK
  5
B6
330
B4
100
AcDbEntity
  8
0
100
AcDbBlockBegin
  2
3_ASME_B18_3_10_2_0_in_071289_2
 70
     2
 10
0.0
 20
0.0
 30
0.0
  3
3_ASME_B18_3_10_2_0_in_071289_2
  1

  0
ATTDEF
  5
B8
330
B4
100
AcDbEntity
  8
AM_6
100
AcDbText
 10
2.801666666666667
 20
1.259493055555555
 30
0.0
 40
0.5
  1
ANSI/ASME B18.3-1998
100
AcDbAttributeDefinition
  3

  2
NN
 70
     8
280
     0
  0
ATTDEF
  5
B9
330
B4
100
AcDbEntity
  8
AM_6
100
AcDbText
 10
2.801666666666667
 20
0.7594930555555555
 30
0.0
 40
0.5
  1
Socket Button Head Cap Screws
100
AcDbAttributeDefinition
  3

  2
NT
 70
     8
280
     0
  0
ATTDEF
  5
BA
330
B4
100
AcDbEntity
  8
AM_6
100
AcDbText
 10
2.801666666666667
 20
0.2594930555555555
 30
0.0
 40
0.5
  1
ASME B18.3-10
100
AcDbAttributeDefinition
  3

  2
NB
 70
     8
280
     0
  0
ATTDEF
  5
BB
330
B4
100
AcDbEntity
  8
AM_6
100
AcDbText
 10
2.801666666666667
 20
-0.2405069444444445
 30
0.0
 40
0.5
  1
ASME B18.3-$NS.
100
AcDbAttributeDefinition
  3

  2
NBSYN
 70
     8
280
     0
  0
ATTDEF
  5
BC
330
B4
100
AcDbEntity
  8
AM_6
100
AcDbText
 10
2.801666666666667
 20
-0.7405069444444445
 30
0.0
 40
0.5
  1
ASME B18.3-10
100
AcDbAttributeDefinition
  3

  2
LINA
 70
     8
280
     0
  0
ATTDEF
  5
BD
330
B4
100
AcDbEntity
  8
AM_6
100
AcDbText
 10
2.801666666666667
 20
-1.240506944444445
 30
0.0
 40
0.5
  1
10
100
AcDbAttributeDefinition
  3

  2
NS
 70
     8
280
     0
  0
ATTDEF
  5
BE
330
B4
100
AcDbEntity
  8
AM_6
100
AcDbText
 10
2.801666666666667
 20
-1.740506944444445
 30
0.0
 40
0.5
  1
0.361
100
AcDbAttributeDefinition
  3

  2
A
 70
     8
280
     0
  0
ATTDEF
  5
BF
330
B4
100
AcDbEntity
  8
AM_6
100
AcDbText
 10
2.801666666666667
 20
-2.240506944444444
 30
0.0
 40
0.5
  1
0.101
100
AcDbAttributeDefinition
  3

  2
H
 70
     8
280
     0
  0
ATTDEF
  5
C0
330
B4
100
AcDbEntity
  8
AM_6
100
AcDbText
 10
2.801666666666667
 20
-2.740506944444444
 30
0.0
 40
0.5
  1
0.800
100
AcDbAttributeDefinition
  3

  2
L
 70
     8
280
     0
  0
ATTDEF
  5
C1
330
B4
100
AcDbEntity
  8
AM_6
100
AcDbText
 10
2.801666666666667
 20
-3.240506944444444
 30
0.0
 40
0.5
  1
0.020
100
AcDbAttributeDefinition
  3

  2
S
 70
     8
280
     0
  0
ATTDEF
  5
C2
330
B4
100
AcDbEntity
  8
AM_6
100
AcDbText
 10
2.801666666666667
 20
-3.740506944444444
 30
0.0
 40
0.5
  1
0.125000
100
AcDbAttributeDefinition
  3

  2
J
 70
     8
280
     0
  0
ATTDEF
  5
C3
330
B4
100
AcDbEntity
  8
AM_6
100
AcDbText
 10
2.801666666666667
 20
-4.240506944444444
 30
0.0
 40
0.5
  1
baldor
100
AcDbAttributeDefinition
  3

  2
COMPANY
 70
     8
280
     0
  0
LINE
  5
C4
330
B4
100
AcDbEntity
  8
AM_9
100
AcDbLine
 10
-3.038333333333334
 20
1.151161839204259
 30
0.0
 11
-3.099333333333333
 21
1.151161839204259
 31
0.0
  0
LINE
  5
C5
330
B4
100
AcDbEntity
  8
AM_9
100
AcDbLine
 10
-3.038333333333334
 20
1.006824271906852
 30
0.0
 11
-3.099333333333333
 21
1.006824271906852
 31
0.0
  0
LINE
  5
C6
330
B4
100
AcDbEntity
  8
AM_9
100
AcDbLine
 10
-3.038333333333334
 20
1.115077447379907
 30
0.0
 11
-3.099333333333333
 21
1.115077447379907
 31
0.0
  0
LINE
  5
C7
330
B4
100
AcDbEntity
  8
AM_9
100
AcDbLine
 10
-3.038333333333334
 20
1.151161839204259
 30
0.0
 11
-3.038333333333334
 21
1.006824271906852
 31
0.0
  0
LINE
  5
C8
330
B4
100
AcDbEntity
  8
AM_9
100
AcDbLine
 10
-3.038333333333334
 20
1.042908663731204
 30
0.0
 11
-3.099333333333333
 21
1.042908663731204
 31
0.0
  0
LINE
  5
C9
330
B4
100
AcDbEntity
  8
AM_9
100
AcDbLine
 10
-2.198333333333333
 20
1.155393055555556
 30
0.0
 11
-2.198333333333333
 21
1.002593055555556
 31
0.0
  0
LINE
  5
CA
330
B4
100
AcDbEntity
  8
AM_9
100
AcDbLine
 10
-2.198333333333333
 20
1.155393055555556
 30
0.0
 11
-2.216933333333333
 21
1.173993055555556
 31
0.0
  0
LINE
  5
CB
330
B4
100
AcDbEntity
  8
AM_9
100
AcDbLine
 10
-2.216933333333333
 20
0.9839930555555557
 30
0.0
 11
-2.198333333333333
 21
1.002593055555556
 31
0.0
  0
LINE
  5
CC
330
B4
100
AcDbEntity
  8
AM_9
100
AcDbLine
 10
-2.216933333333333
 20
1.173993055555556
 30
0.0
 11
-2.216933333333333
 21
0.9839930555555557
 31
0.0
  0
LINE
  5
CD
330
B4
100
AcDbEntity
  8
AM_9
100
AcDbLine
 10
-2.998333333333334
 20
0.9839930555555557
 30
0.0
 11
-2.216933333333333
 21
0.9839930555555557
 31
0.0
  0
LINE
  5
CE
330
B4
100
AcDbEntity
  8
AM_9
100
AcDbLine
 10
-2.216933333333333
 20
1.173993055555556
 30
0.0
 11
-2.998333333333334
 21
1.173993055555556
 31
0.0
  0
LINE
  5
CF
330
B4
100
AcDbEntity
  8
AM_5
100
AcDbLine
 10
-2.918333333333333
 20
1.002593055555556
 30
0.0
 11
-2.950549478354115
 21
0.9839930555555556
 31
0.0
  0
LINE
  5
D0
330
B4
100
AcDbEntity
  8
AM_5
100
AcDbLine
 10
-2.918333333333333
 20
1.173993055555547
 30
0.0
 11
-2.918333333333333
 21
0.9839930555555556
 31
0.0
  0
LINE
  5
D1
330
B4
100
AcDbEntity
  8
AM_4
100
AcDbLine
 10
-3.099333333333333
 20
1.178493055555556
 30
0.0
 11
-3.099333333333333
 21
0.9794930555555557
 31
0.0
  0
ARC
  5
D2
330
B4
100
AcDbEntity
  8
AM_4
100
AcDbCircle
 10
-3.018333333333333
 20
0.9794930555555555
 30
0.0
 40
0.081
100
AcDbArc
 50
179.9999991462263
 51
270.0
  0
ARC
  5
D3
330
B4
100
AcDbEntity
  8
AM_4
100
AcDbCircle
 10
-3.018333333333333
 20
1.178493055555556
 30
0.0
 40
0.0809999999999997
100
AcDbArc
 50
90.0
 51
179.9999991462263
  0
LINE
  5
D4
330
B4
100
AcDbEntity
  8
AM_4
100
AcDbLine
 10
-3.018333333333333
 20
1.259493055555555
 30
0.0
 11
-3.018333333333333
 21
0.8984930555555557
 31
0.0
  0
LINE
  5
D5
330
B4
100
AcDbEntity
  8
AM_4
100
AcDbLine
 10
-3.018333333333333
 20
0.8984930555555557
 30
0.0
 11
-2.998333333333334
 21
0.8984930555555557
 31
0.0
  0
LINE
  5
D6
330
B4
100
AcDbEntity
  8
AM_4
100
AcDbLine
 10
-2.998333333333334
 20
1.259493055555555
 30
0.0
 11
-3.018333333333333
 21
1.259493055555555
 31
0.0
  0
ENDBLK
  5
B7
330
B4
100
AcDbEntity
  8
0
100
AcDbBlockEnd
  0
BLOCK
  5
D9
330
D7
100
AcDbEntity
  8
0
100
AcDbBlockBegin
  2
4_070884LWE_0_in_071289_2
 70
     2
 10
0.0
 20
0.0
 30
0.0
  3
4_070884LWE_0_in_071289_2
  1

  0
ATTDEF
  5
DB
330
D7
100
AcDbEntity
  8
AM_6
100
AcDbText
 10
2.441666666666667
 20
1.36
 30
0.0
 40
0.5
  1
Imperial/E Insert Lockwasher -Inch
100
AcDbAttributeDefinition
  3

  2
NN
 70
     8
280
     0
  0
ATTDEF
  5
DC
330
D7
100
AcDbEntity
  8
AM_6
100
AcDbText
 10
2.441666666666667
 20
0.8600000000000003
 30
0.0
 40
0.5
  1
Imperial/E Bearings
100
AcDbAttributeDefinition
  3

  2
NT
 70
     8
280
     0
  0
ATTDEF
  5
DD
330
D7
100
AcDbEntity
  8
AM_6
100
AcDbText
 10
2.441666666666667
 20
0.3600000000000003
 30
0.0
 40
0.5
  1
070884LWE
100
AcDbAttributeDefinition
  3

  2
NB
 70
     8
280
     0
  0
ATTDEF
  5
DE
330
D7
100
AcDbEntity
  8
AM_6
100
AcDbText
 10
2.441666666666667
 20
-0.1399999999999997
 30
0.0
 40
0.5
  1
$PN.LWE
100
AcDbAttributeDefinition
  3

  2
NBSYN
 70
     8
280
     0
  0
ATTDEF
  5
DF
330
D7
100
AcDbEntity
  8
AM_6
100
AcDbText
 10
2.441666666666667
 20
-0.6399999999999997
 30
0.0
 40
0.5
  1
070884
100
AcDbAttributeDefinition
  3

  2
LINA
 70
     8
280
     0
  0
ATTDEF
  5
E0
330
D7
100
AcDbEntity
  8
AM_6
100
AcDbText
 10
2.441666666666667
 20
-1.14
 30
0.0
 40
0.5
  1
1-7/16
100
AcDbAttributeDefinition
  3

  2
SS
 70
     8
280
     0
  0
ATTDEF
  5
E1
330
D7
100
AcDbEntity
  8
AM_6
100
AcDbText
 10
2.441666666666667
 20
-1.64
 30
0.0
 40
0.5
  1
2.720000
100
AcDbAttributeDefinition
  3

  2
E1
 70
     8
280
     0
  0
ATTDEF
  5
E2
330
D7
100
AcDbEntity
  8
AM_6
100
AcDbText
 10
2.441666666666667
 20
-2.14
 30
0.0
 40
0.5
  1
1.437500
100
AcDbAttributeDefinition
  3

  2
SS1
 70
     8
280
     0
  0
ATTDEF
  5
E3
330
D7
100
AcDbEntity
  8
AM_6
100
AcDbText
 10
2.441666666666667
 20
-2.64
 30
0.0
 40
0.5
  1
070884
100
AcDbAttributeDefinition
  3

  2
PN
 70
     8
280
     0
  0
ATTDEF
  5
E4
330
D7
100
AcDbEntity
  8
AM_6
100
AcDbText
 10
2.441666666666667
 20
-3.14
 30
0.0
 40
0.5
  1
INS-IP-107R
100
AcDbAttributeDefinition
  3

  2
DESCRIPTION
 70
     8
280
     0
  0
ATTDEF
  5
E5
330
D7
100
AcDbEntity
  8
AM_6
100
AcDbText
 10
2.441666666666667
 20
-3.64
 30
0.0
 40
0.5
  1
3.1496
100
AcDbAttributeDefinition
  3

  2
A
 70
     8
280
     0
  0
ATTDEF
  5
E6
330
D7
100
AcDbEntity
  8
AM_6
100
AcDbText
 10
2.441666666666667
 20
-4.14
 30
0.0
 40
0.5
  1
61/64
100
AcDbAttributeDefinition
  3

  2
B
 70
     8
280
     0
  0
ATTDEF
  5
E7
330
D7
100
AcDbEntity
  8
AM_6
100
AcDbText
 10
2.441666666666667
 20
-4.64
 30
0.0
 40
0.5
  1
0.953125
100
AcDbAttributeDefinition
  3

  2
B1
 70
     8
280
     0
  0
ATTDEF
  5
E8
330
D7
100
AcDbEntity
  8
AM_6
100
AcDbText
 10
2.441666666666667
 20
-5.14
 30
0.0
 40
0.5
  1
2-5/8
100
AcDbAttributeDefinition
  3

  2
C
 70
     8
280
     0
  0
ATTDEF
  5
E9
330
D7
100
AcDbEntity
  8
AM_6
100
AcDbText
 10
2.441666666666667
 20
-5.64
 30
0.0
 40
0.5
  1
2.625000
100
AcDbAttributeDefinition
  3

  2
C1
 70
     8
280
     0
  0
ATTDEF
  5
EA
330
D7
100
AcDbEntity
  8
AM_6
100
AcDbText
 10
2.441666666666667
 20
-6.14
 30
0.0
 40
0.5
  1
0.970
100
AcDbAttributeDefinition
  3

  2
D
 70
     8
280
     0
  0
ATTDEF
  5
EB
330
D7
100
AcDbEntity
  8
AM_6
100
AcDbText
 10
2.441666666666667
 20
-6.64
 30
0.0
 40
0.5
  1
2-23/32
100
AcDbAttributeDefinition
  3

  2
E
 70
     8
280
     0
  0
ATTDEF
  5
EC
330
D7
100
AcDbEntity
  8
AM_6
100
AcDbText
 10
2.441666666666667
 20
-7.14
 30
0.0
 40
0.5
  1
0.1900
100
AcDbAttributeDefinition
  3

  2
NDM
 70
     8
280
     0
  0
ATTDEF
  5
ED
330
D7
100
AcDbEntity
  8
AM_6
100
AcDbText
 10
2.441666666666667
 20
-7.64
 30
0.0
 40
0.5
  1
0.1450
100
AcDbAttributeDefinition
  3

  2
KDM
 70
     8
280
     0
  0
ATTDEF
  5
EE
330
D7
100
AcDbEntity
  8
AM_6
100
AcDbText
 10
2.441666666666667
 20
-8.14
 30
0.0
 40
0.5
  1
2.22
100
AcDbAttributeDefinition
  3

  2
AL
 70
     8
280
     0
  0
ATTDEF
  5
EF
330
D7
100
AcDbEntity
  8
AM_6
100
AcDbText
 10
2.441666666666667
 20
-8.64
 30
0.0
 40
0.5
  1
0.38
100
AcDbAttributeDefinition
  3

  2
BL
 70
     8
280
     0
  0
ATTDEF
  5
F0
330
D7
100
AcDbEntity
  8
AM_6
100
AcDbText
 10
2.441666666666667
 20
-9.14
 30
0.0
 40
0.5
  1
0.07
100
AcDbAttributeDefinition
  3

  2
CL
 70
     8
280
     0
  0
ATTDEF
  5
F1
330
D7
100
AcDbEntity
  8
AM_6
100
AcDbText
 10
2.441666666666667
 20
-9.64
 30
0.0
 40
0.5
  1
0.44
100
AcDbAttributeDefinition
  3

  2
DL
 70
     8
280
     0
  0
ATTDEF
  5
F2
330
D7
100
AcDbEntity
  8
AM_6
100
AcDbText
 10
2.441666666666667
 20
-10.14
 30
0.0
 40
0.5
  1
baldor
100
AcDbAttributeDefinition
  3

  2
COMPANY
 70
     8
280
     0
  0
LINE
  5
F3
330
D7
100
AcDbEntity
  8
AM_9
100
AcDbLine
 10
-2.928333333333333
 20
0.6761389093128756
 30
0.0
 11
-2.998333333333334
 21
0.6761389093128756
 31
0.0
  0
LINE
  5
F4
330
D7
100
AcDbEntity
  8
AM_9
100
AcDbLine
 10
-2.558333333333333
 20
0.6571006464560257
 30
0.0
 11
-2.928333333333333
 21
0.6571006464560257
 31
0.0
  0
LINE
  5
F5
330
D7
100
AcDbEntity
  8
AM_9
100
AcDbLine
 10
-2.558333333333333
 20
0.6218575744960317
 30
0.0
 11
-2.998333333333334
 21
0.6218575744960317
 31
0.0
  0
LINE
  5
F6
330
D7
100
AcDbEntity
  8
AM_9
100
AcDbLine
 10
-2.928333333333333
 20
0.7298104986053928
 30
0.0
 11
-2.558333333333333
 21
0.7298104986053927
 31
0.0
  0
LINE
  5
F7
330
D7
100
AcDbEntity
  8
AM_9
100
AcDbLine
 10
-2.558333333333333
 20
0.6945674266453987
 30
0.0
 11
-2.998333333333334
 21
0.6945674266453987
 31
0.0
  0
LINE
  5
F8
330
D7
100
AcDbEntity
  8
AM_9
100
AcDbLine
 10
-2.558333333333333
 20
0.6218575744960317
 30
0.0
 11
-2.558333333333333
 21
0.7298104986053927
 31
0.0
  0
LINE
  5
F9
330
D7
100
AcDbEntity
  8
AM_9
100
AcDbLine
 10
-2.928333333333333
 20
0.7488487614622424
 30
0.0
 11
-2.998333333333334
 21
0.7488487614622424
 31
0.0
  0
LINE
  5
FA
330
D7
100
AcDbEntity
  8
AM_9
100
AcDbLine
 10
-2.928333333333333
 20
-1.079305555555556
 30
0.0
 11
-2.998333333333334
 21
-1.079305555555556
 31
0.0
  0
LINE
  5
FB
330
D7
100
AcDbEntity
  8
AM_9
100
AcDbLine
 10
-2.998333333333334
 20
-1.170208811214679
 30
0.0
 11
-2.928333333333333
 21
-1.170208811214679
 31
0.0
  0
LINE
  5
FC
330
D7
100
AcDbEntity
  8
AM_9
100
AcDbLine
 10
-2.928333333333333
 20
1.079305555555556
 30
0.0
 11
-2.998333333333334
 21
1.079305555555556
 31
0.0
  0
LINE
  5
FD
330
D7
100
AcDbEntity
  8
AM_9
100
AcDbLine
 10
-2.928333333333333
 20
1.17020881121468
 30
0.0
 11
-2.998333333333334
 21
1.17020881121468
 31
0.0
  0
LINE
  5
FE
330
D7
100
AcDbEntity
  8
AM_9
100
AcDbLine
 10
-2.928333333333333
 20
0.7711977701799068
 30
0.0
 11
-2.998333333333334
 21
0.7711977701799068
 31
0.0
  0
LINE
  5
FF
330
D7
100
AcDbEntity
  8
AM_9
100
AcDbLine
 10
-2.928333333333333
 20
-0.7711977701799068
 30
0.0
 11
-2.998333333333334
 21
-0.7711977701799068
 31
0.0
  0
LINE
  5
100
330
D7
100
AcDbEntity
  8
AM_9
100
AcDbLine
 10
-2.928333333333333
 20
0.6124943171428785
 30
0.0
 11
-2.998333333333334
 21
0.6124943171428786
 31
0.0
  0
LINE
  5
101
330
D7
100
AcDbEntity
  8
AM_9
100
AcDbLine
 10
-2.928333333333333
 20
-0.6124943171428785
 30
0.0
 11
-2.998333333333334
 21
-0.6124943171428786
 31
0.0
  0
LINE
  5
102
330
D7
100
AcDbEntity
  8
AM_9
100
AcDbLine
 10
-2.928333333333333
 20
0.4781440287174346
 30
0.0
 11
-2.998333333333334
 21
0.4781440287174346
 31
0.0
  0
LINE
  5
103
330
D7
100
AcDbEntity
  8
AM_9
100
AcDbLine
 10
-2.928333333333333
 20
-0.4781440287174344
 30
0.0
 11
-2.998333333333334
 21
-0.4781440287174346
 31
0.0
  0
LINE
  5
104
330
D7
100
AcDbEntity
  8
AM_9
100
AcDbLine
 10
-2.928333333333333
 20
0.8303594215183694
 30
0.0
 11
-2.998333333333334
 21
0.8303594215183694
 31
0.0
  0
LINE
  5
105
330
D7
100
AcDbEntity
  8
AM_9
100
AcDbLine
 10
-2.928333333333333
 20
0.6960091330929252
 30
0.0
 11
-2.998333333333334
 21
0.6960091330929252
 31
0.0
  0
LINE
  5
106
330
D7
100
AcDbEntity
  8
AM_9
100
AcDbLine
 10
-2.928333333333333
 20
0.8582495663937207
 30
0.0
 11
-2.998333333333334
 21
0.8582495663937207
 31
0.0
  0
LINE
  5
107
330
D7
100
AcDbEntity
  8
AM_9
100
AcDbLine
 10
-2.928333333333333
 20
-0.6960091330929253
 30
0.0
 11
-2.998333333333334
 21
-0.6960091330929253
 31
0.0
  0
LINE
  5
108
330
D7
100
AcDbEntity
  8
AM_9
100
AcDbLine
 10
-2.928333333333333
 20
-0.8303594215183754
 30
0.0
 11
-2.998333333333334
 21
-0.8303594215183754
 31
0.0
  0
LINE
  5
109
330
D7
100
AcDbEntity
  8
AM_9
100
AcDbLine
 10
-2.998333333333334
 20
-0.8582495663937207
 30
0.0
 11
-2.928333333333333
 21
-0.8582495663937207
 31
0.0
  0
LINE
  5
10A
330
D7
100
AcDbEntity
  8
AM_9
100
AcDbLine
 10
-2.928333333333333
 20
0.095
 30
0.0
 11
-2.998333333333334
 21
0.095
 31
0.0
  0
LINE
  5
10B
330
D7
100
AcDbEntity
  8
AM_9
100
AcDbLine
 10
-2.928333333333333
 20
-0.0949999999999997
 30
0.0
 11
-2.998333333333334
 21
-0.0949999999999997
 31
0.0
  0
LINE
  5
10C
330
D7
100
AcDbEntity
  8
AM_4
100
AcDbLine
 10
-2.928333333333333
 20
1.36
 30
0.0
 11
-2.998333333333334
 21
1.36
 31
0.0
  0
LINE
  5
10D
330
D7
100
AcDbEntity
  8
AM_4
100
AcDbLine
 10
-2.998333333333334
 20
-1.36
 30
0.0
 11
-2.928333333333333
 21
-1.36
 31
0.0
  0
LINE
  5
10E
330
D7
100
AcDbEntity
  8
AM_4
100
AcDbLine
 10
-2.998333333333334
 20
1.36
 30
0.0
 11
-2.998333333333334
 21
-1.36
 31
0.0
  0
LINE
  5
10F
330
D7
100
AcDbEntity
  8
AM_4
100
AcDbLine
 10
-2.928333333333333
 20
1.36
 30
0.0
 11
-2.928333333333333
 21
-1.36
 31
0.0
  0
ENDBLK
  5
DA
330
D7
100
AcDbEntity
  8
0
100
AcDbBlockEnd
  0
BLOCK
  5
112
330
110
100
AcDbEntity
  8
0
100
AcDbBlockBegin
  2
5_070884E_0_in_071289_2
 70
     2
 10
0.0
 20
0.0
 30
0.0
  3
5_070884E_0_in_071289_2
  1

  0
ATTDEF
  5
114
330
110
100
AcDbEntity
  8
AM_6
100
AcDbText
 10
4.49
 20
1.5748
 30
0.0
 40
0.5
  1
Imperial/E Insert -Inch
100
AcDbAttributeDefinition
  3

  2
NN
 70
     8
280
     0
  0
ATTDEF
  5
115
330
110
100
AcDbEntity
  8
AM_6
100
AcDbText
 10
4.49
 20
1.0748
 30
0.0
 40
0.5
  1
Imperial Bearings
100
AcDbAttributeDefinition
  3

  2
NT
 70
     8
280
     0
  0
ATTDEF
  5
116
330
110
100
AcDbEntity
  8
AM_6
100
AcDbText
 10
4.49
 20
0.5748
 30
0.0
 40
0.5
  1
070884E
100
AcDbAttributeDefinition
  3

  2
NB
 70
     8
280
     0
  0
ATTDEF
  5
117
330
110
100
AcDbEntity
  8
AM_6
100
AcDbText
 10
4.49
 20
0.0748
 30
0.0
 40
0.5
  1
$PN.
100
AcDbAttributeDefinition
  3

  2
NBSYN
 70
     8
280
     0
  0
ATTDEF
  5
118
330
110
100
AcDbEntity
  8
AM_6
100
AcDbText
 10
4.49
 20
-0.4252
 30
0.0
 40
0.5
  1
070884E
100
AcDbAttributeDefinition
  3

  2
LINA
 70
     8
280
     0
  0
ATTDEF
  5
119
330
110
100
AcDbEntity
  8
AM_6
100
AcDbText
 10
4.49
 20
-0.9252
 30
0.0
 40
0.5
  1
1-7/16
100
AcDbAttributeDefinition
  3

  2
SS
 70
     8
280
     0
  0
ATTDEF
  5
11A
330
110
100
AcDbEntity
  8
AM_6
100
AcDbText
 10
4.49
 20
-1.4252
 30
0.0
 40
0.5
  1
1.437500
100
AcDbAttributeDefinition
  3

  2
SS1
 70
     8
280
     0
  0
ATTDEF
  5
11B
330
110
100
AcDbEntity
  8
AM_6
100
AcDbText
 10
4.49
 20
-1.9252
 30
0.0
 40
0.5
  1
070884E
100
AcDbAttributeDefinition
  3

  2
PN
 70
     8
280
     0
  0
ATTDEF
  5
11C
330
110
100
AcDbEntity
  8
AM_6
100
AcDbText
 10
4.49
 20
-2.4252
 30
0.0
 40
0.5
  1
INS-IP-107R
100
AcDbAttributeDefinition
  3

  2
DESCRIPTION
 70
     8
280
     0
  0
ATTDEF
  5
11D
330
110
100
AcDbEntity
  8
AM_6
100
AcDbText
 10
4.49
 20
-2.9252
 30
0.0
 40
0.5
  1
Contact Seal
100
AcDbAttributeDefinition
  3

  2
ST
 70
     8
280
     0
  0
ATTDEF
  5
11E
330
110
100
AcDbEntity
  8
AM_6
100
AcDbText
 10
4.49
 20
-3.4252
 30
0.0
 40
0.5
  1
1
100
AcDbAttributeDefinition
  3

  2
ST1
 70
     8
280
     0
  0
ATTDEF
  5
11F
330
110
100
AcDbEntity
  8
AM_6
100
AcDbText
 10
4.49
 20
-3.9252
 30
0.0
 40
0.5
  1
3.1496
100
AcDbAttributeDefinition
  3

  2
A
 70
     8
280
     0
  0
ATTDEF
  5
120
330
110
100
AcDbEntity
  8
AM_6
100
AcDbText
 10
4.49
 20
-4.4252
 30
0.0
 40
0.5
  1
61/64
100
AcDbAttributeDefinition
  3

  2
B
 70
     8
280
     0
  0
ATTDEF
  5
121
330
110
100
AcDbEntity
  8
AM_6
100
AcDbText
 10
4.49
 20
-4.9252
 30
0.0
 40
0.5
  1
0.953125
100
AcDbAttributeDefinition
  3

  2
B1
 70
     8
280
     0
  0
ATTDEF
  5
122
330
110
100
AcDbEntity
  8
AM_6
100
AcDbText
 10
4.49
 20
-5.4252
 30
0.0
 40
0.5
  1
2-5/8
100
AcDbAttributeDefinition
  3

  2
C
 70
     8
280
     0
  0
ATTDEF
  5
123
330
110
100
AcDbEntity
  8
AM_6
100
AcDbText
 10
4.49
 20
-5.9252
 30
0.0
 40
0.5
  1
2.630000
100
AcDbAttributeDefinition
  3

  2
C1
 70
     8
280
     0
  0
ATTDEF
  5
124
330
110
100
AcDbEntity
  8
AM_6
100
AcDbText
 10
4.49
 20
-6.4252
 30
0.0
 40
0.5
  1
3.15000
100
AcDbAttributeDefinition
  3

  2
CR
 70
     8
280
     0
  0
ATTDEF
  5
125
330
110
100
AcDbEntity
  8
AM_6
100
AcDbText
 10
4.49
 20
-6.9252
 30
0.0
 40
0.5
  1
0.970
100
AcDbAttributeDefinition
  3

  2
D
 70
     8
280
     0
  0
ATTDEF
  5
126
330
110
100
AcDbEntity
  8
AM_6
100
AcDbText
 10
4.49
 20
-7.4252
 30
0.0
 40
0.5
  1
2-23/32
100
AcDbAttributeDefinition
  3

  2
E
 70
     8
280
     0
  0
ATTDEF
  5
127
330
110
100
AcDbEntity
  8
AM_6
100
AcDbText
 10
4.49
 20
-7.9252
 30
0.0
 40
0.5
  1
2.718750
100
AcDbAttributeDefinition
  3

  2
E1
 70
     8
280
     0
  0
ATTDEF
  5
128
330
110
100
AcDbEntity
  8
AM_6
100
AcDbText
 10
4.49
 20
-8.4252
 30
0.0
 40
0.5
  1
0.1900
100
AcDbAttributeDefinition
  3

  2
NDM
 70
     8
280
     0
  0
ATTDEF
  5
129
330
110
100
AcDbEntity
  8
AM_6
100
AcDbText
 10
4.49
 20
-8.9252
 30
0.0
 40
0.5
  1
0.1450
100
AcDbAttributeDefinition
  3

  2
KDM
 70
     8
280
     0
  0
ATTDEF
  5
12A
330
110
100
AcDbEntity
  8
AM_6
100
AcDbText
 10
4.49
 20
-9.4252
 30
0.0
 40
0.5
  1
2.22
100
AcDbAttributeDefinition
  3

  2
AL
 70
     8
280
     0
  0
ATTDEF
  5
12B
330
110
100
AcDbEntity
  8
AM_6
100
AcDbText
 10
4.49
 20
-9.9252
 30
0.0
 40
0.5
  1
0.38
100
AcDbAttributeDefinition
  3

  2
BL
 70
     8
280
     0
  0
ATTDEF
  5
12C
330
110
100
AcDbEntity
  8
AM_6
100
AcDbText
 10
4.49
 20
-10.4252
 30
0.0
 40
0.5
  1
0.07
100
AcDbAttributeDefinition
  3

  2
CL
 70
     8
280
     0
  0
ATTDEF
  5
12D
330
110
100
AcDbEntity
  8
AM_6
100
AcDbText
 10
4.49
 20
-10.9252
 30
0.0
 40
0.5
  1
0.44
100
AcDbAttributeDefinition
  3

  2
DL
 70
     8
280
     0
  0
ATTDEF
  5
12E
330
110
100
AcDbEntity
  8
AM_6
100
AcDbText
 10
4.49
 20
-11.4252
 30
0.0
 40
0.5
  1
0.8000
100
AcDbAttributeDefinition
  3

  2
LL
 70
     8
280
     0
  0
ATTDEF
  5
12F
330
110
100
AcDbEntity
  8
AM_6
100
AcDbText
 10
4.49
 20
-11.9252
 30
0.0
 40
0.5
  1
0.020
100
AcDbAttributeDefinition
  3

  2
Y
 70
     8
280
     0
  0
ATTDEF
  5
130
330
110
100
AcDbEntity
  8
AM_6
100
AcDbText
 10
4.49
 20
-12.4252
 30
0.0
 40
0.5
  1
0.020000
100
AcDbAttributeDefinition
  3

  2
Y1
 70
     8
280
     0
  0
ATTDEF
  5
131
330
110
100
AcDbEntity
  8
AM_6
100
AcDbText
 10
4.49
 20
-12.9252
 30
0.0
 40
0.5
  1
1-51/64
100
AcDbAttributeDefinition
  3

  2
Z
 70
     8
280
     0
  0
ATTDEF
  5
132
330
110
100
AcDbEntity
  8
AM_6
100
AcDbText
 10
4.49
 20
-13.4252
 30
0.0
 40
0.5
  1
1.796875
100
AcDbAttributeDefinition
  3

  2
Z1
 70
     8
280
     0
  0
ATTDEF
  5
133
330
110
100
AcDbEntity
  8
AM_6
100
AcDbText
 10
4.49
 20
-13.9252
 30
0.0
 40
0.5
  1
0.53000
100
AcDbAttributeDefinition
  3

  2
P1
 70
     8
280
     0
  0
ATTDEF
  5
134
330
110
100
AcDbEntity
  8
AM_6
100
AcDbText
 10
4.49
 20
-14.4252
 30
0.0
 40
0.5
  1
1.06000
100
AcDbAttributeDefinition
  3

  2
H1
 70
     8
280
     0
  0
ATTDEF
  5
135
330
110
100
AcDbEntity
  8
AM_6
100
AcDbText
 10
4.49
 20
-14.9252
 30
0.0
 40
0.5
  1
0.66000
100
AcDbAttributeDefinition
  3

  2
G1
 70
     8
280
     0
  0
ATTDEF
  5
136
330
110
100
AcDbEntity
  8
AM_6
100
AcDbText
 10
4.49
 20
-15.4252
 30
0.0
 40
0.5
  1
0.10100
100
AcDbAttributeDefinition
  3

  2
CW
 70
     8
280
     0
  0
ATTDEF
  5
137
330
110
100
AcDbEntity
  8
AM_6
100
AcDbText
 10
4.49
 20
-15.9252
 30
0.0
 40
0.5
  1
2.72000
100
AcDbAttributeDefinition
  3

  2
L1
 70
     8
280
     0
  0
ATTDEF
  5
138
330
110
100
AcDbEntity
  8
AM_6
100
AcDbText
 10
4.49
 20
-16.4252
 30
0.0
 40
0.5
  1
baldor
100
AcDbAttributeDefinition
  3

  2
COMPANY
 70
     8
280
     0
  0
LINE
  5
139
330
110
100
AcDbEntity
  8
AM_9
100
AcDbLine
 10
-1.0234375
 20
0.7316694677892196
 30
0.0
 11
-2.928333333333333
 21
0.7316694677892196
 31
0.0
  0
LINE
  5
13A
330
110
100
AcDbEntity
  8
AM_9
100
AcDbLine
 10
-1.0234375
 20
0.6589596156398525
 30
0.0
 11
-2.928333333333333
 21
0.6589596156398525
 31
0.0
  0
LINE
  5
13B
330
110
100
AcDbEntity
  8
AM_9
100
AcDbLine
 10
-2.088333333333333
 20
1.078993055555556
 30
0.0
 11
-2.130162360336122
 21
1.151443055555555
 31
0.0
  0
LINE
  5
13C
330
110
100
AcDbEntity
  8
AM_9
100
AcDbLine
 10
-2.130162360336122
 20
1.006543055555556
 30
0.0
 11
-2.088333333333333
 21
1.078993055555556
 31
0.0
  0
LINE
  5
13D
330
110
100
AcDbEntity
  8
AM_9
100
AcDbLine
 10
-2.088333333333329
 20
-1.078993055555556
 30
0.0
 11
-2.130162360336123
 21
-1.006543055555556
 31
0.0
  0
LINE
  5
13E
330
110
100
AcDbEntity
  8
AM_9
100
AcDbLine
 10
-2.130162360336123
 20
-1.151443055555555
 30
0.0
 11
-2.088333333333329
 21
-1.078993055555556
 31
0.0
  0
LINE
  5
13F
330
110
100
AcDbEntity
  8
AM_9
100
AcDbLine
 10
-2.905783333333331
 20
-1.151443055555555
 30
0.0
 11
-2.130162360336123
 21
-1.151443055555555
 31
0.0
  0
LINE
  5
140
330
110
100
AcDbEntity
  8
AM_9
100
AcDbLine
 10
-2.130162360336123
 20
-1.006543055555556
 30
0.0
 11
-2.905783333333331
 21
-1.006543055555556
 31
0.0
  0
LINE
  5
141
330
110
100
AcDbEntity
  8
AM_9
100
AcDbLine
 10
-2.130162360336123
 20
-1.006543055555556
 30
0.0
 11
-2.130162360336123
 21
-1.151443055555555
 31
0.0
  0
LINE
  5
142
330
110
100
AcDbEntity
  8
AM_9
100
AcDbLine
 10
-2.130162360336122
 20
1.006543055555556
 30
0.0
 11
-2.130162360336122
 21
1.151443055555555
 31
0.0
  0
LINE
  5
143
330
110
100
AcDbEntity
  8
AM_9
100
AcDbLine
 10
-2.130162360336122
 20
1.151443055555555
 30
0.0
 11
-2.905783333333333
 21
1.151443055555555
 31
0.0
  0
LINE
  5
144
330
110
100
AcDbEntity
  8
AM_9
100
AcDbLine
 10
-2.905783333333333
 20
1.006543055555556
 30
0.0
 11
-2.130162360336122
 21
1.006543055555556
 31
0.0
  0
LINE
  5
145
330
110
100
AcDbEntity
  8
AM_9
100
AcDbLine
 10
-2.905783333333333
 20
1.006543055555556
 30
0.0
 11
-2.905783333333333
 21
1.151443055555555
 31
0.0
  0
LINE
  5
146
330
110
100
AcDbEntity
  8
AM_9
100
AcDbLine
 10
-2.905783333333333
 20
1.151443055555555
 30
0.0
 11
-2.928333333333333
 21
1.173993055555556
 31
0.0
  0
LINE
  5
147
330
110
100
AcDbEntity
  8
AM_9
100
AcDbLine
 10
-2.928333333333333
 20
0.9839930555555557
 30
0.0
 11
-2.905783333333333
 21
1.006543055555556
 31
0.0
  0
LINE
  5
148
330
110
100
AcDbEntity
  8
AM_9
100
AcDbLine
 10
-2.905783333333331
 20
-1.006543055555556
 30
0.0
 11
-2.928333333333336
 21
-0.9839930555555557
 31
0.0
  0
LINE
  5
149
330
110
100
AcDbEntity
  8
AM_9
100
AcDbLine
 10
-2.928333333333336
 20
-1.173993055555556
 30
0.0
 11
-2.905783333333331
 21
-1.151443055555555
 31
0.0
  0
LINE
  5
14A
330
110
100
AcDbEntity
  8
AM_9
100
AcDbLine
 10
-2.905783333333331
 20
-1.006543055555556
 30
0.0
 11
-2.905783333333331
 21
-1.151443055555555
 31
0.0
  0
LINE
  5
14B
330
110
100
AcDbEntity
  8
AM_9
100
AcDbLine
 10
-1.0234375
 20
0.6945674266453986
 30
0.0
 11
-3.16
 21
0.6945674266453986
 31
0.0
  0
LINE
  5
14C
330
110
100
AcDbEntity
  8
AM_9
100
AcDbLine
 10
-3.16
 20
0.6218575744960316
 30
0.0
 11
-1.0234375
 21
0.6218575744960316
 31
0.0
  0
LINE
  5
14D
330
110
100
AcDbEntity
  8
AM_9
100
AcDbLine
 10
-1.0234375
 20
0.71875
 30
0.0
 11
-3.16
 21
0.71875
 31
0.0
  0
LINE
  5
14E
330
110
100
AcDbEntity
  8
AM_9
100
AcDbLine
 10
-3.16
 20
-0.71875
 30
0.0
 11
-1.0234375
 21
-0.71875
 31
0.0
  0
LINE
  5
14F
330
110
100
AcDbEntity
  8
AM_9
100
AcDbLine
 10
-0.5300000000000004
 20
0.7565789473684211
 30
0.0
 11
-1.0234375
 21
0.7565789473684211
 31
0.0
  0
LINE
  5
150
330
110
100
AcDbEntity
  8
AM_9
100
AcDbLine
 10
-1.0234375
 20
-0.7565789473684211
 30
0.0
 11
-0.5300000000000004
 21
-0.7565789473684211
 31
0.0
  0
LINE
  5
151
330
110
100
AcDbEntity
  8
AM_9
100
AcDbLine
 10
-3.16
 20
0.7298104986053927
 30
0.0
 11
-2.928333333333333
 21
0.7298104986053927
 31
0.0
  0
LINE
  5
152
330
110
100
AcDbEntity
  8
AM_9
100
AcDbLine
 10
-2.928333333333333
 20
0.6571006464560257
 30
0.0
 11
-3.16
 21
0.6571006464560257
 31
0.0
  0
LINE
  5
153
330
110
100
AcDbEntity
  8
AM_9
100
AcDbLine
 10
-2.928333333333333
 20
0.7565789473684211
 30
0.0
 11
-2.998333333333334
 21
0.7565789473684211
 31
0.0
  0
LINE
  5
154
330
110
100
AcDbEntity
  8
AM_9
100
AcDbLine
 10
-2.998333333333334
 20
-0.7565789473684211
 30
0.0
 11
-2.928333333333333
 21
-0.7565789473684211
 31
0.0
  0
LINE
  5
155
330
110
100
AcDbEntity
  8
AM_9
100
AcDbLine
 10
-0.5300000000000004
 20
-0.8984375
 30
0.0
 11
-0.5300000000000004
 21
0.8984375
 31
0.0
  0
LINE
  5
156
330
110
100
AcDbEntity
  8
AM_9
100
AcDbLine
 10
-0.51
 20
0.8984375
 30
0.0
 11
-0.5300000000000004
 21
0.8984375
 31
0.0
  0
LINE
  5
157
330
110
100
AcDbEntity
  8
AM_9
100
AcDbLine
 10
-0.5300000000000004
 20
-0.8984375
 30
0.0
 11
-0.51
 21
-0.8984375
 31
0.0
  0
LINE
  5
158
330
110
100
AcDbEntity
  8
AM_9
100
AcDbLine
 10
-2.488333333333333
 20
-0.6505382386916239
 30
0.0
 11
-2.928333333333333
 21
-0.6505382386916239
 31
0.0
  0
LINE
  5
159
330
110
100
AcDbEntity
  8
AM_9
100
AcDbLine
 10
-2.488333333333333
 20
-0.9192388155425117
 30
0.0
 11
-2.5
 21
-0.9192388155425117
 31
0.0
  0
LINE
  5
15A
330
110
100
AcDbEntity
  8
AM_9
100
AcDbLine
 10
-2.488333333333333
 20
0.6505382386916234
 30
0.0
 11
-2.928333333333333
 21
0.6505382386916234
 31
0.0
  0
LINE
  5
15B
330
110
100
AcDbEntity
  8
AM_9
100
AcDbLine
 10
-2.488333333333333
 20
0.9192388155425117
 30
0.0
 11
-2.5
 21
0.9192388155425117
 31
0.0
  0
LINE
  5
15C
330
110
100
AcDbEntity
  8
AM_9
100
AcDbLine
 10
-2.488333333333333
 20
-0.6505382386916239
 30
0.0
 11
-2.488333333333333
 21
-1.091622453997034
 31
0.0
  0
LINE
  5
15D
330
110
100
AcDbEntity
  8
AM_9
100
AcDbLine
 10
-2.488333333333333
 20
1.091622453997033
 30
0.0
 11
-2.488333333333333
 21
0.6505382386916234
 31
0.0
  0
LINE
  5
15E
330
110
100
AcDbEntity
  8
AM_9
100
AcDbLine
 10
-0.6057142857142856
 20
1.197916666666667
 30
0.0
 11
-0.8328125000000002
 21
1.197916666666667
 31
0.0
  0
LINE
  5
15F
330
110
100
AcDbEntity
  8
AM_9
100
AcDbLine
 10
-0.8328125000000002
 20
-1.197916666666667
 30
0.0
 11
-0.6057142857142856
 21
-1.197916666666667
 31
0.0
  0
LINE
  5
160
330
110
100
AcDbEntity
  8
AM_9
100
AcDbLine
 10
-0.8328125000000002
 20
-1.207007578016766
 30
0.0
 11
-0.8328125000000002
 21
1.207007578016766
 31
0.0
  0
ARC
  5
161
330
110
100
AcDbEntity
  8
AM_9
100
AcDbCircle
 10
-0.932812499999999
 20
1.207007578016766
 30
0.0
 40
0.0999999999999989
100
AcDbArc
 50
0.0
 51
60.00000000000043
  0
ARC
  5
162
330
110
100
AcDbEntity
  8
AM_9
100
AcDbCircle
 10
-0.932812499999999
 20
-1.207007578016766
 30
0.0
 40
0.099999999999999
100
AcDbArc
 50
299.9999999999995
 51
0.0
  0
LINE
  5
163
330
110
100
AcDbEntity
  8
AM_9
100
AcDbLine
 10
-0.8828125000000002
 20
-1.293610118395209
 30
0.0
 11
-0.8828125000000002
 21
1.293610118395209
 31
0.0
  0
LINE
  5
164
330
110
100
AcDbEntity
  8
AM_9
100
AcDbLine
 10
-0.8828125000000002
 20
1.293610118395209
 30
0.0
 11
-1.0234375
 21
1.3748
 31
0.0
  0
LINE
  5
165
330
110
100
AcDbEntity
  8
AM_9
100
AcDbLine
 10
-1.0234375
 20
-1.3748
 30
0.0
 11
-0.8828125000000002
 21
-1.293610118395209
 31
0.0
  0
LINE
  5
166
330
110
100
AcDbEntity
  8
AM_9
100
AcDbLine
 10
-2.500000000196328
 20
-0.8227764687325855
 30
0.0
 11
-2.488333333333333
 21
-0.8229218771461457
 31
0.0
  0
LINE
  5
167
330
110
100
AcDbEntity
  8
AM_9
100
AcDbLine
 10
-2.488333333333333
 20
-1.091622453997034
 30
0.0
 11
-2.500000000196328
 21
-1.091477045583473
 31
0.0
  0
LINE
  5
168
330
110
100
AcDbEntity
  8
AM_9
100
AcDbLine
 10
-2.500000000196328
 20
1.091477045583473
 30
0.0
 11
-2.488333333333333
 21
1.091622453997033
 31
0.0
  0
LINE
  5
169
330
110
100
AcDbEntity
  8
AM_9
100
AcDbLine
 10
-2.488333333333333
 20
0.8229218771461452
 30
0.0
 11
-2.500000000196328
 21
0.8227764687325849
 31
0.0
  0
LINE
  5
16A
330
110
100
AcDbEntity
  8
AM_9
100
AcDbLine
 10
-2.5
 20
-1.366851586144253
 30
0.0
 11
-2.025689879678136
 21
-1.375130700090581
 31
0.0
  0
LINE
  5
16B
330
110
100
AcDbEntity
  8
AM_9
100
AcDbLine
 10
-2.025689879678136
 20
1.375130700090581
 30
0.0
 11
-2.5
 21
1.366851586144253
 31
0.0
  0
LINE
  5
16C
330
110
100
AcDbEntity
  8
AM_9
100
AcDbLine
 10
-2.025689879678136
 20
-1.375130700090581
 30
0.0
 11
-2.025689879678136
 21
1.375130700090581
 31
0.0
  0
ARC
  5
16D
330
110
100
AcDbEntity
  8
AM_9
100
AcDbCircle
 10
-2.026562500000001
 20
1.425123084848402
 30
0.0
 40
0.0500000000000014
100
AcDbArc
 50
271.0000000000016
 51
0.0
  0
ARC
  5
16E
330
110
100
AcDbEntity
  8
AM_9
100
AcDbCircle
 10
-2.026562500000001
 20
-1.425123084848402
 30
0.0
 40
0.0500000000000012
100
AcDbArc
 50
0.0
 51
88.99999999999835
  0
LINE
  5
16F
330
110
100
AcDbEntity
  8
AM_9
100
AcDbLine
 10
-1.492485651233932
 20
1.52714375
 30
0.0
 11
-1.547514348766068
 21
1.52714375
 31
0.0
  0
LINE
  5
170
330
110
100
AcDbEntity
  8
AM_9
100
AcDbLine
 10
-1.547514348766068
 20
-1.52714375
 30
0.0
 11
-1.492485651233932
 21
-1.52714375
 31
0.0
  0
LINE
  5
171
330
110
100
AcDbEntity
  8
AM_9
100
AcDbLine
 10
-1.0734375
 20
1.5748
 30
0.0
 11
-1.464971302467864
 21
1.5748
 31
0.0
  0
LINE
  5
172
330
110
100
AcDbEntity
  8
AM_9
100
AcDbLine
 10
-1.464971302467864
 20
-1.5748
 30
0.0
 11
-1.0734375
 21
-1.5748
 31
0.0
  0
LINE
  5
173
330
110
100
AcDbEntity
  8
AM_9
100
AcDbLine
 10
-1.575028697532136
 20
1.5748
 30
0.0
 11
-1.966562500000001
 21
1.5748
 31
0.0
  0
LINE
  5
174
330
110
100
AcDbEntity
  8
AM_9
100
AcDbLine
 10
-1.966562500000001
 20
-1.5748
 30
0.0
 11
-1.575028697532136
 21
-1.5748
 31
0.0
  0
LINE
  5
175
330
110
100
AcDbEntity
  8
AM_9
100
AcDbLine
 10
-1.966562500000001
 20
-1.5748
 30
0.0
 11
-1.966562500000001
 21
1.5748
 31
0.0
  0
LINE
  5
176
330
110
100
AcDbEntity
  8
AM_9
100
AcDbLine
 10
-1.9765625
 20
-1.564799999999999
 30
0.0
 11
-1.9765625
 21
1.564799999999999
 31
0.0
  0
ARC
  5
177
330
110
100
AcDbEntity
  8
AM_9
100
AcDbCircle
 10
-1.966562500000001
 20
1.564800000000001
 30
0.0
 40
0.0099999999999989
100
AcDbArc
 50
90.0
 51
180.0
  0
ARC
  5
178
330
110
100
AcDbEntity
  8
AM_9
100
AcDbCircle
 10
-1.966562500000001
 20
-1.564800000000001
 30
0.0
 40
0.0099999999999989
100
AcDbArc
 50
180.0
 51
270.0
  0
LINE
  5
179
330
110
100
AcDbEntity
  8
AM_9
100
AcDbLine
 10
-1.464971302467864
 20
-1.5748
 30
0.0
 11
-1.464971302467864
 21
1.5748
 31
0.0
  0
LINE
  5
17A
330
110
100
AcDbEntity
  8
AM_9
100
AcDbLine
 10
-1.492485651233932
 20
-1.52714375
 30
0.0
 11
-1.492485651233932
 21
1.52714375
 31
0.0
  0
LINE
  5
17B
330
110
100
AcDbEntity
  8
AM_9
100
AcDbLine
 10
-1.492485651233932
 20
-1.52714375
 30
0.0
 11
-1.464971302467864
 21
-1.5748
 31
0.0
  0
LINE
  5
17C
330
110
100
AcDbEntity
  8
AM_9
100
AcDbLine
 10
-1.464971302467864
 20
1.5748
 30
0.0
 11
-1.492485651233932
 21
1.52714375
 31
0.0
  0
LINE
  5
17D
330
110
100
AcDbEntity
  8
AM_9
100
AcDbLine
 10
-1.547514348766068
 20
-1.52714375
 30
0.0
 11
-1.547514348766068
 21
1.52714375
 31
0.0
  0
LINE
  5
17E
330
110
100
AcDbEntity
  8
AM_9
100
AcDbLine
 10
-1.575028697532136
 20
-1.5748
 30
0.0
 11
-1.575028697532136
 21
1.5748
 31
0.0
  0
LINE
  5
17F
330
110
100
AcDbEntity
  8
AM_9
100
AcDbLine
 10
-1.547514348766068
 20
1.52714375
 30
0.0
 11
-1.575028697532136
 21
1.5748
 31
0.0
  0
LINE
  5
180
330
110
100
AcDbEntity
  8
AM_9
100
AcDbLine
 10
-1.575028697532136
 20
-1.5748
 30
0.0
 11
-1.547514348766068
 21
-1.52714375
 31
0.0
  0
LINE
  5
181
330
110
100
AcDbEntity
  8
AM_9
100
AcDbLine
 10
-1.0234375
 20
-1.5248
 30
0.0
 11
-1.0234375
 21
1.5248
 31
0.0
  0
LINE
  5
182
330
110
100
AcDbEntity
  8
AM_9
100
AcDbLine
 10
-1.0734375
 20
-1.5748
 30
0.0
 11
-1.0734375
 21
1.5748
 31
0.0
  0
ARC
  5
183
330
110
100
AcDbEntity
  8
AM_9
100
AcDbCircle
 10
-1.073437500000001
 20
1.524799999999999
 30
0.0
 40
0.0500000000000009
100
AcDbArc
 50
0.0
 51
90.0
  0
ARC
  5
184
330
110
100
AcDbEntity
  8
AM_9
100
AcDbCircle
 10
-1.0734375
 20
-1.5248
 30
0.0
 40
0.0499999999999996
100
AcDbArc
 50
270.0
 51
0.0
  0
LINE
  5
185
330
110
100
AcDbEntity
  8
AM_5
100
AcDbLine
 10
-2.228333333333333
 20
1.173993055555556
 30
0.0
 11
-2.20136064373019
 21
1.158420365952413
 31
0.0
  0
LINE
  5
186
330
110
100
AcDbEntity
  8
AM_5
100
AcDbLine
 10
-2.928333333333334
 20
0.9839930555555556
 30
0.0
 11
-2.228333333333333
 21
0.9839930555555556
 31
0.0
  0
LINE
  5
187
330
110
100
AcDbEntity
  8
AM_5
100
AcDbLine
 10
-2.228333333333333
 20
0.9839930555555557
 30
0.0
 11
-2.201360643730191
 21
0.9995657451586981
 31
0.0
  0
LINE
  5
188
330
110
100
AcDbEntity
  8
AM_5
100
AcDbLine
 10
-2.22833333333333
 20
-1.173993055555556
 30
0.0
 11
-2.201360643730195
 21
-1.158420365952417
 31
0.0
  0
LINE
  5
189
330
110
100
AcDbEntity
  8
AM_5
100
AcDbLine
 10
-2.928333333333333
 20
-0.9839930555555556
 30
0.0
 11
-2.22833333333333
 21
-0.9839930555555556
 31
0.0
  0
LINE
  5
18A
330
110
100
AcDbEntity
  8
AM_5
100
AcDbLine
 10
-2.22833333333333
 20
-0.9839930555555557
 30
0.0
 11
-2.201360643730196
 21
-0.9995657451586933
 31
0.0
  0
LINE
  5
18D
330
110
100
AcDbEntity
  8
AM_7
100
AcDbLine
 10
-2.046333333333334
 20
1.078993055555556
 30
0.0
 11
-3.144383333333333
 21
1.078993055555556
 31
0.0
  0
LINE
  5
18E
330
110
100
AcDbEntity
  8
AM_7
100
AcDbLine
 10
-2.046333333333329
 20
-1.078993055555556
 30
0.0
 11
-3.144383333333333
 21
-1.078993055555556
 31
0.0
  0
LINE
  5
18F
330
110
100
AcDbEntity
  8
AM_4
100
AcDbLine
 10
-2.998333333333334
 20
0.7565789473684211
 30
0.0
 11
-3.16
 21
0.7565789473684211
 31
0.0
  0
LINE
  5
190
330
110
100
AcDbEntity
  8
AM_4
100
AcDbLine
 10
-3.16
 20
-0.7565789473684211
 30
0.0
 11
-2.998333333333334
 21
-0.7565789473684211
 31
0.0
  0
LINE
  5
191
330
110
100
AcDbEntity
  8
AM_4
100
AcDbLine
 10
-3.16
 20
-0.7565789473684211
 30
0.0
 11
-3.16
 21
0.7565789473684211
 31
0.0
  0
LINE
  5
192
330
110
100
AcDbEntity
  8
AM_4
100
AcDbLine
 10
-2.5
 20
-0.9192388155425117
 30
0.0
 11
-2.928333333333333
 21
-0.9192388155425117
 31
0.0
  0
LINE
  5
193
330
110
100
AcDbEntity
  8
AM_4
100
AcDbLine
 10
-2.5
 20
0.9192388155425117
 30
0.0
 11
-2.928333333333333
 21
0.9192388155425117
 31
0.0
  0
LINE
  5
194
330
110
100
AcDbEntity
  8
AM_4
100
AcDbLine
 10
-0.51
 20
-1.197916666666667
 30
0.0
 11
-0.51
 21
1.197916666666667
 31
0.0
  0
LINE
  5
195
330
110
100
AcDbEntity
  8
AM_4
100
AcDbLine
 10
-0.51
 20
1.197916666666667
 30
0.0
 11
-0.6057142857142856
 21
1.197916666666667
 31
0.0
  0
LINE
  5
196
330
110
100
AcDbEntity
  8
AM_4
100
AcDbLine
 10
-0.6057142857142856
 20
-1.197916666666667
 30
0.0
 11
-0.51
 21
-1.197916666666667
 31
0.0
  0
LINE
  5
197
330
110
100
AcDbEntity
  8
AM_4
100
AcDbLine
 10
-2.928333333333333
 20
-0.817437605652065
 30
0.0
 11
-2.500000000196328
 21
-0.8227764687325855
 31
0.0
  0
LINE
  5
198
330
110
100
AcDbEntity
  8
AM_4
100
AcDbLine
 10
-2.500000000196328
 20
-1.091477045583473
 30
0.0
 11
-2.928333333333333
 21
-1.086138182502953
 31
0.0
  0
LINE
  5
199
330
110
100
AcDbEntity
  8
AM_4
100
AcDbLine
 10
-2.928333333333333
 20
1.086138182502953
 30
0.0
 11
-2.500000000196328
 21
1.091477045583473
 31
0.0
  0
LINE
  5
19A
330
110
100
AcDbEntity
  8
AM_4
100
AcDbLine
 10
-2.500000000196328
 20
0.8227764687325849
 30
0.0
 11
-2.928333333333333
 21
0.8174376056520642
 31
0.0
  0
LINE
  5
19B
330
110
100
AcDbEntity
  8
AM_4
100
AcDbLine
 10
-2.928333333333333
 20
-1.359375
 30
0.0
 11
-2.5
 21
-1.366851586144253
 31
0.0
  0
LINE
  5
19C
330
110
100
AcDbEntity
  8
AM_4
100
AcDbLine
 10
-2.5
 20
1.366851586144253
 30
0.0
 11
-2.928333333333333
 21
1.359375
 31
0.0
  0
ENDBLK
  5
113
330
110
100
AcDbEntity
  8
0
100
AcDbBlockEnd
  0
BLOCK
  5
19F
330
19D
100
AcDbEntity
  8
0
100
AcDbBlockBegin
  2
6_405015E_Inch_0_in_071289_2
 70
     2
 10
0.0
 20
0.0
 30
0.0
  3
6_405015E_Inch_0_in_071289_2
  1

  0
ATTDEF
  5
1A1
330
19D
100
AcDbEntity
  8
AM_6
100
AcDbText
 10
3.477590742770461
 20
2.372
 30
0.0
 40
0.5
  1
405015E -Inch
100
AcDbAttributeDefinition
  3

  2
NN
 70
     8
280
     0
  0
ATTDEF
  5
1A2
330
19D
100
AcDbEntity
  8
AM_6
100
AcDbText
 10
3.477590742770461
 20
1.872
 30
0.0
 40
0.5
  1
Grease Fitting
100
AcDbAttributeDefinition
  3

  2
NT
 70
     8
280
     0
  0
ATTDEF
  5
1A3
330
19D
100
AcDbEntity
  8
AM_6
100
AcDbText
 10
3.477590742770461
 20
1.372
 30
0.0
 40
0.5
  1
405015E-Inch
100
AcDbAttributeDefinition
  3

  2
NB
 70
     8
280
     0
  0
ATTDEF
  5
1A4
330
19D
100
AcDbEntity
  8
AM_6
100
AcDbText
 10
3.477590742770461
 20
0.8719999999999999
 30
0.0
 40
0.5
  1
$MN.-Inch
100
AcDbAttributeDefinition
  3

  2
NBSYN
 70
     8
280
     0
  0
ATTDEF
  5
1A5
330
19D
100
AcDbEntity
  8
AM_6
100
AcDbText
 10
3.477590742770461
 20
0.3719999999999999
 30
0.0
 40
0.5
  1
405015E
100
AcDbAttributeDefinition
  3

  2
LINA
 70
     8
280
     0
  0
ATTDEF
  5
1A6
330
19D
100
AcDbEntity
  8
AM_6
100
AcDbText
 10
3.477590742770461
 20
-0.1280000000000001
 30
0.0
 40
0.5
  1
405015E
100
AcDbAttributeDefinition
  3

  2
MN
 70
     8
280
     0
  0
ATTDEF
  5
1A7
330
19D
100
AcDbEntity
  8
AM_6
100
AcDbText
 10
3.477590742770461
 20
-0.6280000000000001
 30
0.0
 40
0.5
  1
1/8 x 27PTF
100
AcDbAttributeDefinition
  3

  2
T
 70
     8
280
     0
  0
ATTDEF
  5
1A8
330
19D
100
AcDbEntity
  8
AM_6
100
AcDbText
 10
3.477590742770461
 20
-1.128
 30
0.0
 40
0.5
  1
baldor
100
AcDbAttributeDefinition
  3

  2
COMPANY
 70
     8
280
     0
  0
LINE
  5
1A9
330
19D
100
AcDbEntity
  8
AM_9
100
AcDbLine
 10
-1.936902872472269
 20
1.7
 30
0.0
 11
-1.613097127527731
 21
1.7
 31
0.0
  0
LINE
  5
1AA
330
19D
100
AcDbEntity
  8
AM_9
100
AcDbLine
 10
-1.613097127527731
 20
1.7
 30
0.0
 11
-1.576382373218784
 21
1.736714754308947
 31
0.0
  0
LINE
  5
1AB
330
19D
100
AcDbEntity
  8
AM_9
100
AcDbLine
 10
-1.973617626781215
 20
1.736714754308947
 30
0.0
 11
-1.936902872472269
 21
1.7
 31
0.0
  0
LINE
  5
1AC
330
19D
100
AcDbEntity
  8
AM_9
100
AcDbLine
 10
-1.973617626781215
 20
1.736714754308947
 30
0.0
 11
-1.576382373218784
 21
1.736714754308947
 31
0.0
  0
LINE
  5
1AD
330
19D
100
AcDbEntity
  8
AM_9
100
AcDbLine
 10
-1.576382373218784
 20
1.736714754308947
 30
0.0
 11
-1.56924810277693
 21
1.965
 31
0.0
  0
LINE
  5
1AE
330
19D
100
AcDbEntity
  8
AM_9
100
AcDbLine
 10
-1.98075189722307
 20
1.965
 30
0.0
 11
-1.973617626781215
 21
1.736714754308947
 31
0.0
  0
LINE
  5
1AF
330
19D
100
AcDbEntity
  8
AM_5
100
AcDbLine
 10
-1.606850875147652
 20
1.899870087748463
 30
0.0
 11
-1.613097127527731
 21
1.7
 31
0.0
  0
LINE
  5
1B0
330
19D
100
AcDbEntity
  8
AM_5
100
AcDbLine
 10
-1.56924810277693
 20
1.965
 30
0.0
 11
-1.606850875147652
 21
1.899870087748463
 31
0.0
  0
LINE
  5
1B1
330
19D
100
AcDbEntity
  8
AM_5
100
AcDbLine
 10
-1.978716485751556
 20
1.899870087748463
 30
0.0
 11
-1.571283514248443
 21
1.899870087748463
 31
0.0
  0
LINE
  5
1B2
330
19D
100
AcDbEntity
  8
AM_5
100
AcDbLine
 10
-1.943149124852348
 20
1.899870087748463
 30
0.0
 11
-1.936902872472269
 21
1.7
 31
0.0
  0
LINE
  5
1B3
330
19D
100
AcDbEntity
  8
AM_5
100
AcDbLine
 10
-1.98075189722307
 20
1.965
 30
0.0
 11
-1.943149124852348
 21
1.899870087748463
 31
0.0
  0
LINE
  5
1B4
330
19D
100
AcDbEntity
  8
AM_7
100
AcDbLine
 10
-1.775
 20
2.372
 30
0.0
 11
-1.775
 21
1.668
 31
0.0
  0
LINE
  5
1B5
330
19D
100
AcDbEntity
  8
AM_4
100
AcDbLine
 10
-1.67
 20
2.17
 30
0.0
 11
-1.67
 21
2.2
 31
0.0
  0
LINE
  5
1B6
330
19D
100
AcDbEntity
  8
AM_4
100
AcDbLine
 10
-1.88
 20
2.2
 30
0.0
 11
-1.88
 21
2.17
 31
0.0
  0
LINE
  5
1B7
330
19D
100
AcDbEntity
  8
AM_4
100
AcDbLine
 10
-1.99375
 20
2.065
 30
0.0
 11
-1.55625
 21
2.065
 31
0.0
  0
LINE
  5
1B8
330
19D
100
AcDbEntity
  8
AM_4
100
AcDbLine
 10
-1.522409257229538
 20
2.055932400303385
 30
0.0
 11
-1.55625
 21
2.065
 31
0.0
  0
LINE
  5
1B9
330
19D
100
AcDbEntity
  8
AM_4
100
AcDbLine
 10
-1.99375
 20
2.065
 30
0.0
 11
-2.027590742770461
 21
2.055932400303385
 31
0.0
  0
LINE
  5
1BA
330
19D
100
AcDbEntity
  8
AM_4
100
AcDbLine
 10
-1.55625
 20
1.965
 30
0.0
 11
-1.522409257229538
 21
1.974067599696614
 31
0.0
  0
LINE
  5
1BB
330
19D
100
AcDbEntity
  8
AM_4
100
AcDbLine
 10
-2.027590742770461
 20
1.974067599696614
 30
0.0
 11
-1.99375
 21
1.965
 31
0.0
  0
LINE
  5
1BC
330
19D
100
AcDbEntity
  8
AM_4
100
AcDbLine
 10
-1.88
 20
2.17
 30
0.0
 11
-1.67
 21
2.17
 31
0.0
  0
LINE
  5
1BD
330
19D
100
AcDbEntity
  8
AM_4
100
AcDbLine
 10
-1.88
 20
2.17
 30
0.0
 11
-1.893820090734897
 21
2.137753121618573
 31
0.0
  0
LINE
  5
1BE
330
19D
100
AcDbEntity
  8
AM_4
100
AcDbLine
 10
-1.656179909265102
 20
2.137753121618573
 30
0.0
 11
-1.67
 21
2.17
 31
0.0
  0
LINE
  5
1BF
330
19D
100
AcDbEntity
  8
AM_4
100
AcDbLine
 10
-1.877677901933187
 20
2.34
 30
0.0
 11
-1.672322098066812
 21
2.34
 31
0.0
  0
LINE
  5
1C0
330
19D
100
AcDbEntity
  8
AM_4
100
AcDbLine
 10
-1.877677901933187
 20
2.34
 30
0.0
 11
-1.91
 21
2.26
 31
0.0
  0
LINE
  5
1C1
330
19D
100
AcDbEntity
  8
AM_4
100
AcDbLine
 10
-1.64
 20
2.26
 30
0.0
 11
-1.672322098066812
 21
2.34
 31
0.0
  0
LINE
  5
1C2
330
19D
100
AcDbEntity
  8
AM_4
100
AcDbLine
 10
-1.91
 20
2.26
 30
0.0
 11
-1.64
 21
2.26
 31
0.0
  0
LINE
  5
1C3
330
19D
100
AcDbEntity
  8
AM_4
100
AcDbLine
 10
-1.88
 20
2.2
 30
0.0
 11
-1.67
 21
2.2
 31
0.0
  0
LINE
  5
1C4
330
19D
100
AcDbEntity
  8
AM_4
100
AcDbLine
 10
-1.67
 20
2.2
 30
0.0
 11
-1.64
 21
2.26
 31
0.0
  0
LINE
  5
1C5
330
19D
100
AcDbEntity
  8
AM_4
100
AcDbLine
 10
-1.91
 20
2.26
 30
0.0
 11
-1.88
 21
2.2
 31
0.0
  0
LINE
  5
1C6
330
19D
100
AcDbEntity
  8
AM_4
100
AcDbLine
 10
-1.893820090734897
 20
2.137753121618573
 30
0.0
 11
-1.656179909265102
 21
2.137753121618573
 31
0.0
  0
LINE
  5
1C7
330
19D
100
AcDbEntity
  8
AM_4
100
AcDbLine
 10
-1.893820090734897
 20
2.137753121618573
 30
0.0
 11
-1.947534053283015
 21
2.083318198540882
 31
0.0
  0
LINE
  5
1C8
330
19D
100
AcDbEntity
  8
AM_4
100
AcDbLine
 10
-1.602465946716984
 20
2.083318198540882
 30
0.0
 11
-1.656179909265102
 21
2.137753121618573
 31
0.0
  0
LINE
  5
1C9
330
19D
100
AcDbEntity
  8
AM_4
100
AcDbLine
 10
-1.947534053283015
 20
2.083318198540882
 30
0.0
 11
-1.602465946716984
 21
2.083318198540882
 31
0.0
  0
LINE
  5
1CA
330
19D
100
AcDbEntity
  8
AM_4
100
AcDbLine
 10
-1.947534053283015
 20
2.083318198540882
 30
0.0
 11
-1.98875
 21
2.065
 31
0.0
  0
LINE
  5
1CB
330
19D
100
AcDbEntity
  8
AM_4
100
AcDbLine
 10
-1.56125
 20
2.065
 30
0.0
 11
-1.602465946716984
 21
2.083318198540882
 31
0.0
  0
LINE
  5
1CC
330
19D
100
AcDbEntity
  8
AM_4
100
AcDbLine
 10
-1.522409257229538
 20
2.055932400303385
 30
0.0
 11
-1.522409257229538
 21
1.974067599696614
 31
0.0
  0
LWPOLYLINE
  5
1CD
330
19D
100
AcDbEntity
  8
AM_4
100
AcDbPolyline
 90
        4
 70
     0
 43
0.0
 10
-1.585556942922154
 20
2.065
 10
-1.569770021499
 20
2.064392585996001
 10
-1.538178800893662
 20
2.059737183504836
 10
-1.522409257229538
 20
2.055932400303385
  0
LWPOLYLINE
  5
1CE
330
19D
100
AcDbEntity
  8
AM_4
100
AcDbPolyline
 90
        4
 70
     0
 43
0.0
 10
-1.522409257229538
 20
1.974067599696614
 10
-1.545968087283173
 20
1.968721412808832
 10
-1.569676924397847
 20
1.965614561814227
 10
-1.585556942922154
 20
1.965
  0
LWPOLYLINE
  5
1CF
330
19D
100
AcDbEntity
  8
AM_4
100
AcDbPolyline
 90
        4
 70
     0
 43
0.0
 10
-1.585556942922154
 20
1.965
 10
-1.601343864345308
 20
1.965607414003999
 10
-1.617149788954207
 20
1.967396206041016
 10
-1.648704628614769
 20
1.974067599696614
  0
LWPOLYLINE
  5
1D0
330
19D
100
AcDbEntity
  8
AM_4
100
AcDbPolyline
 90
        4
 70
     0
 43
0.0
 10
-2.027590742770461
 20
2.055932400303385
 10
-2.004031912716827
 20
2.061278587191168
 10
-1.980323075602153
 20
2.064385438185773
 10
-1.964443057077846
 20
2.065
  0
LINE
  5
1D1
330
19D
100
AcDbEntity
  8
AM_4
100
AcDbLine
 10
-2.027590742770461
 20
2.055932400303385
 30
0.0
 11
-2.027590742770461
 21
1.974067599696614
 31
0.0
  0
LWPOLYLINE
  5
1D2
330
19D
100
AcDbEntity
  8
AM_4
100
AcDbPolyline
 90
        4
 70
     0
 43
0.0
 10
-1.964443057077846
 20
1.965
 10
-1.980229978501
 20
1.965607414003999
 10
-1.996035903109899
 20
1.967396206041016
 10
-2.027590742770461
 20
1.974067599696614
  0
LWPOLYLINE
  5
1D3
330
19D
100
AcDbEntity
  8
AM_4
100
AcDbPolyline
 90
        4
 70
     0
 43
0.0
 10
-1.90129537138523
 20
1.974067599696614
 10
-1.924854201438865
 20
1.968721412808832
 10
-1.948563038553539
 20
1.965614561814227
 10
-1.964443057077846
 20
1.965
  0
LWPOLYLINE
  5
1D4
330
19D
100
AcDbEntity
  8
AM_4
100
AcDbPolyline
 90
        4
 70
     0
 43
0.0
 10
-1.648704628614769
 20
2.055932400303385
 10
-1.625145798561135
 20
2.061278587191168
 10
-1.601436961446461
 20
2.064385438185773
 10
-1.585556942922154
 20
2.065
  0
LWPOLYLINE
  5
1D5
330
19D
100
AcDbEntity
  8
AM_4
100
AcDbPolyline
 90
        4
 70
     0
 43
0.0
 10
-1.964443057077846
 20
2.065
 10
-1.948656135654692
 20
2.064392585996001
 10
-1.932850211045792
 20
2.062603793958985
 10
-1.90129537138523
 20
2.055932400303385
  0
LINE
  5
1D6
330
19D
100
AcDbEntity
  8
AM_4
100
AcDbLine
 10
-1.648704628614769
 20
2.055932400303385
 30
0.0
 11
-1.648704628614769
 21
1.974067599696614
 31
0.0
  0
LWPOLYLINE
  5
1D7
330
19D
100
AcDbEntity
  8
AM_4
100
AcDbPolyline
 90
        4
 70
     0
 43
0.0
 10
-1.775
 20
2.065
 10
-1.726600183944101
 20
2.063582439282862
 10
-1.678200367888202
 20
2.059517587482156
 10
-1.648704628614769
 20
2.055932400303385
  0
LWPOLYLINE
  5
1D8
330
19D
100
AcDbEntity
  8
AM_4
100
AcDbPolyline
 90
        5
 70
     0
 43
0.0
 10
-1.90129537138523
 20
2.055932400303385
 10
-1.869925154415046
 20
2.059719184458392
 10
-1.838431614691436
 20
2.06258547505038
 10
-1.806760037048614
 20
2.064385438185773
 10
-1.775
 20
2.065
  0
LINE
  5
1D9
330
19D
100
AcDbEntity
  8
AM_4
100
AcDbLine
 10
-1.90129537138523
 20
2.055932400303385
 30
0.0
 11
-1.90129537138523
 21
1.974067599696614
 31
0.0
  0
LWPOLYLINE
  5
1DA
330
19D
100
AcDbEntity
  8
AM_4
100
AcDbPolyline
 90
        5
 70
     0
 43
0.0
 10
-1.775
 20
1.965
 10
-1.806573842846307
 20
1.965607414003999
 10
-1.838147685692615
 20
1.967393380785035
 10
-1.869756284056983
 20
1.970262816495164
 10
-1.90129537138523
 20
1.974067599696614
  0
LWPOLYLINE
  5
1DB
330
19D
100
AcDbEntity
  8
AM_4
100
AcDbPolyline
 90
        4
 70
     0
 43
0.0
 10
-1.648704628614769
 20
1.974067599696614
 10
-1.678200367888202
 20
1.970482412517844
 10
-1.726457558752245
 20
1.966425828243072
 10
-1.775
 20
1.965
  0
ENDBLK
  5
1A0
330
19D
100
AcDbEntity
  8
0
100
AcDbBlockEnd
  0
BLOCK
  5
1DE
330
1DC
100
AcDbEntity
  8
0
100
AcDbBlockBegin
  2
7_071289H_0_in_071289_2
 70
     2
 10
0.0
 20
0.0
 30
0.0
  3
7_071289H_0_in_071289_2
  1

  0
ATTDEF
  5
1E0
330
1DC
100
AcDbEntity
  8
AM_6
100
AcDbText
 10
5.140250000025299
 20
2.315
 30
0.0
 40
0.5
  1
EF4S-IP -(Contact Seal)-Housing -Inch
100
AcDbAttributeDefinition
  3

  2
NN
 70
     8
280
     0
  0
ATTDEF
  5
1E1
330
1DC
100
AcDbEntity
  8
AM_6
100
AcDbText
 10
5.140250000025299
 20
1.815
 30
0.0
 40
0.5
  1
Imperial/E 4 Bolt Square Flange Bearings
100
AcDbAttributeDefinition
  3

  2
NT
 70
     8
280
     0
  0
ATTDEF
  5
1E2
330
1DC
100
AcDbEntity
  8
AM_6
100
AcDbText
 10
5.140250000025299
 20
1.315
 30
0.0
 40
0.5
  1
071289H
100
AcDbAttributeDefinition
  3

  2
NB
 70
     8
280
     0
  0
ATTDEF
  5
1E3
330
1DC
100
AcDbEntity
  8
AM_6
100
AcDbText
 10
5.140250000025299
 20
0.815
 30
0.0
 40
0.5
  1
$PN.H
100
AcDbAttributeDefinition
  3

  2
NBSYN
 70
     8
280
     0
  0
ATTDEF
  5
1E4
330
1DC
100
AcDbEntity
  8
AM_6
100
AcDbText
 10
5.140250000025299
 20
0.3149999999999999
 30
0.0
 40
0.5
  1
071289
100
AcDbAttributeDefinition
  3

  2
LINA
 70
     8
280
     0
  0
ATTDEF
  5
1E5
330
1DC
100
AcDbEntity
  8
AM_6
100
AcDbText
 10
5.140250000025299
 20
-0.1850000000000001
 30
0.0
 40
0.5
  1
1-7/16
100
AcDbAttributeDefinition
  3

  2
SS
 70
     8
280
     0
  0
ATTDEF
  5
1E6
330
1DC
100
AcDbEntity
  8
AM_6
100
AcDbText
 10
5.140250000025299
 20
-0.685
 30
0.0
 40
0.5
  1
1.4375
100
AcDbAttributeDefinition
  3

  2
SS1
 70
     8
280
     0
  0
ATTDEF
  5
1E7
330
1DC
100
AcDbEntity
  8
AM_6
100
AcDbText
 10
5.140250000025299
 20
-1.185
 30
0.0
 40
0.5
  1
3.1496
100
AcDbAttributeDefinition
  3

  2
BORE
 70
     8
280
     0
  0
ATTDEF
  5
1E8
330
1DC
100
AcDbEntity
  8
AM_6
100
AcDbText
 10
5.140250000025299
 20
-1.685
 30
0.0
 40
0.5
  1
Non-Expansion
100
AcDbAttributeDefinition
  3

  2
TYPE
 70
     8
280
     0
  0
ATTDEF
  5
1E9
330
1DC
100
AcDbEntity
  8
AM_6
100
AcDbText
 10
5.140250000025299
 20
-2.185
 30
0.0
 40
0.5
  1
EF4B-IP-107R
100
AcDbAttributeDefinition
  3

  2
DESCRIPTION
 70
     8
280
     0
  0
ATTDEF
  5
1EA
330
1DC
100
AcDbEntity
  8
AM_6
100
AcDbText
 10
5.140250000025299
 20
-2.685
 30
0.0
 40
0.5
  1
Non-Expansion Type
100
AcDbAttributeDefinition
  3

  2
EF
 70
     8
280
     0
  0
ATTDEF
  5
1EB
330
1DC
100
AcDbEntity
  8
AM_6
100
AcDbText
 10
5.140250000025299
 20
-3.185
 30
0.0
 40
0.5
  1
1
100
AcDbAttributeDefinition
  3

  2
EF1
 70
     8
280
     0
  0
ATTDEF
  5
1EC
330
1DC
100
AcDbEntity
  8
AM_6
100
AcDbText
 10
5.140250000025299
 20
-3.685
 30
0.0
 40
0.5
  1
Contact Seal
100
AcDbAttributeDefinition
  3

  2
ST
 70
     8
280
     0
  0
ATTDEF
  5
1ED
330
1DC
100
AcDbEntity
  8
AM_6
100
AcDbText
 10
5.140250000025299
 20
-4.185
 30
0.0
 40
0.5
  1
1
100
AcDbAttributeDefinition
  3

  2
ST1
 70
     8
280
     0
  0
ATTDEF
  5
1EE
330
1DC
100
AcDbEntity
  8
AM_6
100
AcDbText
 10
5.140250000025299
 20
-4.685
 30
0.0
 40
0.5
  1
2.63
100
AcDbAttributeDefinition
  3

  2
A
 70
     8
280
     0
  0
ATTDEF
  5
1EF
330
1DC
100
AcDbEntity
  8
AM_6
100
AcDbText
 10
5.140250000025299
 20
-5.185
 30
0.0
 40
0.5
  1
2.630000
100
AcDbAttributeDefinition
  3

  2
A1
 70
     8
280
     0
  0
ATTDEF
  5
1F0
330
1DC
100
AcDbEntity
  8
AM_6
100
AcDbText
 10
5.140250000025299
 20
-5.685
 30
0.0
 40
0.5
  1
4.63
100
AcDbAttributeDefinition
  3

  2
B
 70
     8
280
     0
  0
ATTDEF
  5
1F1
330
1DC
100
AcDbEntity
  8
AM_6
100
AcDbText
 10
5.140250000025299
 20
-6.185
 30
0.0
 40
0.5
  1
4.630000
100
AcDbAttributeDefinition
  3

  2
B1
 70
     8
280
     0
  0
ATTDEF
  5
1F2
330
1DC
100
AcDbEntity
  8
AM_6
100
AcDbText
 10
5.140250000025299
 20
-6.685
 30
0.0
 40
0.5
  1
3.15
100
AcDbAttributeDefinition
  3

  2
C
 70
     8
280
     0
  0
ATTDEF
  5
1F3
330
1DC
100
AcDbEntity
  8
AM_6
100
AcDbText
 10
5.140250000025299
 20
-7.185
 30
0.0
 40
0.5
  1
3.150000
100
AcDbAttributeDefinition
  3

  2
C1
 70
     8
280
     0
  0
ATTDEF
  5
1F4
330
1DC
100
AcDbEntity
  8
AM_6
100
AcDbText
 10
5.140250000025299
 20
-7.685
 30
0.0
 40
0.5
  1
3.5
100
AcDbAttributeDefinition
  3

  2
D
 70
     8
280
     0
  0
ATTDEF
  5
1F5
330
1DC
100
AcDbEntity
  8
AM_6
100
AcDbText
 10
5.140250000025299
 20
-8.185
 30
0.0
 40
0.5
  1
3.500000
100
AcDbAttributeDefinition
  3

  2
D1
 70
     8
280
     0
  0
ATTDEF
  5
1F6
330
1DC
100
AcDbEntity
  8
AM_6
100
AcDbText
 10
5.140250000025299
 20
-8.685
 30
0.0
 40
0.5
  1
1/2
100
AcDbAttributeDefinition
  3

  2
F
 70
     8
280
     0
  0
ATTDEF
  5
1F7
330
1DC
100
AcDbEntity
  8
AM_6
100
AcDbText
 10
5.140250000025299
 20
-9.185
 30
0.0
 40
0.5
  1
0.500
100
AcDbAttributeDefinition
  3

  2
F1
 70
     8
280
     0
  0
ATTDEF
  5
1F8
330
1DC
100
AcDbEntity
  8
AM_6
100
AcDbText
 10
5.140250000025299
 20
-9.685
 30
0.0
 40
0.5
  1
0.66
100
AcDbAttributeDefinition
  3

  2
G
 70
     8
280
     0
  0
ATTDEF
  5
1F9
330
1DC
100
AcDbEntity
  8
AM_6
100
AcDbText
 10
5.140250000025299
 20
-10.185
 30
0.0
 40
0.5
  1
0.660000
100
AcDbAttributeDefinition
  3

  2
G1
 70
     8
280
     0
  0
ATTDEF
  5
1FA
330
1DC
100
AcDbEntity
  8
AM_6
100
AcDbText
 10
5.140250000025299
 20
-10.685
 30
0.0
 40
0.5
  1
1.06
100
AcDbAttributeDefinition
  3

  2
H
 70
     8
280
     0
  0
ATTDEF
  5
1FB
330
1DC
100
AcDbEntity
  8
AM_6
100
AcDbText
 10
5.140250000025299
 20
-11.185
 30
0.0
 40
0.5
  1
1.060000
100
AcDbAttributeDefinition
  3

  2
H1
 70
     8
280
     0
  0
ATTDEF
  5
1FC
330
1DC
100
AcDbEntity
  8
AM_6
100
AcDbText
 10
5.140250000025299
 20
-11.685
 30
0.0
 40
0.5
  1
3.88
100
AcDbAttributeDefinition
  3

  2
J
 70
     8
280
     0
  0
ATTDEF
  5
1FD
330
1DC
100
AcDbEntity
  8
AM_6
100
AcDbText
 10
5.140250000025299
 20
-12.185
 30
0.0
 40
0.5
  1
3.880000
100
AcDbAttributeDefinition
  3

  2
J1
 70
     8
280
     0
  0
ATTDEF
  5
1FE
330
1DC
100
AcDbEntity
  8
AM_6
100
AcDbText
 10
5.140250000025299
 20
-12.685
 30
0.0
 40
0.5
  1
3.880000
100
AcDbAttributeDefinition
  3

  2
K
 70
     8
280
     0
  0
ATTDEF
  5
1FF
330
1DC
100
AcDbEntity
  8
AM_6
100
AcDbText
 10
5.140250000025299
 20
-13.185
 30
0.0
 40
0.5
  1
6.000
100
AcDbAttributeDefinition
  3

  2
K1
 70
     8
280
     0
  0
ATTDEF
  5
200
330
1DC
100
AcDbEntity
  8
AM_6
100
AcDbText
 10
5.140250000025299
 20
-13.685
 30
0.0
 40
0.5
  1
2.72
100
AcDbAttributeDefinition
  3

  2
L
 70
     8
280
     0
  0
ATTDEF
  5
201
330
1DC
100
AcDbEntity
  8
AM_6
100
AcDbText
 10
5.140250000025299
 20
-14.185
 30
0.0
 40
0.5
  1
2.72000
100
AcDbAttributeDefinition
  3

  2
L1
 70
     8
280
     0
  0
ATTDEF
  5
202
330
1DC
100
AcDbEntity
  8
AM_6
100
AcDbText
 10
5.140250000025299
 20
-14.685
 30
0.0
 40
0.5
  1
2.34
100
AcDbAttributeDefinition
  3

  2
N
 70
     8
280
     0
  0
ATTDEF
  5
203
330
1DC
100
AcDbEntity
  8
AM_6
100
AcDbText
 10
5.140250000025299
 20
-15.185
 30
0.0
 40
0.5
  1
2.340000
100
AcDbAttributeDefinition
  3

  2
N1
 70
     8
280
     0
  0
ATTDEF
  5
204
330
1DC
100
AcDbEntity
  8
AM_6
100
AcDbText
 10
5.140250000025299
 20
-15.685
 30
0.0
 40
0.5
  1
0.53
100
AcDbAttributeDefinition
  3

  2
P
 70
     8
280
     0
  0
ATTDEF
  5
205
330
1DC
100
AcDbEntity
  8
AM_6
100
AcDbText
 10
5.140250000025299
 20
-16.185
 30
0.0
 40
0.5
  1
0.530000
100
AcDbAttributeDefinition
  3

  2
P1
 70
     8
280
     0
  0
ATTDEF
  5
206
330
1DC
100
AcDbEntity
  8
AM_6
100
AcDbText
 10
5.140250000025299
 20
-16.685
 30
0.0
 40
0.5
  1
0.16
100
AcDbAttributeDefinition
  3

  2
X
 70
     8
280
     0
  0
ATTDEF
  5
207
330
1DC
100
AcDbEntity
  8
AM_6
100
AcDbText
 10
5.140250000025299
 20
-17.185
 30
0.0
 40
0.5
  1
0.1600
100
AcDbAttributeDefinition
  3

  2
X1
 70
     8
280
     0
  0
ATTDEF
  5
208
330
1DC
100
AcDbEntity
  8
AM_6
100
AcDbText
 10
5.140250000025299
 20
-17.685
 30
0.0
 40
0.5
  1
0.020
100
AcDbAttributeDefinition
  3

  2
Y
 70
     8
280
     0
  0
ATTDEF
  5
209
330
1DC
100
AcDbEntity
  8
AM_6
100
AcDbText
 10
5.140250000025299
 20
-18.185
 30
0.0
 40
0.5
  1
1.8
100
AcDbAttributeDefinition
  3

  2
Z
 70
     8
280
     0
  0
ATTDEF
  5
20A
330
1DC
100
AcDbEntity
  8
AM_6
100
AcDbText
 10
5.140250000025299
 20
-18.685
 30
0.0
 40
0.5
  1
1.800000
100
AcDbAttributeDefinition
  3

  2
Z1
 70
     8
280
     0
  0
ATTDEF
  5
20B
330
1DC
100
AcDbEntity
  8
AM_6
100
AcDbText
 10
5.140250000025299
 20
-19.185
 30
0.0
 40
0.5
  1
071289
100
AcDbAttributeDefinition
  3

  2
PN1
 70
     8
280
     0
  0
ATTDEF
  5
20C
330
1DC
100
AcDbEntity
  8
AM_6
100
AcDbText
 10
5.140250000025299
 20
-19.685
 30
0.0
 40
0.5
  1
071314
100
AcDbAttributeDefinition
  3

  2
PN2
 70
     8
280
     0
  0
ATTDEF
  5
20D
330
1DC
100
AcDbEntity
  8
AM_6
100
AcDbText
 10
5.140250000025299
 20
-20.185
 30
0.0
 40
0.5
  1
baldor
100
AcDbAttributeDefinition
  3

  2
COMPANY
 70
     8
280
     0
  0
LINE
  5
20E
330
1DC
100
AcDbEntity
  8
AM_9
100
AcDbLine
 10
-0.6057142857142856
 20
2.315
 30
0.0
 11
-0.6057142857142856
 21
1.236363636363637
 31
0.0
  0
LINE
  5
20F
330
1DC
100
AcDbEntity
  8
AM_9
100
AcDbLine
 10
-0.6057142857142856
 20
-1.236363636363635
 30
0.0
 11
-0.6057142857142856
 21
-2.315
 31
0.0
  0
LINE
  5
210
330
1DC
100
AcDbEntity
  8
AM_9
100
AcDbLine
 10
-0.9539999999999998
 20
-2.262420713776504
 30
0.0
 11
-1.06
 21
-2.262420713776504
 31
0.0
  0
LINE
  5
211
330
1DC
100
AcDbEntity
  8
AM_9
100
AcDbLine
 10
-0.9539999999999998
 20
2.262420713776509
 30
0.0
 11
-1.06
 21
2.262420713776509
 31
0.0
  0
LINE
  5
212
330
1DC
100
AcDbEntity
  8
AM_9
100
AcDbLine
 10
-0.9539999999999998
 20
2.315
 30
0.0
 11
-0.954
 21
1.766256251085293
 31
0.0
  0
LINE
  5
213
330
1DC
100
AcDbEntity
  8
AM_9
100
AcDbLine
 10
-0.6057142857142856
 20
1.5748
 30
0.0
 11
-2.5
 21
1.5748
 31
0.0
  0
LINE
  5
214
330
1DC
100
AcDbEntity
  8
AM_9
100
AcDbLine
 10
-2.5
 20
-1.5748
 30
0.0
 11
-0.6057142857142856
 21
-1.5748
 31
0.0
  0
LINE
  5
215
330
1DC
100
AcDbEntity
  8
AM_9
100
AcDbLine
 10
-0.954
 20
-1.766256251085293
 30
0.0
 11
-0.9539999999999998
 21
-2.315
 31
0.0
  0
LINE
  5
216
330
1DC
100
AcDbEntity
  8
AM_9
100
AcDbLine
 10
-1.06
 20
1.766256251085292
 30
0.0
 11
-0.954
 21
1.766256251085293
 31
0.0
  0
LINE
  5
217
330
1DC
100
AcDbEntity
  8
AM_9
100
AcDbLine
 10
-0.954
 20
-1.766256251085293
 30
0.0
 11
-1.06
 21
-1.766256251085293
 31
0.0
  0
LINE
  5
218
330
1DC
100
AcDbEntity
  8
AM_9
100
AcDbLine
 10
-0.954
 20
1.94
 30
0.0
 11
-1.06
 21
1.94
 31
0.0
  0
LINE
  5
219
330
1DC
100
AcDbEntity
  8
AM_9
100
AcDbLine
 10
-1.06
 20
-1.94
 30
0.0
 11
-0.954
 21
-1.94
 31
0.0
  0
LINE
  5
21A
330
1DC
100
AcDbEntity
  8
AM_9
100
AcDbLine
 10
-1.06
 20
-2.0
 30
0.0
 11
0.0000000000000001
 21
-2.0
 31
0.0
  0
LINE
  5
21B
330
1DC
100
AcDbEntity
  8
AM_9
100
AcDbLine
 10
0.0000000000000001
 20
-1.5
 30
0.0
 11
-1.06
 21
-1.5
 31
0.0
  0
LINE
  5
21C
330
1DC
100
AcDbEntity
  8
AM_9
100
AcDbLine
 10
-1.06
 20
1.5
 30
0.0
 11
0.0000000000000001
 21
1.5
 31
0.0
  0
LINE
  5
21D
330
1DC
100
AcDbEntity
  8
AM_9
100
AcDbLine
 10
0.0000000000000001
 20
2.0
 30
0.0
 11
-1.06
 21
2.0
 31
0.0
  0
LINE
  5
21E
330
1DC
100
AcDbEntity
  8
AM_7
100
AcDbLine
 10
0.1402500000252991
 20
0.0
 30
0.0
 11
-3.2925
 21
0.0
 31
0.0
  0
LINE
  5
21F
330
1DC
100
AcDbEntity
  8
AM_7
100
AcDbLine
 10
0.0635999999999999
 20
1.75
 30
0.0
 11
-1.3356
 21
1.75
 31
0.0
  0
LINE
  5
220
330
1DC
100
AcDbEntity
  8
AM_7
100
AcDbLine
 10
0.0636000000000001
 20
-1.75
 30
0.0
 11
-1.3356
 21
-1.75
 31
0.0
  0
LINE
  5
221
330
1DC
100
AcDbEntity
  8
AM_4
100
AcDbLine
 10
-1.375
 20
1.965
 30
0.0
 11
-2.174999999800379
 21
1.965
 31
0.0
  0
ARC
  5
222
330
1DC
100
AcDbEntity
  8
AM_4
100
AcDbCircle
 10
-2.174999999999999
 20
1.864999999999999
 30
0.0
 40
0.100000000000001
100
AcDbArc
 50
90.0
 51
131.3147623405306
  0
ARC
  5
223
330
1DC
100
AcDbEntity
  8
AM_4
100
AcDbCircle
 10
-1.374999999999999
 20
1.865000000000002
 30
0.0
 40
0.0999999999999983
100
AcDbArc
 50
48.70766482723533
 51
90.0
  0
LINE
  5
224
330
1DC
100
AcDbEntity
  8
AM_4
100
AcDbLine
 10
-1.06
 20
1.94
 30
0.0
 11
-1.309237076770444
 21
1.94
 31
0.0
  0
LINE
  5
225
330
1DC
100
AcDbEntity
  8
AM_4
100
AcDbLine
 10
-2.240839060961807
 20
1.94
 30
0.0
 11
-2.434
 21
1.94
 31
0.0
  0
LINE
  5
226
330
1DC
100
AcDbEntity
  8
AM_4
100
AcDbLine
 10
-2.434
 20
-1.94
 30
0.0
 11
-1.06
 21
-1.94
 31
0.0
  0
LWPOLYLINE
  5
227
330
1DC
100
AcDbEntity
  8
AM_4
100
AcDbPolyline
 90
       40
 70
     0
 43
0.0
 10
-2.241143782776454
 20
1.939999999999946
 10
-2.241015500237449
 20
1.93995578960658
 10
-2.238671506128825
 20
1.939188847756543
 10
-2.232324969988822
 20
1.937150883134499
 10
-2.221895478987646
 20
1.933937945131448
 10
-2.206557776969379
 20
1.929465717063376
 10
-2.186465023048493
 20
1.92400515220487
 10
-2.165196514467082
 20
1.918650867099518
 10
-2.140382956256186
 20
1.912896208471406
 10
-2.1109250521188
 20
1.906691474421124
 10
-2.078022222168422
 20
1.900498004531462
 10
-2.048642623658857
 20
1.8955878689579
 10
-2.017364600604206
 20
1.890967824120113
 10
-1.983398788306644
 20
1.886636546213521
 10
-1.947928175359648
 20
1.882845386436936
 10
-1.91279723719845
 20
1.879812158788183
 10
-1.876777071843473
 20
1.877427271952863
 10
-1.839105413727138
 20
1.875710156815657
 10
-1.801006192469748
 20
1.874767795176762
 10
-1.762437113634169
 20
1.874627008410204
 10
-1.723952620106123
 20
1.87529652512091
 10
-1.684734637291049
 20
1.876819985411319
 10
-1.646167227876922
 20
1.879149536105959
 10
-1.609272698191099
 20
1.88216692369489
 10
-1.573554563238321
 20
1.885833979483337
 10
-1.538253599243428
 20
1.890204028982838
 10
-1.504784905265262
 20
1.895050618827186
 10
-1.475291144589013
 20
1.899916379018901
 10
-1.447867142887243
 20
1.904961460239954
 10
-1.421988924430978
 20
1.910210844139516
 10
-1.398665679289972
 20
1.915373716688441
 10
-1.378851897671512
 20
1.920107884528726
 10
-1.361555163127992
 20
1.924525043998819
 10
-1.346467245420874
 20
1.928616809356277
 10
-1.334026670370542
 20
1.932177493995664
 10
-1.323772271020532
 20
1.935254190360584
 10
-1.316264736142882
 20
1.937599815047294
 10
-1.311324842090036
 20
1.939188745312187
 10
-1.309041222347018
 20
1.939938930478721
 10
-1.308856217223587
 20
1.939999999999925
  0
LINE
  5
228
330
1DC
100
AcDbEntity
  8
AM_4
100
AcDbLine
 10
-2.434
 20
-1.94
 30
0.0
 11
-2.434
 21
1.94
 31
0.0
  0
LINE
  5
229
330
1DC
100
AcDbEntity
  8
AM_4
100
AcDbLine
 10
-2.5
 20
-1.874
 30
0.0
 11
-2.5
 21
1.874
 31
0.0
  0
ARC
  5
22A
330
1DC
100
AcDbEntity
  8
AM_4
100
AcDbCircle
 10
-2.434000000000001
 20
1.874
 30
0.0
 40
0.0659999999999996
100
AcDbArc
 50
90.0
 51
180.0
  0
ARC
  5
22B
330
1DC
100
AcDbEntity
  8
AM_4
100
AcDbCircle
 10
-2.434000000000001
 20
-1.874
 30
0.0
 40
0.0659999999999994
100
AcDbArc
 50
180.0
 51
270.0
  0
LINE
  5
22C
330
1DC
100
AcDbEntity
  8
AM_4
100
AcDbLine
 10
-1.06
 20
0.8024580085600265
 30
0.0
 11
-1.06
 21
2.315
 31
0.0
  0
LINE
  5
22D
330
1DC
100
AcDbEntity
  8
AM_4
100
AcDbLine
 10
-0.9539999999999998
 20
0.8024580085600267
 30
0.0
 11
-1.06
 21
0.8024580085600265
 31
0.0
  0
LINE
  5
22E
330
1DC
100
AcDbEntity
  8
AM_4
100
AcDbLine
 10
-1.06
 20
-2.315
 30
0.0
 11
-1.06
 21
-0.8024580085600285
 31
0.0
  0
LINE
  5
22F
330
1DC
100
AcDbEntity
  8
AM_4
100
AcDbLine
 10
-1.06
 20
-0.8024580085600285
 30
0.0
 11
-0.9539999999999998
 21
-0.8024580085600282
 31
0.0
  0
LINE
  5
230
330
1DC
100
AcDbEntity
  8
AM_4
100
AcDbLine
 10
0.0000000000000001
 20
1.236363636363636
 30
0.0
 11
0.0000000000000001
 21
2.315
 31
0.0
  0
LINE
  5
231
330
1DC
100
AcDbEntity
  8
AM_4
100
AcDbLine
 10
-1.06
 20
2.315
 30
0.0
 11
0.0000000000000001
 21
2.315
 31
0.0
  0
LINE
  5
232
330
1DC
100
AcDbEntity
  8
AM_4
100
AcDbLine
 10
0.0000000000000001
 20
-2.315
 30
0.0
 11
0.0000000000000001
 21
-1.236363636363636
 31
0.0
  0
LINE
  5
233
330
1DC
100
AcDbEntity
  8
AM_4
100
AcDbLine
 10
-1.06
 20
-2.315
 30
0.0
 11
0.0000000000000001
 21
-2.315
 31
0.0
  0
LINE
  5
234
330
1DC
100
AcDbEntity
  8
AM_4
100
AcDbLine
 10
-0.6057142857142856
 20
1.236363636363636
 30
0.0
 11
-0.6057142857142856
 21
-1.236363636363636
 31
0.0
  0
LINE
  5
235
330
1DC
100
AcDbEntity
  8
AM_4
100
AcDbLine
 10
0.0000000000000001
 20
1.236363636363636
 30
0.0
 11
-0.6057142857142856
 21
1.236363636363636
 31
0.0
  0
LINE
  5
236
330
1DC
100
AcDbEntity
  8
AM_4
100
AcDbLine
 10
-0.6057142857142856
 20
-1.236363636363636
 30
0.0
 11
0.0000000000000001
 21
-1.236363636363636
 31
0.0
  0
LINE
  5
237
330
1DC
100
AcDbEntity
  8
AM_4
100
AcDbLine
 10
-0.9539999999999998
 20
-1.728904102192125
 30
0.0
 11
-0.9539999999999998
 21
1.728904102192135
 31
0.0
  0
LINE
  5
238
330
1DC
100
AcDbEntity
  8
AM_4
100
AcDbLine
 10
-1.06
 20
1.75
 30
0.0
 11
0.0000000000000001
 21
1.75
 31
0.0
  0
LINE
  5
239
330
1DC
100
AcDbEntity
  8
AM_4
100
AcDbLine
 10
-1.06
 20
-1.749999999999998
 30
0.0
 11
0.0000000000000001
 21
-1.749999999999998
 31
0.0
  0
LINE
  5
23A
330
1DC
100
AcDbEntity
  8
AM_4
100
AcDbLine
 10
-0.9539999999999998
 20
1.728904102192135
 30
0.0
 11
-1.06
 21
1.728904102192135
 31
0.0
  0
LINE
  5
23B
330
1DC
100
AcDbEntity
  8
AM_4
100
AcDbLine
 10
-0.9539999999999998
 20
1.511054296968753
 30
0.0
 11
-1.06
 21
1.511054296968753
 31
0.0
  0
LINE
  5
23C
330
1DC
100
AcDbEntity
  8
AM_4
100
AcDbLine
 10
-1.06
 20
-1.728904102192125
 30
0.0
 11
-0.9539999999999998
 21
-1.728904102192125
 31
0.0
  0
LINE
  5
23D
330
1DC
100
AcDbEntity
  8
AM_4
100
AcDbLine
 10
-0.9539999999999998
 20
-1.511054296968761
 30
0.0
 11
-1.06
 21
-1.511054296968761
 31
0.0
  0
ENDBLK
  5
1DF
330
1DC
100
AcDbEntity
  8
0
100
AcDbBlockEnd
  0
ENDSEC
  0
SECTION
  2
ENTITIES
  0
INSERT
  5
6F
330
1F
100
AcDbEntity
  8
0
100
AcDbBlockReference
  2
1_071289_2
 10
0.0
 20
0.0
 30
0.0
  0
POINT
  5
23F
330
1F
100
AcDbEntity
  8
ConnectionPoints
100
AcDbPoint
 10
-2.998333333333334
 20
1.078993055555556
 30
0.0000000000000002
  0
POINT
  5
240
330
1F
100
AcDbEntity
  8
ConnectionPoints
100
AcDbPoint
 10
-2.928333333333334
 20
0.0
 30
0.0000000000000002
  0
POINT
  5
241
330
1F
100
AcDbEntity
  8
ConnectionPoints
100
AcDbPoint
 10
-3.16
 20
0.0
 30
0.0000000000000002
  0
POINT
  5
242
330
1F
100
AcDbEntity
  8
ConnectionPoints
100
AcDbPoint
 10
-3.127333333333334
 20
0.0
 30
0.0000000000000002
  0
POINT
  5
243
330
1F
100
AcDbEntity
  8
ConnectionPoints
100
AcDbPoint
 10
-2.928333333333334
 20
1.078993055555556
 30
0.0000000000000002
  0
POINT
  5
244
330
1F
100
AcDbEntity
  8
ConnectionPoints
100
AcDbPoint
 10
-2.928333333333334
 20
-1.078993055555556
 30
0.0000000000000002
  0
POINT
  5
245
330
1F
100
AcDbEntity
  8
ConnectionPoints
100
AcDbPoint
 10
-2.928333333333334
 20
0.0
 30
0.0000000000000002
  0
POINT
  5
246
330
1F
100
AcDbEntity
  8
ConnectionPoints
100
AcDbPoint
 10
-1.775
 20
1.965
 30
0.0000000000000001
  0
POINT
  5
247
330
1F
100
AcDbEntity
  8
ConnectionPoints
100
AcDbPoint
 10
-1.775
 20
1.965
 30
0.0000000000000001
  0
POINT
  5
248
330
1F
100
AcDbEntity
  8
ConnectionPoints
100
AcDbPoint
 10
-3.0
 20
0.0
 30
0.0000000000000002
  0
POINT
  5
249
330
1F
100
AcDbEntity
  8
ConnectionPoints
100
AcDbPoint
 10
-3.16
 20
0.0
 30
0.0000000000000002
  0
ENDSEC
  0
SECTION
  2
OBJECTS
  0
DICTIONARY
  5
C
330
0
100
AcDbDictionary
281
     1
  3
ACAD_DETAILVIEWSTYLE
350
251
  3
ACAD_GROUP
350
D
  3
ACAD_LAYOUT
350
1A
  3
ACAD_MATERIAL
350
43
  3
ACAD_MLEADERSTYLE
350
6B
  3
ACAD_MLINESTYLE
350
17
  3
ACAD_PLOTSETTINGS
350
19
  3
ACAD_PLOTSTYLENAME
350
E
  3
ACAD_SCALELIST
350
47
  3
ACAD_SECTIONVIEWSTYLE
350
252
  3
ACAD_TABLESTYLE
350
69
  3
ACAD_VISUALSTYLE
350
2A
  3
ACDB_RECOMPOSE_DATA
350
24E
  3
AcDbVariableDictionary
350
24A
  0
SUN
  5
6D
330
29
100
AcDbSun
 90
        1
290
     0
 63
     7
421
 16777215
 40
1.0
291
     1
 91
  2455826
 92
 54000000
292
     0
 70
     2
 71
   256
280
     1
  0
DICTIONARY
  5
251
102
{ACAD_REACTORS
330
C
102
}
330
C
100
AcDbDictionary
281
     1
  0
DICTIONARY
  5
D
102
{ACAD_REACTORS
330
C
102
}
330
C
100
AcDbDictionary
281
     1
  0
DICTIONARY
  5
1A
102
{ACAD_REACTORS
330
C
102
}
330
C
100
AcDbDictionary
281
     1
  3
Layout1
350
1E
  3
Layout2
350
26
  3
Model
350
22
  0
DICTIONARY
  5
43
102
{ACAD_REACTORS
330
C
102
}
330
C
100
AcDbDictionary
281
     1
  3
ByBlock
350
45
  3
ByLayer
350
44
  3
Global
350
46
  0
DICTIONARY
  5
6B
102
{ACAD_REACTORS
330
C
102
}
330
C
100
AcDbDictionary
281
     1
  3
Standard
350
6C
  0
DICTIONARY
  5
17
102
{ACAD_REACTORS
330
C
102
}
330
C
100
AcDbDictionary
281
     1
  3
Standard
350
18
  0
DICTIONARY
  5
19
102
{ACAD_REACTORS
330
C
102
}
330
C
100
AcDbDictionary
281
     1
  0
ACDBDICTIONARYWDFLT
  5
E
102
{ACAD_REACTORS
330
C
102
}
330
C
100
AcDbDictionary
281
     1
  3
Normal
350
F
100
AcDbDictionaryWithDefault
340
F
  0
DICTIONARY
  5
47
102
{ACAD_REACTORS
330
C
102
}
330
C
100
AcDbDictionary
281
     1
  3
A0
350
48
  3
A1
350
49
  3
A2
350
4A
  3
A3
350
4B
  3
A4
350
4C
  3
A5
350
4D
  3
A6
350
4E
  3
A7
350
4F
  3
A8
350
50
  3
A9
350
51
  3
B0
350
52
  3
B1
350
53
  3
B2
350
54
  3
B3
350
55
  3
B4
350
56
  3
B5
350
57
  3
B6
350
58
  3
B7
350
59
  3
B8
350
5A
  3
B9
350
5B
  3
C0
350
5C
  3
C1
350
5D
  3
C2
350
5E
  3
C3
350
5F
  3
C4
350
60
  3
C5
350
61
  3
C6
350
62
  3
C7
350
63
  3
C8
350
64
  3
C9
350
65
  3
D0
350
66
  3
D1
350
67
  3
D2
350
68
  0
DICTIONARY
  5
252
102
{ACAD_REACTORS
330
C
102
}
330
C
100
AcDbDictionary
281
     1
  0
DICTIONARY
  5
69
102
{ACAD_REACTORS
330
C
102
}
330
C
100
AcDbDictionary
281
     1
  3
Standard
350
6A
  0
DICTIONARY
  5
2A
102
{ACAD_REACTORS
330
C
102
}
330
C
100
AcDbDictionary
281
     1
  3
2dWireframe
350
2F
  3
Basic
350
32
  3
Brighten
350
36
  3
ColorChange
350
3A
  3
Conceptual
350
34
  3
Dim
350
35
  3
EdgeColorOff
350
3D
  3
Facepattern
350
39
  3
Flat
350
2B
  3
FlatWithEdges
350
2C
  3
Gouraud
350
2D
  3
GouraudWithEdges
350
2E
  3
Hidden
350
31
  3
JitterOff
350
3B
  3
Linepattern
350
38
  3
OverhangOff
350
3C
  3
Realistic
350
33
  3
Shaded
350
42
  3
Shaded with edges
350
41
  3
Shades of Gray
350
3E
  3
Sketchy
350
3F
  3
Thicken
350
37
  3
Wireframe
350
30
  3
X-Ray
350
40
  0
XRECORD
  5
24E
102
{ACAD_REACTORS
330
C
102
}
330
C
100
AcDbXrecord
280
     1
 90
        1
330
6A
  0
DICTIONARY
  5
24A
102
{ACAD_REACTORS
330
C
102
}
330
C
100
AcDbDictionary
281
     1
  3
CANNOSCALE
350
24B
  3
CMLEADERSTYLE
350
250
  3
CTABLESTYLE
350
24F
  0
LAYOUT
  5
1E
102
{ACAD_REACTORS
330
1A
102
}
330
1A
100
AcDbPlotSettings
  1

  2
none_device
  4

  6

 40
0.0
 41
0.0
 42
0.0
 43
0.0
 44
0.0
 45
0.0
 46
0.0
 47
0.0
 48
0.0
 49
0.0
140
0.0
141
0.0
142
1.0
143
1.0
 70
   688
 72
     0
 73
     0
 74
     5
  7

 75
    16
 76
     0
 77
     2
 78
   300
147
1.0
148
0.0
149
0.0
100
AcDbLayout
  1
Layout1
 70
     1
 71
     1
 10
0.0
 20
0.0
 11
12.0
 21
9.0
 12
0.0
 22
0.0
 32
0.0
 14
1.000000000000000E+20
 24
1.000000000000000E+20
 34
1.000000000000000E+20
 15
-1.000000000000000E+20
 25
-1.000000000000000E+20
 35
-1.000000000000000E+20
146
0.0
 13
0.0
 23
0.0
 33
0.0
 16
1.0
 26
0.0
 36
0.0
 17
0.0
 27
1.0
 37
0.0
 76
     0
330
1B
  0
LAYOUT
  5
26
102
{ACAD_REACTORS
330
1A
102
}
330
1A
100
AcDbPlotSettings
  1

  2
none_device
  4

  6

 40
0.0
 41
0.0
 42
0.0
 43
0.0
 44
0.0
 45
0.0
 46
0.0
 47
0.0
 48
0.0
 49
0.0
140
0.0
141
0.0
142
1.0
143
1.0
 70
   688
 72
     0
 73
     0
 74
     5
  7

 75
    16
 76
     0
 77
     2
 78
   300
147
1.0
148
0.0
149
0.0
100
AcDbLayout
  1
Layout2
 70
     1
 71
     2
 10
0.0
 20
0.0
 11
0.0
 21
0.0
 12
0.0
 22
0.0
 32
0.0
 14
0.0
 24
0.0
 34
0.0
 15
0.0
 25
0.0
 35
0.0
146
0.0
 13
0.0
 23
0.0
 33
0.0
 16
1.0
 26
0.0
 36
0.0
 17
0.0
 27
1.0
 37
0.0
 76
     0
330
23
  0
LAYOUT
  5
22
102
{ACAD_REACTORS
330
1A
102
}
330
1A
100
AcDbPlotSettings
  1

  2
none_device
  4
Letter_(8.50_x_11.00_Inches)
  6

 40
6.35
 41
6.35
 42
6.35000508
 43
6.35000508
 44
215.9
 45
279.4
 46
0.0
 47
0.0
 48
0.0
 49
0.0
140
0.0
141
0.0
142
1.0
143
1.0
 70
  1712
 72
     0
 73
     0
 74
     0
  7

 75
     0
 76
     0
 77
     2
 78
   300
147
1.0
148
0.0
149
0.0
100
AcDbLayout
  1
Model
 70
     1
 71
     0
 10
0.0
 20
0.0
 11
12.0
 21
9.0
 12
0.0
 22
0.0
 32
0.0
 14
1.000000000000000E+20
 24
1.000000000000000E+20
 34
1.000000000000000E+20
 15
-1.000000000000000E+20
 25
-1.000000000000000E+20
 35
-1.000000000000000E+20
146
0.0
 13
0.0
 23
0.0
 33
0.0
 16
1.0
 26
0.0
 36
0.0
 17
0.0
 27
1.0
 37
0.0
 76
     0
330
1F
331
29
  0
MATERIAL
  5
45
102
{ACAD_REACTORS
330
43
102
}
330
43
100
AcDbMaterial
  1
ByBlock
 72
     1
 94
      127
  0
MATERIAL
  5
44
102
{ACAD_REACTORS
330
43
102
}
330
43
100
AcDbMaterial
  1
ByLayer
 72
     1
 94
      127
  0
MATERIAL
  5
46
102
{ACAD_REACTORS
330
43
102
}
330
43
100
AcDbMaterial
  1
Global
 72
     1
 94
      127
  0
MLEADERSTYLE
  5
6C
102
{ACAD_REACTORS
330
6B
102
}
330
6B
100
AcDbMLeaderStyle
179
     2
170
     2
171
     1
172
     0
 90
        2
 40
0.0
 41
0.0
173
     1
 91
-1056964608
340
14
 92
       -2
290
     1
 42
0.09
291
     1
 43
0.36
  3
Standard
341
0
 44
0.18
300

342
11
174
     1
178
     6
175
     1
176
     0
 93
-1056964608
 45
0.18
292
     0
297
     0
 46
0.18
343
0
 94
-1056964608
 47
1.0
 49
1.0
140
1.0
293
     1
141
0.0
294
     1
177
     0
142
1.0
295
     0
296
     0
143
0.125
271
     0
272
     9
273
     9
298
     0
  0
MLINESTYLE
  5
18
102
{ACAD_REACTORS
330
17
102
}
330
17
100
AcDbMlineStyle
  2
Standard
 70
     0
  3

 62
   256
 51
90.0
 52
90.0
 71
     2
 49
0.5
 62
   256
  6
BYLAYER
 49
-0.5
 62
   256
  6
BYLAYER
  0
ACDBPLACEHOLDER
  5
F
102
{ACAD_REACTORS
330
E
102
}
330
E
  0
SCALE
  5
48
102
{ACAD_REACTORS
330
47
102
}
330
47
100
AcDbScale
 70
     0
300
1:1
140
1.0
141
1.0
290
     1
  0
SCALE
  5
49
102
{ACAD_REACTORS
330
47
102
}
330
47
100
AcDbScale
 70
     0
300
1:2
140
1.0
141
2.0
290
     0
  0
SCALE
  5
4A
102
{ACAD_REACTORS
330
47
102
}
330
47
100
AcDbScale
 70
     0
300
1:4
140
1.0
141
4.0
290
     0
  0
SCALE
  5
4B
102
{ACAD_REACTORS
330
47
102
}
330
47
100
AcDbScale
 70
     0
300
1:5
140
1.0
141
5.0
290
     0
  0
SCALE
  5
4C
102
{ACAD_REACTORS
330
47
102
}
330
47
100
AcDbScale
 70
     0
300
1:8
140
1.0
141
8.0
290
     0
  0
SCALE
  5
4D
102
{ACAD_REACTORS
330
47
102
}
330
47
100
AcDbScale
 70
     0
300
1:10
140
1.0
141
10.0
290
     0
  0
SCALE
  5
4E
102
{ACAD_REACTORS
330
47
102
}
330
47
100
AcDbScale
 70
     0
300
1:16
140
1.0
141
16.0
290
     0
  0
SCALE
  5
4F
102
{ACAD_REACTORS
330
47
102
}
330
47
100
AcDbScale
 70
     0
300
1:20
140
1.0
141
20.0
290
     0
  0
SCALE
  5
50
102
{ACAD_REACTORS
330
47
102
}
330
47
100
AcDbScale
 70
     0
300
1:30
140
1.0
141
30.0
290
     0
  0
SCALE
  5
51
102
{ACAD_REACTORS
330
47
102
}
330
47
100
AcDbScale
 70
     0
300
1:40
140
1.0
141
40.0
290
     0
  0
SCALE
  5
52
102
{ACAD_REACTORS
330
47
102
}
330
47
100
AcDbScale
 70
     0
300
1:50
140
1.0
141
50.0
290
     0
  0
SCALE
  5
53
102
{ACAD_REACTORS
330
47
102
}
330
47
100
AcDbScale
 70
     0
300
1:100
140
1.0
141
100.0
290
     0
  0
SCALE
  5
54
102
{ACAD_REACTORS
330
47
102
}
330
47
100
AcDbScale
 70
     0
300
2:1
140
2.0
141
1.0
290
     0
  0
SCALE
  5
55
102
{ACAD_REACTORS
330
47
102
}
330
47
100
AcDbScale
 70
     0
300
4:1
140
4.0
141
1.0
290
     0
  0
SCALE
  5
56
102
{ACAD_REACTORS
330
47
102
}
330
47
100
AcDbScale
 70
     0
300
8:1
140
8.0
141
1.0
290
     0
  0
SCALE
  5
57
102
{ACAD_REACTORS
330
47
102
}
330
47
100
AcDbScale
 70
     0
300
10:1
140
10.0
141
1.0
290
     0
  0
SCALE
  5
58
102
{ACAD_REACTORS
330
47
102
}
330
47
100
AcDbScale
 70
     0
300
100:1
140
100.0
141
1.0
290
     0
  0
SCALE
  5
59
102
{ACAD_REACTORS
330
47
102
}
330
47
100
AcDbScale
 70
     0
300
1/128" = 1'-0"
140
0.0078125
141
12.0
290
     0
  0
SCALE
  5
5A
102
{ACAD_REACTORS
330
47
102
}
330
47
100
AcDbScale
 70
     0
300
1/64" = 1'-0"
140
0.015625
141
12.0
290
     0
  0
SCALE
  5
5B
102
{ACAD_REACTORS
330
47
102
}
330
47
100
AcDbScale
 70
     0
300
1/32" = 1'-0"
140
0.03125
141
12.0
290
     0
  0
SCALE
  5
5C
102
{ACAD_REACTORS
330
47
102
}
330
47
100
AcDbScale
 70
     0
300
1/16" = 1'-0"
140
0.0625
141
12.0
290
     0
  0
SCALE
  5
5D
102
{ACAD_REACTORS
330
47
102
}
330
47
100
AcDbScale
 70
     0
300
3/32" = 1'-0"
140
0.09375
141
12.0
290
     0
  0
SCALE
  5
5E
102
{ACAD_REACTORS
330
47
102
}
330
47
100
AcDbScale
 70
     0
300
1/8" = 1'-0"
140
0.125
141
12.0
290
     0
  0
SCALE
  5
5F
102
{ACAD_REACTORS
330
47
102
}
330
47
100
AcDbScale
 70
     0
300
3/16" = 1'-0"
140
0.1875
141
12.0
290
     0
  0
SCALE
  5
60
102
{ACAD_REACTORS
330
47
102
}
330
47
100
AcDbScale
 70
     0
300
1/4" = 1'-0"
140
0.25
141
12.0
290
     0
  0
SCALE
  5
61
102
{ACAD_REACTORS
330
47
102
}
330
47
100
AcDbScale
 70
     0
300
3/8" = 1'-0"
140
0.375
141
12.0
290
     0
  0
SCALE
  5
62
102
{ACAD_REACTORS
330
47
102
}
330
47
100
AcDbScale
 70
     0
300
1/2" = 1'-0"
140
0.5
141
12.0
290
     0
  0
SCALE
  5
63
102
{ACAD_REACTORS
330
47
102
}
330
47
100
AcDbScale
 70
     0
300
3/4" = 1'-0"
140
0.75
141
12.0
290
     0
  0
SCALE
  5
64
102
{ACAD_REACTORS
330
47
102
}
330
47
100
AcDbScale
 70
     0
300
1" = 1'-0"
140
1.0
141
12.0
290
     0
  0
SCALE
  5
65
102
{ACAD_REACTORS
330
47
102
}
330
47
100
AcDbScale
 70
     0
300
1-1/2" = 1'-0"
140
1.5
141
12.0
290
     0
  0
SCALE
  5
66
102
{ACAD_REACTORS
330
47
102
}
330
47
100
AcDbScale
 70
     0
300
3" = 1'-0"
140
3.0
141
12.0
290
     0
  0
SCALE
  5
67
102
{ACAD_REACTORS
330
47
102
}
330
47
100
AcDbScale
 70
     0
300
6" = 1'-0"
140
6.0
141
12.0
290
     0
  0
SCALE
  5
68
102
{ACAD_REACTORS
330
47
102
}
330
47
100
AcDbScale
 70
     0
300
1'-0" = 1'-0"
140
12.0
141
12.0
290
     0
  0
TABLESTYLE
  5
6A
102
{ACAD_REACTORS
330
69
102
}
102
{ACAD_XDICTIONARY
360
24C
102
}
330
69
100
AcDbTableStyle
  3
Standard
 70
     0
 71
     0
 40
0.06
 41
0.06
280
     0
281
     0
  7
Standard
140
0.18
170
     2
 62
     0
 63
   257
283
     0
 90
        4
 91
        0
  1

274
    -2
284
     1
 64
     0
275
    -2
285
     1
 65
     0
276
    -2
286
     1
 66
     0
277
    -2
287
     1
 67
     0
278
    -2
288
     1
 68
     0
279
    -2
289
     1
 69
     0
  7
Standard
140
0.25
170
     5
 62
     0
 63
   257
283
     0
 90
        4
 91
        0
  1

274
    -2
284
     1
 64
     0
275
    -2
285
     1
 65
     0
276
    -2
286
     1
 66
     0
277
    -2
287
     1
 67
     0
278
    -2
288
     1
 68
     0
279
    -2
289
     1
 69
     0
  7
Standard
140
0.18
170
     5
 62
     0
 63
   257
283
     0
 90
        4
 91
        0
  1

274
    -2
284
     1
 64
     0
275
    -2
285
     1
 65
     0
276
    -2
286
     1
 66
     0
277
    -2
287
     1
 67
     0
278
    -2
288
     1
 68
     0
279
    -2
289
     1
 69
     0
  0
VISUALSTYLE
  5
2F
102
{ACAD_REACTORS
330
2A
102
}
330
2A
100
AcDbVisualStyle
  2
2dWireframe
 70
     4
177
     3
291
     0
 70
    58
 90
        0
176
     1
 90
        2
176
     1
 90
        0
176
     1
 90
        0
176
     1
 40
0.6
176
     1
 40
30.0
176
     1
 62
     7
420
 16777215
176
     1
 90
        1
176
     1
 90
        4
176
     1
 62
     7
176
     1
 62
   257
176
     1
 90
        1
176
     1
 90
        1
176
     1
 40
1.0
176
     1
 90
        0
176
     1
 62
   257
176
     1
 40
1.0
176
     1
 90
        1
176
     1
 90
        6
176
     1
 90
        2
176
     1
 62
     7
176
     1
 90
        5
176
     1
 90
        0
176
     1
 90
        0
176
     1
290
     0
176
     1
 90
        1
176
     1
 40
0.0
176
     1
 90
        0
176
     1
290
     1
176
     1
290
     1
176
     1
290
     0
176
     1
290
     0
176
     1
290
     0
176
     1
290
     0
176
     1
290
     0
176
     1
290
     0
176
     1
290
     0
176
     1
 90
       50
176
     1
 40
0.0
176
     1
 40
1.0
176
     1
 90
        0
176
     1
 62
    18
420
        0
176
     1
 90
       50
176
     1
 90
        3
176
     1
 62
     5
420
      255
176
     1
290
     0
176
     1
 90
       50
176
     1
 90
       50
176
     1
 90
       50
176
     1
290
     0
176
     1
 90
       50
176
     1
 62
   256
176
     0
 40
1.0
176
     0
 90
        2
176
     1
  1
strokes_ogs.tif
176
     1
290
     0
176
     1
 40
1.0
176
     1
 40
1.0
176
     1
  0
VISUALSTYLE
  5
32
102
{ACAD_REACTORS
330
2A
102
}
330
2A
100
AcDbVisualStyle
  2
Basic
 70
     7
177
     3
291
     1
 70
    58
 90
        1
176
     1
 90
        0
176
     1
 90
        1
176
     1
 90
        0
176
     1
 40
0.6
176
     1
 40
30.0
176
     1
 62
     7
420
 16777215
176
     1
 90
        0
176
     1
 90
        4
176
     1
 62
     7
176
     1
 62
   257
176
     1
 90
        1
176
     1
 90
        1
176
     1
 40
1.0
176
     1
 90
        8
176
     1
 62
     7
176
     1
 40
1.0
176
     1
 90
        1
176
     1
 90
        6
176
     1
 90
        2
176
     1
 62
     7
176
     1
 90
        5
176
     1
 90
        0
176
     1
 90
        0
176
     1
290
     0
176
     1
 90
        1
176
     1
 40
0.0
176
     1
 90
        0
176
     1
290
     0
176
     1
290
     1
176
     1
290
     1
176
     1
290
     0
176
     1
290
     0
176
     1
290
     0
176
     1
290
     0
176
     1
290
     0
176
     1
290
     0
176
     1
 90
       50
176
     1
 40
0.0
176
     1
 40
1.0
176
     1
 90
        0
176
     1
 62
    18
420
        0
176
     1
 90
       50
176
     1
 90
        3
176
     1
 62
     5
420
      255
176
     1
290
     0
176
     1
 90
       50
176
     1
 90
       50
176
     1
 90
       50
176
     1
290
     0
176
     1
 90
       50
176
     1
 62
   256
176
     0
 40
1.0
176
     0
 90
        2
176
     1
  1
strokes_ogs.tif
176
     1
290
     0
176
     1
 40
1.0
176
     1
 40
1.0
176
     1
  0
VISUALSTYLE
  5
36
102
{ACAD_REACTORS
330
2A
102
}
330
2A
100
AcDbVisualStyle
  2
Brighten
 70
    12
177
     3
291
     1
 70
    58
 90
        2
176
     1
 90
        2
176
     1
 90
        0
176
     1
 90
        0
176
     1
 40
0.6
176
     1
 40
30.0
176
     1
 62
     7
420
 16777215
176
     1
 90
        1
176
     1
 90
        4
176
     1
 62
     7
176
     1
 62
   257
176
     1
 90
        1
176
     1
 90
        1
176
     1
 40
1.0
176
     1
 90
        8
176
     1
 62
     7
176
     1
 40
1.0
176
     1
 90
        1
176
     1
 90
        6
176
     1
 90
        2
176
     1
 62
     7
176
     1
 90
        5
176
     1
 90
        0
176
     1
 90
        0
176
     1
290
     0
176
     1
 90
        1
176
     1
 40
50.0
176
     1
 90
        0
176
     1
290
     0
176
     1
290
     1
176
     1
290
     1
176
     1
290
     0
176
     1
290
     0
176
     1
290
     0
176
     1
290
     0
176
     1
290
     0
176
     1
290
     0
176
     1
 90
       50
176
     1
 40
0.0
176
     1
 40
1.0
176
     1
 90
        0
176
     1
 62
    18
420
        0
176
     1
 90
       50
176
     1
 90
        3
176
     1
 62
     5
420
      255
176
     1
290
     0
176
     1
 90
       50
176
     1
 90
       50
176
     1
 90
       50
176
     1
290
     0
176
     1
 90
       50
176
     1
 62
   256
176
     0
 40
1.0
176
     0
 90
        2
176
     1
  1
strokes_ogs.tif
176
     1
290
     0
176
     1
 40
1.0
176
     1
 40
1.0
176
     1
  0
VISUALSTYLE
  5
3A
102
{ACAD_REACTORS
330
2A
102
}
330
2A
100
AcDbVisualStyle
  2
ColorChange
 70
    16
177
     3
291
     1
 70
    58
 90
        2
176
     1
 90
        2
176
     1
 90
        3
176
     1
 90
        0
176
     1
 40
0.6
176
     1
 40
30.0
176
     1
 62
     8
420
  8421504
176
     1
 90
        1
176
     1
 90
        4
176
     1
 62
     7
176
     1
 62
   257
176
     1
 90
        1
176
     1
 90
        1
176
     1
 40
1.0
176
     1
 90
        8
176
     1
 62
     8
420
  8421504
176
     1
 40
1.0
176
     1
 90
        1
176
     1
 90
        6
176
     1
 90
        2
176
     1
 62
     7
176
     1
 90
        5
176
     1
 90
        0
176
     1
 90
        0
176
     1
290
     0
176
     1
 90
        1
176
     1
 40
0.0
176
     1
 90
        0
176
     1
290
     0
176
     1
290
     1
176
     1
290
     1
176
     1
290
     0
176
     1
290
     0
176
     1
290
     0
176
     1
290
     0
176
     1
290
     0
176
     1
290
     0
176
     1
 90
       50
176
     1
 40
0.0
176
     1
 40
1.0
176
     1
 90
        0
176
     1
 62
    18
420
        0
176
     1
 90
       50
176
     1
 90
        3
176
     1
 62
     5
420
      255
176
     1
290
     0
176
     1
 90
       50
176
     1
 90
       50
176
     1
 90
       50
176
     1
290
     0
176
     1
 90
       50
176
     1
 62
   256
176
     0
 40
1.0
176
     0
 90
        2
176
     1
  1
strokes_ogs.tif
176
     1
290
     0
176
     1
 40
1.0
176
     1
 40
1.0
176
     1
  0
VISUALSTYLE
  5
34
102
{ACAD_REACTORS
330
2A
102
}
330
2A
100
AcDbVisualStyle
  2
Conceptual
 70
     9
177
     3
291
     0
 70
    58
 90
        3
176
     1
 90
        2
176
     1
 90
        0
176
     1
 90
        0
176
     1
 40
0.6
176
     1
 40
30.0
176
     1
 62
     7
420
 16777215
176
     1
 90
        2
176
     1
 90
        2
176
     1
 62
     7
176
     1
 62
   257
176
     1
 90
        1
176
     1
 90
        1
176
     1
 40
179.0
176
     1
 90
        8
176
     1
 62
     7
176
     1
 40
1.0
176
     1
 90
        1
176
     1
 90
        6
176
     1
 90
        2
176
     1
 62
     7
176
     1
 90
        3
176
     1
 90
        0
176
     1
 90
        0
176
     1
290
     0
176
     1
 90
        1
176
     1
 40
0.0
176
     1
 90
        0
176
     1
290
     0
176
     1
290
     1
176
     1
290
     1
176
     1
290
     0
176
     1
290
     0
176
     1
290
     0
176
     1
290
     0
176
     1
290
     0
176
     1
290
     0
176
     1
 90
       50
176
     1
 40
0.0
176
     1
 40
1.0
176
     1
 90
        0
176
     1
 62
    18
420
        0
176
     1
 90
       50
176
     1
 90
        3
176
     1
 62
     5
420
      255
176
     1
290
     0
176
     1
 90
       50
176
     1
 90
       50
176
     1
 90
       50
176
     1
290
     0
176
     1
 90
       50
176
     1
 62
   256
176
     0
 40
1.0
176
     0
 90
        2
176
     1
  1
strokes_ogs.tif
176
     1
290
     0
176
     1
 40
1.0
176
     1
 40
1.0
176
     1
  0
VISUALSTYLE
  5
35
102
{ACAD_REACTORS
330
2A
102
}
330
2A
100
AcDbVisualStyle
  2
Dim
 70
    11
177
     3
291
     1
 70
    58
 90
        2
176
     1
 90
        2
176
     1
 90
        0
176
     1
 90
        0
176
     1
 40
0.6
176
     1
 40
30.0
176
     1
 62
     7
420
 16777215
176
     1
 90
        1
176
     1
 90
        4
176
     1
 62
     7
176
     1
 62
   257
176
     1
 90
        1
176
     1
 90
        1
176
     1
 40
1.0
176
     1
 90
        8
176
     1
 62
     7
176
     1
 40
1.0
176
     1
 90
        1
176
     1
 90
        6
176
     1
 90
        2
176
     1
 62
     7
176
     1
 90
        5
176
     1
 90
        0
176
     1
 90
        0
176
     1
290
     0
176
     1
 90
        1
176
     1
 40
-50.0
176
     1
 90
        0
176
     1
290
     0
176
     1
290
     1
176
     1
290
     1
176
     1
290
     0
176
     1
290
     0
176
     1
290
     0
176
     1
290
     0
176
     1
290
     0
176
     1
290
     0
176
     1
 90
       50
176
     1
 40
0.0
176
     1
 40
1.0
176
     1
 90
        0
176
     1
 62
    18
420
        0
176
     1
 90
       50
176
     1
 90
        3
176
     1
 62
     5
420
      255
176
     1
290
     0
176
     1
 90
       50
176
     1
 90
       50
176
     1
 90
       50
176
     1
290
     0
176
     1
 90
       50
176
     1
 62
   256
176
     0
 40
1.0
176
     0
 90
        2
176
     1
  1
strokes_ogs.tif
176
     1
290
     0
176
     1
 40
1.0
176
     1
 40
1.0
176
     1
  0
VISUALSTYLE
  5
3D
102
{ACAD_REACTORS
330
2A
102
}
330
2A
100
AcDbVisualStyle
  2
EdgeColorOff
 70
    22
177
     3
291
     1
 70
    58
 90
        2
176
     0
 90
        2
176
     0
 90
        0
176
     0
 90
        0
176
     0
 40
0.6
176
     0
 40
30.0
176
     0
 62
     7
420
 16777215
176
     0
 90
        1
176
     0
 90
        4
176
     0
 62
     7
176
     0
 62
   257
176
     0
 90
        1
176
     0
 90
        1
176
     0
 40
1.0
176
     0
 90
        8
176
     2
 62
     7
176
     0
 40
1.0
176
     0
 90
        1
176
     0
 90
        6
176
     0
 90
        2
176
     0
 62
     7
176
     0
 90
        5
176
     0
 90
        0
176
     0
 90
        0
176
     0
290
     0
176
     0
 90
        1
176
     0
 40
0.0
176
     0
 90
        0
176
     0
290
     0
176
     0
290
     1
176
     0
290
     1
176
     0
290
     0
176
     0
290
     0
176
     0
290
     0
176
     0
290
     0
176
     0
290
     0
176
     0
290
     0
176
     0
 90
       50
176
     0
 40
0.0
176
     0
 40
1.0
176
     0
 90
        0
176
     0
 62
    18
420
        0
176
     0
 90
       50
176
     0
 90
        3
176
     0
 62
     5
420
      255
176
     0
290
     0
176
     0
 90
       50
176
     0
 90
       50
176
     0
 90
       50
176
     0
290
     0
176
     0
 90
       50
176
     0
 62
   256
176
     0
 40
1.0
176
     0
 90
        2
176
     0
  1
strokes_ogs.tif
176
     0
290
     0
176
     0
 40
1.0
176
     0
 40
1.0
176
     0
  0
VISUALSTYLE
  5
39
102
{ACAD_REACTORS
330
2A
102
}
330
2A
100
AcDbVisualStyle
  2
Facepattern
 70
    15
177
     3
291
     1
 70
    58
 90
        2
176
     1
 90
        2
176
     1
 90
        0
176
     1
 90
        0
176
     1
 40
0.6
176
     1
 40
30.0
176
     1
 62
     7
420
 16777215
176
     1
 90
        1
176
     1
 90
        4
176
     1
 62
     7
176
     1
 62
   257
176
     1
 90
        1
176
     1
 90
        1
176
     1
 40
1.0
176
     1
 90
        8
176
     1
 62
     7
176
     1
 40
1.0
176
     1
 90
        1
176
     1
 90
        6
176
     1
 90
        2
176
     1
 62
     7
176
     1
 90
        5
176
     1
 90
        0
176
     1
 90
        0
176
     1
290
     0
176
     1
 90
        1
176
     1
 40
0.0
176
     1
 90
        0
176
     1
290
     0
176
     1
290
     1
176
     1
290
     1
176
     1
290
     0
176
     1
290
     0
176
     1
290
     0
176
     1
290
     0
176
     1
290
     0
176
     1
290
     0
176
     1
 90
       50
176
     1
 40
0.0
176
     1
 40
1.0
176
     1
 90
        0
176
     1
 62
    18
420
        0
176
     1
 90
       50
176
     1
 90
        3
176
     1
 62
     5
420
      255
176
     1
290
     0
176
     1
 90
       50
176
     1
 90
       50
176
     1
 90
       50
176
     1
290
     0
176
     1
 90
       50
176
     1
 62
   256
176
     0
 40
1.0
176
     0
 90
        2
176
     1
  1
strokes_ogs.tif
176
     1
290
     0
176
     1
 40
1.0
176
     1
 40
1.0
176
     1
  0
VISUALSTYLE
  5
2B
102
{ACAD_REACTORS
330
2A
102
}
330
2A
100
AcDbVisualStyle
  2
Flat
 70
     0
177
     3
291
     1
 70
    58
 90
        2
176
     1
 90
        1
176
     1
 90
        1
176
     1
 90
        2
176
     1
 40
0.6
176
     1
 40
30.0
176
     1
 62
     7
420
 16777215
176
     1
 90
        0
176
     1
 90
        0
176
     1
 62
     7
176
     1
 62
   257
176
     1
 90
        1
176
     1
 90
        1
176
     1
 40
1.0
176
     1
 90
        8
176
     1
 62
     7
176
     1
 40
1.0
176
     1
 90
        1
176
     1
 90
        6
176
     1
 90
        2
176
     1
 62
     7
176
     1
 90
        5
176
     1
 90
        0
176
     1
 90
        0
176
     1
290
     0
176
     1
 90
       13
176
     1
 40
0.0
176
     1
 90
        0
176
     1
290
     0
176
     1
290
     1
176
     1
290
     1
176
     1
290
     0
176
     1
290
     0
176
     1
290
     0
176
     1
290
     0
176
     1
290
     0
176
     1
290
     0
176
     1
 90
       50
176
     1
 40
0.0
176
     1
 40
1.0
176
     1
 90
        0
176
     1
 62
    18
420
        0
176
     1
 90
       50
176
     1
 90
        3
176
     1
 62
     5
420
      255
176
     1
290
     0
176
     1
 90
       50
176
     1
 90
       50
176
     1
 90
       50
176
     1
290
     0
176
     1
 90
       50
176
     1
 62
   256
176
     0
 40
1.0
176
     0
 90
        2
176
     1
  1
strokes_ogs.tif
176
     1
290
     0
176
     1
 40
1.0
176
     1
 40
1.0
176
     1
  0
VISUALSTYLE
  5
2C
102
{ACAD_REACTORS
330
2A
102
}
330
2A
100
AcDbVisualStyle
  2
FlatWithEdges
 70
     1
177
     3
291
     1
 70
    58
 90
        2
176
     1
 90
        1
176
     1
 90
        1
176
     1
 90
        2
176
     1
 40
0.6
176
     1
 40
30.0
176
     1
 62
     7
420
 16777215
176
     1
 90
        1
176
     1
 90
        0
176
     1
 62
     7
176
     1
 62
   257
176
     1
 90
        1
176
     1
 90
        1
176
     1
 40
1.0
176
     1
 90
        0
176
     1
 62
   257
176
     1
 40
1.0
176
     1
 90
        1
176
     1
 90
        6
176
     1
 90
        2
176
     1
 62
     7
176
     1
 90
        5
176
     1
 90
        0
176
     1
 90
        0
176
     1
290
     0
176
     1
 90
       13
176
     1
 40
0.0
176
     1
 90
        0
176
     1
290
     0
176
     1
290
     1
176
     1
290
     1
176
     1
290
     0
176
     1
290
     0
176
     1
290
     0
176
     1
290
     0
176
     1
290
     0
176
     1
290
     0
176
     1
 90
       50
176
     1
 40
0.0
176
     1
 40
1.0
176
     1
 90
        0
176
     1
 62
    18
420
        0
176
     1
 90
       50
176
     1
 90
        3
176
     1
 62
     5
420
      255
176
     1
290
     0
176
     1
 90
       50
176
     1
 90
       50
176
     1
 90
       50
176
     1
290
     0
176
     1
 90
       50
176
     1
 62
   256
176
     0
 40
1.0
176
     0
 90
        2
176
     1
  1
strokes_ogs.tif
176
     1
290
     0
176
     1
 40
1.0
176
     1
 40
1.0
176
     1
  0
VISUALSTYLE
  5
2D
102
{ACAD_REACTORS
330
2A
102
}
330
2A
100
AcDbVisualStyle
  2
Gouraud
 70
     2
177
     3
291
     1
 70
    58
 90
        2
176
     1
 90
        2
176
     1
 90
        1
176
     1
 90
        2
176
     1
 40
0.6
176
     1
 40
30.0
176
     1
 62
     7
420
 16777215
176
     1
 90
        0
176
     1
 90
        0
176
     1
 62
     7
176
     1
 62
   257
176
     1
 90
        1
176
     1
 90
        1
176
     1
 40
1.0
176
     1
 90
        0
176
     1
 62
     7
176
     1
 40
1.0
176
     1
 90
        1
176
     1
 90
        6
176
     1
 90
        2
176
     1
 62
     7
176
     1
 90
        5
176
     1
 90
        0
176
     1
 90
        0
176
     1
290
     0
176
     1
 90
       13
176
     1
 40
0.0
176
     1
 90
        0
176
     1
290
     0
176
     1
290
     1
176
     1
290
     1
176
     1
290
     0
176
     1
290
     0
176
     1
290
     0
176
     1
290
     0
176
     1
290
     0
176
     1
290
     0
176
     1
 90
       50
176
     1
 40
0.0
176
     1
 40
1.0
176
     1
 90
        0
176
     1
 62
    18
420
        0
176
     1
 90
       50
176
     1
 90
        3
176
     1
 62
     5
420
      255
176
     1
290
     0
176
     1
 90
       50
176
     1
 90
       50
176
     1
 90
       50
176
     1
290
     0
176
     1
 90
       50
176
     1
 62
   256
176
     0
 40
1.0
176
     0
 90
        2
176
     1
  1
strokes_ogs.tif
176
     1
290
     0
176
     1
 40
1.0
176
     1
 40
1.0
176
     1
  0
VISUALSTYLE
  5
2E
102
{ACAD_REACTORS
330
2A
102
}
330
2A
100
AcDbVisualStyle
  2
GouraudWithEdges
 70
     3
177
     3
291
     1
 70
    58
 90
        2
176
     1
 90
        2
176
     1
 90
        1
176
     1
 90
        2
176
     1
 40
0.6
176
     1
 40
30.0
176
     1
 62
     7
420
 16777215
176
     1
 90
        1
176
     1
 90
        0
176
     1
 62
     7
176
     1
 62
   257
176
     1
 90
        1
176
     1
 90
        1
176
     1
 40
1.0
176
     1
 90
        0
176
     1
 62
   257
176
     1
 40
1.0
176
     1
 90
        1
176
     1
 90
        6
176
     1
 90
        2
176
     1
 62
     7
176
     1
 90
        5
176
     1
 90
        0
176
     1
 90
        0
176
     1
290
     0
176
     1
 90
       13
176
     1
 40
0.0
176
     1
 90
        0
176
     1
290
     0
176
     1
290
     1
176
     1
290
     1
176
     1
290
     0
176
     1
290
     0
176
     1
290
     0
176
     1
290
     0
176
     1
290
     0
176
     1
290
     0
176
     1
 90
       50
176
     1
 40
0.0
176
     1
 40
1.0
176
     1
 90
        0
176
     1
 62
    18
420
        0
176
     1
 90
       50
176
     1
 90
        3
176
     1
 62
     5
420
      255
176
     1
290
     0
176
     1
 90
       50
176
     1
 90
       50
176
     1
 90
       50
176
     1
290
     0
176
     1
 90
       50
176
     1
 62
   256
176
     0
 40
1.0
176
     0
 90
        2
176
     1
  1
strokes_ogs.tif
176
     1
290
     0
176
     1
 40
1.0
176
     1
 40
1.0
176
     1
  0
VISUALSTYLE
  5
31
102
{ACAD_REACTORS
330
2A
102
}
330
2A
100
AcDbVisualStyle
  2
Hidden
 70
     6
177
     3
291
     0
 70
    58
 90
        1
176
     1
 90
        2
176
     1
 90
        2
176
     1
 90
        0
176
     1
 40
0.6
176
     1
 40
30.0
176
     1
 62
     7
420
 16777215
176
     1
 90
        2
176
     1
 90
        2
176
     1
 62
     7
176
     1
 62
   257
176
     1
 90
        2
176
     1
 90
        1
176
     1
 40
40.0
176
     1
 90
        0
176
     1
 62
   257
176
     1
 40
1.0
176
     1
 90
        1
176
     1
 90
        6
176
     1
 90
        2
176
     1
 62
     7
176
     1
 90
        3
176
     1
 90
        0
176
     1
 90
        0
176
     1
290
     0
176
     1
 90
        1
176
     1
 40
0.0
176
     1
 90
        0
176
     1
290
     0
176
     1
290
     1
176
     1
290
     1
176
     1
290
     0
176
     1
290
     0
176
     1
290
     0
176
     1
290
     0
176
     1
290
     0
176
     1
290
     0
176
     1
 90
       50
176
     1
 40
0.0
176
     1
 40
1.0
176
     1
 90
        0
176
     1
 62
    18
420
        0
176
     1
 90
       50
176
     1
 90
        3
176
     1
 62
     5
420
      255
176
     1
290
     0
176
     1
 90
       50
176
     1
 90
       50
176
     1
 90
       50
176
     1
290
     0
176
     1
 90
       50
176
     1
 62
   256
176
     0
 40
1.0
176
     0
 90
        2
176
     1
  1
strokes_ogs.tif
176
     1
290
     0
176
     1
 40
1.0
176
     1
 40
1.0
176
     1
  0
VISUALSTYLE
  5
3B
102
{ACAD_REACTORS
330
2A
102
}
330
2A
100
AcDbVisualStyle
  2
JitterOff
 70
    20
177
     3
291
     1
 70
    58
 90
        2
176
     0
 90
        2
176
     0
 90
        0
176
     0
 90
        0
176
     0
 40
0.6
176
     0
 40
30.0
176
     0
 62
     7
420
 16777215
176
     0
 90
        1
176
     0
 90
        4
176
     0
 62
     7
176
     0
 62
   257
176
     0
 90
        1
176
     0
 90
        1
176
     0
 40
1.0
176
     0
 90
       10
176
     2
 62
     7
176
     0
 40
1.0
176
     0
 90
        1
176
     0
 90
        6
176
     0
 90
        2
176
     0
 62
     7
176
     0
 90
        5
176
     0
 90
        0
176
     0
 90
        0
176
     0
290
     0
176
     0
 90
        1
176
     0
 40
0.0
176
     0
 90
        0
176
     0
290
     0
176
     0
290
     1
176
     0
290
     1
176
     0
290
     0
176
     0
290
     0
176
     0
290
     0
176
     0
290
     0
176
     0
290
     0
176
     0
290
     0
176
     0
 90
       50
176
     0
 40
0.0
176
     0
 40
1.0
176
     0
 90
        0
176
     0
 62
    18
420
        0
176
     0
 90
       50
176
     0
 90
        3
176
     0
 62
     5
420
      255
176
     0
290
     0
176
     0
 90
       50
176
     0
 90
       50
176
     0
 90
       50
176
     0
290
     0
176
     0
 90
       50
176
     0
 62
   256
176
     0
 40
1.0
176
     0
 90
        2
176
     0
  1
strokes_ogs.tif
176
     0
290
     0
176
     0
 40
1.0
176
     0
 40
1.0
176
     0
  0
VISUALSTYLE
  5
38
102
{ACAD_REACTORS
330
2A
102
}
330
2A
100
AcDbVisualStyle
  2
Linepattern
 70
    14
177
     3
291
     1
 70
    58
 90
        2
176
     1
 90
        2
176
     1
 90
        0
176
     1
 90
        0
176
     1
 40
0.6
176
     1
 40
30.0
176
     1
 62
     7
420
 16777215
176
     1
 90
        1
176
     1
 90
        4
176
     1
 62
     7
176
     1
 62
   257
176
     1
 90
        7
176
     1
 90
        7
176
     1
 40
1.0
176
     1
 90
        8
176
     1
 62
     7
176
     1
 40
1.0
176
     1
 90
        1
176
     1
 90
        6
176
     1
 90
        2
176
     1
 62
     7
176
     1
 90
        5
176
     1
 90
        0
176
     1
 90
        0
176
     1
290
     0
176
     1
 90
        1
176
     1
 40
0.0
176
     1
 90
        0
176
     1
290
     0
176
     1
290
     1
176
     1
290
     1
176
     1
290
     0
176
     1
290
     0
176
     1
290
     0
176
     1
290
     0
176
     1
290
     0
176
     1
290
     0
176
     1
 90
       50
176
     1
 40
0.0
176
     1
 40
1.0
176
     1
 90
        0
176
     1
 62
    18
420
        0
176
     1
 90
       50
176
     1
 90
        3
176
     1
 62
     5
420
      255
176
     1
290
     0
176
     1
 90
       50
176
     1
 90
       50
176
     1
 90
       50
176
     1
290
     0
176
     1
 90
       50
176
     1
 62
   256
176
     0
 40
1.0
176
     0
 90
        2
176
     1
  1
strokes_ogs.tif
176
     1
290
     0
176
     1
 40
1.0
176
     1
 40
1.0
176
     1
  0
VISUALSTYLE
  5
3C
102
{ACAD_REACTORS
330
2A
102
}
330
2A
100
AcDbVisualStyle
  2
OverhangOff
 70
    21
177
     3
291
     1
 70
    58
 90
        2
176
     0
 90
        2
176
     0
 90
        0
176
     0
 90
        0
176
     0
 40
0.6
176
     0
 40
30.0
176
     0
 62
     7
420
 16777215
176
     0
 90
        1
176
     0
 90
        4
176
     0
 62
     7
176
     0
 62
   257
176
     0
 90
        1
176
     0
 90
        1
176
     0
 40
1.0
176
     0
 90
        9
176
     2
 62
     7
176
     0
 40
1.0
176
     0
 90
        1
176
     0
 90
        6
176
     0
 90
        2
176
     0
 62
     7
176
     0
 90
        5
176
     0
 90
        0
176
     0
 90
        0
176
     0
290
     0
176
     0
 90
        1
176
     0
 40
0.0
176
     0
 90
        0
176
     0
290
     0
176
     0
290
     1
176
     0
290
     1
176
     0
290
     0
176
     0
290
     0
176
     0
290
     0
176
     0
290
     0
176
     0
290
     0
176
     0
290
     0
176
     0
 90
       50
176
     0
 40
0.0
176
     0
 40
1.0
176
     0
 90
        0
176
     0
 62
    18
420
        0
176
     0
 90
       50
176
     0
 90
        3
176
     0
 62
     5
420
      255
176
     0
290
     0
176
     0
 90
       50
176
     0
 90
       50
176
     0
 90
       50
176
     0
290
     0
176
     0
 90
       50
176
     0
 62
   256
176
     0
 40
1.0
176
     0
 90
        2
176
     0
  1
strokes_ogs.tif
176
     0
290
     0
176
     0
 40
1.0
176
     0
 40
1.0
176
     0
  0
VISUALSTYLE
  5
33
102
{ACAD_REACTORS
330
2A
102
}
330
2A
100
AcDbVisualStyle
  2
Realistic
 70
     8
177
     3
291
     0
 70
    58
 90
        2
176
     1
 90
        3
176
     1
 90
        0
176
     1
 90
        2
176
     1
 40
0.6
176
     1
 40
30.0
176
     1
 62
     7
420
 16777215
176
     1
 90
        0
176
     1
 90
        0
176
     1
 62
     7
176
     1
 62
   257
176
     1
 90
        1
176
     1
 90
        1
176
     1
 40
1.0
176
     1
 90
        8
176
     1
 62
   257
176
     1
 40
1.0
176
     1
 90
        1
176
     1
 90
        6
176
     1
 90
        2
176
     1
 62
     7
176
     1
 90
        3
176
     1
 90
        0
176
     1
 90
        0
176
     1
290
     0
176
     1
 90
       13
176
     1
 40
0.0
176
     1
 90
        0
176
     1
290
     0
176
     1
290
     1
176
     1
290
     1
176
     1
290
     0
176
     1
290
     0
176
     1
290
     0
176
     1
290
     0
176
     1
290
     0
176
     1
290
     0
176
     1
 90
       50
176
     1
 40
0.0
176
     1
 40
1.0
176
     1
 90
        0
176
     1
 62
    18
420
        0
176
     1
 90
       50
176
     1
 90
        3
176
     1
 62
     5
420
      255
176
     1
290
     0
176
     1
 90
       50
176
     1
 90
       50
176
     1
 90
       50
176
     1
290
     0
176
     1
 90
       50
176
     1
 62
   256
176
     0
 40
1.0
176
     0
 90
        2
176
     1
  1
strokes_ogs.tif
176
     1
290
     0
176
     1
 40
1.0
176
     1
 40
1.0
176
     1
  0
VISUALSTYLE
  5
42
102
{ACAD_REACTORS
330
2A
102
}
330
2A
100
AcDbVisualStyle
  2
Shaded
 70
    27
177
     3
291
     0
 70
    58
 90
        2
176
     1
 90
        2
176
     1
 90
        1
176
     1
 90
        2
176
     1
 40
0.6
176
     1
 40
30.0
176
     1
 62
     7
420
 16777215
176
     1
 90
        0
176
     1
 90
        4
176
     1
 62
     7
176
     1
 62
   257
176
     1
 90
        1
176
     1
 90
        1
176
     1
 40
1.0
176
     1
 90
        8
176
     1
 62
   257
176
     1
 40
1.0
176
     1
 90
        1
176
     1
 90
        6
176
     1
 90
        2
176
     1
 62
     8
420
  7895160
176
     1
 90
        3
176
     1
 90
        0
176
     1
 90
        0
176
     1
290
     0
176
     1
 90
        5
176
     1
 40
0.0
176
     1
 90
        0
176
     1
290
     0
176
     1
290
     1
176
     1
290
     1
176
     1
290
     0
176
     1
290
     0
176
     1
290
     0
176
     1
290
     0
176
     1
290
     0
176
     1
290
     0
176
     1
 90
       50
176
     1
 40
0.0
176
     1
 40
1.0
176
     1
 90
        0
176
     1
 62
    18
420
        0
176
     1
 90
       50
176
     1
 90
        3
176
     1
 62
     5
420
      255
176
     1
290
     0
176
     1
 90
       50
176
     1
 90
       50
176
     1
 90
       50
176
     1
290
     0
176
     1
 90
       50
176
     1
 62
   256
176
     0
 40
1.0
176
     0
 90
        2
176
     1
  1
strokes_ogs.tif
176
     1
290
     0
176
     1
 40
1.0
176
     1
 40
1.0
176
     1
  0
VISUALSTYLE
  5
41
102
{ACAD_REACTORS
330
2A
102
}
330
2A
100
AcDbVisualStyle
  2
Shaded with edges
 70
    26
177
     3
291
     0
 70
    58
 90
        2
176
     1
 90
        2
176
     1
 90
        1
176
     1
 90
        2
176
     1
 40
0.6
176
     1
 40
30.0
176
     1
 62
     7
420
 16777215
176
     1
 90
        1
176
     1
 90
       10
176
     1
 62
     7
176
     1
 62
   257
176
     1
 90
        2
176
     1
 90
        1
176
     1
 40
1.0
176
     1
 90
        8
176
     1
 62
   257
176
     1
 40
1.0
176
     1
 90
        1
176
     1
 90
        6
176
     1
 90
        2
176
     1
 62
     7
176
     1
 90
        3
176
     1
 90
        0
176
     1
 90
        0
176
     1
290
     0
176
     1
 90
        5
176
     1
 40
0.0
176
     1
 90
        0
176
     1
290
     0
176
     1
290
     1
176
     1
290
     1
176
     1
290
     0
176
     1
290
     0
176
     1
290
     0
176
     1
290
     0
176
     1
290
     0
176
     1
290
     0
176
     1
 90
       50
176
     1
 40
0.0
176
     1
 40
1.0
176
     1
 90
        0
176
     1
 62
    18
420
        0
176
     1
 90
       50
176
     1
 90
        3
176
     1
 62
     5
420
      255
176
     1
290
     0
176
     1
 90
       50
176
     1
 90
       50
176
     1
 90
       50
176
     1
290
     0
176
     1
 90
       50
176
     1
 62
   256
176
     0
 40
1.0
176
     0
 90
        2
176
     1
  1
strokes_ogs.tif
176
     1
290
     0
176
     1
 40
1.0
176
     1
 40
1.0
176
     1
  0
VISUALSTYLE
  5
3E
102
{ACAD_REACTORS
330
2A
102
}
330
2A
100
AcDbVisualStyle
  2
Shades of Gray
 70
    23
177
     3
291
     0
 70
    58
 90
        2
176
     1
 90
        2
176
     1
 90
        3
176
     1
 90
        0
176
     1
 40
0.6
176
     1
 40
30.0
176
     1
 62
     7
420
 16777215
176
     1
 90
        2
176
     1
 90
        2
176
     1
 62
     7
176
     1
 62
     7
176
     1
 90
        1
176
     1
 90
        1
176
     1
 40
40.0
176
     1
 90
        8
176
     1
 62
     7
176
     1
 40
1.0
176
     1
 90
        1
176
     1
 90
        6
176
     1
 90
        2
176
     1
 62
     7
176
     1
 90
        3
176
     1
 90
        0
176
     1
 90
        0
176
     1
290
     0
176
     1
 90
        1
176
     1
 40
0.0
176
     1
 90
        0
176
     1
290
     0
176
     1
290
     1
176
     1
290
     1
176
     1
290
     0
176
     1
290
     0
176
     1
290
     0
176
     1
290
     0
176
     1
290
     0
176
     1
290
     0
176
     1
 90
       50
176
     1
 40
0.0
176
     1
 40
1.0
176
     1
 90
        0
176
     1
 62
    18
420
        0
176
     1
 90
       50
176
     1
 90
        3
176
     1
 62
     5
420
      255
176
     1
290
     0
176
     1
 90
       50
176
     1
 90
       50
176
     1
 90
       50
176
     1
290
     0
176
     1
 90
       50
176
     1
 62
   256
176
     0
 40
1.0
176
     0
 90
        2
176
     1
  1
strokes_ogs.tif
176
     1
290
     0
176
     1
 40
1.0
176
     1
 40
1.0
176
     1
  0
VISUALSTYLE
  5
3F
102
{ACAD_REACTORS
330
2A
102
}
330
2A
100
AcDbVisualStyle
  2
Sketchy
 70
    24
177
     3
291
     0
 70
    58
 90
        1
176
     1
 90
        2
176
     1
 90
        2
176
     1
 90
        0
176
     1
 40
0.6
176
     1
 40
30.0
176
     1
 62
     7
420
 16777215
176
     1
 90
        2
176
     1
 90
        2
176
     1
 62
     7
176
     1
 62
     7
176
     1
 90
        1
176
     1
 90
        1
176
     1
 40
40.0
176
     1
 90
       11
176
     1
 62
     7
176
     1
 40
1.0
176
     1
 90
        1
176
     1
 90
        6
176
     1
 90
        2
176
     1
 62
     7
176
     1
 90
        6
176
     1
 90
        0
176
     1
 90
        0
176
     1
290
     0
176
     1
 90
        1
176
     1
 40
0.0
176
     1
 90
        0
176
     1
290
     0
176
     1
290
     1
176
     1
290
     1
176
     1
290
     0
176
     1
290
     0
176
     1
290
     0
176
     1
290
     0
176
     1
290
     0
176
     1
290
     0
176
     1
 90
       50
176
     1
 40
0.0
176
     1
 40
1.0
176
     1
 90
        0
176
     1
 62
    18
420
        0
176
     1
 90
       50
176
     1
 90
        3
176
     1
 62
     5
420
      255
176
     1
290
     0
176
     1
 90
       50
176
     1
 90
       50
176
     1
 90
       50
176
     1
290
     0
176
     1
 90
       50
176
     1
 62
   256
176
     0
 40
1.0
176
     0
 90
        2
176
     1
  1
strokes_ogs.tif
176
     1
290
     0
176
     1
 40
1.0
176
     1
 40
1.0
176
     1
  0
VISUALSTYLE
  5
37
102
{ACAD_REACTORS
330
2A
102
}
330
2A
100
AcDbVisualStyle
  2
Thicken
 70
    13
177
     3
291
     1
 70
    58
 90
        2
176
     1
 90
        2
176
     1
 90
        0
176
     1
 90
        0
176
     1
 40
0.6
176
     1
 40
30.0
176
     1
 62
     7
420
 16777215
176
     1
 90
        1
176
     1
 90
        4
176
     1
 62
     7
176
     1
 62
   257
176
     1
 90
        1
176
     1
 90
        1
176
     1
 40
1.0
176
     1
 90
       12
176
     1
 62
     7
176
     1
 40
1.0
176
     1
 90
        1
176
     1
 90
        6
176
     1
 90
        2
176
     1
 62
     7
176
     1
 90
        5
176
     1
 90
        0
176
     1
 90
        0
176
     1
290
     0
176
     1
 90
        1
176
     1
 40
0.0
176
     1
 90
        0
176
     1
290
     0
176
     1
290
     1
176
     1
290
     1
176
     1
290
     0
176
     1
290
     0
176
     1
290
     0
176
     1
290
     0
176
     1
290
     0
176
     1
290
     0
176
     1
 90
       50
176
     1
 40
0.0
176
     1
 40
1.0
176
     1
 90
        0
176
     1
 62
    18
420
        0
176
     1
 90
       50
176
     1
 90
        3
176
     1
 62
     5
420
      255
176
     1
290
     0
176
     1
 90
       50
176
     1
 90
       50
176
     1
 90
       50
176
     1
290
     0
176
     1
 90
       50
176
     1
 62
   256
176
     0
 40
1.0
176
     0
 90
        2
176
     1
  1
strokes_ogs.tif
176
     1
290
     0
176
     1
 40
1.0
176
     1
 40
1.0
176
     1
  0
VISUALSTYLE
  5
30
102
{ACAD_REACTORS
330
2A
102
}
330
2A
100
AcDbVisualStyle
  2
Wireframe
 70
     5
177
     3
291
     0
 70
    58
 90
        0
176
     1
 90
        2
176
     1
 90
        0
176
     1
 90
        0
176
     1
 40
0.6
176
     1
 40
30.0
176
     1
 62
     7
420
 16777215
176
     1
 90
        1
176
     1
 90
        4
176
     1
 62
     7
176
     1
 62
   257
176
     1
 90
        1
176
     1
 90
        1
176
     1
 40
1.0
176
     1
 90
        0
176
     1
 62
   257
176
     1
 40
1.0
176
     1
 90
        1
176
     1
 90
        6
176
     1
 90
        2
176
     1
 62
     7
176
     1
 90
        3
176
     1
 90
        0
176
     1
 90
        0
176
     1
290
     0
176
     1
 90
        1
176
     1
 40
0.0
176
     1
 90
        0
176
     1
290
     0
176
     1
290
     1
176
     1
290
     1
176
     1
290
     0
176
     1
290
     0
176
     1
290
     0
176
     1
290
     0
176
     1
290
     0
176
     1
290
     0
176
     1
 90
       50
176
     1
 40
0.0
176
     1
 40
1.0
176
     1
 90
        0
176
     1
 62
    18
420
        0
176
     1
 90
       50
176
     1
 90
        3
176
     1
 62
     5
420
      255
176
     1
290
     0
176
     1
 90
       50
176
     1
 90
       50
176
     1
 90
       50
176
     1
290
     0
176
     1
 90
       50
176
     1
 62
   256
176
     0
 40
1.0
176
     0
 90
        2
176
     1
  1
strokes_ogs.tif
176
     1
290
     0
176
     1
 40
1.0
176
     1
 40
1.0
176
     1
  0
VISUALSTYLE
  5
40
102
{ACAD_REACTORS
330
2A
102
}
330
2A
100
AcDbVisualStyle
  2
X-Ray
 70
    25
177
     3
291
     0
 70
    58
 90
        2
176
     1
 90
        2
176
     1
 90
        1
176
     1
 90
        1
176
     1
 40
0.5
176
     1
 40
30.0
176
     1
 62
     7
420
 16777215
176
     1
 90
        1
176
     1
 90
        0
176
     1
 62
     7
176
     1
 62
   257
176
     1
 90
        1
176
     1
 90
        1
176
     1
 40
1.0
176
     1
 90
        8
176
     1
 62
     7
176
     1
 40
1.0
176
     1
 90
        1
176
     1
 90
        6
176
     1
 90
        2
176
     1
 62
     7
176
     1
 90
        3
176
     1
 90
        0
176
     1
 90
        0
176
     1
290
     0
176
     1
 90
       13
176
     1
 40
0.0
176
     1
 90
        0
176
     1
290
     0
176
     1
290
     1
176
     1
290
     1
176
     1
290
     0
176
     1
290
     0
176
     1
290
     0
176
     1
290
     0
176
     1
290
     0
176
     1
290
     0
176
     1
 90
       50
176
     1
 40
0.0
176
     1
 40
1.0
176
     1
 90
        0
176
     1
 62
    18
420
        0
176
     1
 90
       50
176
     1
 90
        3
176
     1
 62
     5
420
      255
176
     1
290
     0
176
     1
 90
       50
176
     1
 90
       50
176
     1
 90
       50
176
     1
290
     0
176
     1
 90
       50
176
     1
 62
   256
176
     0
 40
1.0
176
     0
 90
        2
176
     1
  1
strokes_ogs.tif
176
     1
290
     0
176
     1
 40
1.0
176
     1
 40
1.0
176
     1
  0
DICTIONARYVAR
  5
24B
102
{ACAD_REACTORS
330
24A
102
}
330
24A
100
DictionaryVariables
280
     0
  1
1:1
  0
DICTIONARYVAR
  5
250
102
{ACAD_REACTORS
330
24A
102
}
330
24A
100
DictionaryVariables
280
     0
  1
Standard
  0
DICTIONARYVAR
  5
24F
102
{ACAD_REACTORS
330
24A
102
}
330
24A
100
DictionaryVariables
280
     0
  1
Standard
  0
DICTIONARY
  5
24C
330
6A
100
AcDbDictionary
280
     1
281
     1
  3
ACAD_ROUNDTRIP_2008_TABLESTYLE_CELLSTYLEMAP
360
24D
  0
CELLSTYLEMAP
  5
24D
102
{ACAD_REACTORS
330
24C
102
}
330
24C
100
AcDbCellStyleMap
 90
        3
300
CELLSTYLE
  1
TABLEFORMAT_BEGIN
 90
        5
170
     1
 91
        0
 92
    32768
 62
   257
 93
        1
300
CONTENTFORMAT
  1
CONTENTFORMAT_BEGIN
 90
        0
 91
        0
 92
        4
 93
        0
300

 40
0.0
140
1.0
 94
        5
 62
     0
340
11
144
0.25
309
CONTENTFORMAT_END
171
     1
301
MARGIN
  1
CELLMARGIN_BEGIN
 40
0.06
 40
0.06
 40
0.06
 40
0.06
 40
0.06
 40
0.06
309
CELLMARGIN_END
 94
        6
 95
        1
302
GRIDFORMAT
  1
GRIDFORMAT_BEGIN
 90
        0
 91
        1
 62
     0
 92
       -2
340
14
 93
        0
 40
0.045
309
GRIDFORMAT_END
 95
        2
302
GRIDFORMAT
  1
GRIDFORMAT_BEGIN
 90
        0
 91
        1
 62
     0
 92
       -2
340
14
 93
        0
 40
0.045
309
GRIDFORMAT_END
 95
        4
302
GRIDFORMAT
  1
GRIDFORMAT_BEGIN
 90
        0
 91
        1
 62
     0
 92
       -2
340
14
 93
        0
 40
0.045
309
GRIDFORMAT_END
 95
        8
302
GRIDFORMAT
  1
GRIDFORMAT_BEGIN
 90
        0
 91
        1
 62
     0
 92
       -2
340
14
 93
        0
 40
0.045
309
GRIDFORMAT_END
 95
       16
302
GRIDFORMAT
  1
GRIDFORMAT_BEGIN
 90
        0
 91
        1
 62
     0
 92
       -2
340
14
 93
        0
 40
0.045
309
GRIDFORMAT_END
 95
       32
302
GRIDFORMAT
  1
GRIDFORMAT_BEGIN
 90
        0
 91
        1
 62
     0
 92
       -2
340
14
 93
        0
 40
0.045
309
GRIDFORMAT_END
309
TABLEFORMAT_END
  1
CELLSTYLE_BEGIN
 90
        1
 91
        1
300
_TITLE
309
CELLSTYLE_END
300
CELLSTYLE
  1
TABLEFORMAT_BEGIN
 90
        5
170
     1
 91
        0
 92
        0
 62
   257
 93
        1
300
CONTENTFORMAT
  1
CONTENTFORMAT_BEGIN
 90
        0
 91
        0
 92
        4
 93
        0
300

 40
0.0
140
1.0
 94
        5
 62
     0
340
11
144
0.18
309
CONTENTFORMAT_END
171
     1
301
MARGIN
  1
CELLMARGIN_BEGIN
 40
0.06
 40
0.06
 40
0.06
 40
0.06
 40
0.06
 40
0.06
309
CELLMARGIN_END
 94
        6
 95
        1
302
GRIDFORMAT
  1
GRIDFORMAT_BEGIN
 90
        0
 91
        1
 62
     0
 92
       -2
340
14
 93
        0
 40
0.045
309
GRIDFORMAT_END
 95
        2
302
GRIDFORMAT
  1
GRIDFORMAT_BEGIN
 90
        0
 91
        1
 62
     0
 92
       -2
340
14
 93
        0
 40
0.045
309
GRIDFORMAT_END
 95
        4
302
GRIDFORMAT
  1
GRIDFORMAT_BEGIN
 90
        0
 91
        1
 62
     0
 92
       -2
340
14
 93
        0
 40
0.045
309
GRIDFORMAT_END
 95
        8
302
GRIDFORMAT
  1
GRIDFORMAT_BEGIN
 90
        0
 91
        1
 62
     0
 92
       -2
340
14
 93
        0
 40
0.045
309
GRIDFORMAT_END
 95
       16
302
GRIDFORMAT
  1
GRIDFORMAT_BEGIN
 90
        0
 91
        1
 62
     0
 92
       -2
340
14
 93
        0
 40
0.045
309
GRIDFORMAT_END
 95
       32
302
GRIDFORMAT
  1
GRIDFORMAT_BEGIN
 90
        0
 91
        1
 62
     0
 92
       -2
340
14
 93
        0
 40
0.045
309
GRIDFORMAT_END
309
TABLEFORMAT_END
  1
CELLSTYLE_BEGIN
 90
        2
 91
        1
300
_HEADER
309
CELLSTYLE_END
300
CELLSTYLE
  1
TABLEFORMAT_BEGIN
 90
        5
170
     1
 91
        0
 92
        0
 62
   257
 93
        1
300
CONTENTFORMAT
  1
CONTENTFORMAT_BEGIN
 90
        0
 91
        0
 92
        4
 93
        0
300

 40
0.0
140
1.0
 94
        2
 62
     0
340
11
144
0.18
309
CONTENTFORMAT_END
171
     1
301
MARGIN
  1
CELLMARGIN_BEGIN
 40
0.06
 40
0.06
 40
0.06
 40
0.06
 40
0.06
 40
0.06
309
CELLMARGIN_END
 94
        6
 95
        1
302
GRIDFORMAT
  1
GRIDFORMAT_BEGIN
 90
        0
 91
        1
 62
     0
 92
       -2
340
14
 93
        0
 40
0.045
309
GRIDFORMAT_END
 95
        2
302
GRIDFORMAT
  1
GRIDFORMAT_BEGIN
 90
        0
 91
        1
 62
     0
 92
       -2
340
14
 93
        0
 40
0.045
309
GRIDFORMAT_END
 95
        4
302
GRIDFORMAT
  1
GRIDFORMAT_BEGIN
 90
        0
 91
        1
 62
     0
 92
       -2
340
14
 93
        0
 40
0.045
309
GRIDFORMAT_END
 95
        8
302
GRIDFORMAT
  1
GRIDFORMAT_BEGIN
 90
        0
 91
        1
 62
     0
 92
       -2
340
14
 93
        0
 40
0.045
309
GRIDFORMAT_END
 95
       16
302
GRIDFORMAT
  1
GRIDFORMAT_BEGIN
 90
        0
 91
        1
 62
     0
 92
       -2
340
14
 93
        0
 40
0.045
309
GRIDFORMAT_END
 95
       32
302
GRIDFORMAT
  1
GRIDFORMAT_BEGIN
 90
        0
 91
        1
 62
     0
 92
       -2
340
14
 93
        0
 40
0.045
309
GRIDFORMAT_END
309
TABLEFORMAT_END
  1
CELLSTYLE_BEGIN
 90
        3
 91
        2
300
_DATA
309
CELLSTYLE_END
  0
ENDSEC
  0
EOF