0
SECTION
  2
HEADER
  9
$ACADVER
  1
AC1027
  9
$ACADMAINTVER
 70
     8
  9
$DWGCODEPAGE
  3
ANSI_1252
  9
$REQUIREDVERSIONS
160
                 0
  9
$COMMENTS
  1
File was created by Cadenas
  9
$CUSTOMPROPERTYTAG
  1
NN
  9
$CUSTOMPROPERTY
  1
Imperial - IP Piloted Flange with Type E Dimensions 1-3/8 thru 2-1/2 inch Labyrinth Seal Expansion
  9
$CUSTOMPROPERTYTAG
  1
NT
  9
$CUSTOMPROPERTY
  1
Imperial/E Piloted Flange Bearings
  9
$CUSTOMPROPERTYTAG
  1
NB
  9
$CUSTOMPROPERTY
  1
071285
  9
$CUSTOMPROPERTYTAG
  1
NBSYN
  9
$CUSTOMPROPERTY
  1
$PN.
  9
$CUSTOMPROPERTYTAG
  1
LINA
  9
$CUSTOMPROPERTY
  1
071285
  9
$CUSTOMPROPERTYTAG
  1
SS
  9
$CUSTOMPROPERTY
  1
4-1/2
  9
$CUSTOMPROPERTYTAG
  1
TYPE
  9
$CUSTOMPROPERTY
  1
Expansion
  9
$CUSTOMPROPERTYTAG
  1
PN
  9
$CUSTOMPROPERTY
  1
071285
  9
$CUSTOMPROPERTYTAG
  1
DESCRIPTION
  9
$CUSTOMPROPERTY
  1
EFC-IP-408LE
  9
$CUSTOMPROPERTYTAG
  1
ST
  9
$CUSTOMPROPERTY
  1
Labyrinth Seal
  9
$CUSTOMPROPERTYTAG
  1
A
  9
$CUSTOMPROPERTY
  1
5.23
  9
$CUSTOMPROPERTYTAG
  1
B
  9
$CUSTOMPROPERTY
  1
13.5
  9
$CUSTOMPROPERTYTAG
  1
C
  9
$CUSTOMPROPERTY
  1
4.58
  9
$CUSTOMPROPERTYTAG
  1
D
  9
$CUSTOMPROPERTY
  1
5.88
  9
$CUSTOMPROPERTYTAG
  1
DD
  9
$CUSTOMPROPERTY
  1
11.75
  9
$CUSTOMPROPERTYTAG
  1
E
  9
$CUSTOMPROPERTY
  1
1.45
  9
$CUSTOMPROPERTYTAG
  1
F
  9
$CUSTOMPROPERTY
  1
3/4
  9
$CUSTOMPROPERTYTAG
  1
G
  9
$CUSTOMPROPERTY
  1
3.03
  9
$CUSTOMPROPERTYTAG
  1
H
  9
$CUSTOMPROPERTY
  1
0.94
  9
$CUSTOMPROPERTYTAG
  1
K
  9
$CUSTOMPROPERTY
  1
10.250
  9
$CUSTOMPROPERTYTAG
  1
L
  9
$CUSTOMPROPERTY
  1
6.44
  9
$CUSTOMPROPERTYTAG
  1
M
  9
$CUSTOMPROPERTY
  1
3/4-10
  9
$CUSTOMPROPERTYTAG
  1
N
  9
$CUSTOMPROPERTY
  1
5.66
  9
$CUSTOMPROPERTYTAG
  1
P
  9
$CUSTOMPROPERTY
  1
2.2
  9
$CUSTOMPROPERTYTAG
  1
Q
  9
$CUSTOMPROPERTY
  1
2.63
  9
$CUSTOMPROPERTYTAG
  1
X
  9
$CUSTOMPROPERTY
  1
0.38
  9
$CUSTOMPROPERTYTAG
  1
Y
  9
$CUSTOMPROPERTY
  1
0.036
  9
$CUSTOMPROPERTYTAG
  1
Z
  9
$CUSTOMPROPERTY
  1
5
  9
$CUSTOMPROPERTYTAG
  1
COMPANY
  9
$CUSTOMPROPERTY
  1
baldor
  9
$INSBASE
 10
0.0
 20
0.0
 30
0.0
  9
$EXTMIN
 10
1.000000000000000E+20
 20
1.000000000000000E+20
 30
1.000000000000000E+20
  9
$EXTMAX
 10
-1.000000000000000E+20
 20
-1.000000000000000E+20
 30
-1.000000000000000E+20
  9
$LIMMIN
 10
0.0
 20
0.0
  9
$LIMMAX
 10
12.0
 20
9.0
  9
$ORTHOMODE
 70
     0
  9
$REGENMODE
 70
     1
  9
$FILLMODE
 70
     1
  9
$QTEXTMODE
 70
     0
  9
$MIRRTEXT
 70
     1
  9
$LTSCALE
 40
1.0
  9
$ATTMODE
 70
     1
  9
$TEXTSIZE
 40
0.2
  9
$TRACEWID
 40
0.05
  9
$TEXTSTYLE
  7
Standard
  9
$CLAYER
  8
0
  9
$CELTYPE
  6
ByLayer
  9
$CECOLOR
 62
   256
  9
$CELTSCALE
 40
1.0
  9
$DISPSILH
 70
     0
  9
$DIMSCALE
 40
1.0
  9
$DIMASZ
 40
0.18
  9
$DIMEXO
 40
0.0625
  9
$DIMDLI
 40
0.38
  9
$DIMRND
 40
0.0
  9
$DIMDLE
 40
0.0
  9
$DIMEXE
 40
0.18
  9
$DIMTP
 40
0.0
  9
$DIMTM
 40
0.0
  9
$DIMTXT
 40
0.18
  9
$DIMCEN
 40
0.09
  9
$DIMTSZ
 40
0.0
  9
$DIMTOL
 70
     0
  9
$DIMLIM
 70
     0
  9
$DIMTIH
 70
     1
  9
$DIMTOH
 70
     1
  9
$DIMSE1
 70
     0
  9
$DIMSE2
 70
     0
  9
$DIMTAD
 70
     0
  9
$DIMZIN
 70
     0
  9
$DIMBLK
  1

  9
$DIMASO
 70
     1
  9
$DIMSHO
 70
     1
  9
$DIMPOST
  1

  9
$DIMAPOST
  1

  9
$DIMALT
 70
     0
  9
$DIMALTD
 70
     2
  9
$DIMALTF
 40
25.4
  9
$DIMLFAC
 40
1.0
  9
$DIMTOFL
 70
     0
  9
$DIMTVP
 40
0.0
  9
$DIMTIX
 70
     0
  9
$DIMSOXD
 70
     0
  9
$DIMSAH
 70
     0
  9
$DIMBLK1
  1

  9
$DIMBLK2
  1

  9
$DIMSTYLE
  2
Standard
  9
$DIMCLRD
 70
     0
  9
$DIMCLRE
 70
     0
  9
$DIMCLRT
 70
     0
  9
$DIMTFAC
 40
1.0
  9
$DIMGAP
 40
0.09
  9
$DIMJUST
 70
     0
  9
$DIMSD1
 70
     0
  9
$DIMSD2
 70
     0
  9
$DIMTOLJ
 70
     1
  9
$DIMTZIN
 70
     0
  9
$DIMALTZ
 70
     0
  9
$DIMALTTZ
 70
     0
  9
$DIMUPT
 70
     0
  9
$DIMDEC
 70
     4
  9
$DIMTDEC
 70
     4
  9
$DIMALTU
 70
     2
  9
$DIMALTTD
 70
     2
  9
$DIMTXSTY
  7
Standard
  9
$DIMAUNIT
 70
     0
  9
$DIMADEC
 70
     0
  9
$DIMALTRND
 40
0.0
  9
$DIMAZIN
 70
     0
  9
$DIMDSEP
 70
    46
  9
$DIMATFIT
 70
     3
  9
$DIMFRAC
 70
     0
  9
$DIMLDRBLK
  1

  9
$DIMLUNIT
 70
     2
  9
$DIMLWD
 70
    -2
  9
$DIMLWE
 70
    -2
  9
$DIMTMOVE
 70
     0
  9
$DIMFXL
 40
1.0
  9
$DIMFXLON
 70
     0
  9
$DIMJOGANG
 40
0.7853981633974483
  9
$DIMTFILL
 70
     0
  9
$DIMTFILLCLR
 70
     0
  9
$DIMARCSYM
 70
     0
  9
$DIMLTYPE
  6

  9
$DIMLTEX1
  6

  9
$DIMLTEX2
  6

  9
$DIMTXTDIRECTION
 70
     0
  9
$LUNITS
 70
     2
  9
$LUPREC
 70
     4
  9
$SKETCHINC
 40
0.1
  9
$FILLETRAD
 40
0.5
  9
$AUNITS
 70
     0
  9
$AUPREC
 70
     0
  9
$MENU
  1
.
  9
$ELEVATION
 40
0.0
  9
$PELEVATION
 40
0.0
  9
$THICKNESS
 40
0.0
  9
$LIMCHECK
 70
     0
  9
$CHAMFERA
 40
0.0
  9
$CHAMFERB
 40
0.0
  9
$CHAMFERC
 40
0.0
  9
$CHAMFERD
 40
0.0
  9
$SKPOLY
 70
     0
  9
$TDCREATE
 40
2458168.983520556
  9
$TDUCREATE
 40
2458168.941853889
  9
$TDUPDATE
 40
2458168.983520926
  9
$TDUUPDATE
 40
2458168.941854259
  9
$TDINDWG
 40
0.0000000116
  9
$TDUSRTIMER
 40
0.0000000116
  9
$USRTIMER
 70
     1
  9
$ANGBASE
 50
0.0
  9
$ANGDIR
 70
     0
  9
$PDMODE
 70
     0
  9
$PDSIZE
 40
0.0
  9
$PLINEWID
 40
0.0
  9
$SPLFRAME
 70
     0
  9
$SPLINETYPE
 70
     6
  9
$SPLINESEGS
 70
     8
  9
$HANDSEED
  5
2AD
  9
$SURFTAB1
 70
     6
  9
$SURFTAB2
 70
     6
  9
$SURFTYPE
 70
     6
  9
$SURFU
 70
     6
  9
$SURFV
 70
     6
  9
$UCSBASE
  2

  9
$UCSNAME
  2

  9
$UCSORG
 10
0.0
 20
0.0
 30
0.0
  9
$UCSXDIR
 10
1.0
 20
0.0
 30
0.0
  9
$UCSYDIR
 10
0.0
 20
1.0
 30
0.0
  9
$UCSORTHOREF
  2

  9
$UCSORTHOVIEW
 70
     0
  9
$UCSORGTOP
 10
0.0
 20
0.0
 30
0.0
  9
$UCSORGBOTTOM
 10
0.0
 20
0.0
 30
0.0
  9
$UCSORGLEFT
 10
0.0
 20
0.0
 30
0.0
  9
$UCSORGRIGHT
 10
0.0
 20
0.0
 30
0.0
  9
$UCSORGFRONT
 10
0.0
 20
0.0
 30
0.0
  9
$UCSORGBACK
 10
0.0
 20
0.0
 30
0.0
  9
$PUCSBASE
  2

  9
$PUCSNAME
  2

  9
$PUCSORG
 10
0.0
 20
0.0
 30
0.0
  9
$PUCSXDIR
 10
1.0
 20
0.0
 30
0.0
  9
$PUCSYDIR
 10
0.0
 20
1.0
 30
0.0
  9
$PUCSORTHOREF
  2

  9
$PUCSORTHOVIEW
 70
     0
  9
$PUCSORGTOP
 10
0.0
 20
0.0
 30
0.0
  9
$PUCSORGBOTTOM
 10
0.0
 20
0.0
 30
0.0
  9
$PUCSORGLEFT
 10
0.0
 20
0.0
 30
0.0
  9
$PUCSORGRIGHT
 10
0.0
 20
0.0
 30
0.0
  9
$PUCSORGFRONT
 10
0.0
 20
0.0
 30
0.0
  9
$PUCSORGBACK
 10
0.0
 20
0.0
 30
0.0
  9
$USERI1
 70
     0
  9
$USERI2
 70
     0
  9
$USERI3
 70
     0
  9
$USERI4
 70
     0
  9
$USERI5
 70
     0
  9
$USERR1
 40
0.0
  9
$USERR2
 40
0.0
  9
$USERR3
 40
0.0
  9
$USERR4
 40
0.0
  9
$USERR5
 40
0.0
  9
$WORLDVIEW
 70
     1
  9
$SHADEDGE
 70
     3
  9
$SHADEDIF
 70
    70
  9
$TILEMODE
 70
     1
  9
$MAXACTVP
 70
    64
  9
$PINSBASE
 10
0.0
 20
0.0
 30
0.0
  9
$PLIMCHECK
 70
     0
  9
$PEXTMIN
 10
1.000000000000000E+20
 20
1.000000000000000E+20
 30
1.000000000000000E+20
  9
$PEXTMAX
 10
-1.000000000000000E+20
 20
-1.000000000000000E+20
 30
-1.000000000000000E+20
  9
$PLIMMIN
 10
0.0
 20
0.0
  9
$PLIMMAX
 10
12.0
 20
9.0
  9
$UNITMODE
 70
     0
  9
$VISRETAIN
 70
     1
  9
$PLINEGEN
 70
     0
  9
$PSLTSCALE
 70
     1
  9
$TREEDEPTH
 70
  3020
  9
$CMLSTYLE
  2
Standard
  9
$CMLJUST
 70
     0
  9
$CMLSCALE
 40
1.0
  9
$PROXYGRAPHICS
 70
     1
  9
$MEASUREMENT
 70
     0
  9
$CELWEIGHT
370
    -1
  9
$ENDCAPS
280
     0
  9
$JOINSTYLE
280
     0
  9
$LWDISPLAY
290
     0
  9
$INSUNITS
 70
     1
  9
$HYPERLINKBASE
  1

  9
$STYLESHEET
  1

  9
$XEDIT
290
     1
  9
$CEPSNTYPE
380
     0
  9
$PSTYLEMODE
290
     1
  9
$FINGERPRINTGUID
  2
{C1EA72E8-FD6D-4C36-8F91-A37F52529E73}
  9
$VERSIONGUID
  2
{FAEB1C32-E019-11D5-929B-00C0DF256EC4}
  9
$EXTNAMES
290
     1
  9
$PSVPSCALE
 40
0.0
  9
$OLESTARTUP
290
     0
  9
$SORTENTS
280
   127
  9
$INDEXCTL
280
     0
  9
$HIDETEXT
280
     1
  9
$XCLIPFRAME
280
     2
  9
$HALOGAP
280
     0
  9
$OBSCOLOR
 70
   257
  9
$OBSLTYPE
280
     0
  9
$INTERSECTIONDISPLAY
280
     0
  9
$INTERSECTIONCOLOR
 70
   257
  9
$DIMASSOC
280
     2
  9
$PROJECTNAME
  1

  9
$CAMERADISPLAY
290
     0
  9
$LENSLENGTH
 40
50.0
  9
$CAMERAHEIGHT
 40
0.0
  9
$STEPSPERSEC
 40
2.0
  9
$STEPSIZE
 40
6.0
  9
$3DDWFPREC
 40
2.0
  9
$PSOLWIDTH
 40
0.25
  9
$PSOLHEIGHT
 40
4.0
  9
$LOFTANG1
 40
1.570796326794897
  9
$LOFTANG2
 40
1.570796326794897
  9
$LOFTMAG1
 40
0.0
  9
$LOFTMAG2
 40
0.0
  9
$LOFTPARAM
 70
     7
  9
$LOFTNORMALS
280
     1
  9
$LATITUDE
 40
37.795
  9
$LONGITUDE
 40
-122.394
  9
$NORTHDIRECTION
 40
0.0
  9
$TIMEZONE
 70
 -8000
  9
$LIGHTGLYPHDISPLAY
280
     1
  9
$TILEMODELIGHTSYNCH
280
     1
  9
$CMATERIAL
347
44
  9
$SOLIDHIST
280
     0
  9
$SHOWHIST
280
     1
  9
$DWFFRAME
280
     2
  9
$DGNFRAME
280
     2
  9
$REALWORLDSCALE
290
     1
  9
$INTERFERECOLOR
 62
   256
  9
$CSHADOW
280
     0
  9
$SHADOWPLANELOCATION
 40
0.0
  0
ENDSEC
  0
SECTION
  2
CLASSES
  0
CLASS
  1
ACDBDICTIONARYWDFLT
  2
AcDbDictionaryWithDefault
  3
ObjectDBX Classes
 90
        0
 91
        4
280
     0
281
     0
  0
CLASS
  1
VISUALSTYLE
  2
AcDbVisualStyle
  3
ObjectDBX Classes
 90
     4095
 91
        4
280
     0
281
     0
  0
CLASS
  1
MATERIAL
  2
AcDbMaterial
  3
ObjectDBX Classes
 90
     1153
 91
        4
280
     0
281
     0
  0
CLASS
  1
SCALE
  2
AcDbScale
  3
ObjectDBX Classes
 90
     1153
 91
        4
280
     0
281
     0
  0
CLASS
  1
TABLESTYLE
  2
AcDbTableStyle
  3
ObjectDBX Classes
 90
     4095
 91
        4
280
     0
281
     0
  0
CLASS
  1
MLEADERSTYLE
  2
AcDbMLeaderStyle
  3
ACDB_MLEADERSTYLE_CLASS
 90
     4095
 91
        4
280
     0
281
     0
  0
CLASS
  1
SUN
  2
AcDbSun
  3
SCENEOE
 90
     1153
 91
        4
280
     0
281
     0
  0
CLASS
  1
DICTIONARYVAR
  2
AcDbDictionaryVar
  3
ObjectDBX Classes
 90
        0
 91
        4
280
     0
281
     0
  0
CLASS
  1
CELLSTYLEMAP
  2
AcDbCellStyleMap
  3
ObjectDBX Classes
 90
     1152
 91
        4
280
     0
281
     0
  0
ENDSEC
  0
SECTION
  2
TABLES
  0
TABLE
  2
VPORT
  5
8
330
0
100
AcDbSymbolTable
 70
     1
  0
VPORT
  5
29
330
8
100
AcDbSymbolTableRecord
100
AcDbViewportTableRecord
  2
*Active
 70
     0
 10
0.0
 20
0.0
 11
1.0
 21
1.0
 12
0.0
 22
0.0
 13
0.0
 23
0.0
 14
0.5
 24
0.5
 15
0.5
 25
0.5
 16
0.0
 26
0.0
 36
1.0
 17
0.0000000000000107
 27
-0.0000000000000071
 37
0.0
 40
13.77000000000002
 41
1.0
 42
50.0
 43
0.0
 44
0.0
 50
0.0
 51
0.0
 71
     0
 72
   100
 73
     1
 74
     3
 75
     0
 76
     0
 77
     0
 78
     0
281
     0
 65
     1
110
0.0
120
0.0
130
0.0
111
1.0
121
0.0
131
0.0
112
0.0
122
1.0
132
0.0
 79
     0
146
0.0
348
2F
 60
     3
 61
     5
292
     1
282
     1
141
0.0
142
0.0
 63
   250
361
6D
  0
ENDTAB
  0
TABLE
  2
LTYPE
  5
5
330
0
100
AcDbSymbolTable
 70
     3
  0
LTYPE
  5
14
330
5
100
AcDbSymbolTableRecord
100
AcDbLinetypeTableRecord
  2
ByBlock
 70
     0
  3

 72
    65
 73
     0
 40
0.0
  0
LTYPE
  5
15
330
5
100
AcDbSymbolTableRecord
100
AcDbLinetypeTableRecord
  2
ByLayer
 70
     0
  3

 72
    65
 73
     0
 40
0.0
  0
LTYPE
  5
16
330
5
100
AcDbSymbolTableRecord
100
AcDbLinetypeTableRecord
  2
Continuous
 70
     0
  3
Solid line
 72
    65
 73
     0
 40
0.0
  0
LTYPE
  5
9C
330
5
100
AcDbSymbolTableRecord
100
AcDbLinetypeTableRecord
  2
Dashed
 70
     0
  3

 72
    65
 73
     2
 40
2.0
 49
1.0
 74
     0
 49
-1.0
 74
     0
  0
LTYPE
  5
FF
330
5
100
AcDbSymbolTableRecord
100
AcDbLinetypeTableRecord
  2
Center
 70
     0
  3

 72
    65
 73
     4
 40
1.5
 49
0.45
 74
     0
 49
-0.5
 74
     0
 49
0.05
 74
     0
 49
-0.5
 74
     0
  0
ENDTAB
  0
TABLE
  2
LAYER
  5
2
330
0
100
AcDbSymbolTable
 70
     7
  0
LAYER
  5
10
330
2
100
AcDbSymbolTableRecord
100
AcDbLayerTableRecord
  2
0
 70
     0
 62
     7
  6
Continuous
370
    -3
390
F
347
46
348
0
  0
LAYER
  5
72
330
2
100
AcDbSymbolTableRecord
100
AcDbLayerTableRecord
  2
AM_6
 70
     0
 62
    -2
  6
Continuous
370
    35
390
F
347
46
348
0
  0
LAYER
  5
9D
330
2
100
AcDbSymbolTableRecord
100
AcDbLayerTableRecord
  2
AM_9
 70
     0
 62
     6
  6
Dashed
370
    25
390
F
347
46
348
0
  0
LAYER
  5
C1
330
2
100
AcDbSymbolTableRecord
100
AcDbLayerTableRecord
  2
AM_4
 70
     0
 62
     7
  6
Continuous
370
    50
390
F
347
46
348
0
  0
LAYER
  5
FD
330
2
100
AcDbSymbolTableRecord
100
AcDbLayerTableRecord
  2
AM_5
 70
     0
 62
     3
  6
Continuous
370
    25
390
F
347
46
348
0
  0
LAYER
  5
100
330
2
100
AcDbSymbolTableRecord
100
AcDbLayerTableRecord
  2
AM_7
 70
     0
 62
     7
  6
Center
370
    25
390
F
347
46
348
0
  0
LAYER
  5
297
330
2
100
AcDbSymbolTableRecord
100
AcDbLayerTableRecord
  2
ConnectionPoints
 70
     0
 62
     7
  6
Continuous
370
    50
390
F
347
46
348
0
  0
ENDTAB
  0
TABLE
  2
STYLE
  5
3
330
0
100
AcDbSymbolTable
 70
     1
  0
STYLE
  5
11
330
3
100
AcDbSymbolTableRecord
100
AcDbTextStyleTableRecord
  2
Standard
 70
     0
 40
0.0
 41
1.0
 50
0.0
 71
     0
 42
0.2
  3
txt
  4

  0
ENDTAB
  0
TABLE
  2
VIEW
  5
6
330
0
100
AcDbSymbolTable
 70
     0
  0
ENDTAB
  0
TABLE
  2
UCS
  5
7
330
0
100
AcDbSymbolTable
 70
     0
  0
ENDTAB
  0
TABLE
  2
APPID
  5
9
330
0
100
AcDbSymbolTable
 70
     1
  0
APPID
  5
12
330
9
100
AcDbSymbolTableRecord
100
AcDbRegAppTableRecord
  2
ACAD
 70
     0
  0
ENDTAB
  0
TABLE
  2
DIMSTYLE
  5
A
330
0
100
AcDbSymbolTable
 70
     1
100
AcDbDimStyleTable
  0
DIMSTYLE
105
27
330
A
100
AcDbSymbolTableRecord
100
AcDbDimStyleTableRecord
  2
Standard
 70
     0
178
     0
340
11
  0
ENDTAB
  0
TABLE
  2
BLOCK_RECORD
  5
1
330
0
100
AcDbSymbolTable
 70
     8
  0
BLOCK_RECORD
  5
1F
330
1
100
AcDbSymbolTableRecord
100
AcDbBlockTableRecord
  2
*Model_Space
340
22
 70
     0
280
     1
281
     0
  0
BLOCK_RECORD
  5
1B
330
1
100
AcDbSymbolTableRecord
100
AcDbBlockTableRecord
  2
*Paper_Space
340
1E
 70
     0
280
     1
281
     0
  0
BLOCK_RECORD
  5
23
330
1
100
AcDbSymbolTableRecord
100
AcDbBlockTableRecord
  2
*Paper_Space0
340
26
 70
     0
280
     1
281
     0
  0
BLOCK_RECORD
  5
6E
330
1
100
AcDbSymbolTableRecord
100
AcDbBlockTableRecord
  2
1_071285_0
340
0
102
{BLKREFS
331
6F
102
}
 70
     0
280
     1
281
     0
  0
BLOCK_RECORD
  5
90
330
1
100
AcDbSymbolTableRecord
100
AcDbBlockTableRecord
  2
2_405015E_Inch_0_in_071285_0
340
0
102
{BLKREFS
331
91
102
}
 70
     0
280
     1
281
     0
  0
BLOCK_RECORD
  5
ED
330
1
100
AcDbSymbolTableRecord
100
AcDbBlockTableRecord
  2
3_ASME_B18_3_1_4_1_0_in_071285_0
340
0
102
{BLKREFS
331
EE
102
}
 70
     0
280
     1
281
     0
  0
BLOCK_RECORD
  5
10D
330
1
100
AcDbSymbolTableRecord
100
AcDbBlockTableRecord
  2
4_ASME_B18_3_1_4_2_0_in_071285_0
340
0
102
{BLKREFS
331
10E
102
}
 70
     0
280
     1
281
     0
  0
BLOCK_RECORD
  5
12A
330
1
100
AcDbSymbolTableRecord
100
AcDbBlockTableRecord
  2
5_070909LWE_0_in_071285_0
340
0
102
{BLKREFS
331
12B
102
}
 70
     0
280
     1
281
     0
  0
BLOCK_RECORD
  5
17C
330
1
100
AcDbSymbolTableRecord
100
AcDbBlockTableRecord
  2
6_070941EL_0_in_071285_0
340
0
102
{BLKREFS
331
17D
102
}
 70
     0
280
     1
281
     0
  0
BLOCK_RECORD
  5
1DE
330
1
100
AcDbSymbolTableRecord
100
AcDbBlockTableRecord
  2
7_071285H_0_in_071285_0
340
0
102
{BLKREFS
331
1DF
102
}
 70
     0
280
     1
281
     0
  0
ENDTAB
  0
ENDSEC
  0
SECTION
  2
BLOCKS
  0
BLOCK
  5
20
330
1F
100
AcDbEntity
  8
0
100
AcDbBlockBegin
  2
*Model_Space
 70
     0
 10
0.0
 20
0.0
 30
0.0
  3
*Model_Space
  1

  0
ENDBLK
  5
21
330
1F
100
AcDbEntity
  8
0
100
AcDbBlockEnd
  0
BLOCK
  5
1C
330
1B
100
AcDbEntity
 67
     1
  8
0
100
AcDbBlockBegin
  2
*Paper_Space
 70
     0
 10
0.0
 20
0.0
 30
0.0
  3
*Paper_Space
  1

  0
ENDBLK
  5
1D
330
1B
100
AcDbEntity
 67
     1
  8
0
100
AcDbBlockEnd
  0
BLOCK
  5
24
330
23
100
AcDbEntity
  8
0
100
AcDbBlockBegin
  2
*Paper_Space0
 70
     0
 10
0.0
 20
0.0
 30
0.0
  3
*Paper_Space0
  1

  0
ENDBLK
  5
25
330
23
100
AcDbEntity
  8
0
100
AcDbBlockEnd
  0
BLOCK
  5
70
330
6E
100
AcDbEntity
  8
0
100
AcDbBlockBegin
  2
1_071285_0
 70
     2
 10
0.0
 20
0.0
 30
0.0
  3
1_071285_0
  1

  0
ATTDEF
  5
73
330
6E
100
AcDbEntity
  8
AM_6
100
AcDbText
 10
11.75000000000002
 20
6.750000000000004
 30
0.0
 40
0.5
  1
Imperial - IP Piloted Flange with Type E Dimensions 1-3/8 thru 2-1/2 inch Labyrinth Seal Expansion
100
AcDbAttributeDefinition
  3

  2
NN
 70
     8
280
     0
  0
ATTDEF
  5
74
330
6E
100
AcDbEntity
  8
AM_6
100
AcDbText
 10
11.75000000000002
 20
6.250000000000004
 30
0.0
 40
0.5
  1
Imperial/E Piloted Flange Bearings
100
AcDbAttributeDefinition
  3

  2
NT
 70
     8
280
     0
  0
ATTDEF
  5
75
330
6E
100
AcDbEntity
  8
AM_6
100
AcDbText
 10
11.75000000000002
 20
5.750000000000004
 30
0.0
 40
0.5
  1
071285
100
AcDbAttributeDefinition
  3

  2
NB
 70
     8
280
     0
  0
ATTDEF
  5
76
330
6E
100
AcDbEntity
  8
AM_6
100
AcDbText
 10
11.75000000000002
 20
5.250000000000004
 30
0.0
 40
0.5
  1
$PN.
100
AcDbAttributeDefinition
  3

  2
NBSYN
 70
     8
280
     0
  0
ATTDEF
  5
77
330
6E
100
AcDbEntity
  8
AM_6
100
AcDbText
 10
11.75000000000002
 20
4.750000000000004
 30
0.0
 40
0.5
  1
071285
100
AcDbAttributeDefinition
  3

  2
LINA
 70
     8
280
     0
  0
ATTDEF
  5
78
330
6E
100
AcDbEntity
  8
AM_6
100
AcDbText
 10
11.75000000000002
 20
4.250000000000004
 30
0.0
 40
0.5
  1
4-1/2
100
AcDbAttributeDefinition
  3

  2
SS
 70
     8
280
     0
  0
ATTDEF
  5
79
330
6E
100
AcDbEntity
  8
AM_6
100
AcDbText
 10
11.75000000000002
 20
3.750000000000004
 30
0.0
 40
0.5
  1
Expansion
100
AcDbAttributeDefinition
  3

  2
TYPE
 70
     8
280
     0
  0
ATTDEF
  5
7A
330
6E
100
AcDbEntity
  8
AM_6
100
AcDbText
 10
11.75000000000002
 20
3.250000000000004
 30
0.0
 40
0.5
  1
071285
100
AcDbAttributeDefinition
  3

  2
PN
 70
     8
280
     0
  0
ATTDEF
  5
7B
330
6E
100
AcDbEntity
  8
AM_6
100
AcDbText
 10
11.75000000000002
 20
2.750000000000004
 30
0.0
 40
0.5
  1
EFC-IP-408LE
100
AcDbAttributeDefinition
  3

  2
DESCRIPTION
 70
     8
280
     0
  0
ATTDEF
  5
7C
330
6E
100
AcDbEntity
  8
AM_6
100
AcDbText
 10
11.75000000000002
 20
2.250000000000004
 30
0.0
 40
0.5
  1
Labyrinth Seal
100
AcDbAttributeDefinition
  3

  2
ST
 70
     8
280
     0
  0
ATTDEF
  5
7D
330
6E
100
AcDbEntity
  8
AM_6
100
AcDbText
 10
11.75000000000002
 20
1.750000000000004
 30
0.0
 40
0.5
  1
5.23
100
AcDbAttributeDefinition
  3

  2
A
 70
     8
280
     0
  0
ATTDEF
  5
7E
330
6E
100
AcDbEntity
  8
AM_6
100
AcDbText
 10
11.75000000000002
 20
1.250000000000004
 30
0.0
 40
0.5
  1
13.5
100
AcDbAttributeDefinition
  3

  2
B
 70
     8
280
     0
  0
ATTDEF
  5
7F
330
6E
100
AcDbEntity
  8
AM_6
100
AcDbText
 10
11.75000000000002
 20
0.7500000000000036
 30
0.0
 40
0.5
  1
4.58
100
AcDbAttributeDefinition
  3

  2
C
 70
     8
280
     0
  0
ATTDEF
  5
80
330
6E
100
AcDbEntity
  8
AM_6
100
AcDbText
 10
11.75000000000002
 20
0.2500000000000036
 30
0.0
 40
0.5
  1
5.88
100
AcDbAttributeDefinition
  3

  2
D
 70
     8
280
     0
  0
ATTDEF
  5
81
330
6E
100
AcDbEntity
  8
AM_6
100
AcDbText
 10
11.75000000000002
 20
-0.2499999999999964
 30
0.0
 40
0.5
  1
11.75
100
AcDbAttributeDefinition
  3

  2
DD
 70
     8
280
     0
  0
ATTDEF
  5
82
330
6E
100
AcDbEntity
  8
AM_6
100
AcDbText
 10
11.75000000000002
 20
-0.7499999999999964
 30
0.0
 40
0.5
  1
1.45
100
AcDbAttributeDefinition
  3

  2
E
 70
     8
280
     0
  0
ATTDEF
  5
83
330
6E
100
AcDbEntity
  8
AM_6
100
AcDbText
 10
11.75000000000002
 20
-1.249999999999996
 30
0.0
 40
0.5
  1
3/4
100
AcDbAttributeDefinition
  3

  2
F
 70
     8
280
     0
  0
ATTDEF
  5
84
330
6E
100
AcDbEntity
  8
AM_6
100
AcDbText
 10
11.75000000000002
 20
-1.749999999999996
 30
0.0
 40
0.5
  1
3.03
100
AcDbAttributeDefinition
  3

  2
G
 70
     8
280
     0
  0
ATTDEF
  5
85
330
6E
100
AcDbEntity
  8
AM_6
100
AcDbText
 10
11.75000000000002
 20
-2.249999999999996
 30
0.0
 40
0.5
  1
0.94
100
AcDbAttributeDefinition
  3

  2
H
 70
     8
280
     0
  0
ATTDEF
  5
86
330
6E
100
AcDbEntity
  8
AM_6
100
AcDbText
 10
11.75000000000002
 20
-2.749999999999996
 30
0.0
 40
0.5
  1
10.250
100
AcDbAttributeDefinition
  3

  2
K
 70
     8
280
     0
  0
ATTDEF
  5
87
330
6E
100
AcDbEntity
  8
AM_6
100
AcDbText
 10
11.75000000000002
 20
-3.249999999999996
 30
0.0
 40
0.5
  1
6.44
100
AcDbAttributeDefinition
  3

  2
L
 70
     8
280
     0
  0
ATTDEF
  5
88
330
6E
100
AcDbEntity
  8
AM_6
100
AcDbText
 10
11.75000000000002
 20
-3.749999999999996
 30
0.0
 40
0.5
  1
3/4-10
100
AcDbAttributeDefinition
  3

  2
M
 70
     8
280
     0
  0
ATTDEF
  5
89
330
6E
100
AcDbEntity
  8
AM_6
100
AcDbText
 10
11.75000000000002
 20
-4.249999999999996
 30
0.0
 40
0.5
  1
5.66
100
AcDbAttributeDefinition
  3

  2
N
 70
     8
280
     0
  0
ATTDEF
  5
8A
330
6E
100
AcDbEntity
  8
AM_6
100
AcDbText
 10
11.75000000000002
 20
-4.749999999999996
 30
0.0
 40
0.5
  1
2.2
100
AcDbAttributeDefinition
  3

  2
P
 70
     8
280
     0
  0
ATTDEF
  5
8B
330
6E
100
AcDbEntity
  8
AM_6
100
AcDbText
 10
11.75000000000002
 20
-5.249999999999996
 30
0.0
 40
0.5
  1
2.63
100
AcDbAttributeDefinition
  3

  2
Q
 70
     8
280
     0
  0
ATTDEF
  5
8C
330
6E
100
AcDbEntity
  8
AM_6
100
AcDbText
 10
11.75000000000002
 20
-5.749999999999996
 30
0.0
 40
0.5
  1
0.38
100
AcDbAttributeDefinition
  3

  2
X
 70
     8
280
     0
  0
ATTDEF
  5
8D
330
6E
100
AcDbEntity
  8
AM_6
100
AcDbText
 10
11.75000000000002
 20
-6.249999999999996
 30
0.0
 40
0.5
  1
0.036
100
AcDbAttributeDefinition
  3

  2
Y
 70
     8
280
     0
  0
ATTDEF
  5
8E
330
6E
100
AcDbEntity
  8
AM_6
100
AcDbText
 10
11.75000000000002
 20
-6.749999999999996
 30
0.0
 40
0.5
  1
5
100
AcDbAttributeDefinition
  3

  2
Z
 70
     8
280
     0
  0
ATTDEF
  5
8F
330
6E
100
AcDbEntity
  8
AM_6
100
AcDbText
 10
11.75000000000002
 20
-7.249999999999996
 30
0.0
 40
0.5
  1
baldor
100
AcDbAttributeDefinition
  3

  2
COMPANY
 70
     8
280
     0
  0
INSERT
  5
91
330
6E
100
AcDbEntity
  8
0
100
AcDbBlockReference
  2
2_405015E_Inch_0_in_071285_0
 10
0.0
 20
0.0
 30
0.0
  0
INSERT
  5
EE
330
6E
100
AcDbEntity
  8
0
100
AcDbBlockReference
  2
3_ASME_B18_3_1_4_1_0_in_071285_0
 10
0.0
 20
0.0
 30
0.0
  0
INSERT
  5
10E
330
6E
100
AcDbEntity
  8
0
100
AcDbBlockReference
  2
4_ASME_B18_3_1_4_2_0_in_071285_0
 10
0.0
 20
0.0
 30
0.0
  0
INSERT
  5
12B
330
6E
100
AcDbEntity
  8
0
100
AcDbBlockReference
  2
5_070909LWE_0_in_071285_0
 10
0.0
 20
0.0
 30
0.0
  0
INSERT
  5
17D
330
6E
100
AcDbEntity
  8
0
100
AcDbBlockReference
  2
6_070941EL_0_in_071285_0
 10
0.0
 20
0.0
 30
0.0
  0
INSERT
  5
1DF
330
6E
100
AcDbEntity
  8
0
100
AcDbBlockReference
  2
7_071285H_0_in_071285_0
 10
0.0
 20
0.0
 30
0.0
  0
ENDBLK
  5
71
330
6E
100
AcDbEntity
  8
0
100
AcDbBlockEnd
  0
BLOCK
  5
92
330
90
100
AcDbEntity
  8
0
100
AcDbBlockBegin
  2
2_405015E_Inch_0_in_071285_0
 70
     2
 10
0.0
 20
0.0
 30
0.0
  3
2_405015E_Inch_0_in_071285_0
  1

  0
ATTDEF
  5
94
330
90
100
AcDbEntity
  8
AM_6
100
AcDbText
 10
5.252590742770462
 20
6.438054079811401
 30
0.0
 40
0.5
  1
405015E -Inch
100
AcDbAttributeDefinition
  3

  2
NN
 70
     8
280
     0
  0
ATTDEF
  5
95
330
90
100
AcDbEntity
  8
AM_6
100
AcDbText
 10
5.252590742770462
 20
5.938054079811401
 30
0.0
 40
0.5
  1
Grease Fitting
100
AcDbAttributeDefinition
  3

  2
NT
 70
     8
280
     0
  0
ATTDEF
  5
96
330
90
100
AcDbEntity
  8
AM_6
100
AcDbText
 10
5.252590742770462
 20
5.438054079811401
 30
0.0
 40
0.5
  1
405015E-Inch
100
AcDbAttributeDefinition
  3

  2
NB
 70
     8
280
     0
  0
ATTDEF
  5
97
330
90
100
AcDbEntity
  8
AM_6
100
AcDbText
 10
5.252590742770462
 20
4.938054079811401
 30
0.0
 40
0.5
  1
$MN.-Inch
100
AcDbAttributeDefinition
  3

  2
NBSYN
 70
     8
280
     0
  0
ATTDEF
  5
98
330
90
100
AcDbEntity
  8
AM_6
100
AcDbText
 10
5.252590742770462
 20
4.438054079811401
 30
0.0
 40
0.5
  1
405015E
100
AcDbAttributeDefinition
  3

  2
LINA
 70
     8
280
     0
  0
ATTDEF
  5
99
330
90
100
AcDbEntity
  8
AM_6
100
AcDbText
 10
5.252590742770462
 20
3.938054079811401
 30
0.0
 40
0.5
  1
405015E
100
AcDbAttributeDefinition
  3

  2
MN
 70
     8
280
     0
  0
ATTDEF
  5
9A
330
90
100
AcDbEntity
  8
AM_6
100
AcDbText
 10
5.252590742770462
 20
3.438054079811401
 30
0.0
 40
0.5
  1
1/8 x 27PTF
100
AcDbAttributeDefinition
  3

  2
T
 70
     8
280
     0
  0
ATTDEF
  5
9B
330
90
100
AcDbEntity
  8
AM_6
100
AcDbText
 10
5.252590742770462
 20
2.938054079811401
 30
0.0
 40
0.5
  1
baldor
100
AcDbAttributeDefinition
  3

  2
COMPANY
 70
     8
280
     0
  0
ELLIPSE
  5
9E
330
90
100
AcDbEntity
  8
AM_9
100
AcDbEllipse
 10
0.0
 20
6.029132408329973
 30
0.0
 11
-0.161902872472269
 21
1.982738345459263E-17
 31
0.0
210
0.0
220
0.0
230
1.0
 40
0.8660254037844368
 41
0.0
 42
6.283185307179586
  0
LWPOLYLINE
  5
9F
330
90
100
AcDbEntity
  8
AM_9
100
AcDbPolyline
 90
        3
 70
     0
 43
0.0
 10
-0.1894430570778459
 20
6.256353936868896
 10
-0.1578692142315383
 20
6.304911391530874
 10
-0.1262953713852306
 20
6.355609265256126
  0
LWPOLYLINE
  5
A0
330
90
100
AcDbEntity
  8
AM_9
100
AcDbPolyline
 90
        3
 70
     0
 43
0.0
 10
-0.1262953713852306
 20
6.355609265256126
 10
-0.0634316146914367
 20
6.352282727882629
 10
0.0
 20
6.35107546540782
  0
LWPOLYLINE
  5
A1
330
90
100
AcDbEntity
  8
AM_9
100
AcDbPolyline
 90
        3
 70
     0
 43
0.0
 10
0.1262953713852306
 20
6.355609265256126
 10
0.1577272497321276
 20
6.305134910362284
 10
0.1894430570778459
 20
6.256353936868896
  0
LWPOLYLINE
  5
A2
330
90
100
AcDbEntity
  8
AM_9
100
AcDbPolyline
 90
        4
 70
     0
 43
0.0
 10
0.0
 20
6.35107546540782
 10
0.0483998160558989
 20
6.351784245766388
 10
0.0967996321117978
 20
6.353816671666741
 10
0.1262953713852306
 20
6.355609265256126
  0
LINE
  5
A3
330
90
100
AcDbEntity
  8
AM_9
100
AcDbLine
 10
0.1262953713852306
 20
6.396541665559512
 30
0.0
 11
0.1262953713852306
 21
6.355609265256126
 31
0.0
  0
LINE
  5
A4
330
90
100
AcDbEntity
  8
AM_9
100
AcDbLine
 10
-0.1262953713852306
 20
6.396541665559512
 30
0.0
 11
-0.1262953713852306
 21
6.355609265256126
 31
0.0
  0
LWPOLYLINE
  5
A5
330
90
100
AcDbEntity
  8
AM_9
100
AcDbPolyline
 90
        3
 70
     0
 43
0.0
 10
0.0876639037391225
 20
6.398809702876608
 10
0.0485424412477544
 20
6.400362551286284
 10
0.0
 20
6.401075465407819
  0
LWPOLYLINE
  5
A6
330
90
100
AcDbEntity
  8
AM_9
100
AcDbPolyline
 90
        3
 70
     0
 43
0.0
 10
0.0
 20
6.401075465407819
 10
-0.0631476856926153
 20
6.399878775015302
 10
-0.0878529476487871
 20
6.398800272701072
  0
ELLIPSE
  5
A7
330
90
100
AcDbEntity
  8
AM_9
100
AcDbEllipse
 10
0.0000000000000011
 20
6.161632408329973
 30
0.0
 11
0.2187499999999989
 21
0.0
 31
0.0
210
0.0
220
0.0
230
1.0
 40
0.8660254037844402
 41
5.759586531581287
 42
6.806784082777884
  0
LWPOLYLINE
  5
A8
330
90
100
AcDbEntity
  8
AM_9
100
AcDbPolyline
 90
        3
 70
     0
 43
0.0
 10
0.1894430570778459
 20
6.256353936868896
 10
0.2210168999241536
 20
6.210189862991952
 10
0.2525907427704612
 20
6.16616620817828
  0
LWPOLYLINE
  5
A9
330
90
100
AcDbEntity
  8
AM_9
100
AcDbPolyline
 90
        3
 70
     0
 43
0.0
 10
-0.2525907427704612
 20
6.16616620817828
 10
-0.2211588644235643
 20
6.209987488325129
 10
-0.1894430570778459
 20
6.256353936868896
  0
ELLIPSE
  5
AA
330
90
100
AcDbEntity
  8
AM_9
100
AcDbEllipse
 10
0.000000000000032
 20
6.161632408329977
 30
0.0
 11
0.2057518972231016
 21
0.0
 31
0.0
210
0.0
220
0.0
230
1.0
 40
0.866025403784467
 41
3.141592653589793
 42
3.195748414150191
  0
ELLIPSE
  5
AB
330
90
100
AcDbEntity
  8
AM_9
100
AcDbEllipse
 10
-0.0000000000000505
 20
6.04748978548437
 30
0.0
 11
0.1986176267811649
 21
2.959633272605612E-9
 31
0.0
210
0.0
220
0.0
230
1.0
 40
0.8660254037844095
 41
3.141592638688632
 42
3.195748396955973
  0
LINE
  5
AC
330
90
100
AcDbEntity
  8
AM_9
100
AcDbLine
 10
0.1983264404626879
 20
6.038179118956128
 30
0.0
 11
0.2054502516015135
 21
6.151987306162263
 31
0.0
  0
LINE
  5
AD
330
90
100
AcDbEntity
  8
AM_9
100
AcDbLine
 10
-0.2054502516015135
 20
6.151987306162263
 30
0.0
 11
-0.1983264404626879
 21
6.038179118956128
 31
0.0
  0
ELLIPSE
  5
AE
330
90
100
AcDbEntity
  8
AM_9
100
AcDbEllipse
 10
0.000000000000001
 20
6.161632408329972
 30
0.0
 11
0.2057518972230685
 21
3.065942186460921E-9
 31
0.0
210
0.0
220
0.0
230
1.0
 40
0.8660254037844334
 41
4.0041121296971
 42
9.424777945868218
  0
ELLIPSE
  5
AF
330
90
100
AcDbEntity
  8
AM_9
100
AcDbEllipse
 10
-0.0000000000000013
 20
6.161632408329973
 30
0.0
 11
0.2057518972230686
 21
0.0
 31
0.0
210
0.0
220
0.0
230
1.0
 40
0.8660254037844377
 41
3.195748414150181
 42
4.004112144422264
  0
ELLIPSE
  5
B0
330
90
100
AcDbEntity
  8
AM_9
100
AcDbEllipse
 10
0.0
 20
6.047489785484446
 30
0.0
 11
0.1986176267812153
 21
2.959633272606364E-9
 31
0.0
210
0.0
220
0.0
230
1.0
 40
0.8660254037844308
 41
3.195748396956398
 42
6.229029529425428
  0
ELLIPSE
  5
B1
330
90
100
AcDbEntity
  8
AM_9
100
AcDbEllipse
 10
0.0000000000000001
 20
6.047489785484447
 30
0.0
 11
0.1986176267812153
 21
0.0
 31
0.0
210
0.0
220
0.0
230
1.0
 40
0.8660254037844314
 41
6.229029546619198
 42
9.42477796076938
  0
ELLIPSE
  5
B2
330
90
100
AcDbEntity
  8
AM_9
100
AcDbEllipse
 10
-0.0000000000000002
 20
6.161632408329973
 30
0.0
 11
0.21875
 21
0.0
 31
0.0
210
0.0
220
0.0
230
1.0
 40
0.8660254037844402
 41
0.5235987755982965
 42
5.75958653158129
  0
ELLIPSE
  5
B3
330
90
100
AcDbEntity
  8
AM_9
100
AcDbEllipse
 10
-0.0000000000000071
 20
6.211632408329958
 30
0.0
 11
0.2187500000000249
 21
0.0
 31
0.0
210
0.0
220
0.0
230
1.0
 40
0.8660254037844104
 41
1.03297032961511
 42
1.570796326794897
  0
ELLIPSE
  5
B4
330
90
100
AcDbEntity
  8
AM_9
100
AcDbEllipse
 10
0.0000000000000072
 20
6.211632408329957
 30
0.0
 11
0.2187500000000256
 21
0.0
 31
0.0
210
0.0
220
0.0
230
1.0
 40
0.8660254037844116
 41
1.570796326794897
 42
2.108622323974682
  0
ELLIPSE
  5
B5
330
90
100
AcDbEntity
  8
AM_9
100
AcDbEllipse
 10
0.0
 20
6.211632408329974
 30
0.0
 11
0.2137499999999984
 21
0.0
 31
0.0
210
0.0
220
0.0
230
1.0
 40
0.8660254037844394
 41
0.9862868522354837
 42
2.155305801354309
  0
ELLIPSE
  5
B6
330
90
100
AcDbEntity
  8
AM_9
100
AcDbEllipse
 10
0.0
 20
6.220791507600413
 30
0.0
 11
0.1725340532830161
 21
0.0
 31
0.0
210
0.0
220
0.0
230
1.0
 40
0.8660254037844367
 41
0.6732704101478424
 42
2.46832224344195
  0
ELLIPSE
  5
B7
330
90
100
AcDbEntity
  8
AM_9
100
AcDbEllipse
 10
0.0000000000000019
 20
6.24800896913926
 30
0.0
 11
0.1188200907348957
 21
0.0
 31
0.0
210
0.0
220
0.0
230
1.0
 40
0.8660254037844387
 41
0.0521714424114972
 42
2.305085124374408
  0
LINE
  5
B8
330
90
100
AcDbEntity
  8
AM_9
100
AcDbLine
 10
-0.0703562363973515
 20
6.331632408329972
 30
0.0
 11
-0.0796165180238019
 21
6.324393313183122
 31
0.0
  0
LINE
  5
B9
330
90
100
AcDbEntity
  8
AM_9
100
AcDbLine
 10
0.0796165180238019
 20
6.324393313183122
 30
0.0
 11
0.0703562363973515
 21
6.331632408329972
 31
0.0
  0
ELLIPSE
  5
BA
330
90
100
AcDbEntity
  8
AM_9
100
AcDbEllipse
 10
-0.0000000000000022
 20
6.264132408329974
 30
0.0
 11
0.1049999999999979
 21
0.0
 31
0.0
210
0.0
220
0.0
230
1.0
 40
0.8660254037844328
 41
2.305085124374383
 42
3.5666719794981
  0
ELLIPSE
  5
BB
330
90
100
AcDbEntity
  8
AM_9
100
AcDbEllipse
 10
-0.0000000000000019
 20
6.24800896913926
 30
0.0
 11
0.1188200907348957
 21
0.0
 31
0.0
210
0.0
220
0.0
230
1.0
 40
0.8660254037844387
 41
2.305085124374382
 42
3.089421211178294
  0
ELLIPSE
  5
BC
330
90
100
AcDbEntity
  8
AM_9
100
AcDbEllipse
 10
0.0000000000000001
 20
6.264132408329975
 30
0.0
 11
0.1050000000000001
 21
0.0
 31
0.0
210
0.0
220
0.0
230
1.0
 40
0.8660254037844398
 41
5.858105981271281
 42
8.588270431553997
  0
LINE
  5
BD
330
90
100
AcDbEntity
  8
AM_9
100
AcDbLine
 10
0.105
 20
6.264132408329973
 30
0.0
 11
0.105
 21
6.279132408329973
 31
0.0
  0
LINE
  5
BE
330
90
100
AcDbEntity
  8
AM_9
100
AcDbLine
 10
-0.105
 20
6.279132408329973
 30
0.0
 11
-0.105
 21
6.264132408329973
 31
0.0
  0
ELLIPSE
  5
BF
330
90
100
AcDbEntity
  8
AM_9
100
AcDbEllipse
 10
0.0
 20
6.279132408329973
 30
0.0
 11
0.1050000000000002
 21
0.0
 31
0.0
210
0.0
220
0.0
230
1.0
 40
0.8660254037844392
 41
5.235987755982985
 42
10.47197551196598
  0
ELLIPSE
  5
C0
330
90
100
AcDbEntity
  8
AM_9
100
AcDbEllipse
 10
0.0
 20
6.309132408329972
 30
0.0
 11
0.1350000000000012
 21
0.0
 31
0.0
210
0.0
220
0.0
230
1.0
 40
0.8660254037844368
 41
0.7751090107151315
 42
2.366483642874663
  0
LWPOLYLINE
  5
C2
330
90
100
AcDbEntity
  8
AM_4
100
AcDbPolyline
 90
        3
 70
     0
 43
0.0
 10
0.1894430570778459
 20
6.306353936868897
 10
0.1578692142315383
 20
6.352518010745841
 10
0.1262953713852306
 20
6.396541665559512
  0
LINE
  5
C3
330
90
100
AcDbEntity
  8
AM_4
100
AcDbLine
 10
0.1262953713852306
 20
6.396541665559512
 30
0.0
 11
0.0876639037391225
 21
6.398809702876608
 31
0.0
  0
LWPOLYLINE
  5
C4
330
90
100
AcDbEntity
  8
AM_4
100
AcDbPolyline
 90
        3
 70
     0
 43
0.0
 10
-0.1262953713852306
 20
6.396541665559512
 10
-0.1577272497321276
 20
6.352720385412664
 10
-0.1894430570778459
 20
6.306353936868897
  0
LINE
  5
C5
330
90
100
AcDbEntity
  8
AM_4
100
AcDbLine
 10
-0.0878529476487871
 20
6.398800272701072
 30
0.0
 11
-0.1262953713852306
 21
6.396541665559512
 31
0.0
  0
LWPOLYLINE
  5
C6
330
90
100
AcDbEntity
  8
AM_4
100
AcDbPolyline
 90
        3
 70
     0
 43
0.0
 10
0.2525907427704612
 20
6.207098608481666
 10
0.2211588644235643
 20
6.257572963375508
 10
0.1894430570778459
 20
6.306353936868897
  0
LWPOLYLINE
  5
C7
330
90
100
AcDbEntity
  8
AM_4
100
AcDbPolyline
 90
        3
 70
     0
 43
0.0
 10
-0.1894430570778459
 20
6.306353936868897
 10
-0.2210168999241535
 20
6.257796482206918
 10
-0.2525907427704612
 20
6.207098608481666
  0
ELLIPSE
  5
C8
330
90
100
AcDbEntity
  8
AM_4
100
AcDbEllipse
 10
0.0000000000000032
 20
6.21163240832997
 30
0.0
 11
0.2187500000000047
 21
0.0
 31
0.0
210
0.0
220
0.0
230
1.0
 40
0.8660254037844375
 41
2.108622323974711
 42
2.617993877991482
  0
ELLIPSE
  5
C9
330
90
100
AcDbEntity
  8
AM_4
100
AcDbEllipse
 10
0.000000000000001
 20
6.211632408329974
 30
0.0
 11
0.218750000000001
 21
0.0
 31
0.0
210
0.0
220
0.0
230
1.0
 40
0.86602540378444
 41
2.6179938779915
 42
4.71238898038469
  0
LWPOLYLINE
  5
CA
330
90
100
AcDbEntity
  8
AM_4
100
AcDbPolyline
 90
        3
 70
     0
 43
0.0
 10
-0.2525907427704612
 20
6.207098608481666
 10
-0.2211588644235643
 20
6.163277328334818
 10
-0.1894430570778459
 20
6.116910879791051
  0
LINE
  5
CB
330
90
100
AcDbEntity
  8
AM_4
100
AcDbLine
 10
-0.2525907427704612
 20
6.207098608481666
 30
0.0
 11
-0.2525907427704612
 21
6.16616620817828
 31
0.0
  0
LWPOLYLINE
  5
CC
330
90
100
AcDbEntity
  8
AM_4
100
AcDbPolyline
 90
        3
 70
     0
 43
0.0
 10
-0.1894430570778459
 20
6.066910879791051
 10
-0.2210168999241536
 20
6.11546833445303
 10
-0.2525907427704612
 20
6.16616620817828
  0
LWPOLYLINE
  5
CD
330
90
100
AcDbEntity
  8
AM_4
100
AcDbPolyline
 90
        3
 70
     0
 43
0.0
 10
-0.1262953713852306
 20
5.976723151100435
 10
-0.1577272497321276
 20
6.020544431247282
 10
-0.1894430570778459
 20
6.066910879791051
  0
LINE
  5
CE
330
90
100
AcDbEntity
  8
AM_4
100
AcDbLine
 10
0.2525907427704612
 20
6.207098608481666
 30
0.0
 11
0.2525907427704612
 21
6.16616620817828
 31
0.0
  0
LWPOLYLINE
  5
CF
330
90
100
AcDbEntity
  8
AM_4
100
AcDbPolyline
 90
        3
 70
     0
 43
0.0
 10
0.1894430570778459
 20
6.116910879791051
 10
0.2210168999241536
 20
6.163074953667994
 10
0.2525907427704612
 20
6.207098608481666
  0
LWPOLYLINE
  5
D0
330
90
100
AcDbEntity
  8
AM_4
100
AcDbPolyline
 90
        3
 70
     0
 43
0.0
 10
0.1894430570778459
 20
6.066910879791051
 10
0.1578692142315383
 20
6.020746805914106
 10
0.1262953713852306
 20
5.976723151100435
  0
LWPOLYLINE
  5
D1
330
90
100
AcDbEntity
  8
AM_4
100
AcDbPolyline
 90
        3
 70
     0
 43
0.0
 10
0.2525907427704612
 20
6.16616620817828
 10
0.2211588644235643
 20
6.115691853284438
 10
0.1894430570778459
 20
6.066910879791051
  0
LWPOLYLINE
  5
D2
330
90
100
AcDbEntity
  8
AM_4
100
AcDbPolyline
 90
        3
 70
     0
 43
0.0
 10
0.1262953713852306
 20
6.01765555140382
 10
0.1577272497321276
 20
6.068129906297663
 10
0.1894430570778459
 20
6.116910879791051
  0
ELLIPSE
  5
D3
330
90
100
AcDbEntity
  8
AM_4
100
AcDbEllipse
 10
-0.0000000000000009
 20
6.211632408329974
 30
0.0
 11
0.2187500000000007
 21
0.0
 31
0.0
210
0.0
220
0.0
230
1.0
 40
0.8660254037844412
 41
4.71238898038469
 42
7.316155636794662
  0
LINE
  5
D4
330
90
100
AcDbEntity
  8
AM_4
100
AcDbLine
 10
0.1262953713852306
 20
6.01765555140382
 30
0.0
 11
0.1262953713852306
 21
5.976723151100435
 31
0.0
  0
LWPOLYLINE
  5
D5
330
90
100
AcDbEntity
  8
AM_4
100
AcDbPolyline
 90
        4
 70
     0
 43
0.0
 10
0.0
 20
6.022189351252127
 10
0.0483998160558989
 20
6.021480570893559
 10
0.0967996321117978
 20
6.019448144993206
 10
0.1262953713852306
 20
6.01765555140382
  0
LINE
  5
D6
330
90
100
AcDbEntity
  8
AM_4
100
AcDbLine
 10
-0.1262953713852306
 20
6.01765555140382
 30
0.0
 11
-0.1262953713852306
 21
5.976723151100435
 31
0.0
  0
LWPOLYLINE
  5
D7
330
90
100
AcDbEntity
  8
AM_4
100
AcDbPolyline
 90
        3
 70
     0
 43
0.0
 10
0.0
 20
5.972189351252127
 10
-0.0631476856926153
 20
5.973386041644645
 10
-0.1262953713852306
 20
5.976723151100435
  0
LWPOLYLINE
  5
D8
330
90
100
AcDbEntity
  8
AM_4
100
AcDbPolyline
 90
        4
 70
     0
 43
0.0
 10
0.1262953713852306
 20
5.976723151100435
 10
0.0967996321117978
 20
5.974930557511049
 10
0.0485424412477544
 20
5.972902265373663
 10
0.0
 20
5.972189351252127
  0
LWPOLYLINE
  5
D9
330
90
100
AcDbEntity
  8
AM_4
100
AcDbPolyline
 90
        3
 70
     0
 43
0.0
 10
-0.1894430570778459
 20
6.116910879791051
 10
-0.1578692142315383
 20
6.068353425129072
 10
-0.1262953713852306
 20
6.01765555140382
  0
LWPOLYLINE
  5
DA
330
90
100
AcDbEntity
  8
AM_4
100
AcDbPolyline
 90
        3
 70
     0
 43
0.0
 10
-0.1262953713852306
 20
6.01765555140382
 10
-0.0634316146914367
 20
6.020982088777317
 10
0.0
 20
6.022189351252127
  0
ELLIPSE
  5
DB
330
90
100
AcDbEntity
  8
AM_4
100
AcDbEllipse
 10
0.0000000000000046
 20
6.211632408329973
 30
0.0
 11
0.2137500000000045
 21
0.0
 31
0.0
210
0.0
220
0.0
230
1.0
 40
0.8660254037844395
 41
2.545573966250973
 42
3.141592653589793
  0
ELLIPSE
  5
DC
330
90
100
AcDbEntity
  8
AM_4
100
AcDbEllipse
 10
-0.0000000000000055
 20
6.211632408329971
 30
0.0
 11
0.2137499999999942
 21
0.0
 31
0.0
210
0.0
220
0.0
230
1.0
 40
0.8660254037844478
 41
2.155305801354283
 42
2.545573966250942
  0
ELLIPSE
  5
DD
330
90
100
AcDbEntity
  8
AM_4
100
AcDbEllipse
 10
-0.0000000000000105
 20
6.211632408329964
 30
0.0
 11
0.2137500000000159
 21
0.0
 31
0.0
210
0.0
220
0.0
230
1.0
 40
0.8660254037844307
 41
0.5738993399219083
 42
0.9862868522354754
  0
ELLIPSE
  5
DE
330
90
100
AcDbEntity
  8
AM_4
100
AcDbEllipse
 10
0.0000000000003277
 20
6.211632408329941
 30
0.0
 11
0.2137499999996159
 21
0.0
 31
0.0
210
0.0
220
0.0
230
1.0
 40
0.8660254037849417
 41
3.141592653589793
 42
6.857084647102189
  0
ELLIPSE
  5
DF
330
90
100
AcDbEntity
  8
AM_4
100
AcDbEllipse
 10
0.0000000000000042
 20
6.220791507600417
 30
0.0
 11
0.1725340532830194
 21
0.0
 31
0.0
210
0.0
220
0.0
230
1.0
 40
0.8660254037844307
 41
2.468322243441982
 42
3.141592653589793
  0
ELLIPSE
  5
E0
330
90
100
AcDbEntity
  8
AM_4
100
AcDbEllipse
 10
0.0000000000000001
 20
6.220791507600414
 30
0.0
 11
0.1725340532830157
 21
2.570957739398118E-9
 31
0.0
210
0.0
220
0.0
230
1.0
 40
0.8660254037844386
 41
3.141592638688632
 42
6.956455701793544
  0
ELLIPSE
  5
E1
330
90
100
AcDbEntity
  8
AM_4
100
AcDbEllipse
 10
0.0000000000000002
 20
6.24800896913926
 30
0.0
 11
0.1188200907348976
 21
0.0
 31
0.0
210
0.0
220
0.0
230
1.0
 40
0.866025403784432
 41
3.141592653589793
 42
6.335356749591085
  0
ELLIPSE
  5
E2
330
90
100
AcDbEntity
  8
AM_4
100
AcDbEllipse
 10
0.0000000000000343
 20
6.248008969139716
 30
0.0
 11
0.1188200907349319
 21
0.0
 31
0.0
210
0.0
220
0.0
230
1.0
 40
0.8660254037843245
 41
3.089421211182732
 42
3.141592653589793
  0
ELLIPSE
  5
E3
330
90
100
AcDbEntity
  8
AM_4
100
AcDbEllipse
 10
0.0
 20
6.264132408329973
 30
0.0
 11
0.1050000000000002
 21
0.0
 31
0.0
210
0.0
220
0.0
230
1.0
 40
0.8660254037844392
 41
3.566671979498079
 42
5.8581059812713
  0
LINE
  5
E4
330
90
100
AcDbEntity
  8
AM_4
100
AcDbLine
 10
0.0524999999999999
 20
6.200382408329973
 30
0.0
 11
0.0674999999999999
 21
6.207882408329973
 31
0.0
  0
LINE
  5
E5
330
90
100
AcDbEntity
  8
AM_4
100
AcDbLine
 10
-0.0674999999999999
 20
6.207882408329973
 30
0.0
 11
-0.0524999999999999
 21
6.200382408329973
 31
0.0
  0
ELLIPSE
  5
E6
330
90
100
AcDbEntity
  8
AM_4
100
AcDbEllipse
 10
0.0
 20
6.309132408329968
 30
0.0
 11
0.1349999999999952
 21
0.0
 31
0.0
210
0.0
220
0.0
230
1.0
 40
0.8660254037844355
 41
3.141592653589793
 42
5.235987755983007
  0
ELLIPSE
  5
E7
330
90
100
AcDbEntity
  8
AM_4
100
AcDbEllipse
 10
-0.0000000000000006
 20
6.309132408329972
 30
0.0
 11
0.1350000000000005
 21
0.0
 31
0.0
210
0.0
220
0.0
230
1.0
 40
0.8660254037844344
 41
5.235987755982992
 42
7.058294317894712
  0
ELLIPSE
  5
E8
330
90
100
AcDbEntity
  8
AM_4
100
AcDbEllipse
 10
0.0
 20
6.279132408329973
 30
0.0
 11
0.1050000000000002
 21
0.0
 31
0.0
210
0.0
220
0.0
230
1.0
 40
0.8660254037844392
 41
4.188790204786393
 42
5.235987755982985
  0
LINE
  5
E9
330
90
100
AcDbEntity
  8
AM_4
100
AcDbLine
 10
-0.0733474205218687
 20
6.41135925612208
 30
0.0
 11
-0.096436541690299
 21
6.390947719061592
 31
0.0
  0
LINE
  5
EA
330
90
100
AcDbEntity
  8
AM_4
100
AcDbLine
 10
0.096436541690299
 20
6.390947719061592
 30
0.0
 11
0.0733474205218687
 21
6.41135925612208
 31
0.0
  0
ELLIPSE
  5
EB
330
90
100
AcDbEntity
  8
AM_4
100
AcDbEllipse
 10
0.0000000000000017
 20
6.309132408329973
 30
0.0
 11
0.1350000000000017
 21
0.0
 31
0.0
210
0.0
220
0.0
230
1.0
 40
0.8660254037844334
 41
2.366483642874679
 42
3.141592653589793
  0
ELLIPSE
  5
EC
330
90
100
AcDbEntity
  8
AM_4
100
AcDbEllipse
 10
-0.0000000000000003
 20
6.349132408329973
 30
0.0
 11
0.1026779019331875
 21
0.0
 31
0.0
210
0.0
220
0.0
230
1.0
 40
0.8660254037844395
 41
0.0
 42
6.283185307179586
  0
ENDBLK
  5
93
330
90
100
AcDbEntity
  8
0
100
AcDbBlockEnd
  0
BLOCK
  5
EF
330
ED
100
AcDbEntity
  8
0
100
AcDbBlockBegin
  2
3_ASME_B18_3_1_4_1_0_in_071285_0
 70
     2
 10
0.0
 20
0.0
 30
0.0
  3
3_ASME_B18_3_1_4_1_0_in_071285_0
  1

  0
ATTDEF
  5
F1
330
ED
100
AcDbEntity
  8
AM_6
100
AcDbText
 10
5.229425
 20
-2.640875000000001
 30
0.0
 40
0.5
  1
ANSI/ASME B18.3-1998
100
AcDbAttributeDefinition
  3

  2
NN
 70
     8
280
     0
  0
ATTDEF
  5
F2
330
ED
100
AcDbEntity
  8
AM_6
100
AcDbText
 10
5.229425
 20
-3.140875000000001
 30
0.0
 40
0.5
  1
Socket Button Head Cap Screws
100
AcDbAttributeDefinition
  3

  2
NT
 70
     8
280
     0
  0
ATTDEF
  5
F3
330
ED
100
AcDbEntity
  8
AM_6
100
AcDbText
 10
5.229425
 20
-3.640875000000001
 30
0.0
 40
0.5
  1
ASME B18.3-1/4
100
AcDbAttributeDefinition
  3

  2
NB
 70
     8
280
     0
  0
ATTDEF
  5
F4
330
ED
100
AcDbEntity
  8
AM_6
100
AcDbText
 10
5.229425
 20
-4.140875000000001
 30
0.0
 40
0.5
  1
ASME B18.3-$NS.
100
AcDbAttributeDefinition
  3

  2
NBSYN
 70
     8
280
     0
  0
ATTDEF
  5
F5
330
ED
100
AcDbEntity
  8
AM_6
100
AcDbText
 10
5.229425
 20
-4.640875000000001
 30
0.0
 40
0.5
  1
ASME B18.3-1/4
100
AcDbAttributeDefinition
  3

  2
LINA
 70
     8
280
     0
  0
ATTDEF
  5
F6
330
ED
100
AcDbEntity
  8
AM_6
100
AcDbText
 10
5.229425
 20
-5.140875000000001
 30
0.0
 40
0.5
  1
1/4
100
AcDbAttributeDefinition
  3

  2
NS
 70
     8
280
     0
  0
ATTDEF
  5
F7
330
ED
100
AcDbEntity
  8
AM_6
100
AcDbText
 10
5.229425
 20
-5.640875000000001
 30
0.0
 40
0.5
  1
0.437
100
AcDbAttributeDefinition
  3

  2
A
 70
     8
280
     0
  0
ATTDEF
  5
F8
330
ED
100
AcDbEntity
  8
AM_6
100
AcDbText
 10
5.229425
 20
-6.140875000000001
 30
0.0
 40
0.5
  1
0.132
100
AcDbAttributeDefinition
  3

  2
H
 70
     8
280
     0
  0
ATTDEF
  5
F9
330
ED
100
AcDbEntity
  8
AM_6
100
AcDbText
 10
5.229425
 20
-6.640875000000001
 30
0.0
 40
0.5
  1
0.800
100
AcDbAttributeDefinition
  3

  2
L
 70
     8
280
     0
  0
ATTDEF
  5
FA
330
ED
100
AcDbEntity
  8
AM_6
100
AcDbText
 10
5.229425
 20
-7.140875000000001
 30
0.0
 40
0.5
  1
0.031
100
AcDbAttributeDefinition
  3

  2
S
 70
     8
280
     0
  0
ATTDEF
  5
FB
330
ED
100
AcDbEntity
  8
AM_6
100
AcDbText
 10
5.229425
 20
-7.640875000000001
 30
0.0
 40
0.5
  1
0.156250
100
AcDbAttributeDefinition
  3

  2
J
 70
     8
280
     0
  0
ATTDEF
  5
FC
330
ED
100
AcDbEntity
  8
AM_6
100
AcDbText
 10
5.229425
 20
-8.140875000000001
 30
0.0
 40
0.5
  1
baldor
100
AcDbAttributeDefinition
  3

  2
COMPANY
 70
     8
280
     0
  0
ARC
  5
FE
330
ED
100
AcDbEntity
  8
AM_5
100
AcDbCircle
 10
0.000000000000001
 20
-2.859375
 30
0.0
 40
0.09525
100
AcDbArc
 50
75.00000000000023
 51
15.00000000000036
  0
LINE
  5
101
330
ED
100
AcDbEntity
  8
AM_7
100
AcDbLine
 10
-0.2294249999999997
 20
-2.859375
 30
0.0
 11
0.2294249999999997
 21
-2.859375
 31
0.0
  0
LINE
  5
102
330
ED
100
AcDbEntity
  8
AM_4
100
AcDbLine
 10
0.0
 20
-2.949585979560879
 30
0.0
 11
-0.078125
 21
-2.90448048978044
 31
0.0
  0
LINE
  5
103
330
ED
100
AcDbEntity
  8
AM_4
100
AcDbLine
 10
-0.078125
 20
-2.90448048978044
 30
0.0
 11
-0.078125
 21
-2.81426951021956
 31
0.0
  0
LINE
  5
104
330
ED
100
AcDbEntity
  8
AM_4
100
AcDbLine
 10
0.078125
 20
-2.81426951021956
 30
0.0
 11
0.078125
 21
-2.90448048978044
 31
0.0
  0
LINE
  5
105
330
ED
100
AcDbEntity
  8
AM_4
100
AcDbLine
 10
0.078125
 20
-2.90448048978044
 30
0.0
 11
0.0
 21
-2.949585979560879
 31
0.0
  0
LINE
  5
106
330
ED
100
AcDbEntity
  8
AM_4
100
AcDbLine
 10
-0.078125
 20
-2.81426951021956
 30
0.0
 11
0.0
 21
-2.769164020439121
 31
0.0
  0
LINE
  5
107
330
ED
100
AcDbEntity
  8
AM_4
100
AcDbLine
 10
0.0
 20
-2.769164020439121
 30
0.0
 11
0.078125
 21
-2.81426951021956
 31
0.0
  0
CIRCLE
  5
108
330
ED
100
AcDbEntity
  8
AM_4
100
AcDbCircle
 10
0.0
 20
-2.859375
 30
0.0
 40
0.1175
  0
ARC
  5
109
330
ED
100
AcDbEntity
  8
AM_5
100
AcDbCircle
 10
0.0000000000000003
 20
-2.859375
 30
0.0
 40
0.1064
100
AcDbArc
 50
75.00000000000023
 51
15.00000000000024
  0
ARC
  5
10A
330
ED
100
AcDbEntity
  8
AM_5
100
AcDbCircle
 10
-0.0000000000000001
 20
-2.859375
 30
0.0
 40
0.1063999999999999
100
AcDbArc
 50
14.99999999999992
 51
194.9999999999999
  0
ARC
  5
10B
330
ED
100
AcDbEntity
  8
AM_5
100
AcDbCircle
 10
0.0
 20
-2.859375
 30
0.0
 40
0.09525
100
AcDbArc
 50
345.0
 51
285.0
  0
CIRCLE
  5
10C
330
ED
100
AcDbEntity
  8
AM_4
100
AcDbCircle
 10
0.0
 20
-2.859375
 30
0.0
 40
0.2184999999999997
  0
ENDBLK
  5
F0
330
ED
100
AcDbEntity
  8
0
100
AcDbBlockEnd
  0
BLOCK
  5
10F
330
10D
100
AcDbEntity
  8
0
100
AcDbBlockBegin
  2
4_ASME_B18_3_1_4_2_0_in_071285_0
 70
     2
 10
0.0
 20
0.0
 30
0.0
  3
4_ASME_B18_3_1_4_2_0_in_071285_0
  1

  0
ATTDEF
  5
111
330
10D
100
AcDbEntity
  8
AM_6
100
AcDbText
 10
5.229425
 20
3.077875000000001
 30
0.0
 40
0.5
  1
ANSI/ASME B18.3-1998
100
AcDbAttributeDefinition
  3

  2
NN
 70
     8
280
     0
  0
ATTDEF
  5
112
330
10D
100
AcDbEntity
  8
AM_6
100
AcDbText
 10
5.229425
 20
2.577875000000001
 30
0.0
 40
0.5
  1
Socket Button Head Cap Screws
100
AcDbAttributeDefinition
  3

  2
NT
 70
     8
280
     0
  0
ATTDEF
  5
113
330
10D
100
AcDbEntity
  8
AM_6
100
AcDbText
 10
5.229425
 20
2.077875000000001
 30
0.0
 40
0.5
  1
ASME B18.3-1/4
100
AcDbAttributeDefinition
  3

  2
NB
 70
     8
280
     0
  0
ATTDEF
  5
114
330
10D
100
AcDbEntity
  8
AM_6
100
AcDbText
 10
5.229425
 20
1.577875000000001
 30
0.0
 40
0.5
  1
ASME B18.3-$NS.
100
AcDbAttributeDefinition
  3

  2
NBSYN
 70
     8
280
     0
  0
ATTDEF
  5
115
330
10D
100
AcDbEntity
  8
AM_6
100
AcDbText
 10
5.229425
 20
1.077875000000001
 30
0.0
 40
0.5
  1
ASME B18.3-1/4
100
AcDbAttributeDefinition
  3

  2
LINA
 70
     8
280
     0
  0
ATTDEF
  5
116
330
10D
100
AcDbEntity
  8
AM_6
100
AcDbText
 10
5.229425
 20
0.5778750000000006
 30
0.0
 40
0.5
  1
1/4
100
AcDbAttributeDefinition
  3

  2
NS
 70
     8
280
     0
  0
ATTDEF
  5
117
330
10D
100
AcDbEntity
  8
AM_6
100
AcDbText
 10
5.229425
 20
0.0778750000000006
 30
0.0
 40
0.5
  1
0.437
100
AcDbAttributeDefinition
  3

  2
A
 70
     8
280
     0
  0
ATTDEF
  5
118
330
10D
100
AcDbEntity
  8
AM_6
100
AcDbText
 10
5.229425
 20
-0.4221249999999994
 30
0.0
 40
0.5
  1
0.132
100
AcDbAttributeDefinition
  3

  2
H
 70
     8
280
     0
  0
ATTDEF
  5
119
330
10D
100
AcDbEntity
  8
AM_6
100
AcDbText
 10
5.229425
 20
-0.9221249999999994
 30
0.0
 40
0.5
  1
0.800
100
AcDbAttributeDefinition
  3

  2
L
 70
     8
280
     0
  0
ATTDEF
  5
11A
330
10D
100
AcDbEntity
  8
AM_6
100
AcDbText
 10
5.229425
 20
-1.422124999999999
 30
0.0
 40
0.5
  1
0.031
100
AcDbAttributeDefinition
  3

  2
S
 70
     8
280
     0
  0
ATTDEF
  5
11B
330
10D
100
AcDbEntity
  8
AM_6
100
AcDbText
 10
5.229425
 20
-1.922124999999999
 30
0.0
 40
0.5
  1
0.156250
100
AcDbAttributeDefinition
  3

  2
J
 70
     8
280
     0
  0
ATTDEF
  5
11C
330
10D
100
AcDbEntity
  8
AM_6
100
AcDbText
 10
5.229425
 20
-2.422124999999999
 30
0.0
 40
0.5
  1
baldor
100
AcDbAttributeDefinition
  3

  2
COMPANY
 70
     8
280
     0
  0
ARC
  5
11D
330
10D
100
AcDbEntity
  8
AM_5
100
AcDbCircle
 10
-0.0000000000000001
 20
2.859375
 30
0.0
 40
0.0952500000000001
100
AcDbArc
 50
75.00000000000001
 51
15.00000000000007
  0
LINE
  5
11E
330
10D
100
AcDbEntity
  8
AM_7
100
AcDbLine
 10
-0.2294250000000001
 20
2.859375
 30
0.0
 11
0.2294250000000002
 21
2.859375
 31
0.0
  0
LINE
  5
11F
330
10D
100
AcDbEntity
  8
AM_4
100
AcDbLine
 10
0.0
 20
2.769164020439121
 30
0.0
 11
-0.078125
 21
2.81426951021956
 31
0.0
  0
CIRCLE
  5
120
330
10D
100
AcDbEntity
  8
AM_4
100
AcDbCircle
 10
0.0
 20
2.859375
 30
0.0
 40
0.1175
  0
LINE
  5
121
330
10D
100
AcDbEntity
  8
AM_4
100
AcDbLine
 10
-0.078125
 20
2.81426951021956
 30
0.0
 11
-0.078125
 21
2.90448048978044
 31
0.0
  0
LINE
  5
122
330
10D
100
AcDbEntity
  8
AM_4
100
AcDbLine
 10
-0.078125
 20
2.90448048978044
 30
0.0
 11
0.0
 21
2.949585979560879
 31
0.0
  0
LINE
  5
123
330
10D
100
AcDbEntity
  8
AM_4
100
AcDbLine
 10
0.0
 20
2.949585979560879
 30
0.0
 11
0.078125
 21
2.90448048978044
 31
0.0
  0
LINE
  5
124
330
10D
100
AcDbEntity
  8
AM_4
100
AcDbLine
 10
0.078125
 20
2.90448048978044
 30
0.0
 11
0.078125
 21
2.81426951021956
 31
0.0
  0
LINE
  5
125
330
10D
100
AcDbEntity
  8
AM_4
100
AcDbLine
 10
0.078125
 20
2.81426951021956
 30
0.0
 11
0.0
 21
2.769164020439121
 31
0.0
  0
ARC
  5
126
330
10D
100
AcDbEntity
  8
AM_5
100
AcDbCircle
 10
-0.0000000000000001
 20
2.859375000000001
 30
0.0
 40
0.1063999999999996
100
AcDbArc
 50
74.99999999999991
 51
14.9999999999997
  0
ARC
  5
127
330
10D
100
AcDbEntity
  8
AM_5
100
AcDbCircle
 10
0.0000000000000001
 20
2.859375
 30
0.0
 40
0.1063999999999998
100
AcDbArc
 50
15.00000000000021
 51
194.9999999999999
  0
ARC
  5
128
330
10D
100
AcDbEntity
  8
AM_5
100
AcDbCircle
 10
0.0
 20
2.859375
 30
0.0
 40
0.09525
100
AcDbArc
 50
345.0
 51
285.0
  0
CIRCLE
  5
129
330
10D
100
AcDbEntity
  8
AM_4
100
AcDbCircle
 10
0.0
 20
2.859375
 30
0.0
 40
0.2185000000000001
  0
ENDBLK
  5
110
330
10D
100
AcDbEntity
  8
0
100
AcDbBlockEnd
  0
BLOCK
  5
12C
330
12A
100
AcDbEntity
  8
0
100
AcDbBlockBegin
  2
5_070909LWE_0_in_071285_0
 70
     2
 10
0.0
 20
0.0
 30
0.0
  3
5_070909LWE_0_in_071285_0
  1

  0
ATTDEF
  5
12E
330
12A
100
AcDbEntity
  8
AM_6
100
AcDbText
 10
8.22
 20
3.22
 30
0.0
 40
0.5
  1
Imperial/E Insert Lockwasher -Inch
100
AcDbAttributeDefinition
  3

  2
NN
 70
     8
280
     0
  0
ATTDEF
  5
12F
330
12A
100
AcDbEntity
  8
AM_6
100
AcDbText
 10
8.22
 20
2.72
 30
0.0
 40
0.5
  1
Imperial/E Bearings
100
AcDbAttributeDefinition
  3

  2
NT
 70
     8
280
     0
  0
ATTDEF
  5
130
330
12A
100
AcDbEntity
  8
AM_6
100
AcDbText
 10
8.22
 20
2.22
 30
0.0
 40
0.5
  1
070909LWE
100
AcDbAttributeDefinition
  3

  2
NB
 70
     8
280
     0
  0
ATTDEF
  5
131
330
12A
100
AcDbEntity
  8
AM_6
100
AcDbText
 10
8.22
 20
1.72
 30
0.0
 40
0.5
  1
$PN.LWE
100
AcDbAttributeDefinition
  3

  2
NBSYN
 70
     8
280
     0
  0
ATTDEF
  5
132
330
12A
100
AcDbEntity
  8
AM_6
100
AcDbText
 10
8.22
 20
1.22
 30
0.0
 40
0.5
  1
070909
100
AcDbAttributeDefinition
  3

  2
LINA
 70
     8
280
     0
  0
ATTDEF
  5
133
330
12A
100
AcDbEntity
  8
AM_6
100
AcDbText
 10
8.22
 20
0.7200000000000002
 30
0.0
 40
0.5
  1
4-1/2
100
AcDbAttributeDefinition
  3

  2
SS
 70
     8
280
     0
  0
ATTDEF
  5
134
330
12A
100
AcDbEntity
  8
AM_6
100
AcDbText
 10
8.22
 20
0.2200000000000002
 30
0.0
 40
0.5
  1
6.440000
100
AcDbAttributeDefinition
  3

  2
E1
 70
     8
280
     0
  0
ATTDEF
  5
135
330
12A
100
AcDbEntity
  8
AM_6
100
AcDbText
 10
8.22
 20
-0.2799999999999998
 30
0.0
 40
0.5
  1
4.500000
100
AcDbAttributeDefinition
  3

  2
SS1
 70
     8
280
     0
  0
ATTDEF
  5
136
330
12A
100
AcDbEntity
  8
AM_6
100
AcDbText
 10
8.22
 20
-0.7799999999999998
 30
0.0
 40
0.5
  1
070909
100
AcDbAttributeDefinition
  3

  2
PN
 70
     8
280
     0
  0
ATTDEF
  5
137
330
12A
100
AcDbEntity
  8
AM_6
100
AcDbText
 10
8.22
 20
-1.28
 30
0.0
 40
0.5
  1
INS-IP-408R
100
AcDbAttributeDefinition
  3

  2
DESCRIPTION
 70
     8
280
     0
  0
ATTDEF
  5
138
330
12A
100
AcDbEntity
  8
AM_6
100
AcDbText
 10
8.22
 20
-1.78
 30
0.0
 40
0.5
  1
7.8740
100
AcDbAttributeDefinition
  3

  2
A
 70
     8
280
     0
  0
ATTDEF
  5
139
330
12A
100
AcDbEntity
  8
AM_6
100
AcDbText
 10
8.22
 20
-2.28
 30
0.0
 40
0.5
  1
2-5/32
100
AcDbAttributeDefinition
  3

  2
B
 70
     8
280
     0
  0
ATTDEF
  5
13A
330
12A
100
AcDbEntity
  8
AM_6
100
AcDbText
 10
8.22
 20
-2.78
 30
0.0
 40
0.5
  1
2.156250
100
AcDbAttributeDefinition
  3

  2
B1
 70
     8
280
     0
  0
ATTDEF
  5
13B
330
12A
100
AcDbEntity
  8
AM_6
100
AcDbText
 10
8.22
 20
-3.28
 30
0.0
 40
0.5
  1
5-15/64
100
AcDbAttributeDefinition
  3

  2
C
 70
     8
280
     0
  0
ATTDEF
  5
13C
330
12A
100
AcDbEntity
  8
AM_6
100
AcDbText
 10
8.22
 20
-3.78
 30
0.0
 40
0.5
  1
5.234375
100
AcDbAttributeDefinition
  3

  2
C1
 70
     8
280
     0
  0
ATTDEF
  5
13D
330
12A
100
AcDbEntity
  8
AM_6
100
AcDbText
 10
8.22
 20
-4.279999999999999
 30
0.0
 40
0.5
  1
1.935
100
AcDbAttributeDefinition
  3

  2
D
 70
     8
280
     0
  0
ATTDEF
  5
13E
330
12A
100
AcDbEntity
  8
AM_6
100
AcDbText
 10
8.22
 20
-4.779999999999999
 30
0.0
 40
0.5
  1
6-7/16
100
AcDbAttributeDefinition
  3

  2
E
 70
     8
280
     0
  0
ATTDEF
  5
13F
330
12A
100
AcDbEntity
  8
AM_6
100
AcDbText
 10
8.22
 20
-5.279999999999999
 30
0.0
 40
0.5
  1
0.2500
100
AcDbAttributeDefinition
  3

  2
NDM
 70
     8
280
     0
  0
ATTDEF
  5
140
330
12A
100
AcDbEntity
  8
AM_6
100
AcDbText
 10
8.22
 20
-5.779999999999999
 30
0.0
 40
0.5
  1
0.1960
100
AcDbAttributeDefinition
  3

  2
KDM
 70
     8
280
     0
  0
ATTDEF
  5
141
330
12A
100
AcDbEntity
  8
AM_6
100
AcDbText
 10
8.22
 20
-6.279999999999999
 30
0.0
 40
0.5
  1
5.60
100
AcDbAttributeDefinition
  3

  2
AL
 70
     8
280
     0
  0
ATTDEF
  5
142
330
12A
100
AcDbEntity
  8
AM_6
100
AcDbText
 10
8.22
 20
-6.779999999999999
 30
0.0
 40
0.5
  1
0.50
100
AcDbAttributeDefinition
  3

  2
BL
 70
     8
280
     0
  0
ATTDEF
  5
143
330
12A
100
AcDbEntity
  8
AM_6
100
AcDbText
 10
8.22
 20
-7.279999999999999
 30
0.0
 40
0.5
  1
0.07
100
AcDbAttributeDefinition
  3

  2
CL
 70
     8
280
     0
  0
ATTDEF
  5
144
330
12A
100
AcDbEntity
  8
AM_6
100
AcDbText
 10
8.22
 20
-7.779999999999999
 30
0.0
 40
0.5
  1
0.50
100
AcDbAttributeDefinition
  3

  2
DL
 70
     8
280
     0
  0
ATTDEF
  5
145
330
12A
100
AcDbEntity
  8
AM_6
100
AcDbText
 10
8.22
 20
-8.28
 30
0.0
 40
0.5
  1
baldor
100
AcDbAttributeDefinition
  3

  2
COMPANY
 70
     8
280
     0
  0
ARC
  5
146
330
12A
100
AcDbEntity
  8
AM_9
100
AcDbCircle
 10
0.0000000000001485
 20
-0.0000000000003761
 30
0.0
 40
2.368421052631984
100
AcDbArc
 50
109.4746504557748
 51
115.5253495442248
  0
LINE
  5
147
330
12A
100
AcDbEntity
  8
AM_9
100
AcDbLine
 10
0.125000000000001
 20
-2.680162137738387
 30
0.0
 11
0.1250000000000007
 21
-2.860000000000002
 31
0.0
  0
ARC
  5
148
330
12A
100
AcDbEntity
  8
AM_9
100
AcDbCircle
 10
0.0000000000000012
 20
-2.860029868905676
 30
0.0
 40
0.1250000035686055
100
AcDbArc
 50
179.9863091023891
 51
0.0136908976108939
  0
LINE
  5
149
330
12A
100
AcDbEntity
  8
AM_9
100
AcDbLine
 10
-0.1249999999999983
 20
-2.860000000000002
 30
0.0
 11
-0.1249999999999986
 21
-2.680162137738386
 31
0.0
  0
LINE
  5
14A
330
12A
100
AcDbEntity
  8
AM_9
100
AcDbLine
 10
-0.1249999999999996
 20
2.680162137738387
 30
0.0
 11
-0.1249999999999996
 21
2.860000000000002
 31
0.0
  0
ARC
  5
14B
330
12A
100
AcDbEntity
  8
AM_9
100
AcDbCircle
 10
0.0
 20
2.860029868905676
 30
0.0
 40
0.1250000035686057
100
AcDbArc
 50
359.9863091023626
 51
180.0136908976375
  0
LINE
  5
14C
330
12A
100
AcDbEntity
  8
AM_9
100
AcDbLine
 10
0.1249999999999996
 20
2.860000000000002
 30
0.0
 11
0.1249999999999998
 21
2.680162137738387
 31
0.0
  0
LINE
  5
14D
330
12A
100
AcDbEntity
  8
AM_7
100
AcDbLine
 10
-0.1312500037470342
 20
-2.860029868905677
 30
0.0
 11
0.1312500037470367
 21
-2.860029868905677
 31
0.0
  0
LINE
  5
14E
330
12A
100
AcDbEntity
  8
AM_7
100
AcDbLine
 10
2.860029868905677
 20
-0.1312500037470348
 30
0.0
 11
2.860029868905677
 21
0.1312500037470361
 31
0.0
  0
LINE
  5
14F
330
12A
100
AcDbEntity
  8
AM_7
100
AcDbLine
 10
-0.1312500037470359
 20
2.860029868905677
 30
0.0
 11
0.1312500037470359
 21
2.860029868905677
 31
0.0
  0
LINE
  5
150
330
12A
100
AcDbEntity
  8
AM_7
100
AcDbLine
 10
1.891096510952241
 20
-2.022346514699276
 30
0.0
 11
2.153596518446314
 21
-2.022346514699276
 31
0.0
  0
LINE
  5
151
330
12A
100
AcDbEntity
  8
AM_7
100
AcDbLine
 10
2.022346514699277
 20
-2.153596518446313
 30
0.0
 11
2.022346514699277
 21
-1.89109651095224
 31
0.0
  0
LINE
  5
152
330
12A
100
AcDbEntity
  8
AM_7
100
AcDbLine
 10
1.891096510952241
 20
2.022346514699277
 30
0.0
 11
2.153596518446313
 21
2.022346514699277
 31
0.0
  0
LINE
  5
153
330
12A
100
AcDbEntity
  8
AM_7
100
AcDbLine
 10
2.022346514699277
 20
1.891096510952241
 30
0.0
 11
2.022346514699277
 21
2.153596518446313
 31
0.0
  0
LINE
  5
154
330
12A
100
AcDbEntity
  8
AM_7
100
AcDbLine
 10
-2.153596518446312
 20
2.022346514699277
 30
0.0
 11
-1.89109651095224
 21
2.022346514699277
 31
0.0
  0
LINE
  5
155
330
12A
100
AcDbEntity
  8
AM_7
100
AcDbLine
 10
-2.022346514699276
 20
1.891096510952241
 30
0.0
 11
-2.022346514699276
 21
2.153596518446313
 31
0.0
  0
LINE
  5
156
330
12A
100
AcDbEntity
  8
AM_7
100
AcDbLine
 10
-2.153596518446312
 20
-2.022346514699278
 30
0.0
 11
-1.89109651095224
 21
-2.022346514699278
 31
0.0
  0
LINE
  5
157
330
12A
100
AcDbEntity
  8
AM_7
100
AcDbLine
 10
-2.022346514699276
 20
-2.153596518446314
 30
0.0
 11
-2.022346514699276
 21
-1.891096510952242
 31
0.0
  0
LINE
  5
158
330
12A
100
AcDbEntity
  8
AM_7
100
AcDbLine
 10
-2.860029868905677
 20
-0.1312500037470375
 30
0.0
 11
-2.860029868905677
 21
0.1312500037470342
 31
0.0
  0
LINE
  5
159
330
12A
100
AcDbEntity
  8
AM_4
100
AcDbLine
 10
-1.045106616495525
 20
2.19646982645026
 30
0.0
 11
-1.020577235173433
 21
2.137250661385844
 31
0.0
  0
ARC
  5
15A
330
12A
100
AcDbEntity
  8
AM_4
100
AcDbCircle
 10
-0.0000000000000071
 20
-0.0000000000000011
 30
0.0
 40
2.432432432432425
100
AcDbArc
 50
182.9456639122617
 51
222.0543360877383
  0
LINE
  5
15B
330
12A
100
AcDbEntity
  8
AM_4
100
AcDbLine
 10
2.429218503623987
 20
0.1250000000000018
 30
0.0
 11
2.860000000000002
 21
0.1250000000000002
 31
0.0
  0
LINE
  5
15C
330
12A
100
AcDbEntity
  8
AM_4
100
AcDbLine
 10
-0.7896073520456112
 20
2.232921519477117
 30
0.0
 11
-0.8141367333677032
 21
2.292140684541533
 31
0.0
  0
ARC
  5
15D
330
12A
100
AcDbEntity
  8
AM_4
100
AcDbCircle
 10
2.860029868905676
 20
0.0000000000000007
 30
0.0
 40
0.1250000035686055
100
AcDbArc
 50
269.9863091023899
 51
90.01369089761005
  0
ARC
  5
15E
330
12A
100
AcDbEntity
  8
AM_4
100
AcDbCircle
 10
-0.0000000000000029
 20
0.0000000000000142
 30
0.0
 40
2.432432432432418
100
AcDbArc
 50
92.94566391226178
 51
109.5543360877382
  0
LINE
  5
15F
330
12A
100
AcDbEntity
  8
AM_4
100
AcDbLine
 10
1.629328529248035
 20
1.806105224544682
 30
0.0
 11
1.933937046545209
 21
2.110713741841845
 31
0.0
  0
ARC
  5
160
330
12A
100
AcDbEntity
  8
AM_4
100
AcDbCircle
 10
2.022346514699276
 20
2.022346514699276
 30
0.0
 40
0.125000003568606
100
AcDbArc
 50
314.9863091023898
 51
135.0136908976102
  0
LINE
  5
161
330
12A
100
AcDbEntity
  8
AM_4
100
AcDbLine
 10
2.110713741841845
 20
1.933937046545209
 30
0.0
 11
1.806105224544676
 21
1.62932852924804
 31
0.0
  0
ARC
  5
162
330
12A
100
AcDbEntity
  8
AM_4
100
AcDbCircle
 10
0.0000000000000089
 20
0.0000000000000021
 30
0.0
 40
2.432432432432424
100
AcDbArc
 50
2.94566391226186
 51
42.05433608773826
  0
LINE
  5
163
330
12A
100
AcDbEntity
  8
AM_4
100
AcDbLine
 10
2.860000000000002
 20
-0.1249999999999988
 30
0.0
 11
2.429218503623987
 21
-0.1249999999999996
 31
0.0
  0
ARC
  5
164
330
12A
100
AcDbEntity
  8
AM_4
100
AcDbCircle
 10
0.0000000000000004
 20
0.0
 30
0.0
 40
2.432432432432432
100
AcDbArc
 50
317.9456639122618
 51
357.0543360877382
  0
LINE
  5
165
330
12A
100
AcDbEntity
  8
AM_4
100
AcDbLine
 10
1.806105224544678
 20
-1.629328529248039
 30
0.0
 11
2.110713741841846
 21
-1.933937046545208
 31
0.0
  0
ARC
  5
166
330
12A
100
AcDbEntity
  8
AM_4
100
AcDbCircle
 10
2.022346514699278
 20
-2.022346514699276
 30
0.0
 40
0.1250000035686061
100
AcDbArc
 50
224.9863091023889
 51
45.0136908976107
  0
LINE
  5
167
330
12A
100
AcDbEntity
  8
AM_4
100
AcDbLine
 10
1.933937046545208
 20
-2.110713741841844
 30
0.0
 11
1.62932852924804
 21
-1.806105224544676
 31
0.0
  0
ARC
  5
168
330
12A
100
AcDbEntity
  8
AM_4
100
AcDbCircle
 10
-0.0000000000000022
 20
0.0
 30
0.0
 40
2.432432432432433
100
AcDbArc
 50
272.945663912262
 51
312.0543360877382
  0
LINE
  5
169
330
12A
100
AcDbEntity
  8
AM_4
100
AcDbLine
 10
0.1250000000000022
 20
-2.429218503623987
 30
0.0
 11
0.125000000000001
 21
-2.680162137738387
 31
0.0
  0
LINE
  5
16A
330
12A
100
AcDbEntity
  8
AM_4
100
AcDbLine
 10
-0.1249999999999986
 20
-2.680162137738386
 30
0.0
 11
-0.1249999999999987
 21
-2.429218503623987
 31
0.0
  0
ARC
  5
16B
330
12A
100
AcDbEntity
  8
AM_4
100
AcDbCircle
 10
0.0000000000000036
 20
0.0000000000000071
 30
0.0
 40
2.43243243243244
100
AcDbArc
 50
227.9456639122618
 51
267.054336087738
  0
LINE
  5
16C
330
12A
100
AcDbEntity
  8
AM_4
100
AcDbLine
 10
-1.629328529248042
 20
-1.806105224544676
 30
0.0
 11
-1.933937046545208
 21
-2.110713741841846
 31
0.0
  0
ARC
  5
16D
330
12A
100
AcDbEntity
  8
AM_4
100
AcDbCircle
 10
-2.022346514699275
 20
-2.022346514699278
 30
0.0
 40
0.1250000035686061
100
AcDbArc
 50
134.9863091023894
 51
315.0136908976104
  0
LINE
  5
16E
330
12A
100
AcDbEntity
  8
AM_4
100
AcDbLine
 10
-2.110713741841844
 20
-1.93393704654521
 30
0.0
 11
-1.806105224544676
 21
-1.62932852924804
 31
0.0
  0
LINE
  5
16F
330
12A
100
AcDbEntity
  8
AM_4
100
AcDbLine
 10
-2.429218503623987
 20
-0.1250000000000021
 30
0.0
 11
-2.860000000000002
 21
-0.1250000000000015
 31
0.0
  0
ARC
  5
170
330
12A
100
AcDbEntity
  8
AM_4
100
AcDbCircle
 10
-2.860029868905676
 20
-0.0000000000000016
 30
0.0
 40
0.1250000035686059
100
AcDbArc
 50
89.98630910239017
 51
270.0136908976099
  0
LINE
  5
171
330
12A
100
AcDbEntity
  8
AM_4
100
AcDbLine
 10
-2.860000000000002
 20
0.1249999999999983
 30
0.0
 11
-2.429218503623987
 21
0.1249999999999984
 31
0.0
  0
ARC
  5
172
330
12A
100
AcDbEntity
  8
AM_4
100
AcDbCircle
 10
-0.0000000000000155
 20
0.0000000000000062
 30
0.0
 40
2.432432432432416
100
AcDbArc
 50
137.9456639122617
 51
177.0543360877384
  0
LINE
  5
173
330
12A
100
AcDbEntity
  8
AM_4
100
AcDbLine
 10
-1.806105224544677
 20
1.62932852924804
 30
0.0
 11
-2.110713741841845
 21
1.933937046545209
 31
0.0
  0
ARC
  5
174
330
12A
100
AcDbEntity
  8
AM_4
100
AcDbCircle
 10
-2.022346514699276
 20
2.022346514699277
 30
0.0
 40
0.1250000035686063
100
AcDbArc
 50
44.98630910238939
 51
225.0136908976104
  0
LINE
  5
175
330
12A
100
AcDbEntity
  8
AM_4
100
AcDbLine
 10
-1.933937046545208
 20
2.110713741841845
 30
0.0
 11
-1.629328529248039
 21
1.806105224544677
 31
0.0
  0
ARC
  5
176
330
12A
100
AcDbEntity
  8
AM_4
100
AcDbCircle
 10
0.0000000000000233
 20
-0.0000000000000271
 30
0.0
 40
2.432432432432467
100
AcDbArc
 50
115.445663912262
 51
132.0543360877381
  0
ARC
  5
177
330
12A
100
AcDbEntity
  8
AM_4
100
AcDbCircle
 10
0.0000000000002226
 20
-0.0000000000005445
 30
0.0
 40
2.250000000000587
100
AcDbArc
 50
109.3152614632804
 51
115.6847385367195
  0
LINE
  5
178
330
12A
100
AcDbEntity
  8
AM_4
100
AcDbLine
 10
-0.125
 20
2.429218503623987
 30
0.0
 11
-0.1249999999999996
 21
2.680162137738387
 31
0.0
  0
LINE
  5
179
330
12A
100
AcDbEntity
  8
AM_4
100
AcDbLine
 10
0.1249999999999998
 20
2.680162137738387
 30
0.0
 11
0.125
 21
2.429218503623987
 31
0.0
  0
ARC
  5
17A
330
12A
100
AcDbEntity
  8
AM_4
100
AcDbCircle
 10
0.0000000000000009
 20
0.0000000000000053
 30
0.0
 40
2.432432432432428
100
AcDbArc
 50
47.94566391226196
 51
87.05433608773818
  0
CIRCLE
  5
17B
330
12A
100
AcDbEntity
  8
AM_4
100
AcDbCircle
 10
0.0
 20
0.0
 30
0.0
 40
3.22
  0
ENDBLK
  5
12D
330
12A
100
AcDbEntity
  8
0
100
AcDbBlockEnd
  0
BLOCK
  5
17E
330
17C
100
AcDbEntity
  8
0
100
AcDbBlockBegin
  2
6_070941EL_0_in_071285_0
 70
     2
 10
0.0
 20
0.0
 30
0.0
  3
6_070941EL_0_in_071285_0
  1

  0
ATTDEF
  5
180
330
17C
100
AcDbEntity
  8
AM_6
100
AcDbText
 10
8.927
 20
3.927
 30
0.0
 40
0.5
  1
Imperial/E Insert -Inch
100
AcDbAttributeDefinition
  3

  2
NN
 70
     8
280
     0
  0
ATTDEF
  5
181
330
17C
100
AcDbEntity
  8
AM_6
100
AcDbText
 10
8.927
 20
3.427
 30
0.0
 40
0.5
  1
Imperial Bearings
100
AcDbAttributeDefinition
  3

  2
NT
 70
     8
280
     0
  0
ATTDEF
  5
182
330
17C
100
AcDbEntity
  8
AM_6
100
AcDbText
 10
8.927
 20
2.927
 30
0.0
 40
0.5
  1
070941EL
100
AcDbAttributeDefinition
  3

  2
NB
 70
     8
280
     0
  0
ATTDEF
  5
183
330
17C
100
AcDbEntity
  8
AM_6
100
AcDbText
 10
8.927
 20
2.427
 30
0.0
 40
0.5
  1
$PN.
100
AcDbAttributeDefinition
  3

  2
NBSYN
 70
     8
280
     0
  0
ATTDEF
  5
184
330
17C
100
AcDbEntity
  8
AM_6
100
AcDbText
 10
8.927
 20
1.927
 30
0.0
 40
0.5
  1
070941EL
100
AcDbAttributeDefinition
  3

  2
LINA
 70
     8
280
     0
  0
ATTDEF
  5
185
330
17C
100
AcDbEntity
  8
AM_6
100
AcDbText
 10
8.927
 20
1.427
 30
0.0
 40
0.5
  1
4-1/2
100
AcDbAttributeDefinition
  3

  2
SS
 70
     8
280
     0
  0
ATTDEF
  5
186
330
17C
100
AcDbEntity
  8
AM_6
100
AcDbText
 10
8.927
 20
0.9270000000000005
 30
0.0
 40
0.5
  1
4.500000
100
AcDbAttributeDefinition
  3

  2
SS1
 70
     8
280
     0
  0
ATTDEF
  5
187
330
17C
100
AcDbEntity
  8
AM_6
100
AcDbText
 10
8.927
 20
0.4270000000000005
 30
0.0
 40
0.5
  1
070941EL
100
AcDbAttributeDefinition
  3

  2
PN
 70
     8
280
     0
  0
ATTDEF
  5
188
330
17C
100
AcDbEntity
  8
AM_6
100
AcDbText
 10
8.927
 20
-0.0729999999999995
 30
0.0
 40
0.5
  1
INS-IP-408L
100
AcDbAttributeDefinition
  3

  2
DESCRIPTION
 70
     8
280
     0
  0
ATTDEF
  5
189
330
17C
100
AcDbEntity
  8
AM_6
100
AcDbText
 10
8.927
 20
-0.5729999999999995
 30
0.0
 40
0.5
  1
Labyrinth Seal
100
AcDbAttributeDefinition
  3

  2
ST
 70
     8
280
     0
  0
ATTDEF
  5
18A
330
17C
100
AcDbEntity
  8
AM_6
100
AcDbText
 10
8.927
 20
-1.073
 30
0.0
 40
0.5
  1
2
100
AcDbAttributeDefinition
  3

  2
ST1
 70
     8
280
     0
  0
ATTDEF
  5
18B
330
17C
100
AcDbEntity
  8
AM_6
100
AcDbText
 10
8.927
 20
-1.573
 30
0.0
 40
0.5
  1
7.8740
100
AcDbAttributeDefinition
  3

  2
A
 70
     8
280
     0
  0
ATTDEF
  5
18C
330
17C
100
AcDbEntity
  8
AM_6
100
AcDbText
 10
8.927
 20
-2.073
 30
0.0
 40
0.5
  1
2-5/32
100
AcDbAttributeDefinition
  3

  2
B
 70
     8
280
     0
  0
ATTDEF
  5
18D
330
17C
100
AcDbEntity
  8
AM_6
100
AcDbText
 10
8.927
 20
-2.573
 30
0.0
 40
0.5
  1
2.156250
100
AcDbAttributeDefinition
  3

  2
B1
 70
     8
280
     0
  0
ATTDEF
  5
18E
330
17C
100
AcDbEntity
  8
AM_6
100
AcDbText
 10
8.927
 20
-3.073
 30
0.0
 40
0.5
  1
5-15/64
100
AcDbAttributeDefinition
  3

  2
C
 70
     8
280
     0
  0
ATTDEF
  5
18F
330
17C
100
AcDbEntity
  8
AM_6
100
AcDbText
 10
8.927
 20
-3.573
 30
0.0
 40
0.5
  1
5.234375
100
AcDbAttributeDefinition
  3

  2
C1
 70
     8
280
     0
  0
ATTDEF
  5
190
330
17C
100
AcDbEntity
  8
AM_6
100
AcDbText
 10
8.927
 20
-4.073
 30
0.0
 40
0.5
  1
7.12000
100
AcDbAttributeDefinition
  3

  2
CR
 70
     8
280
     0
  0
ATTDEF
  5
191
330
17C
100
AcDbEntity
  8
AM_6
100
AcDbText
 10
8.927
 20
-4.573
 30
0.0
 40
0.5
  1
1.935
100
AcDbAttributeDefinition
  3

  2
D
 70
     8
280
     0
  0
ATTDEF
  5
192
330
17C
100
AcDbEntity
  8
AM_6
100
AcDbText
 10
8.927
 20
-5.073
 30
0.0
 40
0.5
  1
6-7/16
100
AcDbAttributeDefinition
  3

  2
E
 70
     8
280
     0
  0
ATTDEF
  5
193
330
17C
100
AcDbEntity
  8
AM_6
100
AcDbText
 10
8.927
 20
-5.573
 30
0.0
 40
0.5
  1
6.437500
100
AcDbAttributeDefinition
  3

  2
E1
 70
     8
280
     0
  0
ATTDEF
  5
194
330
17C
100
AcDbEntity
  8
AM_6
100
AcDbText
 10
8.927
 20
-6.073
 30
0.0
 40
0.5
  1
0.2500
100
AcDbAttributeDefinition
  3

  2
NDM
 70
     8
280
     0
  0
ATTDEF
  5
195
330
17C
100
AcDbEntity
  8
AM_6
100
AcDbText
 10
8.927
 20
-6.573
 30
0.0
 40
0.5
  1
0.1960
100
AcDbAttributeDefinition
  3

  2
KDM
 70
     8
280
     0
  0
ATTDEF
  5
196
330
17C
100
AcDbEntity
  8
AM_6
100
AcDbText
 10
8.927
 20
-7.073
 30
0.0
 40
0.5
  1
5.60
100
AcDbAttributeDefinition
  3

  2
AL
 70
     8
280
     0
  0
ATTDEF
  5
197
330
17C
100
AcDbEntity
  8
AM_6
100
AcDbText
 10
8.927
 20
-7.573
 30
0.0
 40
0.5
  1
0.50
100
AcDbAttributeDefinition
  3

  2
BL
 70
     8
280
     0
  0
ATTDEF
  5
198
330
17C
100
AcDbEntity
  8
AM_6
100
AcDbText
 10
8.927
 20
-8.073
 30
0.0
 40
0.5
  1
0.07
100
AcDbAttributeDefinition
  3

  2
CL
 70
     8
280
     0
  0
ATTDEF
  5
199
330
17C
100
AcDbEntity
  8
AM_6
100
AcDbText
 10
8.927
 20
-8.573
 30
0.0
 40
0.5
  1
0.50
100
AcDbAttributeDefinition
  3

  2
DL
 70
     8
280
     0
  0
ATTDEF
  5
19A
330
17C
100
AcDbEntity
  8
AM_6
100
AcDbText
 10
8.927
 20
-9.073
 30
0.0
 40
0.5
  1
0.8000
100
AcDbAttributeDefinition
  3

  2
LL
 70
     8
280
     0
  0
ATTDEF
  5
19B
330
17C
100
AcDbEntity
  8
AM_6
100
AcDbText
 10
8.927
 20
-9.573
 30
0.0
 40
0.5
  1
0.036
100
AcDbAttributeDefinition
  3

  2
Y
 70
     8
280
     0
  0
ATTDEF
  5
19C
330
17C
100
AcDbEntity
  8
AM_6
100
AcDbText
 10
8.927
 20
-10.073
 30
0.0
 40
0.5
  1
0.036000
100
AcDbAttributeDefinition
  3

  2
Y1
 70
     8
280
     0
  0
ATTDEF
  5
19D
330
17C
100
AcDbEntity
  8
AM_6
100
AcDbText
 10
8.927
 20
-10.573
 30
0.0
 40
0.5
  1
5
100
AcDbAttributeDefinition
  3

  2
Z
 70
     8
280
     0
  0
ATTDEF
  5
19E
330
17C
100
AcDbEntity
  8
AM_6
100
AcDbText
 10
8.927
 20
-11.073
 30
0.0
 40
0.5
  1
5.000000
100
AcDbAttributeDefinition
  3

  2
Z1
 70
     8
280
     0
  0
ATTDEF
  5
19F
330
17C
100
AcDbEntity
  8
AM_6
100
AcDbText
 10
8.927
 20
-11.573
 30
0.0
 40
0.5
  1
1.89000
100
AcDbAttributeDefinition
  3

  2
P1
 70
     8
280
     0
  0
ATTDEF
  5
1A0
330
17C
100
AcDbEntity
  8
AM_6
100
AcDbText
 10
8.927
 20
-12.073
 30
0.0
 40
0.5
  1
2.43000
100
AcDbAttributeDefinition
  3

  2
H1
 70
     8
280
     0
  0
ATTDEF
  5
1A1
330
17C
100
AcDbEntity
  8
AM_6
100
AcDbText
 10
8.927
 20
-12.573
 30
0.0
 40
0.5
  1
1.42000
100
AcDbAttributeDefinition
  3

  2
G1
 70
     8
280
     0
  0
ATTDEF
  5
1A2
330
17C
100
AcDbEntity
  8
AM_6
100
AcDbText
 10
8.927
 20
-13.073
 30
0.0
 40
0.5
  1
0.13200
100
AcDbAttributeDefinition
  3

  2
CW
 70
     8
280
     0
  0
ATTDEF
  5
1A3
330
17C
100
AcDbEntity
  8
AM_6
100
AcDbText
 10
8.927
 20
-13.573
 30
0.0
 40
0.5
  1
6.44000
100
AcDbAttributeDefinition
  3

  2
L1
 70
     8
280
     0
  0
ATTDEF
  5
1A4
330
17C
100
AcDbEntity
  8
AM_6
100
AcDbText
 10
8.927
 20
-14.073
 30
0.0
 40
0.5
  1
baldor
100
AcDbAttributeDefinition
  3

  2
COMPANY
 70
     8
280
     0
  0
CIRCLE
  5
1A5
330
17C
100
AcDbEntity
  8
AM_9
100
AcDbCircle
 10
0.0
 20
0.0
 30
0.0
 40
2.5
  0
CIRCLE
  5
1A6
330
17C
100
AcDbEntity
  8
AM_9
100
AcDbCircle
 10
0.0
 20
0.0
 30
0.0
 40
3.333333333333333
  0
CIRCLE
  5
1A7
330
17C
100
AcDbEntity
  8
AM_9
100
AcDbCircle
 10
0.0
 20
0.0
 30
0.0
 40
3.430282670983127
  0
CIRCLE
  5
1A8
330
17C
100
AcDbEntity
  8
AM_9
100
AcDbCircle
 10
0.0
 20
0.0
 30
0.0
 40
3.516885209871455
  0
CIRCLE
  5
1A9
330
17C
100
AcDbEntity
  8
AM_9
100
AcDbCircle
 10
0.0
 20
0.0
 30
0.0
 40
3.737
  0
CIRCLE
  5
1AA
330
17C
100
AcDbEntity
  8
AM_9
100
AcDbCircle
 10
0.0
 20
0.0
 30
0.0
 40
3.887000000000001
  0
CIRCLE
  5
1AB
330
17C
100
AcDbEntity
  8
AM_9
100
AcDbCircle
 10
0.0
 20
0.0
 30
0.0
 40
3.8291875
  0
CIRCLE
  5
1AC
330
17C
100
AcDbEntity
  8
AM_9
100
AcDbCircle
 10
0.0
 20
-2.859375
 30
0.0
 40
0.09795
  0
CIRCLE
  5
1AD
330
17C
100
AcDbEntity
  8
AM_9
100
AcDbCircle
 10
0.0
 20
2.859375
 30
0.0
 40
0.09795
  0
LINE
  5
1AE
330
17C
100
AcDbEntity
  8
AM_9
100
AcDbLine
 10
1.891510639674014
 20
2.068287334970652
 30
0.0
 11
1.803122292025697
 21
2.156675682618969
 31
0.0
  0
LINE
  5
1AF
330
17C
100
AcDbEntity
  8
AM_9
100
AcDbLine
 10
2.15667568261897
 20
1.803122292025696
 30
0.0
 11
2.068287334970651
 21
1.891510639674014
 31
0.0
  0
LINE
  5
1B0
330
17C
100
AcDbEntity
  8
AM_9
100
AcDbLine
 10
-2.092347757273122
 20
2.445901147866396
 30
0.0
 11
-1.803122292025696
 21
2.15667568261897
 31
0.0
  0
LINE
  5
1B1
330
17C
100
AcDbEntity
  8
AM_9
100
AcDbLine
 10
1.803122292025697
 20
2.156675682618969
 30
0.0
 11
2.092347757273123
 21
2.445901147866396
 31
0.0
  0
ARC
  5
1B2
330
17C
100
AcDbEntity
  8
AM_9
100
AcDbCircle
 10
0.0000000000000002
 20
-0.0000000000000022
 30
0.0
 40
3.218750000000004
100
AcDbArc
 50
49.45464416935427
 51
130.5453558306457
  0
LINE
  5
1B3
330
17C
100
AcDbEntity
  8
AM_9
100
AcDbLine
 10
-2.068287334970651
 20
1.891510639674015
 30
0.0
 11
-2.156675682618969
 21
1.803122292025697
 31
0.0
  0
LINE
  5
1B4
330
17C
100
AcDbEntity
  8
AM_9
100
AcDbLine
 10
-1.803122292025696
 20
2.15667568261897
 30
0.0
 11
-1.891510639674014
 21
2.068287334970652
 31
0.0
  0
LINE
  5
1B5
330
17C
100
AcDbEntity
  8
AM_9
100
AcDbLine
 10
-2.156675682618969
 20
1.803122292025697
 30
0.0
 11
-2.445901147866395
 21
2.092347757273122
 31
0.0
  0
ARC
  5
1B6
330
17C
100
AcDbEntity
  8
AM_9
100
AcDbCircle
 10
0.0000000000000004
 20
-0.0000000000000009
 30
0.0
 40
3.218750000000003
100
AcDbArc
 50
139.4546441693543
 51
220.5453558306457
  0
LINE
  5
1B7
330
17C
100
AcDbEntity
  8
AM_9
100
AcDbLine
 10
-2.445901147866396
 20
-2.092347757273123
 30
0.0
 11
-2.15667568261897
 21
-1.803122292025696
 31
0.0
  0
LINE
  5
1B8
330
17C
100
AcDbEntity
  8
AM_9
100
AcDbLine
 10
-1.891510639674014
 20
-2.068287334970652
 30
0.0
 11
-1.803122292025696
 21
-2.156675682618969
 31
0.0
  0
LINE
  5
1B9
330
17C
100
AcDbEntity
  8
AM_9
100
AcDbLine
 10
-2.15667568261897
 20
-1.803122292025696
 30
0.0
 11
-2.068287334970651
 21
-1.891510639674016
 31
0.0
  0
LINE
  5
1BA
330
17C
100
AcDbEntity
  8
AM_9
100
AcDbLine
 10
-1.803122292025696
 20
-2.156675682618969
 30
0.0
 11
-2.092347757273123
 21
-2.445901147866395
 31
0.0
  0
ARC
  5
1BB
330
17C
100
AcDbEntity
  8
AM_9
100
AcDbCircle
 10
0.0000000000000004
 20
0.0000000000000022
 30
0.0
 40
3.218750000000004
100
AcDbArc
 50
229.4546441693543
 51
310.5453558306458
  0
LINE
  5
1BC
330
17C
100
AcDbEntity
  8
AM_9
100
AcDbLine
 10
2.092347757273123
 20
-2.445901147866396
 30
0.0
 11
1.803122292025696
 21
-2.15667568261897
 31
0.0
  0
LINE
  5
1BD
330
17C
100
AcDbEntity
  8
AM_9
100
AcDbLine
 10
2.068287334970652
 20
-1.891510639674014
 30
0.0
 11
2.15667568261897
 21
-1.803122292025696
 31
0.0
  0
LINE
  5
1BE
330
17C
100
AcDbEntity
  8
AM_9
100
AcDbLine
 10
1.803122292025696
 20
-2.15667568261897
 30
0.0
 11
1.891510639674015
 21
-2.068287334970651
 31
0.0
  0
LINE
  5
1BF
330
17C
100
AcDbEntity
  8
AM_9
100
AcDbLine
 10
2.15667568261897
 20
-1.803122292025696
 30
0.0
 11
2.445901147866395
 21
-2.092347757273123
 31
0.0
  0
ARC
  5
1C0
330
17C
100
AcDbEntity
  8
AM_9
100
AcDbCircle
 10
-0.0000000000000013
 20
0.0
 30
0.0
 40
3.218750000000003
100
AcDbArc
 50
319.4546441693542
 51
40.54535583064573
  0
LINE
  5
1C1
330
17C
100
AcDbEntity
  8
AM_9
100
AcDbLine
 10
2.445901147866396
 20
2.092347757273123
 30
0.0
 11
2.15667568261897
 21
1.803122292025696
 31
0.0
  0
ARC
  5
1C2
330
17C
100
AcDbEntity
  8
AM_9
100
AcDbCircle
 10
0.0000000000000395
 20
-0.0000000000000995
 30
0.0
 40
2.374670184696677
100
AcDbArc
 50
109.4826192800023
 51
115.5173807199976
  0
CIRCLE
  5
1C3
330
17C
100
AcDbEntity
  8
AM_4
100
AcDbCircle
 10
0.0
 20
0.0
 30
0.0
 40
3.927
  0
CIRCLE
  5
1C4
330
17C
100
AcDbEntity
  8
AM_4
100
AcDbCircle
 10
0.0
 20
0.0
 30
0.0
 40
3.299805813143263
  0
LINE
  5
1C5
330
17C
100
AcDbEntity
  8
AM_4
100
AcDbLine
 10
-2.098537703040505
 20
2.452091093633779
 30
0.0
 11
-2.092347757273122
 21
2.445901147866396
 31
0.0
  0
LINE
  5
1C6
330
17C
100
AcDbEntity
  8
AM_4
100
AcDbLine
 10
2.45209109363378
 20
2.098537703040506
 30
0.0
 11
2.445901147866396
 21
2.092347757273123
 31
0.0
  0
LINE
  5
1C7
330
17C
100
AcDbEntity
  8
AM_4
100
AcDbLine
 10
2.098537703040505
 20
-2.452091093633779
 30
0.0
 11
2.092347757273123
 21
-2.445901147866396
 31
0.0
  0
LINE
  5
1C8
330
17C
100
AcDbEntity
  8
AM_4
100
AcDbLine
 10
2.092347757273123
 20
2.445901147866396
 30
0.0
 11
2.098537703040506
 21
2.452091093633779
 31
0.0
  0
CIRCLE
  5
1C9
330
17C
100
AcDbEntity
  8
AM_4
100
AcDbCircle
 10
0.0
 20
0.0
 30
0.0
 40
3.249813428385444
  0
LINE
  5
1CA
330
17C
100
AcDbEntity
  8
AM_4
100
AcDbLine
 10
2.445901147866395
 20
-2.092347757273123
 30
0.0
 11
2.452091093633778
 21
-2.098537703040505
 31
0.0
  0
ARC
  5
1CB
330
17C
100
AcDbEntity
  8
AM_4
100
AcDbCircle
 10
0.0000000000001159
 20
-0.000000000000119
 30
0.0
 40
3.227477532463944
100
AcDbArc
 50
310.5574260180211
 51
319.4425739819789
  0
LINE
  5
1CC
330
17C
100
AcDbEntity
  8
AM_4
100
AcDbLine
 10
-2.092347757273123
 20
-2.445901147866395
 30
0.0
 11
-2.098537703040505
 21
-2.452091093633778
 31
0.0
  0
ARC
  5
1CD
330
17C
100
AcDbEntity
  8
AM_4
100
AcDbCircle
 10
-0.0000000000000533
 20
-0.0000000000000386
 30
0.0
 40
3.227477532464046
100
AcDbArc
 50
220.5574260180214
 51
229.4425739819789
  0
LINE
  5
1CE
330
17C
100
AcDbEntity
  8
AM_4
100
AcDbLine
 10
-2.45209109363378
 20
-2.098537703040506
 30
0.0
 11
-2.445901147866396
 21
-2.092347757273123
 31
0.0
  0
LINE
  5
1CF
330
17C
100
AcDbEntity
  8
AM_4
100
AcDbLine
 10
-2.445901147866395
 20
2.092347757273122
 30
0.0
 11
-2.452091093633778
 21
2.098537703040506
 31
0.0
  0
ARC
  5
1D0
330
17C
100
AcDbEntity
  8
AM_4
100
AcDbCircle
 10
-0.000000000000127
 20
0.0000000000001248
 30
0.0
 40
3.227477532463932
100
AcDbArc
 50
130.5574260180211
 51
139.4425739819789
  0
ARC
  5
1D1
330
17C
100
AcDbEntity
  8
AM_4
100
AcDbCircle
 10
-0.0000000000000275
 20
-0.0000000000000302
 30
0.0
 40
3.227477532464152
100
AcDbArc
 50
40.55742601802142
 51
49.44257398197863
  0
LINE
  5
1D2
330
17C
100
AcDbEntity
  8
AM_4
100
AcDbLine
 10
2.068287334970651
 20
1.891510639674014
 30
0.0
 11
1.891510639674014
 21
2.068287334970652
 31
0.0
  0
LINE
  5
1D3
330
17C
100
AcDbEntity
  8
AM_4
100
AcDbLine
 10
-1.891510639674014
 20
2.068287334970652
 30
0.0
 11
-2.068287334970651
 21
1.891510639674015
 31
0.0
  0
LINE
  5
1D4
330
17C
100
AcDbEntity
  8
AM_4
100
AcDbLine
 10
-2.068287334970651
 20
-1.891510639674016
 30
0.0
 11
-1.891510639674014
 21
-2.068287334970652
 31
0.0
  0
LINE
  5
1D5
330
17C
100
AcDbEntity
  8
AM_4
100
AcDbLine
 10
1.891510639674015
 20
-2.068287334970651
 30
0.0
 11
2.068287334970652
 21
-1.891510639674014
 31
0.0
  0
LINE
  5
1D6
330
17C
100
AcDbEntity
  8
AM_4
100
AcDbLine
 10
-1.020577235173433
 20
2.137250661385844
 30
0.0
 11
-0.9751928756028913
 21
2.027683124991024
 31
0.0
  0
LINE
  5
1D7
330
17C
100
AcDbEntity
  8
AM_4
100
AcDbLine
 10
-0.7442229924750695
 20
2.123353983082297
 30
0.0
 11
-0.7896073520456116
 21
2.232921519477117
 31
0.0
  0
ARC
  5
1D8
330
17C
100
AcDbEntity
  8
AM_4
100
AcDbCircle
 10
0.0000000000000026
 20
0.0000000000000017
 30
0.0
 40
2.25
100
AcDbArc
 50
115.6847385367205
 51
109.3152614632797
  0
ARC
  5
1D9
330
17C
100
AcDbEntity
  8
AM_4
100
AcDbCircle
 10
0.0000000000000029
 20
0.0000000000000015
 30
0.0
 40
2.368421052631579
100
AcDbArc
 50
115.5253495442256
 51
109.4746504557746
  0
ARC
  5
1DA
330
17C
100
AcDbEntity
  8
AM_5
100
AcDbCircle
 10
0.0000000000000003
 20
2.859375
 30
0.0
 40
0.1250000000000001
100
AcDbArc
 50
165.0000000000003
 51
105.0000000000002
  0
ARC
  5
1DB
330
17C
100
AcDbEntity
  8
AM_5
100
AcDbCircle
 10
0.0000000000000003
 20
-2.859375
 30
0.0
 40
0.1250000000000001
100
AcDbArc
 50
165.0000000000003
 51
105.0000000000002
  0
ARC
  5
1DC
330
17C
100
AcDbEntity
  8
AM_5
100
AcDbCircle
 10
0.0000000000000002
 20
2.859375
 30
0.0
 40
0.1250000000000002
100
AcDbArc
 50
105.0000000000001
 51
15.0
  0
ARC
  5
1DD
330
17C
100
AcDbEntity
  8
AM_5
100
AcDbCircle
 10
0.0000000000000002
 20
-2.859375
 30
0.0
 40
0.1250000000000002
100
AcDbArc
 50
105.0000000000001
 51
15.0
  0
ENDBLK
  5
17F
330
17C
100
AcDbEntity
  8
0
100
AcDbBlockEnd
  0
BLOCK
  5
1E0
330
1DE
100
AcDbEntity
  8
0
100
AcDbBlockBegin
  2
7_071285H_0_in_071285_0
 70
     2
 10
0.0
 20
0.0
 30
0.0
  3
7_071285H_0_in_071285_0
  1

  0
ATTDEF
  5
1E2
330
1DE
100
AcDbEntity
  8
AM_6
100
AcDbText
 10
11.75000000000002
 20
6.750000000000004
 30
0.0
 40
0.5
  1
EFC-IP -(Labyrinth Seal)-Housing -Inch
100
AcDbAttributeDefinition
  3

  2
NN
 70
     8
280
     0
  0
ATTDEF
  5
1E3
330
1DE
100
AcDbEntity
  8
AM_6
100
AcDbText
 10
11.75000000000002
 20
6.250000000000004
 30
0.0
 40
0.5
  1
Imperial Piloted Flange Bearings
100
AcDbAttributeDefinition
  3

  2
NT
 70
     8
280
     0
  0
ATTDEF
  5
1E4
330
1DE
100
AcDbEntity
  8
AM_6
100
AcDbText
 10
11.75000000000002
 20
5.750000000000004
 30
0.0
 40
0.5
  1
071285H
100
AcDbAttributeDefinition
  3

  2
NB
 70
     8
280
     0
  0
ATTDEF
  5
1E5
330
1DE
100
AcDbEntity
  8
AM_6
100
AcDbText
 10
11.75000000000002
 20
5.250000000000004
 30
0.0
 40
0.5
  1
$PN.H
100
AcDbAttributeDefinition
  3

  2
NBSYN
 70
     8
280
     0
  0
ATTDEF
  5
1E6
330
1DE
100
AcDbEntity
  8
AM_6
100
AcDbText
 10
11.75000000000002
 20
4.750000000000004
 30
0.0
 40
0.5
  1
071285
100
AcDbAttributeDefinition
  3

  2
LINA
 70
     8
280
     0
  0
ATTDEF
  5
1E7
330
1DE
100
AcDbEntity
  8
AM_6
100
AcDbText
 10
11.75000000000002
 20
4.250000000000004
 30
0.0
 40
0.5
  1
4-1/2
100
AcDbAttributeDefinition
  3

  2
SS
 70
     8
280
     0
  0
ATTDEF
  5
1E8
330
1DE
100
AcDbEntity
  8
AM_6
100
AcDbText
 10
11.75000000000002
 20
3.750000000000004
 30
0.0
 40
0.5
  1
4.500000
100
AcDbAttributeDefinition
  3

  2
SS1
 70
     8
280
     0
  0
ATTDEF
  5
1E9
330
1DE
100
AcDbEntity
  8
AM_6
100
AcDbText
 10
11.75000000000002
 20
3.250000000000004
 30
0.0
 40
0.5
  1
Expansion
100
AcDbAttributeDefinition
  3

  2
TYPE
 70
     8
280
     0
  0
ATTDEF
  5
1EA
330
1DE
100
AcDbEntity
  8
AM_6
100
AcDbText
 10
11.75000000000002
 20
2.750000000000004
 30
0.0
 40
0.5
  1
071281
100
AcDbAttributeDefinition
  3

  2
PN1
 70
     8
280
     0
  0
ATTDEF
  5
1EB
330
1DE
100
AcDbEntity
  8
AM_6
100
AcDbText
 10
11.75000000000002
 20
2.250000000000004
 30
0.0
 40
0.5
  1
071285
100
AcDbAttributeDefinition
  3

  2
PN2
 70
     8
280
     0
  0
ATTDEF
  5
1EC
330
1DE
100
AcDbEntity
  8
AM_6
100
AcDbText
 10
11.75000000000002
 20
1.750000000000004
 30
0.0
 40
0.5
  1
EFC-IP-108RL
100
AcDbAttributeDefinition
  3

  2
DESCRIPTION
 70
     8
280
     0
  0
ATTDEF
  5
1ED
330
1DE
100
AcDbEntity
  8
AM_6
100
AcDbText
 10
11.75000000000002
 20
1.250000000000004
 30
0.0
 40
0.5
  1
Non-Expansion Type
100
AcDbAttributeDefinition
  3

  2
EF
 70
     8
280
     0
  0
ATTDEF
  5
1EE
330
1DE
100
AcDbEntity
  8
AM_6
100
AcDbText
 10
11.75000000000002
 20
0.7500000000000036
 30
0.0
 40
0.5
  1
1
100
AcDbAttributeDefinition
  3

  2
EF1
 70
     8
280
     0
  0
ATTDEF
  5
1EF
330
1DE
100
AcDbEntity
  8
AM_6
100
AcDbText
 10
11.75000000000002
 20
0.2500000000000036
 30
0.0
 40
0.5
  1
Labyrinth Seal
100
AcDbAttributeDefinition
  3

  2
ST
 70
     8
280
     0
  0
ATTDEF
  5
1F0
330
1DE
100
AcDbEntity
  8
AM_6
100
AcDbText
 10
11.75000000000002
 20
-0.2499999999999964
 30
0.0
 40
0.5
  1
1
100
AcDbAttributeDefinition
  3

  2
ST1
 70
     8
280
     0
  0
ATTDEF
  5
1F1
330
1DE
100
AcDbEntity
  8
AM_6
100
AcDbText
 10
11.75000000000002
 20
-0.7499999999999964
 30
0.0
 40
0.5
  1
5.23
100
AcDbAttributeDefinition
  3

  2
A
 70
     8
280
     0
  0
ATTDEF
  5
1F2
330
1DE
100
AcDbEntity
  8
AM_6
100
AcDbText
 10
11.75000000000002
 20
-1.249999999999996
 30
0.0
 40
0.5
  1
5.2300000
100
AcDbAttributeDefinition
  3

  2
A1
 70
     8
280
     0
  0
ATTDEF
  5
1F3
330
1DE
100
AcDbEntity
  8
AM_6
100
AcDbText
 10
11.75000000000002
 20
-1.749999999999996
 30
0.0
 40
0.5
  1
13.5
100
AcDbAttributeDefinition
  3

  2
B
 70
     8
280
     0
  0
ATTDEF
  5
1F4
330
1DE
100
AcDbEntity
  8
AM_6
100
AcDbText
 10
11.75000000000002
 20
-2.249999999999996
 30
0.0
 40
0.5
  1
13.5000000
100
AcDbAttributeDefinition
  3

  2
B1
 70
     8
280
     0
  0
ATTDEF
  5
1F5
330
1DE
100
AcDbEntity
  8
AM_6
100
AcDbText
 10
11.75000000000002
 20
-2.749999999999996
 30
0.0
 40
0.5
  1
4.58
100
AcDbAttributeDefinition
  3

  2
C
 70
     8
280
     0
  0
ATTDEF
  5
1F6
330
1DE
100
AcDbEntity
  8
AM_6
100
AcDbText
 10
11.75000000000002
 20
-3.249999999999996
 30
0.0
 40
0.5
  1
4.5800000
100
AcDbAttributeDefinition
  3

  2
C1
 70
     8
280
     0
  0
ATTDEF
  5
1F7
330
1DE
100
AcDbEntity
  8
AM_6
100
AcDbText
 10
11.75000000000002
 20
-3.749999999999996
 30
0.0
 40
0.5
  1
5.88
100
AcDbAttributeDefinition
  3

  2
D
 70
     8
280
     0
  0
ATTDEF
  5
1F8
330
1DE
100
AcDbEntity
  8
AM_6
100
AcDbText
 10
11.75000000000002
 20
-4.249999999999996
 30
0.0
 40
0.5
  1
5.8800000
100
AcDbAttributeDefinition
  3

  2
D1
 70
     8
280
     0
  0
ATTDEF
  5
1F9
330
1DE
100
AcDbEntity
  8
AM_6
100
AcDbText
 10
11.75000000000002
 20
-4.749999999999996
 30
0.0
 40
0.5
  1
11.75
100
AcDbAttributeDefinition
  3

  2
DD
 70
     8
280
     0
  0
ATTDEF
  5
1FA
330
1DE
100
AcDbEntity
  8
AM_6
100
AcDbText
 10
11.75000000000002
 20
-5.249999999999996
 30
0.0
 40
0.5
  1
11.7500000
100
AcDbAttributeDefinition
  3

  2
DD1
 70
     8
280
     0
  0
ATTDEF
  5
1FB
330
1DE
100
AcDbEntity
  8
AM_6
100
AcDbText
 10
11.75000000000002
 20
-5.749999999999996
 30
0.0
 40
0.5
  1
1.45
100
AcDbAttributeDefinition
  3

  2
E
 70
     8
280
     0
  0
ATTDEF
  5
1FC
330
1DE
100
AcDbEntity
  8
AM_6
100
AcDbText
 10
11.75000000000002
 20
-6.249999999999996
 30
0.0
 40
0.5
  1
1.450000
100
AcDbAttributeDefinition
  3

  2
E1
 70
     8
280
     0
  0
ATTDEF
  5
1FD
330
1DE
100
AcDbEntity
  8
AM_6
100
AcDbText
 10
11.75000000000002
 20
-6.749999999999996
 30
0.0
 40
0.5
  1
3/4
100
AcDbAttributeDefinition
  3

  2
F
 70
     8
280
     0
  0
ATTDEF
  5
1FE
330
1DE
100
AcDbEntity
  8
AM_6
100
AcDbText
 10
11.75000000000002
 20
-7.249999999999996
 30
0.0
 40
0.5
  1
0.7500000
100
AcDbAttributeDefinition
  3

  2
F1
 70
     8
280
     0
  0
ATTDEF
  5
1FF
330
1DE
100
AcDbEntity
  8
AM_6
100
AcDbText
 10
11.75000000000002
 20
-7.749999999999996
 30
0.0
 40
0.5
  1
3.03
100
AcDbAttributeDefinition
  3

  2
G
 70
     8
280
     0
  0
ATTDEF
  5
200
330
1DE
100
AcDbEntity
  8
AM_6
100
AcDbText
 10
11.75000000000002
 20
-8.249999999999996
 30
0.0
 40
0.5
  1
3.030000
100
AcDbAttributeDefinition
  3

  2
G1
 70
     8
280
     0
  0
ATTDEF
  5
201
330
1DE
100
AcDbEntity
  8
AM_6
100
AcDbText
 10
11.75000000000002
 20
-8.749999999999996
 30
0.0
 40
0.5
  1
0.94
100
AcDbAttributeDefinition
  3

  2
H
 70
     8
280
     0
  0
ATTDEF
  5
202
330
1DE
100
AcDbEntity
  8
AM_6
100
AcDbText
 10
11.75000000000002
 20
-9.249999999999996
 30
0.0
 40
0.5
  1
0.9400000
100
AcDbAttributeDefinition
  3

  2
H1
 70
     8
280
     0
  0
ATTDEF
  5
203
330
1DE
100
AcDbEntity
  8
AM_6
100
AcDbText
 10
11.75000000000002
 20
-9.749999999999996
 30
0.0
 40
0.5
  1
10.250
100
AcDbAttributeDefinition
  3

  2
K
 70
     8
280
     0
  0
ATTDEF
  5
204
330
1DE
100
AcDbEntity
  8
AM_6
100
AcDbText
 10
11.75000000000002
 20
-10.25
 30
0.0
 40
0.5
  1
6.44
100
AcDbAttributeDefinition
  3

  2
L
 70
     8
280
     0
  0
ATTDEF
  5
205
330
1DE
100
AcDbEntity
  8
AM_6
100
AcDbText
 10
11.75000000000002
 20
-10.75
 30
0.0
 40
0.5
  1
6.4400000
100
AcDbAttributeDefinition
  3

  2
L1
 70
     8
280
     0
  0
ATTDEF
  5
206
330
1DE
100
AcDbEntity
  8
AM_6
100
AcDbText
 10
11.75000000000002
 20
-11.25
 30
0.0
 40
0.5
  1
3/4-10
100
AcDbAttributeDefinition
  3

  2
M
 70
     8
280
     0
  0
ATTDEF
  5
207
330
1DE
100
AcDbEntity
  8
AM_6
100
AcDbText
 10
11.75000000000002
 20
-11.75
 30
0.0
 40
0.5
  1
0.750000
100
AcDbAttributeDefinition
  3

  2
NDM
 70
     8
280
     0
  0
ATTDEF
  5
208
330
1DE
100
AcDbEntity
  8
AM_6
100
AcDbText
 10
11.75000000000002
 20
-12.25
 30
0.0
 40
0.5
  1
0.642000
100
AcDbAttributeDefinition
  3

  2
KDM
 70
     8
280
     0
  0
ATTDEF
  5
209
330
1DE
100
AcDbEntity
  8
AM_6
100
AcDbText
 10
11.75000000000002
 20
-12.75
 30
0.0
 40
0.5
  1
5.66
100
AcDbAttributeDefinition
  3

  2
N
 70
     8
280
     0
  0
ATTDEF
  5
20A
330
1DE
100
AcDbEntity
  8
AM_6
100
AcDbText
 10
11.75000000000002
 20
-13.25
 30
0.0
 40
0.5
  1
5.660000
100
AcDbAttributeDefinition
  3

  2
N1
 70
     8
280
     0
  0
ATTDEF
  5
20B
330
1DE
100
AcDbEntity
  8
AM_6
100
AcDbText
 10
11.75000000000002
 20
-13.75
 30
0.0
 40
0.5
  1
2.2
100
AcDbAttributeDefinition
  3

  2
P
 70
     8
280
     0
  0
ATTDEF
  5
20C
330
1DE
100
AcDbEntity
  8
AM_6
100
AcDbText
 10
11.75000000000002
 20
-14.25
 30
0.0
 40
0.5
  1
2.200000
100
AcDbAttributeDefinition
  3

  2
P1
 70
     8
280
     0
  0
ATTDEF
  5
20D
330
1DE
100
AcDbEntity
  8
AM_6
100
AcDbText
 10
11.75000000000002
 20
-14.75
 30
0.0
 40
0.5
  1
2.63
100
AcDbAttributeDefinition
  3

  2
Q
 70
     8
280
     0
  0
ATTDEF
  5
20E
330
1DE
100
AcDbEntity
  8
AM_6
100
AcDbText
 10
11.75000000000002
 20
-15.25
 30
0.0
 40
0.5
  1
2.630000
100
AcDbAttributeDefinition
  3

  2
Q1
 70
     8
280
     0
  0
ATTDEF
  5
20F
330
1DE
100
AcDbEntity
  8
AM_6
100
AcDbText
 10
11.75000000000002
 20
-15.75
 30
0.0
 40
0.5
  1
0.38
100
AcDbAttributeDefinition
  3

  2
X
 70
     8
280
     0
  0
ATTDEF
  5
210
330
1DE
100
AcDbEntity
  8
AM_6
100
AcDbText
 10
11.75000000000002
 20
-16.25
 30
0.0
 40
0.5
  1
0.380000
100
AcDbAttributeDefinition
  3

  2
X1
 70
     8
280
     0
  0
ATTDEF
  5
211
330
1DE
100
AcDbEntity
  8
AM_6
100
AcDbText
 10
11.75000000000002
 20
-16.75
 30
0.0
 40
0.5
  1
0.036
100
AcDbAttributeDefinition
  3

  2
Y
 70
     8
280
     0
  0
ATTDEF
  5
212
330
1DE
100
AcDbEntity
  8
AM_6
100
AcDbText
 10
11.75000000000002
 20
-17.25
 30
0.0
 40
0.5
  1
5
100
AcDbAttributeDefinition
  3

  2
Z
 70
     8
280
     0
  0
ATTDEF
  5
213
330
1DE
100
AcDbEntity
  8
AM_6
100
AcDbText
 10
11.75000000000002
 20
-17.75
 30
0.0
 40
0.5
  1
5.000000
100
AcDbAttributeDefinition
  3

  2
Z1
 70
     8
280
     0
  0
ATTDEF
  5
214
330
1DE
100
AcDbEntity
  8
AM_6
100
AcDbText
 10
11.75000000000002
 20
-18.25
 30
0.0
 40
0.5
  1
7.8740
100
AcDbAttributeDefinition
  3

  2
BORE
 70
     8
280
     0
  0
ATTDEF
  5
215
330
1DE
100
AcDbEntity
  8
AM_6
100
AcDbText
 10
11.75000000000002
 20
-18.75
 30
0.0
 40
0.5
  1
baldor
100
AcDbAttributeDefinition
  3

  2
COMPANY
 70
     8
280
     0
  0
CIRCLE
  5
216
330
1DE
100
AcDbEntity
  8
AM_9
100
AcDbCircle
 10
0.0
 20
0.0
 30
0.0
 40
4.748971128120253
  0
CIRCLE
  5
217
330
1DE
100
AcDbEntity
  8
AM_9
100
AcDbCircle
 10
0.0
 20
0.0
 30
0.0
 40
4.842913865860048
  0
CIRCLE
  5
218
330
1DE
100
AcDbEntity
  8
AM_9
100
AcDbCircle
 10
0.0
 20
0.0
 30
0.0
 40
4.87778438804445
  0
CIRCLE
  5
219
330
1DE
100
AcDbEntity
  8
AM_9
100
AcDbCircle
 10
0.0
 20
0.0
 30
0.0
 40
4.971727125784245
  0
ARC
  5
21A
330
1DE
100
AcDbEntity
  8
AM_9
100
AcDbCircle
 10
0.000000000061243
 20
0.0000000001060805
 30
0.0
 40
5.125000000121492
100
AcDbArc
 50
232.6825250520299
 51
247.31747494797
  0
ARC
  5
21B
330
1DE
100
AcDbEntity
  8
AM_9
100
AcDbCircle
 10
-0.0000000000000617
 20
0.0000000000001048
 30
0.0
 40
5.125000000000121
100
AcDbArc
 50
292.6825250518557
 51
307.0711555958816
  0
ARC
  5
21C
330
1DE
100
AcDbEntity
  8
AM_9
100
AcDbCircle
 10
0.0000000000144862
 20
-0.0000000000000035
 30
0.0
 40
5.124999999985632
100
AcDbArc
 50
352.682525051835
 51
7.317474948165005
  0
ARC
  5
21D
330
1DE
100
AcDbEntity
  8
AM_9
100
AcDbCircle
 10
-0.000000000000004
 20
-0.0000000000000053
 30
0.0
 40
5.125000000000006
100
AcDbArc
 50
52.68252505185554
 51
67.3174749481444
  0
ARC
  5
21E
330
1DE
100
AcDbEntity
  8
AM_9
100
AcDbCircle
 10
0.0000000000005208
 20
-0.000000000010469
 30
0.0
 40
5.125000000010469
100
AcDbArc
 50
84.40126218378872
 51
95.59873781622298
  0
ARC
  5
21F
330
1DE
100
AcDbEntity
  8
AM_9
100
AcDbCircle
 10
-0.0000000000631868
 20
0.0000000001094538
 30
0.0
 40
5.124999999874646
100
AcDbArc
 50
112.6825250516757
 51
127.3174749483244
  0
ARC
  5
220
330
1DE
100
AcDbEntity
  8
AM_9
100
AcDbCircle
 10
-0.0000000000698259
 20
0.0000000000000397
 30
0.0
 40
5.124999999930738
100
AcDbArc
 50
172.6825250517566
 51
187.2538945825437
  0
ARC
  5
221
330
1DE
100
AcDbEntity
  8
AM_9
100
AcDbCircle
 10
-2.937499999999998
 20
-5.087899247233572
 30
0.0
 40
0.9749999999999959
100
AcDbArc
 50
27.25044852346199
 51
92.74955235220348
  0
ARC
  5
222
330
1DE
100
AcDbEntity
  8
AM_9
100
AcDbCircle
 10
-1.904021731707355
 20
-4.555612746402621
 30
0.0
 40
0.1875000000000121
100
AcDbArc
 50
207.2504430943368
 51
224.5028567930255
  0
ARC
  5
223
330
1DE
100
AcDbEntity
  8
AM_9
100
AcDbCircle
 10
-2.993265502335194
 20
-3.926737562217586
 30
0.0
 40
0.1874999999999436
100
AcDbArc
 50
255.4971432069709
 51
272.749552352205
  0
ARC
  5
224
330
1DE
100
AcDbEntity
  8
AM_9
100
AcDbCircle
 10
-4.897287234042552
 20
0.6288751841851004
 30
0.0
 40
0.187500000000002
100
AcDbArc
 50
195.4971432069734
 51
212.7495523522031
  0
ARC
  5
225
330
1DE
100
AcDbEntity
  8
AM_9
100
AcDbCircle
 10
-5.874999999999996
 20
0.0000000000000009
 30
0.0
 40
0.9749999999999979
100
AcDbArc
 50
327.2504467721315
 51
32.74955235220339
  0
ARC
  5
226
330
1DE
100
AcDbEntity
  8
AM_9
100
AcDbCircle
 10
-2.937500000000002
 20
5.087899247233581
 30
0.0
 40
0.9750000000000042
100
AcDbArc
 50
267.250447647797
 51
332.7495523522031
  0
ARC
  5
227
330
1DE
100
AcDbEntity
  8
AM_9
100
AcDbCircle
 10
-4.897287234042675
 20
-0.6288751841850395
 30
0.0
 40
0.1874999999998675
100
AcDbArc
 50
147.2504522012506
 51
164.5028567930326
  0
ARC
  5
228
330
1DE
100
AcDbEntity
  8
AM_9
100
AcDbCircle
 10
1.904021731707323
 20
4.555612746402598
 30
0.0
 40
0.1875000000000518
100
AcDbArc
 50
27.25045220125831
 51
44.5028567930239
  0
ARC
  5
229
330
1DE
100
AcDbEntity
  8
AM_9
100
AcDbCircle
 10
2.993265502335187
 20
3.926737562217534
 30
0.0
 40
0.187499999999996
100
AcDbArc
 50
75.49714320697247
 51
92.74955235220244
  0
ARC
  5
22A
330
1DE
100
AcDbEntity
  8
AM_9
100
AcDbCircle
 10
2.937500000000001
 20
5.087899247233578
 30
0.0
 40
0.975000000000001
100
AcDbArc
 50
207.2504467721316
 51
272.7495523522031
  0
ARC
  5
22B
330
1DE
100
AcDbEntity
  8
AM_9
100
AcDbCircle
 10
2.9375
 20
-5.08789924723358
 30
0.0
 40
0.9750000000000031
100
AcDbArc
 50
87.2504467721317
 51
152.7495523522033
  0
ARC
  5
22C
330
1DE
100
AcDbEntity
  8
AM_9
100
AcDbCircle
 10
2.993265502335196
 20
-3.926737562217585
 30
0.0
 40
0.1874999999999467
100
AcDbArc
 50
267.2504522012525
 51
284.5028567930271
  0
ARC
  5
22D
330
1DE
100
AcDbEntity
  8
AM_9
100
AcDbCircle
 10
-2.993265502335185
 20
3.926737562217518
 30
0.0
 40
0.1875000000000129
100
AcDbArc
 50
87.25044764779808
 51
104.5028567930269
  0
ARC
  5
22E
330
1DE
100
AcDbEntity
  8
AM_9
100
AcDbCircle
 10
4.897287234042585
 20
0.6288751841850824
 30
0.0
 40
0.1874999999999657
100
AcDbArc
 50
327.2504522012536
 51
344.5028567930271
  0
ARC
  5
22F
330
1DE
100
AcDbEntity
  8
AM_9
100
AcDbCircle
 10
1.904021731707321
 20
-4.555612746402595
 30
0.0
 40
0.1875000000000526
100
AcDbArc
 50
315.4971432069754
 51
332.7495523521992
  0
ARC
  5
230
330
1DE
100
AcDbEntity
  8
AM_9
100
AcDbCircle
 10
5.875
 20
-0.0000000000000012
 30
0.0
 40
0.9750000000000015
100
AcDbArc
 50
147.2504467721317
 51
212.7495523522034
  0
ARC
  5
231
330
1DE
100
AcDbEntity
  8
AM_9
100
AcDbCircle
 10
4.897287234042571
 20
-0.6288751841850914
 30
0.0
 40
0.1874999999999803
100
AcDbArc
 50
15.49714320697283
 51
32.74955235220351
  0
ARC
  5
232
330
1DE
100
AcDbEntity
  8
AM_9
100
AcDbCircle
 10
-1.90402173170736
 20
4.555612746402627
 30
0.0
 40
0.1875000000000036
100
AcDbArc
 50
135.4971432069743
 51
152.749552352203
  0
LINE
  5
233
330
1DE
100
AcDbEntity
  8
AM_9
100
AcDbLine
 10
0.0461375584114689
 20
6.428571428571428
 30
0.0
 11
-0.0461375584114689
 21
6.428571428571428
 31
0.0
  0
ARC
  5
234
330
1DE
100
AcDbEntity
  8
AM_5
100
AcDbCircle
 10
-5.08789924723358
 20
-2.937499999999999
 30
0.0
 40
0.3749999999999997
100
AcDbArc
 50
74.9999999999999
 51
14.99999999999987
  0
LINE
  5
235
330
1DE
100
AcDbEntity
  8
AM_7
100
AcDbLine
 10
-5.481649247233577
 20
-2.9375
 30
0.0
 11
-4.694149247233577
 21
-2.9375
 31
0.0
  0
LINE
  5
236
330
1DE
100
AcDbEntity
  8
AM_7
100
AcDbLine
 10
-5.087899247233577
 20
-3.33125
 30
0.0
 11
-5.087899247233577
 21
-2.543749999999999
 31
0.0
  0
LINE
  5
237
330
1DE
100
AcDbEntity
  8
AM_7
100
AcDbLine
 10
4.694149247233576
 20
2.9375
 30
0.0
 11
5.481649247233578
 21
2.9375
 31
0.0
  0
LINE
  5
238
330
1DE
100
AcDbEntity
  8
AM_7
100
AcDbLine
 10
5.087899247233577
 20
2.543749999999998
 30
0.0
 11
5.087899247233577
 21
3.331250000000001
 31
0.0
  0
LINE
  5
239
330
1DE
100
AcDbEntity
  8
AM_7
100
AcDbLine
 10
-3.331250000000002
 20
-5.087899247233576
 30
0.0
 11
-2.543750000000002
 21
-5.087899247233576
 31
0.0
  0
LINE
  5
23A
330
1DE
100
AcDbEntity
  8
AM_7
100
AcDbLine
 10
-2.937500000000002
 20
-5.481649247233576
 30
0.0
 11
-2.937500000000002
 21
-4.694149247233576
 31
0.0
  0
LINE
  5
23B
330
1DE
100
AcDbEntity
  8
AM_7
100
AcDbLine
 10
2.543750000000001
 20
5.087899247233578
 30
0.0
 11
3.33125
 21
5.087899247233578
 31
0.0
  0
LINE
  5
23C
330
1DE
100
AcDbEntity
  8
AM_7
100
AcDbLine
 10
2.9375
 20
4.694149247233578
 30
0.0
 11
2.9375
 21
5.481649247233578
 31
0.0
  0
LINE
  5
23D
330
1DE
100
AcDbEntity
  8
AM_7
100
AcDbLine
 10
-3.331249999999999
 20
5.087899247233578
 30
0.0
 11
-2.54375
 21
5.087899247233578
 31
0.0
  0
LINE
  5
23E
330
1DE
100
AcDbEntity
  8
AM_7
100
AcDbLine
 10
-2.9375
 20
4.694149247233578
 30
0.0
 11
-2.9375
 21
5.481649247233578
 31
0.0
  0
LINE
  5
23F
330
1DE
100
AcDbEntity
  8
AM_7
100
AcDbLine
 10
5.481249999999999
 20
-0.0000000000000022
 30
0.0
 11
6.268749999999999
 21
-0.0000000000000022
 31
0.0
  0
LINE
  5
240
330
1DE
100
AcDbEntity
  8
AM_7
100
AcDbLine
 10
5.874999999999999
 20
-0.3937500000000021
 30
0.0
 11
5.874999999999999
 21
0.3937499999999978
 31
0.0
  0
LINE
  5
241
330
1DE
100
AcDbEntity
  8
AM_7
100
AcDbLine
 10
-6.26875
 20
0.0000000000000022
 30
0.0
 11
-5.48125
 21
0.0000000000000022
 31
0.0
  0
LINE
  5
242
330
1DE
100
AcDbEntity
  8
AM_7
100
AcDbLine
 10
-5.875
 20
-0.3937499999999978
 30
0.0
 11
-5.875
 21
0.3937500000000021
 31
0.0
  0
LINE
  5
243
330
1DE
100
AcDbEntity
  8
AM_7
100
AcDbLine
 10
2.543749999999998
 20
-5.087899247233578
 30
0.0
 11
3.331249999999998
 21
-5.087899247233578
 31
0.0
  0
LINE
  5
244
330
1DE
100
AcDbEntity
  8
AM_7
100
AcDbLine
 10
2.937499999999998
 20
-5.481649247233578
 30
0.0
 11
2.937499999999998
 21
-4.694149247233578
 31
0.0
  0
LINE
  5
245
330
1DE
100
AcDbEntity
  8
AM_7
100
AcDbLine
 10
-5.31545
 20
0.0
 30
0.0
 11
5.31545
 21
0.0
 31
0.0
  0
LINE
  5
246
330
1DE
100
AcDbEntity
  8
AM_7
100
AcDbLine
 10
0.0
 20
-5.31545
 30
0.0
 11
0.0
 21
5.31545
 31
0.0
  0
CIRCLE
  5
247
330
1DE
100
AcDbEntity
  8
AM_4
100
AcDbCircle
 10
-5.087899247233577
 20
-2.9375
 30
0.0
 40
0.3209999999999997
  0
CIRCLE
  5
248
330
1DE
100
AcDbEntity
  8
AM_4
100
AcDbCircle
 10
5.087899247233577
 20
2.9375
 30
0.0
 40
0.3209999999999995
  0
CIRCLE
  5
249
330
1DE
100
AcDbEntity
  8
AM_4
100
AcDbCircle
 10
-2.937500000000002
 20
-5.087899247233576
 30
0.0
 40
0.3749999999999999
  0
ARC
  5
24A
330
1DE
100
AcDbEntity
  8
AM_4
100
AcDbCircle
 10
-3.753636828971826
 20
-3.760077067851938
 30
0.0
 40
0.1880000000000006
100
AcDbArc
 50
339.99999999999
 51
45.04907852689733
  0
LINE
  5
24B
330
1DE
100
AcDbEntity
  8
AM_4
100
AcDbLine
 10
-3.576974616264086
 20
-3.824376854797194
 30
0.0
 11
-4.043520056751437
 21
-5.106199917685697
 31
0.0
  0
ARC
  5
24C
330
1DE
100
AcDbEntity
  8
AM_4
100
AcDbCircle
 10
-1.379503846461194
 20
-5.130783384396466
 30
0.0
 40
0.1880000000000075
100
AcDbArc
 50
74.95089000970948
 51
139.9999999999982
  0
LINE
  5
24D
330
1DE
100
AcDbEntity
  8
AM_4
100
AcDbLine
 10
-2.400338817142112
 20
-6.054891048701486
 30
0.0
 11
-1.523520201767564
 21
-5.009939313775387
 31
0.0
  0
ARC
  5
24E
330
1DE
100
AcDbEntity
  8
AM_4
100
AcDbCircle
 10
-3.691135323956722
 20
-5.234457471432824
 30
0.0
 40
0.3750000000000006
100
AcDbArc
 50
159.9999999999999
 51
211.0873354824542
  0
ARC
  5
24F
330
1DE
100
AcDbEntity
  8
AM_4
100
AcDbCircle
 10
-2.687605483311743
 20
-5.813845695069039
 30
0.0
 40
0.3750000000000077
100
AcDbArc
 50
268.9126645175524
 51
320.0000000000021
  0
CIRCLE
  5
250
330
1DE
100
AcDbEntity
  8
AM_4
100
AcDbCircle
 10
2.9375
 20
5.087899247233578
 30
0.0
 40
0.3749999999999999
  0
ARC
  5
251
330
1DE
100
AcDbEntity
  8
AM_4
100
AcDbCircle
 10
2.687605483311728
 20
5.813845695069034
 30
0.0
 40
0.3750000000000014
100
AcDbArc
 50
88.91266451754595
 51
140.0000000000003
  0
ARC
  5
252
330
1DE
100
AcDbEntity
  8
AM_4
100
AcDbCircle
 10
3.69113532395672
 20
5.234457471432826
 30
0.0
 40
0.3750000000000006
100
AcDbArc
 50
339.9999999999998
 51
31.08733548245418
  0
ARC
  5
253
330
1DE
100
AcDbEntity
  8
AM_4
100
AcDbCircle
 10
3.753636828971838
 20
3.760077067851969
 30
0.0
 40
0.1880000000000032
100
AcDbArc
 50
160.0000000000001
 51
225.0491099902904
  0
LINE
  5
254
330
1DE
100
AcDbEntity
  8
AM_4
100
AcDbLine
 10
3.576974616264085
 20
3.824376854797196
 30
0.0
 11
4.043520056751436
 21
5.106199917685699
 31
0.0
  0
LINE
  5
255
330
1DE
100
AcDbEntity
  8
AM_4
100
AcDbLine
 10
2.400338817142109
 20
6.054891048701486
 30
0.0
 11
1.523520201767561
 21
5.009939313775389
 31
0.0
  0
ARC
  5
256
330
1DE
100
AcDbEntity
  8
AM_4
100
AcDbCircle
 10
1.37950384646119
 20
5.130783384396465
 30
0.0
 40
0.1880000000000063
100
AcDbArc
 50
254.9508900097098
 51
319.999999999999
  0
CIRCLE
  5
257
330
1DE
100
AcDbEntity
  8
AM_4
100
AcDbCircle
 10
-2.9375
 20
5.087899247233578
 30
0.0
 40
0.3749999999999999
  0
ARC
  5
258
330
1DE
100
AcDbEntity
  8
AM_4
100
AcDbCircle
 10
-3.753636828971838
 20
3.76007706785197
 30
0.0
 40
0.1880000000000042
100
AcDbArc
 50
314.9508900097102
 51
19.9999999999999
  0
ARC
  5
259
330
1DE
100
AcDbEntity
  8
AM_4
100
AcDbCircle
 10
-2.687605483311722
 20
5.81384569506904
 30
0.0
 40
0.3749999999999962
100
AcDbArc
 50
39.99999999999955
 51
91.08733548245456
  0
LINE
  5
25A
330
1DE
100
AcDbEntity
  8
AM_4
100
AcDbLine
 10
-1.52352020176756
 20
5.009939313775389
 30
0.0
 11
-2.400338817142107
 21
6.054891048701488
 31
0.0
  0
LINE
  5
25B
330
1DE
100
AcDbEntity
  8
AM_4
100
AcDbLine
 10
-4.043520056751433
 20
5.106199917685699
 30
0.0
 11
-3.576974616264083
 21
3.824376854797197
 31
0.0
  0
ARC
  5
25C
330
1DE
100
AcDbEntity
  8
AM_4
100
AcDbCircle
 10
-1.37950384646119
 20
5.130783384396464
 30
0.0
 40
0.1880000000000049
100
AcDbArc
 50
220.0000000000011
 51
285.0491099902902
  0
ARC
  5
25D
330
1DE
100
AcDbEntity
  8
AM_4
100
AcDbCircle
 10
-3.691135323956724
 20
5.234457471432828
 30
0.0
 40
0.3749999999999944
100
AcDbArc
 50
148.9126645175453
 51
200.0000000000007
  0
CIRCLE
  5
25E
330
1DE
100
AcDbEntity
  8
AM_4
100
AcDbCircle
 10
5.874999999999999
 20
-0.0000000000000022
 30
0.0
 40
0.3749999999999999
  0
ARC
  5
25F
330
1DE
100
AcDbEntity
  8
AM_4
100
AcDbCircle
 10
5.133140675433028
 20
1.370706316544483
 30
0.0
 40
0.1879999999999996
100
AcDbArc
 50
194.950890009709
 51
260.0000000000003
  0
LINE
  5
260
330
1DE
100
AcDbEntity
  8
AM_4
100
AcDbLine
 10
6.443858873893543
 20
0.948691131015781
 30
0.0
 11
5.100494818031646
 21
1.185562458978189
 31
0.0
  0
ARC
  5
261
330
1DE
100
AcDbEntity
  8
AM_4
100
AcDbCircle
 10
5.133140675432997
 20
-1.370706316544498
 30
0.0
 40
0.1880000000000008
100
AcDbArc
 50
99.99999999999045
 51
165.0490785268997
  0
LINE
  5
262
330
1DE
100
AcDbEntity
  8
AM_4
100
AcDbLine
 10
5.100494818031645
 20
-1.185562458978197
 30
0.0
 11
6.443858873893542
 21
-0.948691131015793
 31
0.0
  0
ARC
  5
263
330
1DE
100
AcDbEntity
  8
AM_4
100
AcDbCircle
 10
6.378740807268437
 20
-0.5793882236362053
 30
0.0
 40
0.3750000000000107
100
AcDbArc
 50
280.0000000000007
 51
331.0873354824542
  0
ARC
  5
264
330
1DE
100
AcDbEntity
  8
AM_4
100
AcDbCircle
 10
6.378740807268465
 20
0.5793882236362032
 30
0.0
 40
0.3749999999999964
100
AcDbArc
 50
28.91266451755219
 51
80.00000000000315
  0
CIRCLE
  5
265
330
1DE
100
AcDbEntity
  8
AM_4
100
AcDbCircle
 10
-5.875
 20
0.0000000000000022
 30
0.0
 40
0.3749999999999999
  0
ARC
  5
266
330
1DE
100
AcDbEntity
  8
AM_4
100
AcDbCircle
 10
-5.13314067543303
 20
-1.37070631654449
 30
0.0
 40
0.188000000000004
100
AcDbArc
 50
14.95089000970983
 51
79.99999999999929
  0
ARC
  5
267
330
1DE
100
AcDbEntity
  8
AM_4
100
AcDbCircle
 10
-6.378740807268443
 20
0.5793882236362111
 30
0.0
 40
0.3750000000000011
100
AcDbArc
 50
100.0
 51
151.0873354824549
  0
ARC
  5
268
330
1DE
100
AcDbEntity
  8
AM_4
100
AcDbCircle
 10
-6.378740807268467
 20
-0.5793882236362078
 30
0.0
 40
0.3749999999999941
100
AcDbArc
 50
208.9126645175521
 51
260.0000000000035
  0
LINE
  5
269
330
1DE
100
AcDbEntity
  8
AM_4
100
AcDbLine
 10
-6.443858873893542
 20
-0.9486911310157842
 30
0.0
 11
-5.100494818031645
 21
-1.185562458978191
 31
0.0
  0
ARC
  5
26A
330
1DE
100
AcDbEntity
  8
AM_4
100
AcDbCircle
 10
-5.133140675432999
 20
1.3707063165445
 30
0.0
 40
0.188000000000005
100
AcDbArc
 50
279.9999999999911
 51
345.0490785268957
  0
LINE
  5
26B
330
1DE
100
AcDbEntity
  8
AM_4
100
AcDbLine
 10
-5.100494818031645
 20
1.185562458978195
 30
0.0
 11
-6.443858873893542
 21
0.9486911310157902
 31
0.0
  0
CIRCLE
  5
26C
330
1DE
100
AcDbEntity
  8
AM_4
100
AcDbCircle
 10
2.937499999999998
 20
-5.087899247233578
 30
0.0
 40
0.3749999999999999
  0
LINE
  5
26D
330
1DE
100
AcDbEntity
  8
AM_4
100
AcDbLine
 10
4.043520056751431
 20
-5.106199917685703
 30
0.0
 11
3.576974616264081
 21
-3.824376854797198
 31
0.0
  0
ARC
  5
26E
330
1DE
100
AcDbEntity
  8
AM_4
100
AcDbCircle
 10
3.753636828971839
 20
-3.760077067851973
 30
0.0
 40
0.1880000000000064
100
AcDbArc
 50
134.9508900097102
 51
199.9999999999991
  0
ARC
  5
26F
330
1DE
100
AcDbEntity
  8
AM_4
100
AcDbCircle
 10
1.379503846461169
 20
-5.130783384396432
 30
0.0
 40
0.1879999999999989
100
AcDbArc
 50
39.99999999998952
 51
105.0490785268983
  0
LINE
  5
270
330
1DE
100
AcDbEntity
  8
AM_4
100
AcDbLine
 10
1.523520201767558
 20
-5.00993931377539
 30
0.0
 11
2.400338817142104
 21
-6.054891048701489
 31
0.0
  0
ARC
  5
271
330
1DE
100
AcDbEntity
  8
AM_4
100
AcDbCircle
 10
2.687605483311722
 20
-5.813845695069034
 30
0.0
 40
0.3750000000000027
100
AcDbArc
 50
220.0000000000001
 51
271.0873354824544
  0
ARC
  5
272
330
1DE
100
AcDbEntity
  8
AM_4
100
AcDbCircle
 10
3.691135323956726
 20
-5.234457471432848
 30
0.0
 40
0.3749999999999971
100
AcDbArc
 50
328.9126645175531
 51
20.00000000000338
  0
LINE
  5
273
330
1DE
100
AcDbEntity
  8
AM_4
100
AcDbLine
 10
0.5
 20
6.428571428571428
 30
0.0
 11
0.5
 21
5.048785800854264
 31
0.0
  0
LINE
  5
274
330
1DE
100
AcDbEntity
  8
AM_4
100
AcDbLine
 10
-0.5
 20
6.428571428571428
 30
0.0
 11
-0.5
 21
5.048785800854264
 31
0.0
  0
LINE
  5
275
330
1DE
100
AcDbEntity
  8
AM_4
100
AcDbLine
 10
0.5
 20
5.125
 30
0.0
 11
-0.5
 21
5.125
 31
0.0
  0
LINE
  5
276
330
1DE
100
AcDbEntity
  8
AM_4
100
AcDbLine
 10
-0.0461375584114689
 20
6.428571428571428
 30
0.0
 11
-0.5
 21
6.428571428571428
 31
0.0
  0
LINE
  5
277
330
1DE
100
AcDbEntity
  8
AM_4
100
AcDbLine
 10
0.5
 20
6.428571428571428
 30
0.0
 11
0.0461375584114689
 21
6.428571428571428
 31
0.0
  0
CIRCLE
  5
278
330
1DE
100
AcDbEntity
  8
AM_4
100
AcDbCircle
 10
0.0
 20
0.0
 30
0.0
 40
3.936999999999999
  0
CIRCLE
  5
279
330
1DE
100
AcDbEntity
  8
AM_4
100
AcDbCircle
 10
0.0
 20
0.0
 30
0.0
 40
5.062333333333333
  0
ARC
  5
27A
330
1DE
100
AcDbEntity
  8
AM_4
100
AcDbCircle
 10
0.0000000000000001
 20
-0.0000000002082015
 30
0.0
 40
5.073483819330654
100
AcDbArc
 50
84.3442281426464
 51
95.65577185735361
  0
ARC
  5
27B
330
1DE
100
AcDbEntity
  8
AM_4
100
AcDbCircle
 10
0.0000000000000312
 20
-0.0000000000001448
 30
0.0
 40
5.125000000000147
100
AcDbArc
 50
95.59873781622879
 51
112.6825250518553
  0
LWPOLYLINE
  5
27C
330
1DE
100
AcDbEntity
  8
AM_4
100
AcDbPolyline
 90
        4
 70
     0
 43
0.0
 10
-2.037749638073658
 20
4.68703990135505
 10
-1.992868294252259
 20
4.720726459715472
 10
-1.976770370863675
 20
4.728424451737959
 10
-1.976326354430426
 20
4.728610698797665
  0
ARC
  5
27D
330
1DE
100
AcDbEntity
  8
AM_4
100
AcDbCircle
 10
0.0000000000000102
 20
-0.0000000000000151
 30
0.0
 40
5.110847935946036
100
AcDbArc
 50
113.4976013529756
 51
126.5023986470244
  0
LWPOLYLINE
  5
27E
330
1DE
100
AcDbEntity
  8
AM_4
100
AcDbPolyline
 90
        3
 70
     0
 43
0.0
 10
-3.106933812550447
 20
4.075854178504272
 10
-3.106550509648582
 20
4.076145584485426
 10
-3.040220804087954
 20
4.108262903801857
  0
ARC
  5
27F
330
1DE
100
AcDbEntity
  8
AM_4
100
AcDbCircle
 10
-0.0000000000000022
 20
-0.0000000000000009
 30
0.0
 40
5.124999999999998
100
AcDbArc
 50
127.3174749481444
 51
172.6825250518555
  0
LWPOLYLINE
  5
280
330
1DE
100
AcDbEntity
  8
AM_4
100
AcDbPolyline
 90
        4
 70
     0
 43
0.0
 10
-5.077970442161612
 20
0.5787769975531948
 10
-5.084703185557105
 20
0.6344886606387177
 10
-5.083320880512418
 20
0.6522788672526274
 10
-5.083260166980878
 20
0.6527565202933947
  0
ARC
  5
281
330
1DE
100
AcDbEntity
  8
AM_4
100
AcDbCircle
 10
-0.0000000000000009
 20
0.0000000000000107
 30
0.0
 40
5.110847935946017
100
AcDbArc
 50
173.4976013529757
 51
186.5023986470245
  0
LWPOLYLINE
  5
282
330
1DE
100
AcDbEntity
  8
AM_4
100
AcDbPolyline
 90
        3
 70
     0
 43
0.0
 10
-5.083260166980878
 20
-0.6527565202933894
 10
-5.083320880512448
 20
-0.652278867252384
 10
-5.07797044216161
 20
-0.5787769975531889
  0
ARC
  5
283
330
1DE
100
AcDbEntity
  8
AM_4
100
AcDbCircle
 10
0.0000000000000178
 20
0.0000000000000093
 30
0.0
 40
5.125000000000019
100
AcDbArc
 50
187.3174749481445
 51
232.6825250518554
  0
LWPOLYLINE
  5
284
330
1DE
100
AcDbEntity
  8
AM_4
100
AcDbPolyline
 90
        4
 70
     0
 43
0.0
 10
-3.040220804087953
 20
-4.108262903801857
 10
-3.091834891304847
 20
-4.086237799076753
 10
-3.106550509648796
 20
-4.076145584485266
 10
-3.10693381255045
 20
-4.075854178504271
  0
ARC
  5
285
330
1DE
100
AcDbEntity
  8
AM_4
100
AcDbCircle
 10
0.0000000000000004
 20
-0.0000000000000107
 30
0.0
 40
5.110847935946009
100
AcDbArc
 50
233.4976013529755
 51
246.5023986470244
  0
LWPOLYLINE
  5
286
330
1DE
100
AcDbEntity
  8
AM_4
100
AcDbPolyline
 90
        3
 70
     0
 43
0.0
 10
-1.976326354430432
 20
-4.728610698797662
 10
-1.976770370863822
 20
-4.728424451737895
 10
-2.037749638073659
 20
-4.68703990135505
  0
ARC
  5
287
330
1DE
100
AcDbEntity
  8
AM_4
100
AcDbCircle
 10
0.0000000000000011
 20
-0.0000000000000009
 30
0.0
 40
5.124999999999999
100
AcDbArc
 50
247.3174749481443
 51
292.6825250518555
  0
LWPOLYLINE
  5
288
330
1DE
100
AcDbEntity
  8
AM_4
100
AcDbPolyline
 90
        4
 70
     0
 43
0.0
 10
2.037749638073656
 20
-4.68703990135505
 10
1.992868294252255
 20
-4.720726459715474
 10
1.976770370863614
 20
-4.728424451737983
 10
1.976326354430425
 20
-4.728610698797665
  0
ARC
  5
289
330
1DE
100
AcDbEntity
  8
AM_4
100
AcDbCircle
 10
0.0000000000000879
 20
-0.0000000000001528
 30
0.0
 40
5.110847935945842
100
AcDbArc
 50
293.4976013529753
 51
306.5023986470246
  0
LWPOLYLINE
  5
28A
330
1DE
100
AcDbEntity
  8
AM_4
100
AcDbPolyline
 90
        3
 70
     0
 43
0.0
 10
3.106933812550446
 20
-4.075854178504274
 10
3.10655050964856
 20
-4.076145584485444
 10
3.04022080408795
 20
-4.10826290380186
  0
ARC
  5
28B
330
1DE
100
AcDbEntity
  8
AM_4
100
AcDbCircle
 10
-0.0000000000000169
 20
0.0000000000000107
 30
0.0
 40
5.125000000000019
100
AcDbArc
 50
307.3174749481445
 51
352.6825250518555
  0
LWPOLYLINE
  5
28C
330
1DE
100
AcDbEntity
  8
AM_4
100
AcDbPolyline
 90
        4
 70
     0
 43
0.0
 10
5.07797044216161
 20
-0.5787769975531936
 10
5.084703185557105
 20
-0.6344886606387214
 10
5.083320880512416
 20
-0.6522788672526513
 10
5.083260166980878
 20
-0.652756520293396
  0
ARC
  5
28D
330
1DE
100
AcDbEntity
  8
AM_4
100
AcDbCircle
 10
0.0000000000001501
 20
-0.0000000000000026
 30
0.0
 40
5.110847935945868
100
AcDbArc
 50
353.4976013529754
 51
6.502398647024596
  0
LWPOLYLINE
  5
28E
330
1DE
100
AcDbEntity
  8
AM_4
100
AcDbPolyline
 90
        3
 70
     0
 43
0.0
 10
5.083260166980878
 20
0.6527565202933877
 10
5.083320880512448
 20
0.6522788672523856
 10
5.07797044216161
 20
0.5787769975531883
  0
ARC
  5
28F
330
1DE
100
AcDbEntity
  8
AM_4
100
AcDbCircle
 10
-0.0000000000000027
 20
-0.0000000000000004
 30
0.0
 40
5.125000000000003
100
AcDbArc
 50
7.317474948144428
 51
52.68252505185552
  0
LWPOLYLINE
  5
290
330
1DE
100
AcDbEntity
  8
AM_4
100
AcDbPolyline
 90
        4
 70
     0
 43
0.0
 10
3.040220804087954
 20
4.108262903801857
 10
3.091834891304848
 20
4.086237799076752
 10
3.106550509648849
 20
4.076145584485224
 10
3.106933812550448
 20
4.075854178504271
  0
ARC
  5
291
330
1DE
100
AcDbEntity
  8
AM_4
100
AcDbCircle
 10
-0.0000000000000249
 20
-0.0000000000000382
 30
0.0
 40
5.110847935946063
100
AcDbArc
 50
53.49760135297563
 51
66.5023986470243
  0
LWPOLYLINE
  5
292
330
1DE
100
AcDbEntity
  8
AM_4
100
AcDbPolyline
 90
        3
 70
     0
 43
0.0
 10
1.97632635443043
 20
4.728610698797663
 10
1.976770370863947
 20
4.728424451737843
 10
2.037749638073659
 20
4.68703990135505
  0
ARC
  5
293
330
1DE
100
AcDbEntity
  8
AM_4
100
AcDbCircle
 10
-0.0000000000014222
 20
-0.0000000000042553
 30
0.0
 40
5.125000000004475
100
AcDbArc
 50
67.31747494814809
 51
84.40126218376034
  0
ARC
  5
294
330
1DE
100
AcDbEntity
  8
AM_5
100
AcDbCircle
 10
5.087899247233578
 20
2.9375
 30
0.0
 40
0.3749999999999999
100
AcDbArc
 50
75.00000000000006
 51
15.00000000000004
  0
ARC
  5
295
330
1DE
100
AcDbEntity
  8
AM_5
100
AcDbCircle
 10
-5.087899247233577
 20
-2.937500000000001
 30
0.0
 40
0.3749999999999993
100
AcDbArc
 50
254.9999999999999
 51
194.9999999999998
  0
CIRCLE
  5
296
330
1DE
100
AcDbEntity
  8
AM_4
100
AcDbCircle
 10
0.0000000000000098
 20
-0.0000000000000067
 30
0.0
 40
6.750000000000011
  0
ENDBLK
  5
1E1
330
1DE
100
AcDbEntity
  8
0
100
AcDbBlockEnd
  0
ENDSEC
  0
SECTION
  2
ENTITIES
  0
INSERT
  5
6F
330
1F
100
AcDbEntity
  8
0
100
AcDbBlockReference
  2
1_071285_0
 10
0.0
 20
0.0
 30
0.0
  0
POINT
  5
298
330
1F
100
AcDbEntity
  8
ConnectionPoints
100
AcDbPoint
 10
0.0
 20
-2.859375
 30
2.3275
  0
POINT
  5
299
330
1F
100
AcDbEntity
  8
ConnectionPoints
100
AcDbPoint
 10
0.0
 20
2.859375
 30
2.3275
  0
POINT
  5
29A
330
1F
100
AcDbEntity
  8
ConnectionPoints
100
AcDbPoint
 10
0.0
 20
0.0
 30
2.2575
  0
POINT
  5
29B
330
1F
100
AcDbEntity
  8
ConnectionPoints
100
AcDbPoint
 10
0.0
 20
0.0
 30
2.65
  0
POINT
  5
29C
330
1F
100
AcDbEntity
  8
ConnectionPoints
100
AcDbPoint
 10
0.0
 20
0.0
 30
2.4565
  0
POINT
  5
29D
330
1F
100
AcDbEntity
  8
ConnectionPoints
100
AcDbPoint
 10
0.0
 20
2.859375
 30
2.2575
  0
POINT
  5
29E
330
1F
100
AcDbEntity
  8
ConnectionPoints
100
AcDbPoint
 10
0.0
 20
-2.859375
 30
2.2575
  0
POINT
  5
29F
330
1F
100
AcDbEntity
  8
ConnectionPoints
100
AcDbPoint
 10
0.0
 20
0.0
 30
2.2575
  0
POINT
  5
2A0
330
1F
100
AcDbEntity
  8
ConnectionPoints
100
AcDbPoint
 10
0.0
 20
6.161632408329973
 30
1.3505
  0
POINT
  5
2A1
330
1F
100
AcDbEntity
  8
ConnectionPoints
100
AcDbPoint
 10
0.0
 20
5.776785714285714
 30
1.57269134240319
  0
POINT
  5
2A2
330
1F
100
AcDbEntity
  8
ConnectionPoints
100
AcDbPoint
 10
0.0
 20
0.0
 30
2.65
  0
POINT
  5
2A3
330
1F
100
AcDbEntity
  8
ConnectionPoints
100
AcDbPoint
 10
0.0
 20
0.0
 30
3.03
  0
ENDSEC
  0
SECTION
  2
OBJECTS
  0
DICTIONARY
  5
C
330
0
100
AcDbDictionary
281
     1
  3
ACAD_DETAILVIEWSTYLE
350
2AB
  3
ACAD_GROUP
350
D
  3
ACAD_LAYOUT
350
1A
  3
ACAD_MATERIAL
350
43
  3
ACAD_MLEADERSTYLE
350
6B
  3
ACAD_MLINESTYLE
350
17
  3
ACAD_PLOTSETTINGS
350
19
  3
ACAD_PLOTSTYLENAME
350
E
  3
ACAD_SCALELIST
350
47
  3
ACAD_SECTIONVIEWSTYLE
350
2AC
  3
ACAD_TABLESTYLE
350
69
  3
ACAD_VISUALSTYLE
350
2A
  3
ACDB_RECOMPOSE_DATA
350
2A8
  3
AcDbVariableDictionary
350
2A4
  0
SUN
  5
6D
330
29
100
AcDbSun
 90
        1
290
     0
 63
     7
421
 16777215
 40
1.0
291
     1
 91
  2455826
 92
 54000000
292
     0
 70
     2
 71
   256
280
     1
  0
DICTIONARY
  5
2AB
102
{ACAD_REACTORS
330
C
102
}
330
C
100
AcDbDictionary
281
     1
  0
DICTIONARY
  5
D
102
{ACAD_REACTORS
330
C
102
}
330
C
100
AcDbDictionary
281
     1
  0
DICTIONARY
  5
1A
102
{ACAD_REACTORS
330
C
102
}
330
C
100
AcDbDictionary
281
     1
  3
Layout1
350
1E
  3
Layout2
350
26
  3
Model
350
22
  0
DICTIONARY
  5
43
102
{ACAD_REACTORS
330
C
102
}
330
C
100
AcDbDictionary
281
     1
  3
ByBlock
350
45
  3
ByLayer
350
44
  3
Global
350
46
  0
DICTIONARY
  5
6B
102
{ACAD_REACTORS
330
C
102
}
330
C
100
AcDbDictionary
281
     1
  3
Standard
350
6C
  0
DICTIONARY
  5
17
102
{ACAD_REACTORS
330
C
102
}
330
C
100
AcDbDictionary
281
     1
  3
Standard
350
18
  0
DICTIONARY
  5
19
102
{ACAD_REACTORS
330
C
102
}
330
C
100
AcDbDictionary
281
     1
  0
ACDBDICTIONARYWDFLT
  5
E
102
{ACAD_REACTORS
330
C
102
}
330
C
100
AcDbDictionary
281
     1
  3
Normal
350
F
100
AcDbDictionaryWithDefault
340
F
  0
DICTIONARY
  5
47
102
{ACAD_REACTORS
330
C
102
}
330
C
100
AcDbDictionary
281
     1
  3
A0
350
48
  3
A1
350
49
  3
A2
350
4A
  3
A3
350
4B
  3
A4
350
4C
  3
A5
350
4D
  3
A6
350
4E
  3
A7
350
4F
  3
A8
350
50
  3
A9
350
51
  3
B0
350
52
  3
B1
350
53
  3
B2
350
54
  3
B3
350
55
  3
B4
350
56
  3
B5
350
57
  3
B6
350
58
  3
B7
350
59
  3
B8
350
5A
  3
B9
350
5B
  3
C0
350
5C
  3
C1
350
5D
  3
C2
350
5E
  3
C3
350
5F
  3
C4
350
60
  3
C5
350
61
  3
C6
350
62
  3
C7
350
63
  3
C8
350
64
  3
C9
350
65
  3
D0
350
66
  3
D1
350
67
  3
D2
350
68
  0
DICTIONARY
  5
2AC
102
{ACAD_REACTORS
330
C
102
}
330
C
100
AcDbDictionary
281
     1
  0
DICTIONARY
  5
69
102
{ACAD_REACTORS
330
C
102
}
330
C
100
AcDbDictionary
281
     1
  3
Standard
350
6A
  0
DICTIONARY
  5
2A
102
{ACAD_REACTORS
330
C
102
}
330
C
100
AcDbDictionary
281
     1
  3
2dWireframe
350
2F
  3
Basic
350
32
  3
Brighten
350
36
  3
ColorChange
350
3A
  3
Conceptual
350
34
  3
Dim
350
35
  3
EdgeColorOff
350
3D
  3
Facepattern
350
39
  3
Flat
350
2B
  3
FlatWithEdges
350
2C
  3
Gouraud
350
2D
  3
GouraudWithEdges
350
2E
  3
Hidden
350
31
  3
JitterOff
350
3B
  3
Linepattern
350
38
  3
OverhangOff
350
3C
  3
Realistic
350
33
  3
Shaded
350
42
  3
Shaded with edges
350
41
  3
Shades of Gray
350
3E
  3
Sketchy
350
3F
  3
Thicken
350
37
  3
Wireframe
350
30
  3
X-Ray
350
40
  0
XRECORD
  5
2A8
102
{ACAD_REACTORS
330
C
102
}
330
C
100
AcDbXrecord
280
     1
 90
        1
330
6A
  0
DICTIONARY
  5
2A4
102
{ACAD_REACTORS
330
C
102
}
330
C
100
AcDbDictionary
281
     1
  3
CANNOSCALE
350
2A5
  3
CMLEADERSTYLE
350
2AA
  3
CTABLESTYLE
350
2A9
  0
LAYOUT
  5
1E
102
{ACAD_REACTORS
330
1A
102
}
330
1A
100
AcDbPlotSettings
  1

  2
none_device
  4

  6

 40
0.0
 41
0.0
 42
0.0
 43
0.0
 44
0.0
 45
0.0
 46
0.0
 47
0.0
 48
0.0
 49
0.0
140
0.0
141
0.0
142
1.0
143
1.0
 70
   688
 72
     0
 73
     0
 74
     5
  7

 75
    16
 76
     0
 77
     2
 78
   300
147
1.0
148
0.0
149
0.0
100
AcDbLayout
  1
Layout1
 70
     1
 71
     1
 10
0.0
 20
0.0
 11
12.0
 21
9.0
 12
0.0
 22
0.0
 32
0.0
 14
1.000000000000000E+20
 24
1.000000000000000E+20
 34
1.000000000000000E+20
 15
-1.000000000000000E+20
 25
-1.000000000000000E+20
 35
-1.000000000000000E+20
146
0.0
 13
0.0
 23
0.0
 33
0.0
 16
1.0
 26
0.0
 36
0.0
 17
0.0
 27
1.0
 37
0.0
 76
     0
330
1B
  0
LAYOUT
  5
26
102
{ACAD_REACTORS
330
1A
102
}
330
1A
100
AcDbPlotSettings
  1

  2
none_device
  4

  6

 40
0.0
 41
0.0
 42
0.0
 43
0.0
 44
0.0
 45
0.0
 46
0.0
 47
0.0
 48
0.0
 49
0.0
140
0.0
141
0.0
142
1.0
143
1.0
 70
   688
 72
     0
 73
     0
 74
     5
  7

 75
    16
 76
     0
 77
     2
 78
   300
147
1.0
148
0.0
149
0.0
100
AcDbLayout
  1
Layout2
 70
     1
 71
     2
 10
0.0
 20
0.0
 11
0.0
 21
0.0
 12
0.0
 22
0.0
 32
0.0
 14
0.0
 24
0.0
 34
0.0
 15
0.0
 25
0.0
 35
0.0
146
0.0
 13
0.0
 23
0.0
 33
0.0
 16
1.0
 26
0.0
 36
0.0
 17
0.0
 27
1.0
 37
0.0
 76
     0
330
23
  0
LAYOUT
  5
22
102
{ACAD_REACTORS
330
1A
102
}
330
1A
100
AcDbPlotSettings
  1

  2
none_device
  4
Letter_(8.50_x_11.00_Inches)
  6

 40
6.35
 41
6.35
 42
6.35000508
 43
6.35000508
 44
215.9
 45
279.4
 46
0.0
 47
0.0
 48
0.0
 49
0.0
140
0.0
141
0.0
142
1.0
143
1.0
 70
  1712
 72
     0
 73
     0
 74
     0
  7

 75
     0
 76
     0
 77
     2
 78
   300
147
1.0
148
0.0
149
0.0
100
AcDbLayout
  1
Model
 70
     1
 71
     0
 10
0.0
 20
0.0
 11
12.0
 21
9.0
 12
0.0
 22
0.0
 32
0.0
 14
1.000000000000000E+20
 24
1.000000000000000E+20
 34
1.000000000000000E+20
 15
-1.000000000000000E+20
 25
-1.000000000000000E+20
 35
-1.000000000000000E+20
146
0.0
 13
0.0
 23
0.0
 33
0.0
 16
1.0
 26
0.0
 36
0.0
 17
0.0
 27
1.0
 37
0.0
 76
     0
330
1F
331
29
  0
MATERIAL
  5
45
102
{ACAD_REACTORS
330
43
102
}
330
43
100
AcDbMaterial
  1
ByBlock
 72
     1
 94
      127
  0
MATERIAL
  5
44
102
{ACAD_REACTORS
330
43
102
}
330
43
100
AcDbMaterial
  1
ByLayer
 72
     1
 94
      127
  0
MATERIAL
  5
46
102
{ACAD_REACTORS
330
43
102
}
330
43
100
AcDbMaterial
  1
Global
 72
     1
 94
      127
  0
MLEADERSTYLE
  5
6C
102
{ACAD_REACTORS
330
6B
102
}
330
6B
100
AcDbMLeaderStyle
179
     2
170
     2
171
     1
172
     0
 90
        2
 40
0.0
 41
0.0
173
     1
 91
-1056964608
340
14
 92
       -2
290
     1
 42
0.09
291
     1
 43
0.36
  3
Standard
341
0
 44
0.18
300

342
11
174
     1
178
     6
175
     1
176
     0
 93
-1056964608
 45
0.18
292
     0
297
     0
 46
0.18
343
0
 94
-1056964608
 47
1.0
 49
1.0
140
1.0
293
     1
141
0.0
294
     1
177
     0
142
1.0
295
     0
296
     0
143
0.125
271
     0
272
     9
273
     9
298
     0
  0
MLINESTYLE
  5
18
102
{ACAD_REACTORS
330
17
102
}
330
17
100
AcDbMlineStyle
  2
Standard
 70
     0
  3

 62
   256
 51
90.0
 52
90.0
 71
     2
 49
0.5
 62
   256
  6
BYLAYER
 49
-0.5
 62
   256
  6
BYLAYER
  0
ACDBPLACEHOLDER
  5
F
102
{ACAD_REACTORS
330
E
102
}
330
E
  0
SCALE
  5
48
102
{ACAD_REACTORS
330
47
102
}
330
47
100
AcDbScale
 70
     0
300
1:1
140
1.0
141
1.0
290
     1
  0
SCALE
  5
49
102
{ACAD_REACTORS
330
47
102
}
330
47
100
AcDbScale
 70
     0
300
1:2
140
1.0
141
2.0
290
     0
  0
SCALE
  5
4A
102
{ACAD_REACTORS
330
47
102
}
330
47
100
AcDbScale
 70
     0
300
1:4
140
1.0
141
4.0
290
     0
  0
SCALE
  5
4B
102
{ACAD_REACTORS
330
47
102
}
330
47
100
AcDbScale
 70
     0
300
1:5
140
1.0
141
5.0
290
     0
  0
SCALE
  5
4C
102
{ACAD_REACTORS
330
47
102
}
330
47
100
AcDbScale
 70
     0
300
1:8
140
1.0
141
8.0
290
     0
  0
SCALE
  5
4D
102
{ACAD_REACTORS
330
47
102
}
330
47
100
AcDbScale
 70
     0
300
1:10
140
1.0
141
10.0
290
     0
  0
SCALE
  5
4E
102
{ACAD_REACTORS
330
47
102
}
330
47
100
AcDbScale
 70
     0
300
1:16
140
1.0
141
16.0
290
     0
  0
SCALE
  5
4F
102
{ACAD_REACTORS
330
47
102
}
330
47
100
AcDbScale
 70
     0
300
1:20
140
1.0
141
20.0
290
     0
  0
SCALE
  5
50
102
{ACAD_REACTORS
330
47
102
}
330
47
100
AcDbScale
 70
     0
300
1:30
140
1.0
141
30.0
290
     0
  0
SCALE
  5
51
102
{ACAD_REACTORS
330
47
102
}
330
47
100
AcDbScale
 70
     0
300
1:40
140
1.0
141
40.0
290
     0
  0
SCALE
  5
52
102
{ACAD_REACTORS
330
47
102
}
330
47
100
AcDbScale
 70
     0
300
1:50
140
1.0
141
50.0
290
     0
  0
SCALE
  5
53
102
{ACAD_REACTORS
330
47
102
}
330
47
100
AcDbScale
 70
     0
300
1:100
140
1.0
141
100.0
290
     0
  0
SCALE
  5
54
102
{ACAD_REACTORS
330
47
102
}
330
47
100
AcDbScale
 70
     0
300
2:1
140
2.0
141
1.0
290
     0
  0
SCALE
  5
55
102
{ACAD_REACTORS
330
47
102
}
330
47
100
AcDbScale
 70
     0
300
4:1
140
4.0
141
1.0
290
     0
  0
SCALE
  5
56
102
{ACAD_REACTORS
330
47
102
}
330
47
100
AcDbScale
 70
     0
300
8:1
140
8.0
141
1.0
290
     0
  0
SCALE
  5
57
102
{ACAD_REACTORS
330
47
102
}
330
47
100
AcDbScale
 70
     0
300
10:1
140
10.0
141
1.0
290
     0
  0
SCALE
  5
58
102
{ACAD_REACTORS
330
47
102
}
330
47
100
AcDbScale
 70
     0
300
100:1
140
100.0
141
1.0
290
     0
  0
SCALE
  5
59
102
{ACAD_REACTORS
330
47
102
}
330
47
100
AcDbScale
 70
     0
300
1/128" = 1'-0"
140
0.0078125
141
12.0
290
     0
  0
SCALE
  5
5A
102
{ACAD_REACTORS
330
47
102
}
330
47
100
AcDbScale
 70
     0
300
1/64" = 1'-0"
140
0.015625
141
12.0
290
     0
  0
SCALE
  5
5B
102
{ACAD_REACTORS
330
47
102
}
330
47
100
AcDbScale
 70
     0
300
1/32" = 1'-0"
140
0.03125
141
12.0
290
     0
  0
SCALE
  5
5C
102
{ACAD_REACTORS
330
47
102
}
330
47
100
AcDbScale
 70
     0
300
1/16" = 1'-0"
140
0.0625
141
12.0
290
     0
  0
SCALE
  5
5D
102
{ACAD_REACTORS
330
47
102
}
330
47
100
AcDbScale
 70
     0
300
3/32" = 1'-0"
140
0.09375
141
12.0
290
     0
  0
SCALE
  5
5E
102
{ACAD_REACTORS
330
47
102
}
330
47
100
AcDbScale
 70
     0
300
1/8" = 1'-0"
140
0.125
141
12.0
290
     0
  0
SCALE
  5
5F
102
{ACAD_REACTORS
330
47
102
}
330
47
100
AcDbScale
 70
     0
300
3/16" = 1'-0"
140
0.1875
141
12.0
290
     0
  0
SCALE
  5
60
102
{ACAD_REACTORS
330
47
102
}
330
47
100
AcDbScale
 70
     0
300
1/4" = 1'-0"
140
0.25
141
12.0
290
     0
  0
SCALE
  5
61
102
{ACAD_REACTORS
330
47
102
}
330
47
100
AcDbScale
 70
     0
300
3/8" = 1'-0"
140
0.375
141
12.0
290
     0
  0
SCALE
  5
62
102
{ACAD_REACTORS
330
47
102
}
330
47
100
AcDbScale
 70
     0
300
1/2" = 1'-0"
140
0.5
141
12.0
290
     0
  0
SCALE
  5
63
102
{ACAD_REACTORS
330
47
102
}
330
47
100
AcDbScale
 70
     0
300
3/4" = 1'-0"
140
0.75
141
12.0
290
     0
  0
SCALE
  5
64
102
{ACAD_REACTORS
330
47
102
}
330
47
100
AcDbScale
 70
     0
300
1" = 1'-0"
140
1.0
141
12.0
290
     0
  0
SCALE
  5
65
102
{ACAD_REACTORS
330
47
102
}
330
47
100
AcDbScale
 70
     0
300
1-1/2" = 1'-0"
140
1.5
141
12.0
290
     0
  0
SCALE
  5
66
102
{ACAD_REACTORS
330
47
102
}
330
47
100
AcDbScale
 70
     0
300
3" = 1'-0"
140
3.0
141
12.0
290
     0
  0
SCALE
  5
67
102
{ACAD_REACTORS
330
47
102
}
330
47
100
AcDbScale
 70
     0
300
6" = 1'-0"
140
6.0
141
12.0
290
     0
  0
SCALE
  5
68
102
{ACAD_REACTORS
330
47
102
}
330
47
100
AcDbScale
 70
     0
300
1'-0" = 1'-0"
140
12.0
141
12.0
290
     0
  0
TABLESTYLE
  5
6A
102
{ACAD_REACTORS
330
69
102
}
102
{ACAD_XDICTIONARY
360
2A6
102
}
330
69
100
AcDbTableStyle
  3
Standard
 70
     0
 71
     0
 40
0.06
 41
0.06
280
     0
281
     0
  7
Standard
140
0.18
170
     2
 62
     0
 63
   257
283
     0
 90
        4
 91
        0
  1

274
    -2
284
     1
 64
     0
275
    -2
285
     1
 65
     0
276
    -2
286
     1
 66
     0
277
    -2
287
     1
 67
     0
278
    -2
288
     1
 68
     0
279
    -2
289
     1
 69
     0
  7
Standard
140
0.25
170
     5
 62
     0
 63
   257
283
     0
 90
        4
 91
        0
  1

274
    -2
284
     1
 64
     0
275
    -2
285
     1
 65
     0
276
    -2
286
     1
 66
     0
277
    -2
287
     1
 67
     0
278
    -2
288
     1
 68
     0
279
    -2
289
     1
 69
     0
  7
Standard
140
0.18
170
     5
 62
     0
 63
   257
283
     0
 90
        4
 91
        0
  1

274
    -2
284
     1
 64
     0
275
    -2
285
     1
 65
     0
276
    -2
286
     1
 66
     0
277
    -2
287
     1
 67
     0
278
    -2
288
     1
 68
     0
279
    -2
289
     1
 69
     0
  0
VISUALSTYLE
  5
2F
102
{ACAD_REACTORS
330
2A
102
}
330
2A
100
AcDbVisualStyle
  2
2dWireframe
 70
     4
177
     3
291
     0
 70
    58
 90
        0
176
     1
 90
        2
176
     1
 90
        0
176
     1
 90
        0
176
     1
 40
0.6
176
     1
 40
30.0
176
     1
 62
     7
420
 16777215
176
     1
 90
        1
176
     1
 90
        4
176
     1
 62
     7
176
     1
 62
   257
176
     1
 90
        1
176
     1
 90
        1
176
     1
 40
1.0
176
     1
 90
        0
176
     1
 62
   257
176
     1
 40
1.0
176
     1
 90
        1
176
     1
 90
        6
176
     1
 90
        2
176
     1
 62
     7
176
     1
 90
        5
176
     1
 90
        0
176
     1
 90
        0
176
     1
290
     0
176
     1
 90
        1
176
     1
 40
0.0
176
     1
 90
        0
176
     1
290
     1
176
     1
290
     1
176
     1
290
     0
176
     1
290
     0
176
     1
290
     0
176
     1
290
     0
176
     1
290
     0
176
     1
290
     0
176
     1
290
     0
176
     1
 90
       50
176
     1
 40
0.0
176
     1
 40
1.0
176
     1
 90
        0
176
     1
 62
    18
420
        0
176
     1
 90
       50
176
     1
 90
        3
176
     1
 62
     5
420
      255
176
     1
290
     0
176
     1
 90
       50
176
     1
 90
       50
176
     1
 90
       50
176
     1
290
     0
176
     1
 90
       50
176
     1
 62
   256
176
     0
 40
1.0
176
     0
 90
        2
176
     1
  1
strokes_ogs.tif
176
     1
290
     0
176
     1
 40
1.0
176
     1
 40
1.0
176
     1
  0
VISUALSTYLE
  5
32
102
{ACAD_REACTORS
330
2A
102
}
330
2A
100
AcDbVisualStyle
  2
Basic
 70
     7
177
     3
291
     1
 70
    58
 90
        1
176
     1
 90
        0
176
     1
 90
        1
176
     1
 90
        0
176
     1
 40
0.6
176
     1
 40
30.0
176
     1
 62
     7
420
 16777215
176
     1
 90
        0
176
     1
 90
        4
176
     1
 62
     7
176
     1
 62
   257
176
     1
 90
        1
176
     1
 90
        1
176
     1
 40
1.0
176
     1
 90
        8
176
     1
 62
     7
176
     1
 40
1.0
176
     1
 90
        1
176
     1
 90
        6
176
     1
 90
        2
176
     1
 62
     7
176
     1
 90
        5
176
     1
 90
        0
176
     1
 90
        0
176
     1
290
     0
176
     1
 90
        1
176
     1
 40
0.0
176
     1
 90
        0
176
     1
290
     0
176
     1
290
     1
176
     1
290
     1
176
     1
290
     0
176
     1
290
     0
176
     1
290
     0
176
     1
290
     0
176
     1
290
     0
176
     1
290
     0
176
     1
 90
       50
176
     1
 40
0.0
176
     1
 40
1.0
176
     1
 90
        0
176
     1
 62
    18
420
        0
176
     1
 90
       50
176
     1
 90
        3
176
     1
 62
     5
420
      255
176
     1
290
     0
176
     1
 90
       50
176
     1
 90
       50
176
     1
 90
       50
176
     1
290
     0
176
     1
 90
       50
176
     1
 62
   256
176
     0
 40
1.0
176
     0
 90
        2
176
     1
  1
strokes_ogs.tif
176
     1
290
     0
176
     1
 40
1.0
176
     1
 40
1.0
176
     1
  0
VISUALSTYLE
  5
36
102
{ACAD_REACTORS
330
2A
102
}
330
2A
100
AcDbVisualStyle
  2
Brighten
 70
    12
177
     3
291
     1
 70
    58
 90
        2
176
     1
 90
        2
176
     1
 90
        0
176
     1
 90
        0
176
     1
 40
0.6
176
     1
 40
30.0
176
     1
 62
     7
420
 16777215
176
     1
 90
        1
176
     1
 90
        4
176
     1
 62
     7
176
     1
 62
   257
176
     1
 90
        1
176
     1
 90
        1
176
     1
 40
1.0
176
     1
 90
        8
176
     1
 62
     7
176
     1
 40
1.0
176
     1
 90
        1
176
     1
 90
        6
176
     1
 90
        2
176
     1
 62
     7
176
     1
 90
        5
176
     1
 90
        0
176
     1
 90
        0
176
     1
290
     0
176
     1
 90
        1
176
     1
 40
50.0
176
     1
 90
        0
176
     1
290
     0
176
     1
290
     1
176
     1
290
     1
176
     1
290
     0
176
     1
290
     0
176
     1
290
     0
176
     1
290
     0
176
     1
290
     0
176
     1
290
     0
176
     1
 90
       50
176
     1
 40
0.0
176
     1
 40
1.0
176
     1
 90
        0
176
     1
 62
    18
420
        0
176
     1
 90
       50
176
     1
 90
        3
176
     1
 62
     5
420
      255
176
     1
290
     0
176
     1
 90
       50
176
     1
 90
       50
176
     1
 90
       50
176
     1
290
     0
176
     1
 90
       50
176
     1
 62
   256
176
     0
 40
1.0
176
     0
 90
        2
176
     1
  1
strokes_ogs.tif
176
     1
290
     0
176
     1
 40
1.0
176
     1
 40
1.0
176
     1
  0
VISUALSTYLE
  5
3A
102
{ACAD_REACTORS
330
2A
102
}
330
2A
100
AcDbVisualStyle
  2
ColorChange
 70
    16
177
     3
291
     1
 70
    58
 90
        2
176
     1
 90
        2
176
     1
 90
        3
176
     1
 90
        0
176
     1
 40
0.6
176
     1
 40
30.0
176
     1
 62
     8
420
  8421504
176
     1
 90
        1
176
     1
 90
        4
176
     1
 62
     7
176
     1
 62
   257
176
     1
 90
        1
176
     1
 90
        1
176
     1
 40
1.0
176
     1
 90
        8
176
     1
 62
     8
420
  8421504
176
     1
 40
1.0
176
     1
 90
        1
176
     1
 90
        6
176
     1
 90
        2
176
     1
 62
     7
176
     1
 90
        5
176
     1
 90
        0
176
     1
 90
        0
176
     1
290
     0
176
     1
 90
        1
176
     1
 40
0.0
176
     1
 90
        0
176
     1
290
     0
176
     1
290
     1
176
     1
290
     1
176
     1
290
     0
176
     1
290
     0
176
     1
290
     0
176
     1
290
     0
176
     1
290
     0
176
     1
290
     0
176
     1
 90
       50
176
     1
 40
0.0
176
     1
 40
1.0
176
     1
 90
        0
176
     1
 62
    18
420
        0
176
     1
 90
       50
176
     1
 90
        3
176
     1
 62
     5
420
      255
176
     1
290
     0
176
     1
 90
       50
176
     1
 90
       50
176
     1
 90
       50
176
     1
290
     0
176
     1
 90
       50
176
     1
 62
   256
176
     0
 40
1.0
176
     0
 90
        2
176
     1
  1
strokes_ogs.tif
176
     1
290
     0
176
     1
 40
1.0
176
     1
 40
1.0
176
     1
  0
VISUALSTYLE
  5
34
102
{ACAD_REACTORS
330
2A
102
}
330
2A
100
AcDbVisualStyle
  2
Conceptual
 70
     9
177
     3
291
     0
 70
    58
 90
        3
176
     1
 90
        2
176
     1
 90
        0
176
     1
 90
        0
176
     1
 40
0.6
176
     1
 40
30.0
176
     1
 62
     7
420
 16777215
176
     1
 90
        2
176
     1
 90
        2
176
     1
 62
     7
176
     1
 62
   257
176
     1
 90
        1
176
     1
 90
        1
176
     1
 40
179.0
176
     1
 90
        8
176
     1
 62
     7
176
     1
 40
1.0
176
     1
 90
        1
176
     1
 90
        6
176
     1
 90
        2
176
     1
 62
     7
176
     1
 90
        3
176
     1
 90
        0
176
     1
 90
        0
176
     1
290
     0
176
     1
 90
        1
176
     1
 40
0.0
176
     1
 90
        0
176
     1
290
     0
176
     1
290
     1
176
     1
290
     1
176
     1
290
     0
176
     1
290
     0
176
     1
290
     0
176
     1
290
     0
176
     1
290
     0
176
     1
290
     0
176
     1
 90
       50
176
     1
 40
0.0
176
     1
 40
1.0
176
     1
 90
        0
176
     1
 62
    18
420
        0
176
     1
 90
       50
176
     1
 90
        3
176
     1
 62
     5
420
      255
176
     1
290
     0
176
     1
 90
       50
176
     1
 90
       50
176
     1
 90
       50
176
     1
290
     0
176
     1
 90
       50
176
     1
 62
   256
176
     0
 40
1.0
176
     0
 90
        2
176
     1
  1
strokes_ogs.tif
176
     1
290
     0
176
     1
 40
1.0
176
     1
 40
1.0
176
     1
  0
VISUALSTYLE
  5
35
102
{ACAD_REACTORS
330
2A
102
}
330
2A
100
AcDbVisualStyle
  2
Dim
 70
    11
177
     3
291
     1
 70
    58
 90
        2
176
     1
 90
        2
176
     1
 90
        0
176
     1
 90
        0
176
     1
 40
0.6
176
     1
 40
30.0
176
     1
 62
     7
420
 16777215
176
     1
 90
        1
176
     1
 90
        4
176
     1
 62
     7
176
     1
 62
   257
176
     1
 90
        1
176
     1
 90
        1
176
     1
 40
1.0
176
     1
 90
        8
176
     1
 62
     7
176
     1
 40
1.0
176
     1
 90
        1
176
     1
 90
        6
176
     1
 90
        2
176
     1
 62
     7
176
     1
 90
        5
176
     1
 90
        0
176
     1
 90
        0
176
     1
290
     0
176
     1
 90
        1
176
     1
 40
-50.0
176
     1
 90
        0
176
     1
290
     0
176
     1
290
     1
176
     1
290
     1
176
     1
290
     0
176
     1
290
     0
176
     1
290
     0
176
     1
290
     0
176
     1
290
     0
176
     1
290
     0
176
     1
 90
       50
176
     1
 40
0.0
176
     1
 40
1.0
176
     1
 90
        0
176
     1
 62
    18
420
        0
176
     1
 90
       50
176
     1
 90
        3
176
     1
 62
     5
420
      255
176
     1
290
     0
176
     1
 90
       50
176
     1
 90
       50
176
     1
 90
       50
176
     1
290
     0
176
     1
 90
       50
176
     1
 62
   256
176
     0
 40
1.0
176
     0
 90
        2
176
     1
  1
strokes_ogs.tif
176
     1
290
     0
176
     1
 40
1.0
176
     1
 40
1.0
176
     1
  0
VISUALSTYLE
  5
3D
102
{ACAD_REACTORS
330
2A
102
}
330
2A
100
AcDbVisualStyle
  2
EdgeColorOff
 70
    22
177
     3
291
     1
 70
    58
 90
        2
176
     0
 90
        2
176
     0
 90
        0
176
     0
 90
        0
176
     0
 40
0.6
176
     0
 40
30.0
176
     0
 62
     7
420
 16777215
176
     0
 90
        1
176
     0
 90
        4
176
     0
 62
     7
176
     0
 62
   257
176
     0
 90
        1
176
     0
 90
        1
176
     0
 40
1.0
176
     0
 90
        8
176
     2
 62
     7
176
     0
 40
1.0
176
     0
 90
        1
176
     0
 90
        6
176
     0
 90
        2
176
     0
 62
     7
176
     0
 90
        5
176
     0
 90
        0
176
     0
 90
        0
176
     0
290
     0
176
     0
 90
        1
176
     0
 40
0.0
176
     0
 90
        0
176
     0
290
     0
176
     0
290
     1
176
     0
290
     1
176
     0
290
     0
176
     0
290
     0
176
     0
290
     0
176
     0
290
     0
176
     0
290
     0
176
     0
290
     0
176
     0
 90
       50
176
     0
 40
0.0
176
     0
 40
1.0
176
     0
 90
        0
176
     0
 62
    18
420
        0
176
     0
 90
       50
176
     0
 90
        3
176
     0
 62
     5
420
      255
176
     0
290
     0
176
     0
 90
       50
176
     0
 90
       50
176
     0
 90
       50
176
     0
290
     0
176
     0
 90
       50
176
     0
 62
   256
176
     0
 40
1.0
176
     0
 90
        2
176
     0
  1
strokes_ogs.tif
176
     0
290
     0
176
     0
 40
1.0
176
     0
 40
1.0
176
     0
  0
VISUALSTYLE
  5
39
102
{ACAD_REACTORS
330
2A
102
}
330
2A
100
AcDbVisualStyle
  2
Facepattern
 70
    15
177
     3
291
     1
 70
    58
 90
        2
176
     1
 90
        2
176
     1
 90
        0
176
     1
 90
        0
176
     1
 40
0.6
176
     1
 40
30.0
176
     1
 62
     7
420
 16777215
176
     1
 90
        1
176
     1
 90
        4
176
     1
 62
     7
176
     1
 62
   257
176
     1
 90
        1
176
     1
 90
        1
176
     1
 40
1.0
176
     1
 90
        8
176
     1
 62
     7
176
     1
 40
1.0
176
     1
 90
        1
176
     1
 90
        6
176
     1
 90
        2
176
     1
 62
     7
176
     1
 90
        5
176
     1
 90
        0
176
     1
 90
        0
176
     1
290
     0
176
     1
 90
        1
176
     1
 40
0.0
176
     1
 90
        0
176
     1
290
     0
176
     1
290
     1
176
     1
290
     1
176
     1
290
     0
176
     1
290
     0
176
     1
290
     0
176
     1
290
     0
176
     1
290
     0
176
     1
290
     0
176
     1
 90
       50
176
     1
 40
0.0
176
     1
 40
1.0
176
     1
 90
        0
176
     1
 62
    18
420
        0
176
     1
 90
       50
176
     1
 90
        3
176
     1
 62
     5
420
      255
176
     1
290
     0
176
     1
 90
       50
176
     1
 90
       50
176
     1
 90
       50
176
     1
290
     0
176
     1
 90
       50
176
     1
 62
   256
176
     0
 40
1.0
176
     0
 90
        2
176
     1
  1
strokes_ogs.tif
176
     1
290
     0
176
     1
 40
1.0
176
     1
 40
1.0
176
     1
  0
VISUALSTYLE
  5
2B
102
{ACAD_REACTORS
330
2A
102
}
330
2A
100
AcDbVisualStyle
  2
Flat
 70
     0
177
     3
291
     1
 70
    58
 90
        2
176
     1
 90
        1
176
     1
 90
        1
176
     1
 90
        2
176
     1
 40
0.6
176
     1
 40
30.0
176
     1
 62
     7
420
 16777215
176
     1
 90
        0
176
     1
 90
        0
176
     1
 62
     7
176
     1
 62
   257
176
     1
 90
        1
176
     1
 90
        1
176
     1
 40
1.0
176
     1
 90
        8
176
     1
 62
     7
176
     1
 40
1.0
176
     1
 90
        1
176
     1
 90
        6
176
     1
 90
        2
176
     1
 62
     7
176
     1
 90
        5
176
     1
 90
        0
176
     1
 90
        0
176
     1
290
     0
176
     1
 90
       13
176
     1
 40
0.0
176
     1
 90
        0
176
     1
290
     0
176
     1
290
     1
176
     1
290
     1
176
     1
290
     0
176
     1
290
     0
176
     1
290
     0
176
     1
290
     0
176
     1
290
     0
176
     1
290
     0
176
     1
 90
       50
176
     1
 40
0.0
176
     1
 40
1.0
176
     1
 90
        0
176
     1
 62
    18
420
        0
176
     1
 90
       50
176
     1
 90
        3
176
     1
 62
     5
420
      255
176
     1
290
     0
176
     1
 90
       50
176
     1
 90
       50
176
     1
 90
       50
176
     1
290
     0
176
     1
 90
       50
176
     1
 62
   256
176
     0
 40
1.0
176
     0
 90
        2
176
     1
  1
strokes_ogs.tif
176
     1
290
     0
176
     1
 40
1.0
176
     1
 40
1.0
176
     1
  0
VISUALSTYLE
  5
2C
102
{ACAD_REACTORS
330
2A
102
}
330
2A
100
AcDbVisualStyle
  2
FlatWithEdges
 70
     1
177
     3
291
     1
 70
    58
 90
        2
176
     1
 90
        1
176
     1
 90
        1
176
     1
 90
        2
176
     1
 40
0.6
176
     1
 40
30.0
176
     1
 62
     7
420
 16777215
176
     1
 90
        1
176
     1
 90
        0
176
     1
 62
     7
176
     1
 62
   257
176
     1
 90
        1
176
     1
 90
        1
176
     1
 40
1.0
176
     1
 90
        0
176
     1
 62
   257
176
     1
 40
1.0
176
     1
 90
        1
176
     1
 90
        6
176
     1
 90
        2
176
     1
 62
     7
176
     1
 90
        5
176
     1
 90
        0
176
     1
 90
        0
176
     1
290
     0
176
     1
 90
       13
176
     1
 40
0.0
176
     1
 90
        0
176
     1
290
     0
176
     1
290
     1
176
     1
290
     1
176
     1
290
     0
176
     1
290
     0
176
     1
290
     0
176
     1
290
     0
176
     1
290
     0
176
     1
290
     0
176
     1
 90
       50
176
     1
 40
0.0
176
     1
 40
1.0
176
     1
 90
        0
176
     1
 62
    18
420
        0
176
     1
 90
       50
176
     1
 90
        3
176
     1
 62
     5
420
      255
176
     1
290
     0
176
     1
 90
       50
176
     1
 90
       50
176
     1
 90
       50
176
     1
290
     0
176
     1
 90
       50
176
     1
 62
   256
176
     0
 40
1.0
176
     0
 90
        2
176
     1
  1
strokes_ogs.tif
176
     1
290
     0
176
     1
 40
1.0
176
     1
 40
1.0
176
     1
  0
VISUALSTYLE
  5
2D
102
{ACAD_REACTORS
330
2A
102
}
330
2A
100
AcDbVisualStyle
  2
Gouraud
 70
     2
177
     3
291
     1
 70
    58
 90
        2
176
     1
 90
        2
176
     1
 90
        1
176
     1
 90
        2
176
     1
 40
0.6
176
     1
 40
30.0
176
     1
 62
     7
420
 16777215
176
     1
 90
        0
176
     1
 90
        0
176
     1
 62
     7
176
     1
 62
   257
176
     1
 90
        1
176
     1
 90
        1
176
     1
 40
1.0
176
     1
 90
        0
176
     1
 62
     7
176
     1
 40
1.0
176
     1
 90
        1
176
     1
 90
        6
176
     1
 90
        2
176
     1
 62
     7
176
     1
 90
        5
176
     1
 90
        0
176
     1
 90
        0
176
     1
290
     0
176
     1
 90
       13
176
     1
 40
0.0
176
     1
 90
        0
176
     1
290
     0
176
     1
290
     1
176
     1
290
     1
176
     1
290
     0
176
     1
290
     0
176
     1
290
     0
176
     1
290
     0
176
     1
290
     0
176
     1
290
     0
176
     1
 90
       50
176
     1
 40
0.0
176
     1
 40
1.0
176
     1
 90
        0
176
     1
 62
    18
420
        0
176
     1
 90
       50
176
     1
 90
        3
176
     1
 62
     5
420
      255
176
     1
290
     0
176
     1
 90
       50
176
     1
 90
       50
176
     1
 90
       50
176
     1
290
     0
176
     1
 90
       50
176
     1
 62
   256
176
     0
 40
1.0
176
     0
 90
        2
176
     1
  1
strokes_ogs.tif
176
     1
290
     0
176
     1
 40
1.0
176
     1
 40
1.0
176
     1
  0
VISUALSTYLE
  5
2E
102
{ACAD_REACTORS
330
2A
102
}
330
2A
100
AcDbVisualStyle
  2
GouraudWithEdges
 70
     3
177
     3
291
     1
 70
    58
 90
        2
176
     1
 90
        2
176
     1
 90
        1
176
     1
 90
        2
176
     1
 40
0.6
176
     1
 40
30.0
176
     1
 62
     7
420
 16777215
176
     1
 90
        1
176
     1
 90
        0
176
     1
 62
     7
176
     1
 62
   257
176
     1
 90
        1
176
     1
 90
        1
176
     1
 40
1.0
176
     1
 90
        0
176
     1
 62
   257
176
     1
 40
1.0
176
     1
 90
        1
176
     1
 90
        6
176
     1
 90
        2
176
     1
 62
     7
176
     1
 90
        5
176
     1
 90
        0
176
     1
 90
        0
176
     1
290
     0
176
     1
 90
       13
176
     1
 40
0.0
176
     1
 90
        0
176
     1
290
     0
176
     1
290
     1
176
     1
290
     1
176
     1
290
     0
176
     1
290
     0
176
     1
290
     0
176
     1
290
     0
176
     1
290
     0
176
     1
290
     0
176
     1
 90
       50
176
     1
 40
0.0
176
     1
 40
1.0
176
     1
 90
        0
176
     1
 62
    18
420
        0
176
     1
 90
       50
176
     1
 90
        3
176
     1
 62
     5
420
      255
176
     1
290
     0
176
     1
 90
       50
176
     1
 90
       50
176
     1
 90
       50
176
     1
290
     0
176
     1
 90
       50
176
     1
 62
   256
176
     0
 40
1.0
176
     0
 90
        2
176
     1
  1
strokes_ogs.tif
176
     1
290
     0
176
     1
 40
1.0
176
     1
 40
1.0
176
     1
  0
VISUALSTYLE
  5
31
102
{ACAD_REACTORS
330
2A
102
}
330
2A
100
AcDbVisualStyle
  2
Hidden
 70
     6
177
     3
291
     0
 70
    58
 90
        1
176
     1
 90
        2
176
     1
 90
        2
176
     1
 90
        0
176
     1
 40
0.6
176
     1
 40
30.0
176
     1
 62
     7
420
 16777215
176
     1
 90
        2
176
     1
 90
        2
176
     1
 62
     7
176
     1
 62
   257
176
     1
 90
        2
176
     1
 90
        1
176
     1
 40
40.0
176
     1
 90
        0
176
     1
 62
   257
176
     1
 40
1.0
176
     1
 90
        1
176
     1
 90
        6
176
     1
 90
        2
176
     1
 62
     7
176
     1
 90
        3
176
     1
 90
        0
176
     1
 90
        0
176
     1
290
     0
176
     1
 90
        1
176
     1
 40
0.0
176
     1
 90
        0
176
     1
290
     0
176
     1
290
     1
176
     1
290
     1
176
     1
290
     0
176
     1
290
     0
176
     1
290
     0
176
     1
290
     0
176
     1
290
     0
176
     1
290
     0
176
     1
 90
       50
176
     1
 40
0.0
176
     1
 40
1.0
176
     1
 90
        0
176
     1
 62
    18
420
        0
176
     1
 90
       50
176
     1
 90
        3
176
     1
 62
     5
420
      255
176
     1
290
     0
176
     1
 90
       50
176
     1
 90
       50
176
     1
 90
       50
176
     1
290
     0
176
     1
 90
       50
176
     1
 62
   256
176
     0
 40
1.0
176
     0
 90
        2
176
     1
  1
strokes_ogs.tif
176
     1
290
     0
176
     1
 40
1.0
176
     1
 40
1.0
176
     1
  0
VISUALSTYLE
  5
3B
102
{ACAD_REACTORS
330
2A
102
}
330
2A
100
AcDbVisualStyle
  2
JitterOff
 70
    20
177
     3
291
     1
 70
    58
 90
        2
176
     0
 90
        2
176
     0
 90
        0
176
     0
 90
        0
176
     0
 40
0.6
176
     0
 40
30.0
176
     0
 62
     7
420
 16777215
176
     0
 90
        1
176
     0
 90
        4
176
     0
 62
     7
176
     0
 62
   257
176
     0
 90
        1
176
     0
 90
        1
176
     0
 40
1.0
176
     0
 90
       10
176
     2
 62
     7
176
     0
 40
1.0
176
     0
 90
        1
176
     0
 90
        6
176
     0
 90
        2
176
     0
 62
     7
176
     0
 90
        5
176
     0
 90
        0
176
     0
 90
        0
176
     0
290
     0
176
     0
 90
        1
176
     0
 40
0.0
176
     0
 90
        0
176
     0
290
     0
176
     0
290
     1
176
     0
290
     1
176
     0
290
     0
176
     0
290
     0
176
     0
290
     0
176
     0
290
     0
176
     0
290
     0
176
     0
290
     0
176
     0
 90
       50
176
     0
 40
0.0
176
     0
 40
1.0
176
     0
 90
        0
176
     0
 62
    18
420
        0
176
     0
 90
       50
176
     0
 90
        3
176
     0
 62
     5
420
      255
176
     0
290
     0
176
     0
 90
       50
176
     0
 90
       50
176
     0
 90
       50
176
     0
290
     0
176
     0
 90
       50
176
     0
 62
   256
176
     0
 40
1.0
176
     0
 90
        2
176
     0
  1
strokes_ogs.tif
176
     0
290
     0
176
     0
 40
1.0
176
     0
 40
1.0
176
     0
  0
VISUALSTYLE
  5
38
102
{ACAD_REACTORS
330
2A
102
}
330
2A
100
AcDbVisualStyle
  2
Linepattern
 70
    14
177
     3
291
     1
 70
    58
 90
        2
176
     1
 90
        2
176
     1
 90
        0
176
     1
 90
        0
176
     1
 40
0.6
176
     1
 40
30.0
176
     1
 62
     7
420
 16777215
176
     1
 90
        1
176
     1
 90
        4
176
     1
 62
     7
176
     1
 62
   257
176
     1
 90
        7
176
     1
 90
        7
176
     1
 40
1.0
176
     1
 90
        8
176
     1
 62
     7
176
     1
 40
1.0
176
     1
 90
        1
176
     1
 90
        6
176
     1
 90
        2
176
     1
 62
     7
176
     1
 90
        5
176
     1
 90
        0
176
     1
 90
        0
176
     1
290
     0
176
     1
 90
        1
176
     1
 40
0.0
176
     1
 90
        0
176
     1
290
     0
176
     1
290
     1
176
     1
290
     1
176
     1
290
     0
176
     1
290
     0
176
     1
290
     0
176
     1
290
     0
176
     1
290
     0
176
     1
290
     0
176
     1
 90
       50
176
     1
 40
0.0
176
     1
 40
1.0
176
     1
 90
        0
176
     1
 62
    18
420
        0
176
     1
 90
       50
176
     1
 90
        3
176
     1
 62
     5
420
      255
176
     1
290
     0
176
     1
 90
       50
176
     1
 90
       50
176
     1
 90
       50
176
     1
290
     0
176
     1
 90
       50
176
     1
 62
   256
176
     0
 40
1.0
176
     0
 90
        2
176
     1
  1
strokes_ogs.tif
176
     1
290
     0
176
     1
 40
1.0
176
     1
 40
1.0
176
     1
  0
VISUALSTYLE
  5
3C
102
{ACAD_REACTORS
330
2A
102
}
330
2A
100
AcDbVisualStyle
  2
OverhangOff
 70
    21
177
     3
291
     1
 70
    58
 90
        2
176
     0
 90
        2
176
     0
 90
        0
176
     0
 90
        0
176
     0
 40
0.6
176
     0
 40
30.0
176
     0
 62
     7
420
 16777215
176
     0
 90
        1
176
     0
 90
        4
176
     0
 62
     7
176
     0
 62
   257
176
     0
 90
        1
176
     0
 90
        1
176
     0
 40
1.0
176
     0
 90
        9
176
     2
 62
     7
176
     0
 40
1.0
176
     0
 90
        1
176
     0
 90
        6
176
     0
 90
        2
176
     0
 62
     7
176
     0
 90
        5
176
     0
 90
        0
176
     0
 90
        0
176
     0
290
     0
176
     0
 90
        1
176
     0
 40
0.0
176
     0
 90
        0
176
     0
290
     0
176
     0
290
     1
176
     0
290
     1
176
     0
290
     0
176
     0
290
     0
176
     0
290
     0
176
     0
290
     0
176
     0
290
     0
176
     0
290
     0
176
     0
 90
       50
176
     0
 40
0.0
176
     0
 40
1.0
176
     0
 90
        0
176
     0
 62
    18
420
        0
176
     0
 90
       50
176
     0
 90
        3
176
     0
 62
     5
420
      255
176
     0
290
     0
176
     0
 90
       50
176
     0
 90
       50
176
     0
 90
       50
176
     0
290
     0
176
     0
 90
       50
176
     0
 62
   256
176
     0
 40
1.0
176
     0
 90
        2
176
     0
  1
strokes_ogs.tif
176
     0
290
     0
176
     0
 40
1.0
176
     0
 40
1.0
176
     0
  0
VISUALSTYLE
  5
33
102
{ACAD_REACTORS
330
2A
102
}
330
2A
100
AcDbVisualStyle
  2
Realistic
 70
     8
177
     3
291
     0
 70
    58
 90
        2
176
     1
 90
        3
176
     1
 90
        0
176
     1
 90
        2
176
     1
 40
0.6
176
     1
 40
30.0
176
     1
 62
     7
420
 16777215
176
     1
 90
        0
176
     1
 90
        0
176
     1
 62
     7
176
     1
 62
   257
176
     1
 90
        1
176
     1
 90
        1
176
     1
 40
1.0
176
     1
 90
        8
176
     1
 62
   257
176
     1
 40
1.0
176
     1
 90
        1
176
     1
 90
        6
176
     1
 90
        2
176
     1
 62
     7
176
     1
 90
        3
176
     1
 90
        0
176
     1
 90
        0
176
     1
290
     0
176
     1
 90
       13
176
     1
 40
0.0
176
     1
 90
        0
176
     1
290
     0
176
     1
290
     1
176
     1
290
     1
176
     1
290
     0
176
     1
290
     0
176
     1
290
     0
176
     1
290
     0
176
     1
290
     0
176
     1
290
     0
176
     1
 90
       50
176
     1
 40
0.0
176
     1
 40
1.0
176
     1
 90
        0
176
     1
 62
    18
420
        0
176
     1
 90
       50
176
     1
 90
        3
176
     1
 62
     5
420
      255
176
     1
290
     0
176
     1
 90
       50
176
     1
 90
       50
176
     1
 90
       50
176
     1
290
     0
176
     1
 90
       50
176
     1
 62
   256
176
     0
 40
1.0
176
     0
 90
        2
176
     1
  1
strokes_ogs.tif
176
     1
290
     0
176
     1
 40
1.0
176
     1
 40
1.0
176
     1
  0
VISUALSTYLE
  5
42
102
{ACAD_REACTORS
330
2A
102
}
330
2A
100
AcDbVisualStyle
  2
Shaded
 70
    27
177
     3
291
     0
 70
    58
 90
        2
176
     1
 90
        2
176
     1
 90
        1
176
     1
 90
        2
176
     1
 40
0.6
176
     1
 40
30.0
176
     1
 62
     7
420
 16777215
176
     1
 90
        0
176
     1
 90
        4
176
     1
 62
     7
176
     1
 62
   257
176
     1
 90
        1
176
     1
 90
        1
176
     1
 40
1.0
176
     1
 90
        8
176
     1
 62
   257
176
     1
 40
1.0
176
     1
 90
        1
176
     1
 90
        6
176
     1
 90
        2
176
     1
 62
     8
420
  7895160
176
     1
 90
        3
176
     1
 90
        0
176
     1
 90
        0
176
     1
290
     0
176
     1
 90
        5
176
     1
 40
0.0
176
     1
 90
        0
176
     1
290
     0
176
     1
290
     1
176
     1
290
     1
176
     1
290
     0
176
     1
290
     0
176
     1
290
     0
176
     1
290
     0
176
     1
290
     0
176
     1
290
     0
176
     1
 90
       50
176
     1
 40
0.0
176
     1
 40
1.0
176
     1
 90
        0
176
     1
 62
    18
420
        0
176
     1
 90
       50
176
     1
 90
        3
176
     1
 62
     5
420
      255
176
     1
290
     0
176
     1
 90
       50
176
     1
 90
       50
176
     1
 90
       50
176
     1
290
     0
176
     1
 90
       50
176
     1
 62
   256
176
     0
 40
1.0
176
     0
 90
        2
176
     1
  1
strokes_ogs.tif
176
     1
290
     0
176
     1
 40
1.0
176
     1
 40
1.0
176
     1
  0
VISUALSTYLE
  5
41
102
{ACAD_REACTORS
330
2A
102
}
330
2A
100
AcDbVisualStyle
  2
Shaded with edges
 70
    26
177
     3
291
     0
 70
    58
 90
        2
176
     1
 90
        2
176
     1
 90
        1
176
     1
 90
        2
176
     1
 40
0.6
176
     1
 40
30.0
176
     1
 62
     7
420
 16777215
176
     1
 90
        1
176
     1
 90
       10
176
     1
 62
     7
176
     1
 62
   257
176
     1
 90
        2
176
     1
 90
        1
176
     1
 40
1.0
176
     1
 90
        8
176
     1
 62
   257
176
     1
 40
1.0
176
     1
 90
        1
176
     1
 90
        6
176
     1
 90
        2
176
     1
 62
     7
176
     1
 90
        3
176
     1
 90
        0
176
     1
 90
        0
176
     1
290
     0
176
     1
 90
        5
176
     1
 40
0.0
176
     1
 90
        0
176
     1
290
     0
176
     1
290
     1
176
     1
290
     1
176
     1
290
     0
176
     1
290
     0
176
     1
290
     0
176
     1
290
     0
176
     1
290
     0
176
     1
290
     0
176
     1
 90
       50
176
     1
 40
0.0
176
     1
 40
1.0
176
     1
 90
        0
176
     1
 62
    18
420
        0
176
     1
 90
       50
176
     1
 90
        3
176
     1
 62
     5
420
      255
176
     1
290
     0
176
     1
 90
       50
176
     1
 90
       50
176
     1
 90
       50
176
     1
290
     0
176
     1
 90
       50
176
     1
 62
   256
176
     0
 40
1.0
176
     0
 90
        2
176
     1
  1
strokes_ogs.tif
176
     1
290
     0
176
     1
 40
1.0
176
     1
 40
1.0
176
     1
  0
VISUALSTYLE
  5
3E
102
{ACAD_REACTORS
330
2A
102
}
330
2A
100
AcDbVisualStyle
  2
Shades of Gray
 70
    23
177
     3
291
     0
 70
    58
 90
        2
176
     1
 90
        2
176
     1
 90
        3
176
     1
 90
        0
176
     1
 40
0.6
176
     1
 40
30.0
176
     1
 62
     7
420
 16777215
176
     1
 90
        2
176
     1
 90
        2
176
     1
 62
     7
176
     1
 62
     7
176
     1
 90
        1
176
     1
 90
        1
176
     1
 40
40.0
176
     1
 90
        8
176
     1
 62
     7
176
     1
 40
1.0
176
     1
 90
        1
176
     1
 90
        6
176
     1
 90
        2
176
     1
 62
     7
176
     1
 90
        3
176
     1
 90
        0
176
     1
 90
        0
176
     1
290
     0
176
     1
 90
        1
176
     1
 40
0.0
176
     1
 90
        0
176
     1
290
     0
176
     1
290
     1
176
     1
290
     1
176
     1
290
     0
176
     1
290
     0
176
     1
290
     0
176
     1
290
     0
176
     1
290
     0
176
     1
290
     0
176
     1
 90
       50
176
     1
 40
0.0
176
     1
 40
1.0
176
     1
 90
        0
176
     1
 62
    18
420
        0
176
     1
 90
       50
176
     1
 90
        3
176
     1
 62
     5
420
      255
176
     1
290
     0
176
     1
 90
       50
176
     1
 90
       50
176
     1
 90
       50
176
     1
290
     0
176
     1
 90
       50
176
     1
 62
   256
176
     0
 40
1.0
176
     0
 90
        2
176
     1
  1
strokes_ogs.tif
176
     1
290
     0
176
     1
 40
1.0
176
     1
 40
1.0
176
     1
  0
VISUALSTYLE
  5
3F
102
{ACAD_REACTORS
330
2A
102
}
330
2A
100
AcDbVisualStyle
  2
Sketchy
 70
    24
177
     3
291
     0
 70
    58
 90
        1
176
     1
 90
        2
176
     1
 90
        2
176
     1
 90
        0
176
     1
 40
0.6
176
     1
 40
30.0
176
     1
 62
     7
420
 16777215
176
     1
 90
        2
176
     1
 90
        2
176
     1
 62
     7
176
     1
 62
     7
176
     1
 90
        1
176
     1
 90
        1
176
     1
 40
40.0
176
     1
 90
       11
176
     1
 62
     7
176
     1
 40
1.0
176
     1
 90
        1
176
     1
 90
        6
176
     1
 90
        2
176
     1
 62
     7
176
     1
 90
        6
176
     1
 90
        0
176
     1
 90
        0
176
     1
290
     0
176
     1
 90
        1
176
     1
 40
0.0
176
     1
 90
        0
176
     1
290
     0
176
     1
290
     1
176
     1
290
     1
176
     1
290
     0
176
     1
290
     0
176
     1
290
     0
176
     1
290
     0
176
     1
290
     0
176
     1
290
     0
176
     1
 90
       50
176
     1
 40
0.0
176
     1
 40
1.0
176
     1
 90
        0
176
     1
 62
    18
420
        0
176
     1
 90
       50
176
     1
 90
        3
176
     1
 62
     5
420
      255
176
     1
290
     0
176
     1
 90
       50
176
     1
 90
       50
176
     1
 90
       50
176
     1
290
     0
176
     1
 90
       50
176
     1
 62
   256
176
     0
 40
1.0
176
     0
 90
        2
176
     1
  1
strokes_ogs.tif
176
     1
290
     0
176
     1
 40
1.0
176
     1
 40
1.0
176
     1
  0
VISUALSTYLE
  5
37
102
{ACAD_REACTORS
330
2A
102
}
330
2A
100
AcDbVisualStyle
  2
Thicken
 70
    13
177
     3
291
     1
 70
    58
 90
        2
176
     1
 90
        2
176
     1
 90
        0
176
     1
 90
        0
176
     1
 40
0.6
176
     1
 40
30.0
176
     1
 62
     7
420
 16777215
176
     1
 90
        1
176
     1
 90
        4
176
     1
 62
     7
176
     1
 62
   257
176
     1
 90
        1
176
     1
 90
        1
176
     1
 40
1.0
176
     1
 90
       12
176
     1
 62
     7
176
     1
 40
1.0
176
     1
 90
        1
176
     1
 90
        6
176
     1
 90
        2
176
     1
 62
     7
176
     1
 90
        5
176
     1
 90
        0
176
     1
 90
        0
176
     1
290
     0
176
     1
 90
        1
176
     1
 40
0.0
176
     1
 90
        0
176
     1
290
     0
176
     1
290
     1
176
     1
290
     1
176
     1
290
     0
176
     1
290
     0
176
     1
290
     0
176
     1
290
     0
176
     1
290
     0
176
     1
290
     0
176
     1
 90
       50
176
     1
 40
0.0
176
     1
 40
1.0
176
     1
 90
        0
176
     1
 62
    18
420
        0
176
     1
 90
       50
176
     1
 90
        3
176
     1
 62
     5
420
      255
176
     1
290
     0
176
     1
 90
       50
176
     1
 90
       50
176
     1
 90
       50
176
     1
290
     0
176
     1
 90
       50
176
     1
 62
   256
176
     0
 40
1.0
176
     0
 90
        2
176
     1
  1
strokes_ogs.tif
176
     1
290
     0
176
     1
 40
1.0
176
     1
 40
1.0
176
     1
  0
VISUALSTYLE
  5
30
102
{ACAD_REACTORS
330
2A
102
}
330
2A
100
AcDbVisualStyle
  2
Wireframe
 70
     5
177
     3
291
     0
 70
    58
 90
        0
176
     1
 90
        2
176
     1
 90
        0
176
     1
 90
        0
176
     1
 40
0.6
176
     1
 40
30.0
176
     1
 62
     7
420
 16777215
176
     1
 90
        1
176
     1
 90
        4
176
     1
 62
     7
176
     1
 62
   257
176
     1
 90
        1
176
     1
 90
        1
176
     1
 40
1.0
176
     1
 90
        0
176
     1
 62
   257
176
     1
 40
1.0
176
     1
 90
        1
176
     1
 90
        6
176
     1
 90
        2
176
     1
 62
     7
176
     1
 90
        3
176
     1
 90
        0
176
     1
 90
        0
176
     1
290
     0
176
     1
 90
        1
176
     1
 40
0.0
176
     1
 90
        0
176
     1
290
     0
176
     1
290
     1
176
     1
290
     1
176
     1
290
     0
176
     1
290
     0
176
     1
290
     0
176
     1
290
     0
176
     1
290
     0
176
     1
290
     0
176
     1
 90
       50
176
     1
 40
0.0
176
     1
 40
1.0
176
     1
 90
        0
176
     1
 62
    18
420
        0
176
     1
 90
       50
176
     1
 90
        3
176
     1
 62
     5
420
      255
176
     1
290
     0
176
     1
 90
       50
176
     1
 90
       50
176
     1
 90
       50
176
     1
290
     0
176
     1
 90
       50
176
     1
 62
   256
176
     0
 40
1.0
176
     0
 90
        2
176
     1
  1
strokes_ogs.tif
176
     1
290
     0
176
     1
 40
1.0
176
     1
 40
1.0
176
     1
  0
VISUALSTYLE
  5
40
102
{ACAD_REACTORS
330
2A
102
}
330
2A
100
AcDbVisualStyle
  2
X-Ray
 70
    25
177
     3
291
     0
 70
    58
 90
        2
176
     1
 90
        2
176
     1
 90
        1
176
     1
 90
        1
176
     1
 40
0.5
176
     1
 40
30.0
176
     1
 62
     7
420
 16777215
176
     1
 90
        1
176
     1
 90
        0
176
     1
 62
     7
176
     1
 62
   257
176
     1
 90
        1
176
     1
 90
        1
176
     1
 40
1.0
176
     1
 90
        8
176
     1
 62
     7
176
     1
 40
1.0
176
     1
 90
        1
176
     1
 90
        6
176
     1
 90
        2
176
     1
 62
     7
176
     1
 90
        3
176
     1
 90
        0
176
     1
 90
        0
176
     1
290
     0
176
     1
 90
       13
176
     1
 40
0.0
176
     1
 90
        0
176
     1
290
     0
176
     1
290
     1
176
     1
290
     1
176
     1
290
     0
176
     1
290
     0
176
     1
290
     0
176
     1
290
     0
176
     1
290
     0
176
     1
290
     0
176
     1
 90
       50
176
     1
 40
0.0
176
     1
 40
1.0
176
     1
 90
        0
176
     1
 62
    18
420
        0
176
     1
 90
       50
176
     1
 90
        3
176
     1
 62
     5
420
      255
176
     1
290
     0
176
     1
 90
       50
176
     1
 90
       50
176
     1
 90
       50
176
     1
290
     0
176
     1
 90
       50
176
     1
 62
   256
176
     0
 40
1.0
176
     0
 90
        2
176
     1
  1
strokes_ogs.tif
176
     1
290
     0
176
     1
 40
1.0
176
     1
 40
1.0
176
     1
  0
DICTIONARYVAR
  5
2A5
102
{ACAD_REACTORS
330
2A4
102
}
330
2A4
100
DictionaryVariables
280
     0
  1
1:1
  0
DICTIONARYVAR
  5
2AA
102
{ACAD_REACTORS
330
2A4
102
}
330
2A4
100
DictionaryVariables
280
     0
  1
Standard
  0
DICTIONARYVAR
  5
2A9
102
{ACAD_REACTORS
330
2A4
102
}
330
2A4
100
DictionaryVariables
280
     0
  1
Standard
  0
DICTIONARY
  5
2A6
330
6A
100
AcDbDictionary
280
     1
281
     1
  3
ACAD_ROUNDTRIP_2008_TABLESTYLE_CELLSTYLEMAP
360
2A7
  0
CELLSTYLEMAP
  5
2A7
102
{ACAD_REACTORS
330
2A6
102
}
330
2A6
100
AcDbCellStyleMap
 90
        3
300
CELLSTYLE
  1
TABLEFORMAT_BEGIN
 90
        5
170
     1
 91
        0
 92
    32768
 62
   257
 93
        1
300
CONTENTFORMAT
  1
CONTENTFORMAT_BEGIN
 90
        0
 91
        0
 92
        4
 93
        0
300

 40
0.0
140
1.0
 94
        5
 62
     0
340
11
144
0.25
309
CONTENTFORMAT_END
171
     1
301
MARGIN
  1
CELLMARGIN_BEGIN
 40
0.06
 40
0.06
 40
0.06
 40
0.06
 40
0.06
 40
0.06
309
CELLMARGIN_END
 94
        6
 95
        1
302
GRIDFORMAT
  1
GRIDFORMAT_BEGIN
 90
        0
 91
        1
 62
     0
 92
       -2
340
14
 93
        0
 40
0.045
309
GRIDFORMAT_END
 95
        2
302
GRIDFORMAT
  1
GRIDFORMAT_BEGIN
 90
        0
 91
        1
 62
     0
 92
       -2
340
14
 93
        0
 40
0.045
309
GRIDFORMAT_END
 95
        4
302
GRIDFORMAT
  1
GRIDFORMAT_BEGIN
 90
        0
 91
        1
 62
     0
 92
       -2
340
14
 93
        0
 40
0.045
309
GRIDFORMAT_END
 95
        8
302
GRIDFORMAT
  1
GRIDFORMAT_BEGIN
 90
        0
 91
        1
 62
     0
 92
       -2
340
14
 93
        0
 40
0.045
309
GRIDFORMAT_END
 95
       16
302
GRIDFORMAT
  1
GRIDFORMAT_BEGIN
 90
        0
 91
        1
 62
     0
 92
       -2
340
14
 93
        0
 40
0.045
309
GRIDFORMAT_END
 95
       32
302
GRIDFORMAT
  1
GRIDFORMAT_BEGIN
 90
        0
 91
        1
 62
     0
 92
       -2
340
14
 93
        0
 40
0.045
309
GRIDFORMAT_END
309
TABLEFORMAT_END
  1
CELLSTYLE_BEGIN
 90
        1
 91
        1
300
_TITLE
309
CELLSTYLE_END
300
CELLSTYLE
  1
TABLEFORMAT_BEGIN
 90
        5
170
     1
 91
        0
 92
        0
 62
   257
 93
        1
300
CONTENTFORMAT
  1
CONTENTFORMAT_BEGIN
 90
        0
 91
        0
 92
        4
 93
        0
300

 40
0.0
140
1.0
 94
        5
 62
     0
340
11
144
0.18
309
CONTENTFORMAT_END
171
     1
301
MARGIN
  1
CELLMARGIN_BEGIN
 40
0.06
 40
0.06
 40
0.06
 40
0.06
 40
0.06
 40
0.06
309
CELLMARGIN_END
 94
        6
 95
        1
302
GRIDFORMAT
  1
GRIDFORMAT_BEGIN
 90
        0
 91
        1
 62
     0
 92
       -2
340
14
 93
        0
 40
0.045
309
GRIDFORMAT_END
 95
        2
302
GRIDFORMAT
  1
GRIDFORMAT_BEGIN
 90
        0
 91
        1
 62
     0
 92
       -2
340
14
 93
        0
 40
0.045
309
GRIDFORMAT_END
 95
        4
302
GRIDFORMAT
  1
GRIDFORMAT_BEGIN
 90
        0
 91
        1
 62
     0
 92
       -2
340
14
 93
        0
 40
0.045
309
GRIDFORMAT_END
 95
        8
302
GRIDFORMAT
  1
GRIDFORMAT_BEGIN
 90
        0
 91
        1
 62
     0
 92
       -2
340
14
 93
        0
 40
0.045
309
GRIDFORMAT_END
 95
       16
302
GRIDFORMAT
  1
GRIDFORMAT_BEGIN
 90
        0
 91
        1
 62
     0
 92
       -2
340
14
 93
        0
 40
0.045
309
GRIDFORMAT_END
 95
       32
302
GRIDFORMAT
  1
GRIDFORMAT_BEGIN
 90
        0
 91
        1
 62
     0
 92
       -2
340
14
 93
        0
 40
0.045
309
GRIDFORMAT_END
309
TABLEFORMAT_END
  1
CELLSTYLE_BEGIN
 90
        2
 91
        1
300
_HEADER
309
CELLSTYLE_END
300
CELLSTYLE
  1
TABLEFORMAT_BEGIN
 90
        5
170
     1
 91
        0
 92
        0
 62
   257
 93
        1
300
CONTENTFORMAT
  1
CONTENTFORMAT_BEGIN
 90
        0
 91
        0
 92
        4
 93
        0
300

 40
0.0
140
1.0
 94
        2
 62
     0
340
11
144
0.18
309
CONTENTFORMAT_END
171
     1
301
MARGIN
  1
CELLMARGIN_BEGIN
 40
0.06
 40
0.06
 40
0.06
 40
0.06
 40
0.06
 40
0.06
309
CELLMARGIN_END
 94
        6
 95
        1
302
GRIDFORMAT
  1
GRIDFORMAT_BEGIN
 90
        0
 91
        1
 62
     0
 92
       -2
340
14
 93
        0
 40
0.045
309
GRIDFORMAT_END
 95
        2
302
GRIDFORMAT
  1
GRIDFORMAT_BEGIN
 90
        0
 91
        1
 62
     0
 92
       -2
340
14
 93
        0
 40
0.045
309
GRIDFORMAT_END
 95
        4
302
GRIDFORMAT
  1
GRIDFORMAT_BEGIN
 90
        0
 91
        1
 62
     0
 92
       -2
340
14
 93
        0
 40
0.045
309
GRIDFORMAT_END
 95
        8
302
GRIDFORMAT
  1
GRIDFORMAT_BEGIN
 90
        0
 91
        1
 62
     0
 92
       -2
340
14
 93
        0
 40
0.045
309
GRIDFORMAT_END
 95
       16
302
GRIDFORMAT
  1
GRIDFORMAT_BEGIN
 90
        0
 91
        1
 62
     0
 92
       -2
340
14
 93
        0
 40
0.045
309
GRIDFORMAT_END
 95
       32
302
GRIDFORMAT
  1
GRIDFORMAT_BEGIN
 90
        0
 91
        1
 62
     0
 92
       -2
340
14
 93
        0
 40
0.045
309
GRIDFORMAT_END
309
TABLEFORMAT_END
  1
CELLSTYLE_BEGIN
 90
        3
 91
        2
300
_DATA
309
CELLSTYLE_END
  0
ENDSEC
  0
EOF