0
SECTION
  2
HEADER
  9
$ACADVER
  1
AC1027
  9
$ACADMAINTVER
 70
     8
  9
$DWGCODEPAGE
  3
ANSI_1252
  9
$REQUIREDVERSIONS
160
                 0
  9
$COMMENTS
  1
File was created by Cadenas
  9
$CUSTOMPROPERTYTAG
  1
NN
  9
$CUSTOMPROPERTY
  1
Imperial - IP Piloted Flange with Type E Dimensions 1-3/8 thru 2-1/2 inch Labyrinth Seal Expansion
  9
$CUSTOMPROPERTYTAG
  1
NT
  9
$CUSTOMPROPERTY
  1
Imperial/E Piloted Flange Bearings
  9
$CUSTOMPROPERTYTAG
  1
NB
  9
$CUSTOMPROPERTY
  1
071284
  9
$CUSTOMPROPERTYTAG
  1
NBSYN
  9
$CUSTOMPROPERTY
  1
$PN.
  9
$CUSTOMPROPERTYTAG
  1
LINA
  9
$CUSTOMPROPERTY
  1
071284
  9
$CUSTOMPROPERTYTAG
  1
SS
  9
$CUSTOMPROPERTY
  1
4-7/16
  9
$CUSTOMPROPERTYTAG
  1
TYPE
  9
$CUSTOMPROPERTY
  1
Expansion
  9
$CUSTOMPROPERTYTAG
  1
PN
  9
$CUSTOMPROPERTY
  1
071284
  9
$CUSTOMPROPERTYTAG
  1
DESCRIPTION
  9
$CUSTOMPROPERTY
  1
EFC-IP-407LE
  9
$CUSTOMPROPERTYTAG
  1
ST
  9
$CUSTOMPROPERTY
  1
Labyrinth Seal
  9
$CUSTOMPROPERTYTAG
  1
A
  9
$CUSTOMPROPERTY
  1
5.23
  9
$CUSTOMPROPERTYTAG
  1
B
  9
$CUSTOMPROPERTY
  1
13.5
  9
$CUSTOMPROPERTYTAG
  1
C
  9
$CUSTOMPROPERTY
  1
4.58
  9
$CUSTOMPROPERTYTAG
  1
D
  9
$CUSTOMPROPERTY
  1
5.88
  9
$CUSTOMPROPERTYTAG
  1
DD
  9
$CUSTOMPROPERTY
  1
11.75
  9
$CUSTOMPROPERTYTAG
  1
E
  9
$CUSTOMPROPERTY
  1
1.45
  9
$CUSTOMPROPERTYTAG
  1
F
  9
$CUSTOMPROPERTY
  1
3/4
  9
$CUSTOMPROPERTYTAG
  1
G
  9
$CUSTOMPROPERTY
  1
3.03
  9
$CUSTOMPROPERTYTAG
  1
H
  9
$CUSTOMPROPERTY
  1
0.94
  9
$CUSTOMPROPERTYTAG
  1
K
  9
$CUSTOMPROPERTY
  1
10.250
  9
$CUSTOMPROPERTYTAG
  1
L
  9
$CUSTOMPROPERTY
  1
6.44
  9
$CUSTOMPROPERTYTAG
  1
M
  9
$CUSTOMPROPERTY
  1
3/4-10
  9
$CUSTOMPROPERTYTAG
  1
N
  9
$CUSTOMPROPERTY
  1
5.66
  9
$CUSTOMPROPERTYTAG
  1
P
  9
$CUSTOMPROPERTY
  1
2.2
  9
$CUSTOMPROPERTYTAG
  1
Q
  9
$CUSTOMPROPERTY
  1
2.63
  9
$CUSTOMPROPERTYTAG
  1
X
  9
$CUSTOMPROPERTY
  1
0.38
  9
$CUSTOMPROPERTYTAG
  1
Y
  9
$CUSTOMPROPERTY
  1
0.036
  9
$CUSTOMPROPERTYTAG
  1
Z
  9
$CUSTOMPROPERTY
  1
5
  9
$CUSTOMPROPERTYTAG
  1
COMPANY
  9
$CUSTOMPROPERTY
  1
baldor
  9
$INSBASE
 10
0.0
 20
0.0
 30
0.0
  9
$EXTMIN
 10
1.000000000000000E+20
 20
1.000000000000000E+20
 30
1.000000000000000E+20
  9
$EXTMAX
 10
-1.000000000000000E+20
 20
-1.000000000000000E+20
 30
-1.000000000000000E+20
  9
$LIMMIN
 10
0.0
 20
0.0
  9
$LIMMAX
 10
12.0
 20
9.0
  9
$ORTHOMODE
 70
     0
  9
$REGENMODE
 70
     1
  9
$FILLMODE
 70
     1
  9
$QTEXTMODE
 70
     0
  9
$MIRRTEXT
 70
     1
  9
$LTSCALE
 40
1.0
  9
$ATTMODE
 70
     1
  9
$TEXTSIZE
 40
0.2
  9
$TRACEWID
 40
0.05
  9
$TEXTSTYLE
  7
Standard
  9
$CLAYER
  8
0
  9
$CELTYPE
  6
ByLayer
  9
$CECOLOR
 62
   256
  9
$CELTSCALE
 40
1.0
  9
$DISPSILH
 70
     0
  9
$DIMSCALE
 40
1.0
  9
$DIMASZ
 40
0.18
  9
$DIMEXO
 40
0.0625
  9
$DIMDLI
 40
0.38
  9
$DIMRND
 40
0.0
  9
$DIMDLE
 40
0.0
  9
$DIMEXE
 40
0.18
  9
$DIMTP
 40
0.0
  9
$DIMTM
 40
0.0
  9
$DIMTXT
 40
0.18
  9
$DIMCEN
 40
0.09
  9
$DIMTSZ
 40
0.0
  9
$DIMTOL
 70
     0
  9
$DIMLIM
 70
     0
  9
$DIMTIH
 70
     1
  9
$DIMTOH
 70
     1
  9
$DIMSE1
 70
     0
  9
$DIMSE2
 70
     0
  9
$DIMTAD
 70
     0
  9
$DIMZIN
 70
     0
  9
$DIMBLK
  1

  9
$DIMASO
 70
     1
  9
$DIMSHO
 70
     1
  9
$DIMPOST
  1

  9
$DIMAPOST
  1

  9
$DIMALT
 70
     0
  9
$DIMALTD
 70
     2
  9
$DIMALTF
 40
25.4
  9
$DIMLFAC
 40
1.0
  9
$DIMTOFL
 70
     0
  9
$DIMTVP
 40
0.0
  9
$DIMTIX
 70
     0
  9
$DIMSOXD
 70
     0
  9
$DIMSAH
 70
     0
  9
$DIMBLK1
  1

  9
$DIMBLK2
  1

  9
$DIMSTYLE
  2
Standard
  9
$DIMCLRD
 70
     0
  9
$DIMCLRE
 70
     0
  9
$DIMCLRT
 70
     0
  9
$DIMTFAC
 40
1.0
  9
$DIMGAP
 40
0.09
  9
$DIMJUST
 70
     0
  9
$DIMSD1
 70
     0
  9
$DIMSD2
 70
     0
  9
$DIMTOLJ
 70
     1
  9
$DIMTZIN
 70
     0
  9
$DIMALTZ
 70
     0
  9
$DIMALTTZ
 70
     0
  9
$DIMUPT
 70
     0
  9
$DIMDEC
 70
     4
  9
$DIMTDEC
 70
     4
  9
$DIMALTU
 70
     2
  9
$DIMALTTD
 70
     2
  9
$DIMTXSTY
  7
Standard
  9
$DIMAUNIT
 70
     0
  9
$DIMADEC
 70
     0
  9
$DIMALTRND
 40
0.0
  9
$DIMAZIN
 70
     0
  9
$DIMDSEP
 70
    46
  9
$DIMATFIT
 70
     3
  9
$DIMFRAC
 70
     0
  9
$DIMLDRBLK
  1

  9
$DIMLUNIT
 70
     2
  9
$DIMLWD
 70
    -2
  9
$DIMLWE
 70
    -2
  9
$DIMTMOVE
 70
     0
  9
$DIMFXL
 40
1.0
  9
$DIMFXLON
 70
     0
  9
$DIMJOGANG
 40
0.7853981633974483
  9
$DIMTFILL
 70
     0
  9
$DIMTFILLCLR
 70
     0
  9
$DIMARCSYM
 70
     0
  9
$DIMLTYPE
  6

  9
$DIMLTEX1
  6

  9
$DIMLTEX2
  6

  9
$DIMTXTDIRECTION
 70
     0
  9
$LUNITS
 70
     2
  9
$LUPREC
 70
     4
  9
$SKETCHINC
 40
0.1
  9
$FILLETRAD
 40
0.5
  9
$AUNITS
 70
     0
  9
$AUPREC
 70
     0
  9
$MENU
  1
.
  9
$ELEVATION
 40
0.0
  9
$PELEVATION
 40
0.0
  9
$THICKNESS
 40
0.0
  9
$LIMCHECK
 70
     0
  9
$CHAMFERA
 40
0.0
  9
$CHAMFERB
 40
0.0
  9
$CHAMFERC
 40
0.0
  9
$CHAMFERD
 40
0.0
  9
$SKPOLY
 70
     0
  9
$TDCREATE
 40
2458168.983580683
  9
$TDUCREATE
 40
2458168.941914016
  9
$TDUPDATE
 40
2458168.983580857
  9
$TDUUPDATE
 40
2458168.94191419
  9
$TDINDWG
 40
0.0000000116
  9
$TDUSRTIMER
 40
0.0000000116
  9
$USRTIMER
 70
     1
  9
$ANGBASE
 50
0.0
  9
$ANGDIR
 70
     0
  9
$PDMODE
 70
     0
  9
$PDSIZE
 40
0.0
  9
$PLINEWID
 40
0.0
  9
$SPLFRAME
 70
     0
  9
$SPLINETYPE
 70
     6
  9
$SPLINESEGS
 70
     8
  9
$HANDSEED
  5
2AA
  9
$SURFTAB1
 70
     6
  9
$SURFTAB2
 70
     6
  9
$SURFTYPE
 70
     6
  9
$SURFU
 70
     6
  9
$SURFV
 70
     6
  9
$UCSBASE
  2

  9
$UCSNAME
  2

  9
$UCSORG
 10
0.0
 20
0.0
 30
0.0
  9
$UCSXDIR
 10
1.0
 20
0.0
 30
0.0
  9
$UCSYDIR
 10
0.0
 20
1.0
 30
0.0
  9
$UCSORTHOREF
  2

  9
$UCSORTHOVIEW
 70
     0
  9
$UCSORGTOP
 10
0.0
 20
0.0
 30
0.0
  9
$UCSORGBOTTOM
 10
0.0
 20
0.0
 30
0.0
  9
$UCSORGLEFT
 10
0.0
 20
0.0
 30
0.0
  9
$UCSORGRIGHT
 10
0.0
 20
0.0
 30
0.0
  9
$UCSORGFRONT
 10
0.0
 20
0.0
 30
0.0
  9
$UCSORGBACK
 10
0.0
 20
0.0
 30
0.0
  9
$PUCSBASE
  2

  9
$PUCSNAME
  2

  9
$PUCSORG
 10
0.0
 20
0.0
 30
0.0
  9
$PUCSXDIR
 10
1.0
 20
0.0
 30
0.0
  9
$PUCSYDIR
 10
0.0
 20
1.0
 30
0.0
  9
$PUCSORTHOREF
  2

  9
$PUCSORTHOVIEW
 70
     0
  9
$PUCSORGTOP
 10
0.0
 20
0.0
 30
0.0
  9
$PUCSORGBOTTOM
 10
0.0
 20
0.0
 30
0.0
  9
$PUCSORGLEFT
 10
0.0
 20
0.0
 30
0.0
  9
$PUCSORGRIGHT
 10
0.0
 20
0.0
 30
0.0
  9
$PUCSORGFRONT
 10
0.0
 20
0.0
 30
0.0
  9
$PUCSORGBACK
 10
0.0
 20
0.0
 30
0.0
  9
$USERI1
 70
     0
  9
$USERI2
 70
     0
  9
$USERI3
 70
     0
  9
$USERI4
 70
     0
  9
$USERI5
 70
     0
  9
$USERR1
 40
0.0
  9
$USERR2
 40
0.0
  9
$USERR3
 40
0.0
  9
$USERR4
 40
0.0
  9
$USERR5
 40
0.0
  9
$WORLDVIEW
 70
     1
  9
$SHADEDGE
 70
     3
  9
$SHADEDIF
 70
    70
  9
$TILEMODE
 70
     1
  9
$MAXACTVP
 70
    64
  9
$PINSBASE
 10
0.0
 20
0.0
 30
0.0
  9
$PLIMCHECK
 70
     0
  9
$PEXTMIN
 10
1.000000000000000E+20
 20
1.000000000000000E+20
 30
1.000000000000000E+20
  9
$PEXTMAX
 10
-1.000000000000000E+20
 20
-1.000000000000000E+20
 30
-1.000000000000000E+20
  9
$PLIMMIN
 10
0.0
 20
0.0
  9
$PLIMMAX
 10
12.0
 20
9.0
  9
$UNITMODE
 70
     0
  9
$VISRETAIN
 70
     1
  9
$PLINEGEN
 70
     0
  9
$PSLTSCALE
 70
     1
  9
$TREEDEPTH
 70
  3020
  9
$CMLSTYLE
  2
Standard
  9
$CMLJUST
 70
     0
  9
$CMLSCALE
 40
1.0
  9
$PROXYGRAPHICS
 70
     1
  9
$MEASUREMENT
 70
     0
  9
$CELWEIGHT
370
    -1
  9
$ENDCAPS
280
     0
  9
$JOINSTYLE
280
     0
  9
$LWDISPLAY
290
     0
  9
$INSUNITS
 70
     1
  9
$HYPERLINKBASE
  1

  9
$STYLESHEET
  1

  9
$XEDIT
290
     1
  9
$CEPSNTYPE
380
     0
  9
$PSTYLEMODE
290
     1
  9
$FINGERPRINTGUID
  2
{F197CF84-6604-4364-BCC3-05F2C8248439}
  9
$VERSIONGUID
  2
{FAEB1C32-E019-11D5-929B-00C0DF256EC4}
  9
$EXTNAMES
290
     1
  9
$PSVPSCALE
 40
0.0
  9
$OLESTARTUP
290
     0
  9
$SORTENTS
280
   127
  9
$INDEXCTL
280
     0
  9
$HIDETEXT
280
     1
  9
$XCLIPFRAME
280
     2
  9
$HALOGAP
280
     0
  9
$OBSCOLOR
 70
   257
  9
$OBSLTYPE
280
     0
  9
$INTERSECTIONDISPLAY
280
     0
  9
$INTERSECTIONCOLOR
 70
   257
  9
$DIMASSOC
280
     2
  9
$PROJECTNAME
  1

  9
$CAMERADISPLAY
290
     0
  9
$LENSLENGTH
 40
50.0
  9
$CAMERAHEIGHT
 40
0.0
  9
$STEPSPERSEC
 40
2.0
  9
$STEPSIZE
 40
6.0
  9
$3DDWFPREC
 40
2.0
  9
$PSOLWIDTH
 40
0.25
  9
$PSOLHEIGHT
 40
4.0
  9
$LOFTANG1
 40
1.570796326794897
  9
$LOFTANG2
 40
1.570796326794897
  9
$LOFTMAG1
 40
0.0
  9
$LOFTMAG2
 40
0.0
  9
$LOFTPARAM
 70
     7
  9
$LOFTNORMALS
280
     1
  9
$LATITUDE
 40
37.795
  9
$LONGITUDE
 40
-122.394
  9
$NORTHDIRECTION
 40
0.0
  9
$TIMEZONE
 70
 -8000
  9
$LIGHTGLYPHDISPLAY
280
     1
  9
$TILEMODELIGHTSYNCH
280
     1
  9
$CMATERIAL
347
44
  9
$SOLIDHIST
280
     0
  9
$SHOWHIST
280
     1
  9
$DWFFRAME
280
     2
  9
$DGNFRAME
280
     2
  9
$REALWORLDSCALE
290
     1
  9
$INTERFERECOLOR
 62
   256
  9
$CSHADOW
280
     0
  9
$SHADOWPLANELOCATION
 40
0.0
  0
ENDSEC
  0
SECTION
  2
CLASSES
  0
CLASS
  1
ACDBDICTIONARYWDFLT
  2
AcDbDictionaryWithDefault
  3
ObjectDBX Classes
 90
        0
 91
        4
280
     0
281
     0
  0
CLASS
  1
VISUALSTYLE
  2
AcDbVisualStyle
  3
ObjectDBX Classes
 90
     4095
 91
        4
280
     0
281
     0
  0
CLASS
  1
MATERIAL
  2
AcDbMaterial
  3
ObjectDBX Classes
 90
     1153
 91
        4
280
     0
281
     0
  0
CLASS
  1
SCALE
  2
AcDbScale
  3
ObjectDBX Classes
 90
     1153
 91
        4
280
     0
281
     0
  0
CLASS
  1
TABLESTYLE
  2
AcDbTableStyle
  3
ObjectDBX Classes
 90
     4095
 91
        4
280
     0
281
     0
  0
CLASS
  1
MLEADERSTYLE
  2
AcDbMLeaderStyle
  3
ACDB_MLEADERSTYLE_CLASS
 90
     4095
 91
        4
280
     0
281
     0
  0
CLASS
  1
SUN
  2
AcDbSun
  3
SCENEOE
 90
     1153
 91
        4
280
     0
281
     0
  0
CLASS
  1
DICTIONARYVAR
  2
AcDbDictionaryVar
  3
ObjectDBX Classes
 90
        0
 91
        4
280
     0
281
     0
  0
CLASS
  1
CELLSTYLEMAP
  2
AcDbCellStyleMap
  3
ObjectDBX Classes
 90
     1152
 91
        4
280
     0
281
     0
  0
ENDSEC
  0
SECTION
  2
TABLES
  0
TABLE
  2
VPORT
  5
8
330
0
100
AcDbSymbolTable
 70
     1
  0
VPORT
  5
29
330
8
100
AcDbSymbolTableRecord
100
AcDbViewportTableRecord
  2
*Active
 70
     0
 10
0.0
 20
0.0
 11
1.0
 21
1.0
 12
0.0
 22
0.0
 13
0.0
 23
0.0
 14
0.5
 24
0.5
 15
0.5
 25
0.5
 16
0.0
 26
0.0
 36
1.0
 17
0.0
 27
0.0
 37
0.0
 40
7.082063999999999
 41
1.944348427238161
 42
50.0
 43
0.0
 44
0.0
 50
0.0
 51
0.0
 71
     0
 72
   100
 73
     1
 74
     3
 75
     0
 76
     0
 77
     0
 78
     0
281
     0
 65
     1
110
0.0
120
0.0
130
0.0
111
1.0
121
0.0
131
0.0
112
0.0
122
1.0
132
0.0
 79
     0
146
0.0
348
2F
 60
     3
 61
     5
292
     1
282
     1
141
0.0
142
0.0
 63
   250
361
6D
  0
ENDTAB
  0
TABLE
  2
LTYPE
  5
5
330
0
100
AcDbSymbolTable
 70
     3
  0
LTYPE
  5
14
330
5
100
AcDbSymbolTableRecord
100
AcDbLinetypeTableRecord
  2
ByBlock
 70
     0
  3

 72
    65
 73
     0
 40
0.0
  0
LTYPE
  5
15
330
5
100
AcDbSymbolTableRecord
100
AcDbLinetypeTableRecord
  2
ByLayer
 70
     0
  3

 72
    65
 73
     0
 40
0.0
  0
LTYPE
  5
16
330
5
100
AcDbSymbolTableRecord
100
AcDbLinetypeTableRecord
  2
Continuous
 70
     0
  3
Solid line
 72
    65
 73
     0
 40
0.0
  0
LTYPE
  5
9C
330
5
100
AcDbSymbolTableRecord
100
AcDbLinetypeTableRecord
  2
Dashed
 70
     0
  3

 72
    65
 73
     2
 40
2.0
 49
1.0
 74
     0
 49
-1.0
 74
     0
  0
LTYPE
  5
23E
330
5
100
AcDbSymbolTableRecord
100
AcDbLinetypeTableRecord
  2
Center
 70
     0
  3

 72
    65
 73
     4
 40
1.5
 49
0.45
 74
     0
 49
-0.5
 74
     0
 49
0.05
 74
     0
 49
-0.5
 74
     0
  0
ENDTAB
  0
TABLE
  2
LAYER
  5
2
330
0
100
AcDbSymbolTable
 70
     7
  0
LAYER
  5
10
330
2
100
AcDbSymbolTableRecord
100
AcDbLayerTableRecord
  2
0
 70
     0
 62
     7
  6
Continuous
370
    -3
390
F
347
46
348
0
  0
LAYER
  5
72
330
2
100
AcDbSymbolTableRecord
100
AcDbLayerTableRecord
  2
AM_6
 70
     0
 62
    -2
  6
Continuous
370
    35
390
F
347
46
348
0
  0
LAYER
  5
9D
330
2
100
AcDbSymbolTableRecord
100
AcDbLayerTableRecord
  2
AM_9
 70
     0
 62
     6
  6
Dashed
370
    25
390
F
347
46
348
0
  0
LAYER
  5
BF
330
2
100
AcDbSymbolTableRecord
100
AcDbLayerTableRecord
  2
AM_4
 70
     0
 62
     7
  6
Continuous
370
    50
390
F
347
46
348
0
  0
LAYER
  5
F8
330
2
100
AcDbSymbolTableRecord
100
AcDbLayerTableRecord
  2
AM_5
 70
     0
 62
     3
  6
Continuous
370
    25
390
F
347
46
348
0
  0
LAYER
  5
23F
330
2
100
AcDbSymbolTableRecord
100
AcDbLayerTableRecord
  2
AM_7
 70
     0
 62
     7
  6
Center
370
    25
390
F
347
46
348
0
  0
LAYER
  5
294
330
2
100
AcDbSymbolTableRecord
100
AcDbLayerTableRecord
  2
ConnectionPoints
 70
     0
 62
     7
  6
Continuous
370
    50
390
F
347
46
348
0
  0
ENDTAB
  0
TABLE
  2
STYLE
  5
3
330
0
100
AcDbSymbolTable
 70
     1
  0
STYLE
  5
11
330
3
100
AcDbSymbolTableRecord
100
AcDbTextStyleTableRecord
  2
Standard
 70
     0
 40
0.0
 41
1.0
 50
0.0
 71
     0
 42
0.2
  3
txt
  4

  0
ENDTAB
  0
TABLE
  2
VIEW
  5
6
330
0
100
AcDbSymbolTable
 70
     0
  0
ENDTAB
  0
TABLE
  2
UCS
  5
7
330
0
100
AcDbSymbolTable
 70
     0
  0
ENDTAB
  0
TABLE
  2
APPID
  5
9
330
0
100
AcDbSymbolTable
 70
     1
  0
APPID
  5
12
330
9
100
AcDbSymbolTableRecord
100
AcDbRegAppTableRecord
  2
ACAD
 70
     0
  0
ENDTAB
  0
TABLE
  2
DIMSTYLE
  5
A
330
0
100
AcDbSymbolTable
 70
     1
100
AcDbDimStyleTable
  0
DIMSTYLE
105
27
330
A
100
AcDbSymbolTableRecord
100
AcDbDimStyleTableRecord
  2
Standard
 70
     0
178
     0
340
11
  0
ENDTAB
  0
TABLE
  2
BLOCK_RECORD
  5
1
330
0
100
AcDbSymbolTable
 70
     8
  0
BLOCK_RECORD
  5
1F
330
1
100
AcDbSymbolTableRecord
100
AcDbBlockTableRecord
  2
*Model_Space
340
22
 70
     0
280
     1
281
     0
  0
BLOCK_RECORD
  5
1B
330
1
100
AcDbSymbolTableRecord
100
AcDbBlockTableRecord
  2
*Paper_Space
340
1E
 70
     0
280
     1
281
     0
  0
BLOCK_RECORD
  5
23
330
1
100
AcDbSymbolTableRecord
100
AcDbBlockTableRecord
  2
*Paper_Space0
340
26
 70
     0
280
     1
281
     0
  0
BLOCK_RECORD
  5
6E
330
1
100
AcDbSymbolTableRecord
100
AcDbBlockTableRecord
  2
1_071284_4
340
0
102
{BLKREFS
331
6F
102
}
 70
     0
280
     1
281
     0
  0
BLOCK_RECORD
  5
90
330
1
100
AcDbSymbolTableRecord
100
AcDbBlockTableRecord
  2
2_405015E_Inch_0_in_071284_4
340
0
102
{BLKREFS
331
91
102
}
 70
     0
280
     1
281
     0
  0
BLOCK_RECORD
  5
E8
330
1
100
AcDbSymbolTableRecord
100
AcDbBlockTableRecord
  2
3_ASME_B18_3_1_4_1_0_in_071284_4
340
0
102
{BLKREFS
331
E9
102
}
 70
     0
280
     1
281
     0
  0
BLOCK_RECORD
  5
FB
330
1
100
AcDbSymbolTableRecord
100
AcDbBlockTableRecord
  2
4_ASME_B18_3_1_4_2_0_in_071284_4
340
0
102
{BLKREFS
331
FC
102
}
 70
     0
280
     1
281
     0
  0
BLOCK_RECORD
  5
11C
330
1
100
AcDbSymbolTableRecord
100
AcDbBlockTableRecord
  2
5_070908LWE_0_in_071284_4
340
0
102
{BLKREFS
331
11D
102
}
 70
     0
280
     1
281
     0
  0
BLOCK_RECORD
  5
155
330
1
100
AcDbSymbolTableRecord
100
AcDbBlockTableRecord
  2
6_070940EL_0_in_071284_4
340
0
102
{BLKREFS
331
156
102
}
 70
     0
280
     1
281
     0
  0
BLOCK_RECORD
  5
1D5
330
1
100
AcDbSymbolTableRecord
100
AcDbBlockTableRecord
  2
7_071284H_0_in_071284_4
340
0
102
{BLKREFS
331
1D6
102
}
 70
     0
280
     1
281
     0
  0
ENDTAB
  0
ENDSEC
  0
SECTION
  2
BLOCKS
  0
BLOCK
  5
20
330
1F
100
AcDbEntity
  8
0
100
AcDbBlockBegin
  2
*Model_Space
 70
     0
 10
0.0
 20
0.0
 30
0.0
  3
*Model_Space
  1

  0
ENDBLK
  5
21
330
1F
100
AcDbEntity
  8
0
100
AcDbBlockEnd
  0
BLOCK
  5
1C
330
1B
100
AcDbEntity
 67
     1
  8
0
100
AcDbBlockBegin
  2
*Paper_Space
 70
     0
 10
0.0
 20
0.0
 30
0.0
  3
*Paper_Space
  1

  0
ENDBLK
  5
1D
330
1B
100
AcDbEntity
 67
     1
  8
0
100
AcDbBlockEnd
  0
BLOCK
  5
24
330
23
100
AcDbEntity
  8
0
100
AcDbBlockBegin
  2
*Paper_Space0
 70
     0
 10
0.0
 20
0.0
 30
0.0
  3
*Paper_Space0
  1

  0
ENDBLK
  5
25
330
23
100
AcDbEntity
  8
0
100
AcDbBlockEnd
  0
BLOCK
  5
70
330
6E
100
AcDbEntity
  8
0
100
AcDbBlockBegin
  2
1_071284_4
 70
     2
 10
0.0
 20
0.0
 30
0.0
  3
1_071284_4
  1

  0
ATTDEF
  5
73
330
6E
100
AcDbEntity
  8
AM_6
100
AcDbText
 10
11.75
 20
3.4716
 30
0.0
 40
0.5
  1
Imperial - IP Piloted Flange with Type E Dimensions 1-3/8 thru 2-1/2 inch Labyrinth Seal Expansion
100
AcDbAttributeDefinition
  3

  2
NN
 70
     8
280
     0
  0
ATTDEF
  5
74
330
6E
100
AcDbEntity
  8
AM_6
100
AcDbText
 10
11.75
 20
2.9716
 30
0.0
 40
0.5
  1
Imperial/E Piloted Flange Bearings
100
AcDbAttributeDefinition
  3

  2
NT
 70
     8
280
     0
  0
ATTDEF
  5
75
330
6E
100
AcDbEntity
  8
AM_6
100
AcDbText
 10
11.75
 20
2.4716
 30
0.0
 40
0.5
  1
071284
100
AcDbAttributeDefinition
  3

  2
NB
 70
     8
280
     0
  0
ATTDEF
  5
76
330
6E
100
AcDbEntity
  8
AM_6
100
AcDbText
 10
11.75
 20
1.9716
 30
0.0
 40
0.5
  1
$PN.
100
AcDbAttributeDefinition
  3

  2
NBSYN
 70
     8
280
     0
  0
ATTDEF
  5
77
330
6E
100
AcDbEntity
  8
AM_6
100
AcDbText
 10
11.75
 20
1.4716
 30
0.0
 40
0.5
  1
071284
100
AcDbAttributeDefinition
  3

  2
LINA
 70
     8
280
     0
  0
ATTDEF
  5
78
330
6E
100
AcDbEntity
  8
AM_6
100
AcDbText
 10
11.75
 20
0.9715999999999996
 30
0.0
 40
0.5
  1
4-7/16
100
AcDbAttributeDefinition
  3

  2
SS
 70
     8
280
     0
  0
ATTDEF
  5
79
330
6E
100
AcDbEntity
  8
AM_6
100
AcDbText
 10
11.75
 20
0.4715999999999996
 30
0.0
 40
0.5
  1
Expansion
100
AcDbAttributeDefinition
  3

  2
TYPE
 70
     8
280
     0
  0
ATTDEF
  5
7A
330
6E
100
AcDbEntity
  8
AM_6
100
AcDbText
 10
11.75
 20
-0.0284000000000004
 30
0.0
 40
0.5
  1
071284
100
AcDbAttributeDefinition
  3

  2
PN
 70
     8
280
     0
  0
ATTDEF
  5
7B
330
6E
100
AcDbEntity
  8
AM_6
100
AcDbText
 10
11.75
 20
-0.5284000000000004
 30
0.0
 40
0.5
  1
EFC-IP-407LE
100
AcDbAttributeDefinition
  3

  2
DESCRIPTION
 70
     8
280
     0
  0
ATTDEF
  5
7C
330
6E
100
AcDbEntity
  8
AM_6
100
AcDbText
 10
11.75
 20
-1.0284
 30
0.0
 40
0.5
  1
Labyrinth Seal
100
AcDbAttributeDefinition
  3

  2
ST
 70
     8
280
     0
  0
ATTDEF
  5
7D
330
6E
100
AcDbEntity
  8
AM_6
100
AcDbText
 10
11.75
 20
-1.5284
 30
0.0
 40
0.5
  1
5.23
100
AcDbAttributeDefinition
  3

  2
A
 70
     8
280
     0
  0
ATTDEF
  5
7E
330
6E
100
AcDbEntity
  8
AM_6
100
AcDbText
 10
11.75
 20
-2.0284
 30
0.0
 40
0.5
  1
13.5
100
AcDbAttributeDefinition
  3

  2
B
 70
     8
280
     0
  0
ATTDEF
  5
7F
330
6E
100
AcDbEntity
  8
AM_6
100
AcDbText
 10
11.75
 20
-2.5284
 30
0.0
 40
0.5
  1
4.58
100
AcDbAttributeDefinition
  3

  2
C
 70
     8
280
     0
  0
ATTDEF
  5
80
330
6E
100
AcDbEntity
  8
AM_6
100
AcDbText
 10
11.75
 20
-3.0284
 30
0.0
 40
0.5
  1
5.88
100
AcDbAttributeDefinition
  3

  2
D
 70
     8
280
     0
  0
ATTDEF
  5
81
330
6E
100
AcDbEntity
  8
AM_6
100
AcDbText
 10
11.75
 20
-3.5284
 30
0.0
 40
0.5
  1
11.75
100
AcDbAttributeDefinition
  3

  2
DD
 70
     8
280
     0
  0
ATTDEF
  5
82
330
6E
100
AcDbEntity
  8
AM_6
100
AcDbText
 10
11.75
 20
-4.0284
 30
0.0
 40
0.5
  1
1.45
100
AcDbAttributeDefinition
  3

  2
E
 70
     8
280
     0
  0
ATTDEF
  5
83
330
6E
100
AcDbEntity
  8
AM_6
100
AcDbText
 10
11.75
 20
-4.5284
 30
0.0
 40
0.5
  1
3/4
100
AcDbAttributeDefinition
  3

  2
F
 70
     8
280
     0
  0
ATTDEF
  5
84
330
6E
100
AcDbEntity
  8
AM_6
100
AcDbText
 10
11.75
 20
-5.0284
 30
0.0
 40
0.5
  1
3.03
100
AcDbAttributeDefinition
  3

  2
G
 70
     8
280
     0
  0
ATTDEF
  5
85
330
6E
100
AcDbEntity
  8
AM_6
100
AcDbText
 10
11.75
 20
-5.5284
 30
0.0
 40
0.5
  1
0.94
100
AcDbAttributeDefinition
  3

  2
H
 70
     8
280
     0
  0
ATTDEF
  5
86
330
6E
100
AcDbEntity
  8
AM_6
100
AcDbText
 10
11.75
 20
-6.0284
 30
0.0
 40
0.5
  1
10.250
100
AcDbAttributeDefinition
  3

  2
K
 70
     8
280
     0
  0
ATTDEF
  5
87
330
6E
100
AcDbEntity
  8
AM_6
100
AcDbText
 10
11.75
 20
-6.5284
 30
0.0
 40
0.5
  1
6.44
100
AcDbAttributeDefinition
  3

  2
L
 70
     8
280
     0
  0
ATTDEF
  5
88
330
6E
100
AcDbEntity
  8
AM_6
100
AcDbText
 10
11.75
 20
-7.0284
 30
0.0
 40
0.5
  1
3/4-10
100
AcDbAttributeDefinition
  3

  2
M
 70
     8
280
     0
  0
ATTDEF
  5
89
330
6E
100
AcDbEntity
  8
AM_6
100
AcDbText
 10
11.75
 20
-7.5284
 30
0.0
 40
0.5
  1
5.66
100
AcDbAttributeDefinition
  3

  2
N
 70
     8
280
     0
  0
ATTDEF
  5
8A
330
6E
100
AcDbEntity
  8
AM_6
100
AcDbText
 10
11.75
 20
-8.028400000000001
 30
0.0
 40
0.5
  1
2.2
100
AcDbAttributeDefinition
  3

  2
P
 70
     8
280
     0
  0
ATTDEF
  5
8B
330
6E
100
AcDbEntity
  8
AM_6
100
AcDbText
 10
11.75
 20
-8.528400000000001
 30
0.0
 40
0.5
  1
2.63
100
AcDbAttributeDefinition
  3

  2
Q
 70
     8
280
     0
  0
ATTDEF
  5
8C
330
6E
100
AcDbEntity
  8
AM_6
100
AcDbText
 10
11.75
 20
-9.028400000000001
 30
0.0
 40
0.5
  1
0.38
100
AcDbAttributeDefinition
  3

  2
X
 70
     8
280
     0
  0
ATTDEF
  5
8D
330
6E
100
AcDbEntity
  8
AM_6
100
AcDbText
 10
11.75
 20
-9.528400000000001
 30
0.0
 40
0.5
  1
0.036
100
AcDbAttributeDefinition
  3

  2
Y
 70
     8
280
     0
  0
ATTDEF
  5
8E
330
6E
100
AcDbEntity
  8
AM_6
100
AcDbText
 10
11.75
 20
-10.0284
 30
0.0
 40
0.5
  1
5
100
AcDbAttributeDefinition
  3

  2
Z
 70
     8
280
     0
  0
ATTDEF
  5
8F
330
6E
100
AcDbEntity
  8
AM_6
100
AcDbText
 10
11.75
 20
-10.5284
 30
0.0
 40
0.5
  1
baldor
100
AcDbAttributeDefinition
  3

  2
COMPANY
 70
     8
280
     0
  0
INSERT
  5
91
330
6E
100
AcDbEntity
  8
0
100
AcDbBlockReference
  2
2_405015E_Inch_0_in_071284_4
 10
0.0
 20
0.0
 30
0.0
  0
INSERT
  5
E9
330
6E
100
AcDbEntity
  8
0
100
AcDbBlockReference
  2
3_ASME_B18_3_1_4_1_0_in_071284_4
 10
0.0
 20
0.0
 30
0.0
  0
INSERT
  5
FC
330
6E
100
AcDbEntity
  8
0
100
AcDbBlockReference
  2
4_ASME_B18_3_1_4_2_0_in_071284_4
 10
0.0
 20
0.0
 30
0.0
  0
INSERT
  5
11D
330
6E
100
AcDbEntity
  8
0
100
AcDbBlockReference
  2
5_070908LWE_0_in_071284_4
 10
0.0
 20
0.0
 30
0.0
  0
INSERT
  5
156
330
6E
100
AcDbEntity
  8
0
100
AcDbBlockReference
  2
6_070940EL_0_in_071284_4
 10
0.0
 20
0.0
 30
0.0
  0
INSERT
  5
1D6
330
6E
100
AcDbEntity
  8
0
100
AcDbBlockReference
  2
7_071284H_0_in_071284_4
 10
0.0
 20
0.0
 30
0.0
  0
ENDBLK
  5
71
330
6E
100
AcDbEntity
  8
0
100
AcDbBlockEnd
  0
BLOCK
  5
92
330
90
100
AcDbEntity
  8
0
100
AcDbBlockBegin
  2
2_405015E_Inch_0_in_071284_4
 70
     2
 10
0.0
 20
0.0
 30
0.0
  3
2_405015E_Inch_0_in_071284_4
  1

  0
ATTDEF
  5
94
330
90
100
AcDbEntity
  8
AM_6
100
AcDbText
 10
5.252590742770462
 20
-1.040051831760989
 30
0.0
 40
0.5
  1
405015E -Inch
100
AcDbAttributeDefinition
  3

  2
NN
 70
     8
280
     0
  0
ATTDEF
  5
95
330
90
100
AcDbEntity
  8
AM_6
100
AcDbText
 10
5.252590742770462
 20
-1.540051831760989
 30
0.0
 40
0.5
  1
Grease Fitting
100
AcDbAttributeDefinition
  3

  2
NT
 70
     8
280
     0
  0
ATTDEF
  5
96
330
90
100
AcDbEntity
  8
AM_6
100
AcDbText
 10
5.252590742770462
 20
-2.040051831760989
 30
0.0
 40
0.5
  1
405015E-Inch
100
AcDbAttributeDefinition
  3

  2
NB
 70
     8
280
     0
  0
ATTDEF
  5
97
330
90
100
AcDbEntity
  8
AM_6
100
AcDbText
 10
5.252590742770462
 20
-2.540051831760989
 30
0.0
 40
0.5
  1
$MN.-Inch
100
AcDbAttributeDefinition
  3

  2
NBSYN
 70
     8
280
     0
  0
ATTDEF
  5
98
330
90
100
AcDbEntity
  8
AM_6
100
AcDbText
 10
5.252590742770462
 20
-3.040051831760989
 30
0.0
 40
0.5
  1
405015E
100
AcDbAttributeDefinition
  3

  2
LINA
 70
     8
280
     0
  0
ATTDEF
  5
99
330
90
100
AcDbEntity
  8
AM_6
100
AcDbText
 10
5.252590742770462
 20
-3.540051831760989
 30
0.0
 40
0.5
  1
405015E
100
AcDbAttributeDefinition
  3

  2
MN
 70
     8
280
     0
  0
ATTDEF
  5
9A
330
90
100
AcDbEntity
  8
AM_6
100
AcDbText
 10
5.252590742770462
 20
-4.040051831760989
 30
0.0
 40
0.5
  1
1/8 x 27PTF
100
AcDbAttributeDefinition
  3

  2
T
 70
     8
280
     0
  0
ATTDEF
  5
9B
330
90
100
AcDbEntity
  8
AM_6
100
AcDbText
 10
5.252590742770462
 20
-4.540051831760989
 30
0.0
 40
0.5
  1
baldor
100
AcDbAttributeDefinition
  3

  2
COMPANY
 70
     8
280
     0
  0
LINE
  5
9E
330
90
100
AcDbEntity
  8
AM_9
100
AcDbLine
 10
0.1262953713852306
 20
-1.538624768689827
 30
0.0
 11
0.1262953713852306
 21
-1.467727771688616
 31
0.0
  0
LINE
  5
9F
330
90
100
AcDbEntity
  8
AM_9
100
AcDbLine
 10
-0.1262953713852306
 20
-1.538624768689827
 30
0.0
 11
-0.1262953713852306
 21
-1.467727771688616
 31
0.0
  0
LWPOLYLINE
  5
A0
330
90
100
AcDbEntity
  8
AM_9
100
AcDbPolyline
 90
        5
 70
     0
 43
0.0
 10
0.0
 20
-1.459874999999999
 10
-0.0315738428463077
 20
-1.460401035958077
 10
-0.0631476856926153
 20
-1.461947728560769
 10
-0.0947562840569831
 20
-1.464432732780267
 10
-0.1262953713852306
 20
-1.467727771688616
  0
LWPOLYLINE
  5
A1
330
90
100
AcDbEntity
  8
AM_9
100
AcDbPolyline
 90
        4
 70
     0
 43
0.0
 10
0.1262953713852306
 20
-1.467727771688616
 10
0.0967996321117978
 20
-1.464622908514478
 10
0.0485424412477544
 20
-1.461109803479933
 10
0.0
 20
-1.459874999999999
  0
LWPOLYLINE
  5
A2
330
90
100
AcDbEntity
  8
AM_9
100
AcDbPolyline
 90
        4
 70
     0
 43
0.0
 10
0.1894430570778459
 20
-1.405187499999999
 10
0.1736561356546921
 20
-1.419385410958077
 10
0.1578502110457926
 20
-1.434622882545829
 10
0.1262953713852306
 20
-1.467727771688616
  0
LWPOLYLINE
  5
A3
330
90
100
AcDbEntity
  8
AM_9
100
AcDbPolyline
 90
        4
 70
     0
 43
0.0
 10
-0.1262953713852306
 20
-1.467727771688616
 10
-0.1498542014388649
 20
-1.442695292720529
 10
-0.1735630385535388
 20
-1.419472225597934
 10
-0.1894430570778459
 20
-1.405187499999999
  0
LWPOLYLINE
  5
A4
330
90
100
AcDbEntity
  8
AM_9
100
AcDbPolyline
 90
        5
 70
     0
 43
0.0
 10
-0.1019542022064503
 20
-1.541234923113963
 10
-0.0949251544150459
 20
-1.541904219966711
 10
-0.0634316146914367
 20
-1.544386500434001
 10
-0.0317600370486143
 20
-1.545945314235126
 10
0.0
 20
-1.546477540378443
  0
LINE
  5
A5
330
90
100
AcDbEntity
  8
AM_9
100
AcDbLine
 10
-0.1050107956427778
 20
-1.540931618266044
 30
0.0
 11
-0.1019542022064503
 21
-1.541234923113963
 31
0.0
  0
LINE
  5
A6
330
90
100
AcDbEntity
  8
AM_9
100
AcDbLine
 10
0.1019533868615141
 20
-1.541235003041105
 30
0.0
 11
0.1050087569988763
 21
-1.540931822993172
 31
0.0
  0
LWPOLYLINE
  5
A7
330
90
100
AcDbEntity
  8
AM_9
100
AcDbPolyline
 90
        4
 70
     0
 43
0.0
 10
0.0
 20
-1.546477540378443
 10
0.0483998160558989
 20
-1.545249896785995
 10
0.0967996321117978
 20
-1.541729631863965
 10
0.1019533868615141
 20
-1.541235003041105
  0
LWPOLYLINE
  5
A8
330
90
100
AcDbEntity
  8
AM_9
100
AcDbPolyline
 90
        4
 70
     0
 43
0.0
 10
-0.1894430570778459
 20
-1.405187499999999
 10
-0.2052299785009998
 20
-1.392041660958077
 10
-0.2210359031098993
 20
-1.379902468062612
 10
-0.2525907427704612
 20
-1.358352771688616
  0
LWPOLYLINE
  5
A9
330
90
100
AcDbEntity
  8
AM_9
100
AcDbPolyline
 90
        4
 70
     0
 43
0.0
 10
0.2525907427704612
 20
-1.358352771688616
 10
0.229031912716827
 20
-1.374125383340304
 10
0.205323075602153
 20
-1.391967226688699
 10
0.1894430570778459
 20
-1.405187499999999
  0
LINE
  5
AA
330
90
100
AcDbEntity
  8
AM_9
100
AcDbLine
 10
-0.1321931418159853
 20
-1.074265934494904
 30
0.0
 11
-0.1621706131788416
 21
-1.095463207778405
 31
0.0
  0
LINE
  5
AB
330
90
100
AcDbEntity
  8
AM_9
100
AcDbLine
 10
0.1621706131788416
 20
-1.095463207778405
 30
0.0
 11
0.1321931418159853
 21
-1.074265934494904
 31
0.0
  0
LINE
  5
AC
330
90
100
AcDbEntity
  8
AM_9
100
AcDbLine
 10
-0.1985852938306408
 20
-1.151007339313555
 30
0.0
 11
-0.2057184028850727
 21
-1.34864379922237
 31
0.0
  0
LINE
  5
AD
330
90
100
AcDbEntity
  8
AM_9
100
AcDbLine
 10
0.2057184028850727
 20
-1.34864379922237
 30
0.0
 11
0.1985852938306408
 21
-1.151007339313555
 31
0.0
  0
LINE
  5
AE
330
90
100
AcDbEntity
  8
AM_9
100
AcDbLine
 10
0.1017810272422101
 20
-1.540935374164286
 30
0.0
 11
0.105
 21
-1.534632979524759
 31
0.0
  0
LINE
  5
AF
330
90
100
AcDbEntity
  8
AM_9
100
AcDbLine
 10
-0.105
 20
-1.534632979524759
 30
0.0
 11
-0.1017810272422101
 21
-1.540935374164286
 31
0.0
  0
ELLIPSE
  5
B0
330
90
100
AcDbEntity
  8
AM_9
100
AcDbEllipse
 10
0.0
 20
-1.528035207775809
 30
0.0
 11
-0.1050000000000001
 21
1.285879139104722E-17
 31
0.0
210
0.0
220
0.0
230
1.0
 40
0.4999999999999952
 41
0.0
 42
3.141592653589793
  0
LINE
  5
B1
330
90
100
AcDbEntity
  8
AM_9
100
AcDbLine
 10
-0.105
 20
-1.546273436588269
 30
0.0
 11
-0.105
 21
-1.554015969889343
 31
0.0
  0
LINE
  5
B2
330
90
100
AcDbEntity
  8
AM_9
100
AcDbLine
 10
0.105
 20
-1.554015969889343
 30
0.0
 11
0.105
 21
-1.546273436588269
 31
0.0
  0
ELLIPSE
  5
B3
330
90
100
AcDbEntity
  8
AM_9
100
AcDbEllipse
 10
-0.0000000000000001
 20
-1.554015969889364
 30
0.0
 11
-0.1050000000000001
 21
1.564621938212798E-9
 31
0.0
210
0.0
220
0.0
230
1.0
 40
0.5000000000000268
 41
5.990342563390318
 42
9.717620760438
  0
LINE
  5
B4
330
90
100
AcDbEntity
  8
AM_9
100
AcDbLine
 10
0.0976523208201058
 20
-1.533954707637192
 30
0.0
 11
0.1098343496897826
 21
-1.525167854510342
 31
0.0
  0
LINE
  5
B5
330
90
100
AcDbEntity
  8
AM_9
100
AcDbLine
 10
-0.1098343496897826
 20
-1.525167854510342
 30
0.0
 11
-0.0976523208201058
 21
-1.533954707637192
 31
0.0
  0
ELLIPSE
  5
B6
330
90
100
AcDbEntity
  8
AM_9
100
AcDbEllipse
 10
0.0000000000000002
 20
-1.500108591904753
 30
0.0
 11
-0.1188200907348973
 21
1.455126437928901E-17
 31
0.0
210
0.0
220
0.0
230
1.0
 40
0.4999999999999738
 41
0.2500328930987035
 42
2.891559760491089
  0
ELLIPSE
  5
B7
330
90
100
AcDbEntity
  8
AM_9
100
AcDbEllipse
 10
0.0
 20
-1.452966565666414
 30
0.0
 11
-0.1725340532830156
 21
2.112932760969639E-17
 31
0.0
210
0.0
220
0.0
230
1.0
 40
0.4999999999999986
 41
0.6061451401950855
 42
2.535447513394709
  0
ELLIPSE
  5
B8
330
90
100
AcDbEntity
  8
AM_9
100
AcDbEllipse
 10
-0.0000000000000014
 20
-1.437102540378446
 30
0.0
 11
-0.2187499999999958
 21
2.678914873134783E-17
 31
0.0
210
0.0
220
0.0
230
1.0
 40
0.4999999999999966
 41
1.06524463825123
 42
2.076348015338575
  0
ELLIPSE
  5
B9
330
90
100
AcDbEntity
  8
AM_9
100
AcDbEllipse
 10
0.0000000000044389
 20
-1.43710254036356
 30
0.0
 11
-0.2137500000088536
 21
2.617682533285893E-17
 31
0.0
210
0.0
220
0.0
230
1.0
 40
0.5000000000447753
 41
1.042972124180698
 42
2.098620529373215
  0
ELLIPSE
  5
BA
330
90
100
AcDbEntity
  8
AM_9
100
AcDbEllipse
 10
0.0
 20
-1.605977494116409
 30
0.0
 11
-0.1350000000000001
 21
1.653273178848927E-17
 31
0.0
210
0.0
220
0.0
230
1.0
 40
0.5000000000000154
 41
0.2354336045415595
 42
2.906159049048235
  0
ELLIPSE
  5
BB
330
90
100
AcDbEntity
  8
AM_9
100
AcDbEllipse
 10
0.0
 20
-1.121003267997123
 30
0.0
 11
-0.161902872472269
 21
1.982738345459263E-17
 31
0.0
210
0.0
220
0.0
230
1.0
 40
0.5000000000000018
 41
0.0
 42
6.283185307179586
  0
ELLIPSE
  5
BC
330
90
100
AcDbEntity
  8
AM_9
100
AcDbEllipse
 10
-0.0000000000000005
 20
-1.350499999999998
 30
0.0
 11
-0.2187500000000005
 21
2.678914873134841E-17
 31
0.0
210
0.0
220
0.0
230
1.0
 40
0.4999999999999957
 41
0.0
 42
6.283185307179586
  0
ELLIPSE
  5
BD
330
90
100
AcDbEntity
  8
AM_9
100
AcDbEllipse
 10
-0.0000000000000004
 20
-1.3505
 30
0.0
 11
-0.2057518972230694
 21
2.519734023527271E-17
 31
0.0
210
0.0
220
0.0
230
1.0
 40
0.4999999999999569
 41
0.0
 42
6.283185307179586
  0
ELLIPSE
  5
BE
330
90
100
AcDbEntity
  8
AM_9
100
AcDbEllipse
 10
-0.0000000000000002
 20
-1.152799177922375
 30
0.0
 11
-0.1986176267812149
 21
2.959633296930002E-9
 31
0.0
210
0.0
220
0.0
230
1.0
 40
0.4999999999999698
 41
0.0
 42
6.283185307179586
  0
LWPOLYLINE
  5
C0
330
90
100
AcDbEntity
  8
AM_4
100
AcDbPolyline
 90
        4
 70
     0
 43
0.0
 10
-0.1894430570778459
 20
-1.491790040378443
 10
-0.1736561356546922
 20
-1.504935879420366
 10
-0.1578502110457927
 20
-1.517075072315831
 10
-0.1262953713852306
 20
-1.538624768689827
  0
LINE
  5
C1
330
90
100
AcDbEntity
  8
AM_4
100
AcDbLine
 10
-0.1262953713852306
 20
-1.538624768689827
 30
0.0
 11
-0.1050107956427778
 21
-1.540931618266044
 31
0.0
  0
LWPOLYLINE
  5
C2
330
90
100
AcDbEntity
  8
AM_4
100
AcDbPolyline
 90
        4
 70
     0
 43
0.0
 10
0.1262953713852306
 20
-1.538624768689827
 10
0.1498542014388649
 20
-1.522852157038139
 10
0.1735630385535388
 20
-1.505010313689744
 10
0.1894430570778459
 20
-1.491790040378443
  0
LINE
  5
C3
330
90
100
AcDbEntity
  8
AM_4
100
AcDbLine
 10
0.1050087569988763
 20
-1.540931822993172
 30
0.0
 11
0.1262953713852306
 21
-1.538624768689827
 31
0.0
  0
LWPOLYLINE
  5
C4
330
90
100
AcDbEntity
  8
AM_4
100
AcDbPolyline
 90
        4
 70
     0
 43
0.0
 10
-0.2525907427704612
 20
-1.429249768689827
 10
-0.2290319127168271
 20
-1.454282247657914
 10
-0.2053230756021531
 20
-1.477505314780509
 10
-0.1894430570778459
 20
-1.491790040378443
  0
LWPOLYLINE
  5
C5
330
90
100
AcDbEntity
  8
AM_4
100
AcDbPolyline
 90
        4
 70
     0
 43
0.0
 10
0.1894430570778459
 20
-1.491790040378443
 10
0.2052299785009998
 20
-1.477592129420366
 10
0.2368211991063374
 20
-1.446201633017395
 10
0.2525907427704612
 20
-1.429249768689827
  0
LINE
  5
C6
330
90
100
AcDbEntity
  8
AM_4
100
AcDbLine
 10
0.105
 20
-1.534632979524759
 30
0.0
 11
0.1151252948555658
 21
-1.514808765769945
 31
0.0
  0
LINE
  5
C7
330
90
100
AcDbEntity
  8
AM_4
100
AcDbLine
 10
-0.1151252948555658
 20
-1.514808765769945
 30
0.0
 11
-0.105
 21
-1.534632979524759
 31
0.0
  0
ELLIPSE
  5
C8
330
90
100
AcDbEntity
  8
AM_4
100
AcDbEllipse
 10
0.0
 20
-1.500108591904746
 30
0.0
 11
-0.1188200907348975
 21
1.455126437928903E-17
 31
0.0
210
0.0
220
0.0
230
1.0
 40
0.5000000000000011
 41
2.89155976049099
 42
6.53321820027839
  0
LINE
  5
C9
330
90
100
AcDbEntity
  8
AM_4
100
AcDbLine
 10
-0.105
 20
-1.528035207775809
 30
0.0
 11
-0.105
 21
-1.546273436588269
 31
0.0
  0
LINE
  5
CA
330
90
100
AcDbEntity
  8
AM_4
100
AcDbLine
 10
0.105
 20
-1.546273436588269
 30
0.0
 11
0.105
 21
-1.528035207775809
 31
0.0
  0
ELLIPSE
  5
CB
330
90
100
AcDbEntity
  8
AM_4
100
AcDbEllipse
 10
0.0
 20
-1.528035207775809
 30
0.0
 11
-0.1050000000000001
 21
1.285879139104722E-17
 31
0.0
210
0.0
220
0.0
230
1.0
 40
0.4999999999999994
 41
3.141592653589793
 42
6.283185307179586
  0
LINE
  5
CC
330
90
100
AcDbEntity
  8
AM_4
100
AcDbLine
 10
0.1098343496897826
 20
-1.525167854510342
 30
0.0
 11
0.1417971541629018
 21
-1.502113199868485
 31
0.0
  0
LINE
  5
CD
330
90
100
AcDbEntity
  8
AM_4
100
AcDbLine
 10
-0.1417971541629018
 20
-1.502113199868485
 30
0.0
 11
-0.1098343496897826
 21
-1.525167854510342
 31
0.0
  0
ELLIPSE
  5
CE
330
90
100
AcDbEntity
  8
AM_4
100
AcDbEllipse
 10
-0.0000000000000001
 20
-1.452966565666414
 30
0.0
 11
-0.1725340532830149
 21
2.112932760969631E-17
 31
0.0
210
0.0
220
0.0
230
1.0
 40
0.5000000000000004
 41
2.53544751339471
 42
6.889330447374672
  0
LWPOLYLINE
  5
CF
330
90
100
AcDbEntity
  8
AM_4
100
AcDbPolyline
 90
        4
 70
     0
 43
0.0
 10
0.2525907427704612
 20
-1.429249768689827
 10
0.229031912716827
 20
-1.413477157038139
 10
0.2053230756021531
 20
-1.395635313689744
 10
0.1894430570778459
 20
-1.382415040378443
  0
LINE
  5
D0
330
90
100
AcDbEntity
  8
AM_4
100
AcDbLine
 10
0.2525907427704612
 20
-1.429249768689827
 30
0.0
 11
0.2525907427704612
 21
-1.358352771688616
 31
0.0
  0
LWPOLYLINE
  5
D1
330
90
100
AcDbEntity
  8
AM_4
100
AcDbPolyline
 90
        4
 70
     0
 43
0.0
 10
0.1894430570778459
 20
-1.2958125
 10
0.2052299785009998
 20
-1.310010410958077
 10
0.2368211991063374
 20
-1.341400907361048
 10
0.2525907427704612
 20
-1.358352771688616
  0
LWPOLYLINE
  5
D2
330
90
100
AcDbEntity
  8
AM_4
100
AcDbPolyline
 90
        4
 70
     0
 43
0.0
 10
0.1262953713852306
 20
-1.248977771688616
 10
0.1498542014388649
 20
-1.264750383340304
 10
0.1735630385535388
 20
-1.282592226688699
 10
0.1894430570778459
 20
-1.2958125
  0
LINE
  5
D3
330
90
100
AcDbEntity
  8
AM_4
100
AcDbLine
 10
-0.2525907427704612
 20
-1.429249768689827
 30
0.0
 11
-0.2525907427704612
 21
-1.358352771688616
 31
0.0
  0
LWPOLYLINE
  5
D4
330
90
100
AcDbEntity
  8
AM_4
100
AcDbPolyline
 90
        4
 70
     0
 43
0.0
 10
-0.1894430570778459
 20
-1.382415040378443
 10
-0.2052299785009997
 20
-1.395560879420366
 10
-0.2210359031098992
 20
-1.407700072315831
 10
-0.2525907427704612
 20
-1.429249768689827
  0
LWPOLYLINE
  5
D5
330
90
100
AcDbEntity
  8
AM_4
100
AcDbPolyline
 90
        4
 70
     0
 43
0.0
 10
-0.1894430570778459
 20
-1.2958125
 10
-0.1736561356546921
 20
-1.282666660958077
 10
-0.1578692142315383
 20
-1.270541478560769
 10
-0.1262953713852306
 20
-1.248977771688616
  0
LWPOLYLINE
  5
D6
330
90
100
AcDbEntity
  8
AM_4
100
AcDbPolyline
 90
        4
 70
     0
 43
0.0
 10
-0.2525907427704612
 20
-1.358352771688616
 10
-0.229031912716827
 20
-1.333320292720529
 10
-0.205323075602153
 20
-1.310097225597934
 10
-0.1894430570778459
 20
-1.2958125
  0
LINE
  5
D7
330
90
100
AcDbEntity
  8
AM_4
100
AcDbLine
 10
-0.1262953713852306
 20
-1.319874768689827
 30
0.0
 11
-0.1262953713852306
 21
-1.248977771688616
 31
0.0
  0
LINE
  5
D8
330
90
100
AcDbEntity
  8
AM_4
100
AcDbLine
 10
0.1262953713852306
 20
-1.319874768689827
 30
0.0
 11
0.1262953713852306
 21
-1.248977771688616
 31
0.0
  0
LWPOLYLINE
  5
D9
330
90
100
AcDbEntity
  8
AM_4
100
AcDbPolyline
 90
        4
 70
     0
 43
0.0
 10
0.0
 20
-1.241124999999999
 10
0.0483998160558989
 20
-1.242352643592447
 10
0.0967996321117978
 20
-1.245872908514478
 10
0.1262953713852306
 20
-1.248977771688616
  0
LWPOLYLINE
  5
DA
330
90
100
AcDbEntity
  8
AM_4
100
AcDbPolyline
 90
        5
 70
     0
 43
0.0
 10
-0.1262953713852306
 20
-1.248977771688616
 10
-0.0949251544150459
 20
-1.245698320411732
 10
-0.0634316146914367
 20
-1.243216039944442
 10
-0.0317600370486143
 20
-1.241657226143316
 10
0.0
 20
-1.241124999999999
  0
LWPOLYLINE
  5
DB
330
90
100
AcDbEntity
  8
AM_4
100
AcDbPolyline
 90
        5
 70
     0
 43
0.0
 10
0.0
 20
-1.327727540378443
 10
-0.0315738428463077
 20
-1.327201504420366
 10
-0.0631476856926153
 20
-1.325654811817674
 10
-0.0947562840569831
 20
-1.323169807598175
 10
-0.1262953713852306
 20
-1.319874768689827
  0
LWPOLYLINE
  5
DC
330
90
100
AcDbEntity
  8
AM_4
100
AcDbPolyline
 90
        4
 70
     0
 43
0.0
 10
-0.1262953713852306
 20
-1.319874768689827
 10
-0.1498542014388648
 20
-1.344907247657914
 10
-0.1735630385535388
 20
-1.368130314780509
 10
-0.1894430570778459
 20
-1.382415040378443
  0
ELLIPSE
  5
DD
330
90
100
AcDbEntity
  8
AM_4
100
AcDbEllipse
 10
-0.0000000000000017
 20
-1.437102540378445
 30
0.0
 11
-0.2187500000000028
 21
2.678914873134870E-17
 31
0.0
210
0.0
220
0.0
230
1.0
 40
0.5000000000000027
 41
2.076348015338577
 42
7.348429945430816
  0
LWPOLYLINE
  5
DE
330
90
100
AcDbEntity
  8
AM_4
100
AcDbPolyline
 90
        4
 70
     0
 43
0.0
 10
0.1894430570778459
 20
-1.382415040378443
 10
0.1736561356546922
 20
-1.368217129420366
 10
0.1578502110457927
 20
-1.352979657832613
 10
0.1262953713852306
 20
-1.319874768689827
  0
LWPOLYLINE
  5
DF
330
90
100
AcDbEntity
  8
AM_4
100
AcDbPolyline
 90
        4
 70
     0
 43
0.0
 10
0.1262953713852306
 20
-1.319874768689827
 10
0.0967996321117978
 20
-1.322979631863965
 10
0.0485424412477544
 20
-1.32649273689851
 10
0.0
 20
-1.327727540378443
  0
ELLIPSE
  5
E0
330
90
100
AcDbEntity
  8
AM_4
100
AcDbEllipse
 10
0.0
 20
-1.437102540378443
 30
0.0
 11
-0.2137499999999995
 21
2.617682533177461E-17
 31
0.0
210
0.0
220
0.0
230
1.0
 40
0.4999999999999993
 41
2.098620529422326
 42
7.326157431347053
  0
LINE
  5
E1
330
90
100
AcDbEntity
  8
AM_4
100
AcDbLine
 10
-0.1005298463144155
 20
-1.538860525323115
 30
0.0
 11
-0.1292526595471057
 21
-1.586491922531259
 31
0.0
  0
LINE
  5
E2
330
90
100
AcDbEntity
  8
AM_4
100
AcDbLine
 10
0.1292526595471057
 20
-1.586491922531259
 30
0.0
 11
0.1005298463144155
 21
-1.538860525323115
 31
0.0
  0
ELLIPSE
  5
E3
330
90
100
AcDbEntity
  8
AM_4
100
AcDbEllipse
 10
0.0
 20
-1.554015969889343
 30
0.0
 11
-0.105
 21
1.285879139104720E-17
 31
0.0
210
0.0
220
0.0
230
1.0
 40
0.5000000000000085
 41
3.434435425318377
 42
5.990342535451004
  0
ELLIPSE
  5
E4
330
90
100
AcDbEntity
  8
AM_4
100
AcDbEllipse
 10
-0.0000000000000161
 20
-1.605977494116398
 30
0.0
 11
-0.1349999999999839
 21
1.653273178848730E-17
 31
0.0
210
0.0
220
0.0
230
1.0
 40
0.5000000000000275
 41
2.906159049048121
 42
6.518618911721314
  0
LINE
  5
E5
330
90
100
AcDbEntity
  8
AM_4
100
AcDbLine
 10
0.0998453562378798
 20
-1.687235088860362
 30
0.0
 11
0.1312757938985219
 21
-1.621722858007987
 31
0.0
  0
LINE
  5
E6
330
90
100
AcDbEntity
  8
AM_4
100
AcDbLine
 10
-0.1312757938985219
 20
-1.621722858007987
 30
0.0
 11
-0.0998453562378798
 21
-1.687235088860362
 31
0.0
  0
ELLIPSE
  5
E7
330
90
100
AcDbEntity
  8
AM_4
100
AcDbEllipse
 10
-0.0000000000000038
 20
-1.675259526419161
 30
0.0
 11
-0.1026779019331837
 21
1.257441639456392E-17
 31
0.0
210
0.0
220
0.0
230
1.0
 40
0.5000000000000083
 41
0.0
 42
6.283185307179586
  0
ENDBLK
  5
93
330
90
100
AcDbEntity
  8
0
100
AcDbBlockEnd
  0
BLOCK
  5
EA
330
E8
100
AcDbEntity
  8
0
100
AcDbBlockBegin
  2
3_ASME_B18_3_1_4_1_0_in_071284_4
 70
     2
 10
0.0
 20
0.0
 30
0.0
  3
3_ASME_B18_3_1_4_1_0_in_071284_4
  1

  0
ATTDEF
  5
EC
330
E8
100
AcDbEntity
  8
AM_6
100
AcDbText
 10
5.125
 20
-2.2475
 30
0.0
 40
0.5
  1
ANSI/ASME B18.3-1998
100
AcDbAttributeDefinition
  3

  2
NN
 70
     8
280
     0
  0
ATTDEF
  5
ED
330
E8
100
AcDbEntity
  8
AM_6
100
AcDbText
 10
5.125
 20
-2.7475
 30
0.0
 40
0.5
  1
Socket Button Head Cap Screws
100
AcDbAttributeDefinition
  3

  2
NT
 70
     8
280
     0
  0
ATTDEF
  5
EE
330
E8
100
AcDbEntity
  8
AM_6
100
AcDbText
 10
5.125
 20
-3.2475
 30
0.0
 40
0.5
  1
ASME B18.3-1/4
100
AcDbAttributeDefinition
  3

  2
NB
 70
     8
280
     0
  0
ATTDEF
  5
EF
330
E8
100
AcDbEntity
  8
AM_6
100
AcDbText
 10
5.125
 20
-3.7475
 30
0.0
 40
0.5
  1
ASME B18.3-$NS.
100
AcDbAttributeDefinition
  3

  2
NBSYN
 70
     8
280
     0
  0
ATTDEF
  5
F0
330
E8
100
AcDbEntity
  8
AM_6
100
AcDbText
 10
5.125
 20
-4.2475
 30
0.0
 40
0.5
  1
ASME B18.3-1/4
100
AcDbAttributeDefinition
  3

  2
LINA
 70
     8
280
     0
  0
ATTDEF
  5
F1
330
E8
100
AcDbEntity
  8
AM_6
100
AcDbText
 10
5.125
 20
-4.7475
 30
0.0
 40
0.5
  1
1/4
100
AcDbAttributeDefinition
  3

  2
NS
 70
     8
280
     0
  0
ATTDEF
  5
F2
330
E8
100
AcDbEntity
  8
AM_6
100
AcDbText
 10
5.125
 20
-5.2475
 30
0.0
 40
0.5
  1
0.437
100
AcDbAttributeDefinition
  3

  2
A
 70
     8
280
     0
  0
ATTDEF
  5
F3
330
E8
100
AcDbEntity
  8
AM_6
100
AcDbText
 10
5.125
 20
-5.7475
 30
0.0
 40
0.5
  1
0.132
100
AcDbAttributeDefinition
  3

  2
H
 70
     8
280
     0
  0
ATTDEF
  5
F4
330
E8
100
AcDbEntity
  8
AM_6
100
AcDbText
 10
5.125
 20
-6.2475
 30
0.0
 40
0.5
  1
0.800
100
AcDbAttributeDefinition
  3

  2
L
 70
     8
280
     0
  0
ATTDEF
  5
F5
330
E8
100
AcDbEntity
  8
AM_6
100
AcDbText
 10
5.125
 20
-6.7475
 30
0.0
 40
0.5
  1
0.031
100
AcDbAttributeDefinition
  3

  2
S
 70
     8
280
     0
  0
ATTDEF
  5
F6
330
E8
100
AcDbEntity
  8
AM_6
100
AcDbText
 10
5.125
 20
-7.2475
 30
0.0
 40
0.5
  1
0.156250
100
AcDbAttributeDefinition
  3

  2
J
 70
     8
280
     0
  0
ATTDEF
  5
F7
330
E8
100
AcDbEntity
  8
AM_6
100
AcDbText
 10
5.125
 20
-7.7475
 30
0.0
 40
0.5
  1
baldor
100
AcDbAttributeDefinition
  3

  2
COMPANY
 70
     8
280
     0
  0
LINE
  5
F9
330
E8
100
AcDbEntity
  8
AM_5
100
AcDbLine
 10
0.125
 20
-2.2475
 30
0.0
 11
-0.125
 21
-2.2475
 31
0.0
  0
LINE
  5
FA
330
E8
100
AcDbEntity
  8
AM_5
100
AcDbLine
 10
0.1064
 20
-2.2475
 30
0.0
 11
0.1250000000000001
 21
-2.279716145020782
 31
0.0
  0
ENDBLK
  5
EB
330
E8
100
AcDbEntity
  8
0
100
AcDbBlockEnd
  0
BLOCK
  5
FD
330
FB
100
AcDbEntity
  8
0
100
AcDbBlockBegin
  2
4_ASME_B18_3_1_4_2_0_in_071284_4
 70
     2
 10
0.0
 20
0.0
 30
0.0
  3
4_ASME_B18_3_1_4_2_0_in_071284_4
  1

  0
ATTDEF
  5
FF
330
FB
100
AcDbEntity
  8
AM_6
100
AcDbText
 10
5.2185
 20
-1.527499999999999
 30
0.0
 40
0.5
  1
ANSI/ASME B18.3-1998
100
AcDbAttributeDefinition
  3

  2
NN
 70
     8
280
     0
  0
ATTDEF
  5
100
330
FB
100
AcDbEntity
  8
AM_6
100
AcDbText
 10
5.2185
 20
-2.027499999999999
 30
0.0
 40
0.5
  1
Socket Button Head Cap Screws
100
AcDbAttributeDefinition
  3

  2
NT
 70
     8
280
     0
  0
ATTDEF
  5
101
330
FB
100
AcDbEntity
  8
AM_6
100
AcDbText
 10
5.2185
 20
-2.527499999999999
 30
0.0
 40
0.5
  1
ASME B18.3-1/4
100
AcDbAttributeDefinition
  3

  2
NB
 70
     8
280
     0
  0
ATTDEF
  5
102
330
FB
100
AcDbEntity
  8
AM_6
100
AcDbText
 10
5.2185
 20
-3.027499999999999
 30
0.0
 40
0.5
  1
ASME B18.3-$NS.
100
AcDbAttributeDefinition
  3

  2
NBSYN
 70
     8
280
     0
  0
ATTDEF
  5
103
330
FB
100
AcDbEntity
  8
AM_6
100
AcDbText
 10
5.2185
 20
-3.527499999999999
 30
0.0
 40
0.5
  1
ASME B18.3-1/4
100
AcDbAttributeDefinition
  3

  2
LINA
 70
     8
280
     0
  0
ATTDEF
  5
104
330
FB
100
AcDbEntity
  8
AM_6
100
AcDbText
 10
5.2185
 20
-4.0275
 30
0.0
 40
0.5
  1
1/4
100
AcDbAttributeDefinition
  3

  2
NS
 70
     8
280
     0
  0
ATTDEF
  5
105
330
FB
100
AcDbEntity
  8
AM_6
100
AcDbText
 10
5.2185
 20
-4.5275
 30
0.0
 40
0.5
  1
0.437
100
AcDbAttributeDefinition
  3

  2
A
 70
     8
280
     0
  0
ATTDEF
  5
106
330
FB
100
AcDbEntity
  8
AM_6
100
AcDbText
 10
5.2185
 20
-5.0275
 30
0.0
 40
0.5
  1
0.132
100
AcDbAttributeDefinition
  3

  2
H
 70
     8
280
     0
  0
ATTDEF
  5
107
330
FB
100
AcDbEntity
  8
AM_6
100
AcDbText
 10
5.2185
 20
-5.5275
 30
0.0
 40
0.5
  1
0.800
100
AcDbAttributeDefinition
  3

  2
L
 70
     8
280
     0
  0
ATTDEF
  5
108
330
FB
100
AcDbEntity
  8
AM_6
100
AcDbText
 10
5.2185
 20
-6.0275
 30
0.0
 40
0.5
  1
0.031
100
AcDbAttributeDefinition
  3

  2
S
 70
     8
280
     0
  0
ATTDEF
  5
109
330
FB
100
AcDbEntity
  8
AM_6
100
AcDbText
 10
5.2185
 20
-6.5275
 30
0.0
 40
0.5
  1
0.156250
100
AcDbAttributeDefinition
  3

  2
J
 70
     8
280
     0
  0
ATTDEF
  5
10A
330
FB
100
AcDbEntity
  8
AM_6
100
AcDbText
 10
5.2185
 20
-7.0275
 30
0.0
 40
0.5
  1
baldor
100
AcDbAttributeDefinition
  3

  2
COMPANY
 70
     8
280
     0
  0
LINE
  5
10B
330
FB
100
AcDbEntity
  8
AM_9
100
AcDbLine
 10
0.078125
 20
-2.3895
 30
0.0
 11
0.078125
 21
-2.4595
 31
0.0
  0
LINE
  5
10C
330
FB
100
AcDbEntity
  8
AM_9
100
AcDbLine
 10
-0.078125
 20
-2.3895
 30
0.0
 11
-0.078125
 21
-2.4595
 31
0.0
  0
LINE
  5
10D
330
FB
100
AcDbEntity
  8
AM_9
100
AcDbLine
 10
0.0
 20
-2.3895
 30
0.0
 11
0.0
 21
-2.4595
 31
0.0
  0
LINE
  5
10E
330
FB
100
AcDbEntity
  8
AM_9
100
AcDbLine
 10
-0.078125
 20
-2.3895
 30
0.0
 11
0.078125
 21
-2.3895
 31
0.0
  0
LINE
  5
10F
330
FB
100
AcDbEntity
  8
AM_9
100
AcDbLine
 10
0.125
 20
-2.2575
 30
0.0
 11
0.125
 21
-1.5461
 31
0.0
  0
LINE
  5
110
330
FB
100
AcDbEntity
  8
AM_9
100
AcDbLine
 10
-0.125
 20
-1.5461
 30
0.0
 11
-0.125
 21
-2.2575
 31
0.0
  0
LINE
  5
111
330
FB
100
AcDbEntity
  8
AM_9
100
AcDbLine
 10
-0.1064842611745993
 20
-1.527584261174599
 30
0.0
 11
-0.125
 21
-1.5461
 31
0.0
  0
LINE
  5
112
330
FB
100
AcDbEntity
  8
AM_9
100
AcDbLine
 10
0.125
 20
-1.5461
 30
0.0
 11
0.1064842611745993
 21
-1.527584261174599
 31
0.0
  0
LINE
  5
113
330
FB
100
AcDbEntity
  8
AM_9
100
AcDbLine
 10
-0.1064
 20
-1.527499999999999
 30
0.0
 11
0.1064
 21
-1.527499999999999
 31
0.0
  0
LINE
  5
114
330
FB
100
AcDbEntity
  8
AM_9
100
AcDbLine
 10
-0.125
 20
-1.5461
 30
0.0
 11
0.125
 21
-1.5461
 31
0.0
  0
LINE
  5
115
330
FB
100
AcDbEntity
  8
AM_5
100
AcDbLine
 10
-0.1250000000000004
 20
-2.2475
 30
0.0
 11
0.125
 21
-2.2475
 31
0.0
  0
LINE
  5
116
330
FB
100
AcDbEntity
  8
AM_4
100
AcDbLine
 10
0.2185
 20
-2.3585
 30
0.0
 11
0.2185
 21
-2.3275
 31
0.0
  0
LINE
  5
117
330
FB
100
AcDbEntity
  8
AM_4
100
AcDbLine
 10
-0.2185
 20
-2.3275
 30
0.0
 11
-0.2185
 21
-2.3585
 31
0.0
  0
LINE
  5
118
330
FB
100
AcDbEntity
  8
AM_4
100
AcDbLine
 10
-0.1174999899539748
 20
-2.4595
 30
0.0
 11
0.1175
 21
-2.4595
 31
0.0
  0
ARC
  5
119
330
FB
100
AcDbEntity
  8
AM_4
100
AcDbCircle
 10
0.1175000000000004
 20
-2.3585
 30
0.0
 40
0.1009999999999995
100
AcDbArc
 50
270.0
 51
0.0
  0
ARC
  5
11A
330
FB
100
AcDbEntity
  8
AM_4
100
AcDbCircle
 10
-0.1175000000000004
 20
-2.3585
 30
0.0
 40
0.1009999999999996
100
AcDbArc
 50
180.0
 51
270.0
  0
LINE
  5
11B
330
FB
100
AcDbEntity
  8
AM_4
100
AcDbLine
 10
-0.2185
 20
-2.3585
 30
0.0
 11
0.2185
 21
-2.3585
 31
0.0
  0
ENDBLK
  5
FE
330
FB
100
AcDbEntity
  8
0
100
AcDbBlockEnd
  0
BLOCK
  5
11E
330
11C
100
AcDbEntity
  8
0
100
AcDbBlockBegin
  2
5_070908LWE_0_in_071284_4
 70
     2
 10
0.0
 20
0.0
 30
0.0
  3
5_070908LWE_0_in_071284_4
  1

  0
ATTDEF
  5
120
330
11C
100
AcDbEntity
  8
AM_6
100
AcDbText
 10
8.22
 20
-1.8275
 30
0.0
 40
0.5
  1
Imperial/E Insert Lockwasher -Inch
100
AcDbAttributeDefinition
  3

  2
NN
 70
     8
280
     0
  0
ATTDEF
  5
121
330
11C
100
AcDbEntity
  8
AM_6
100
AcDbText
 10
8.22
 20
-2.3275
 30
0.0
 40
0.5
  1
Imperial/E Bearings
100
AcDbAttributeDefinition
  3

  2
NT
 70
     8
280
     0
  0
ATTDEF
  5
122
330
11C
100
AcDbEntity
  8
AM_6
100
AcDbText
 10
8.22
 20
-2.8275
 30
0.0
 40
0.5
  1
070908LWE
100
AcDbAttributeDefinition
  3

  2
NB
 70
     8
280
     0
  0
ATTDEF
  5
123
330
11C
100
AcDbEntity
  8
AM_6
100
AcDbText
 10
8.22
 20
-3.3275
 30
0.0
 40
0.5
  1
$PN.LWE
100
AcDbAttributeDefinition
  3

  2
NBSYN
 70
     8
280
     0
  0
ATTDEF
  5
124
330
11C
100
AcDbEntity
  8
AM_6
100
AcDbText
 10
8.22
 20
-3.8275
 30
0.0
 40
0.5
  1
070908
100
AcDbAttributeDefinition
  3

  2
LINA
 70
     8
280
     0
  0
ATTDEF
  5
125
330
11C
100
AcDbEntity
  8
AM_6
100
AcDbText
 10
8.22
 20
-4.3275
 30
0.0
 40
0.5
  1
4-7/16
100
AcDbAttributeDefinition
  3

  2
SS
 70
     8
280
     0
  0
ATTDEF
  5
126
330
11C
100
AcDbEntity
  8
AM_6
100
AcDbText
 10
8.22
 20
-4.8275
 30
0.0
 40
0.5
  1
6.440000
100
AcDbAttributeDefinition
  3

  2
E1
 70
     8
280
     0
  0
ATTDEF
  5
127
330
11C
100
AcDbEntity
  8
AM_6
100
AcDbText
 10
8.22
 20
-5.3275
 30
0.0
 40
0.5
  1
4.437500
100
AcDbAttributeDefinition
  3

  2
SS1
 70
     8
280
     0
  0
ATTDEF
  5
128
330
11C
100
AcDbEntity
  8
AM_6
100
AcDbText
 10
8.22
 20
-5.8275
 30
0.0
 40
0.5
  1
070908
100
AcDbAttributeDefinition
  3

  2
PN
 70
     8
280
     0
  0
ATTDEF
  5
129
330
11C
100
AcDbEntity
  8
AM_6
100
AcDbText
 10
8.22
 20
-6.3275
 30
0.0
 40
0.5
  1
INS-IP-407R
100
AcDbAttributeDefinition
  3

  2
DESCRIPTION
 70
     8
280
     0
  0
ATTDEF
  5
12A
330
11C
100
AcDbEntity
  8
AM_6
100
AcDbText
 10
8.22
 20
-6.8275
 30
0.0
 40
0.5
  1
7.8740
100
AcDbAttributeDefinition
  3

  2
A
 70
     8
280
     0
  0
ATTDEF
  5
12B
330
11C
100
AcDbEntity
  8
AM_6
100
AcDbText
 10
8.22
 20
-7.3275
 30
0.0
 40
0.5
  1
2-5/32
100
AcDbAttributeDefinition
  3

  2
B
 70
     8
280
     0
  0
ATTDEF
  5
12C
330
11C
100
AcDbEntity
  8
AM_6
100
AcDbText
 10
8.22
 20
-7.8275
 30
0.0
 40
0.5
  1
2.156250
100
AcDbAttributeDefinition
  3

  2
B1
 70
     8
280
     0
  0
ATTDEF
  5
12D
330
11C
100
AcDbEntity
  8
AM_6
100
AcDbText
 10
8.22
 20
-8.3275
 30
0.0
 40
0.5
  1
5-15/64
100
AcDbAttributeDefinition
  3

  2
C
 70
     8
280
     0
  0
ATTDEF
  5
12E
330
11C
100
AcDbEntity
  8
AM_6
100
AcDbText
 10
8.22
 20
-8.8275
 30
0.0
 40
0.5
  1
5.234375
100
AcDbAttributeDefinition
  3

  2
C1
 70
     8
280
     0
  0
ATTDEF
  5
12F
330
11C
100
AcDbEntity
  8
AM_6
100
AcDbText
 10
8.22
 20
-9.3275
 30
0.0
 40
0.5
  1
1.935
100
AcDbAttributeDefinition
  3

  2
D
 70
     8
280
     0
  0
ATTDEF
  5
130
330
11C
100
AcDbEntity
  8
AM_6
100
AcDbText
 10
8.22
 20
-9.8275
 30
0.0
 40
0.5
  1
6-7/16
100
AcDbAttributeDefinition
  3

  2
E
 70
     8
280
     0
  0
ATTDEF
  5
131
330
11C
100
AcDbEntity
  8
AM_6
100
AcDbText
 10
8.22
 20
-10.3275
 30
0.0
 40
0.5
  1
0.2500
100
AcDbAttributeDefinition
  3

  2
NDM
 70
     8
280
     0
  0
ATTDEF
  5
132
330
11C
100
AcDbEntity
  8
AM_6
100
AcDbText
 10
8.22
 20
-10.8275
 30
0.0
 40
0.5
  1
0.1960
100
AcDbAttributeDefinition
  3

  2
KDM
 70
     8
280
     0
  0
ATTDEF
  5
133
330
11C
100
AcDbEntity
  8
AM_6
100
AcDbText
 10
8.22
 20
-11.3275
 30
0.0
 40
0.5
  1
5.60
100
AcDbAttributeDefinition
  3

  2
AL
 70
     8
280
     0
  0
ATTDEF
  5
134
330
11C
100
AcDbEntity
  8
AM_6
100
AcDbText
 10
8.22
 20
-11.8275
 30
0.0
 40
0.5
  1
0.50
100
AcDbAttributeDefinition
  3

  2
BL
 70
     8
280
     0
  0
ATTDEF
  5
135
330
11C
100
AcDbEntity
  8
AM_6
100
AcDbText
 10
8.22
 20
-12.3275
 30
0.0
 40
0.5
  1
0.07
100
AcDbAttributeDefinition
  3

  2
CL
 70
     8
280
     0
  0
ATTDEF
  5
136
330
11C
100
AcDbEntity
  8
AM_6
100
AcDbText
 10
8.22
 20
-12.8275
 30
0.0
 40
0.5
  1
0.50
100
AcDbAttributeDefinition
  3

  2
DL
 70
     8
280
     0
  0
ATTDEF
  5
137
330
11C
100
AcDbEntity
  8
AM_6
100
AcDbText
 10
8.22
 20
-13.3275
 30
0.0
 40
0.5
  1
baldor
100
AcDbAttributeDefinition
  3

  2
COMPANY
 70
     8
280
     0
  0
LINE
  5
138
330
11C
100
AcDbEntity
  8
AM_9
100
AcDbLine
 10
-2.84263888888889
 20
-2.2575
 30
0.0
 11
-2.84263888888889
 21
-2.3275
 31
0.0
  0
LINE
  5
139
330
11C
100
AcDbEntity
  8
AM_9
100
AcDbLine
 10
-2.967669127673334
 20
-2.2575
 30
0.0
 11
-2.967669127673334
 21
-2.3275
 31
0.0
  0
LINE
  5
13A
330
11C
100
AcDbEntity
  8
AM_9
100
AcDbLine
 10
2.84263888888889
 20
-2.2575
 30
0.0
 11
2.84263888888889
 21
-2.3275
 31
0.0
  0
LINE
  5
13B
330
11C
100
AcDbEntity
  8
AM_9
100
AcDbLine
 10
2.967669127673335
 20
-2.3275
 30
0.0
 11
2.967669127673335
 21
-2.2575
 31
0.0
  0
LINE
  5
13C
330
11C
100
AcDbEntity
  8
AM_9
100
AcDbLine
 10
-2.395389392074698
 20
-2.2575
 30
0.0
 11
-2.395389392074698
 21
-2.3275
 31
0.0
  0
LINE
  5
13D
330
11C
100
AcDbEntity
  8
AM_9
100
AcDbLine
 10
2.395389392074697
 20
-2.2575
 30
0.0
 11
2.395389392074698
 21
-2.3275
 31
0.0
  0
LINE
  5
13E
330
11C
100
AcDbEntity
  8
AM_9
100
AcDbLine
 10
1.782184430366658
 20
-2.2575
 30
0.0
 11
1.782184430366658
 21
-2.3275
 31
0.0
  0
LINE
  5
13F
330
11C
100
AcDbEntity
  8
AM_9
100
AcDbLine
 10
-1.782184430366659
 20
-2.2575
 30
0.0
 11
-1.782184430366659
 21
-2.3275
 31
0.0
  0
LINE
  5
140
330
11C
100
AcDbEntity
  8
AM_9
100
AcDbLine
 10
-1.605407735070021
 20
-2.2575
 30
0.0
 11
-1.605407735070021
 21
-2.3275
 31
0.0
  0
LINE
  5
141
330
11C
100
AcDbEntity
  8
AM_9
100
AcDbLine
 10
1.605407735070022
 20
-2.2575
 30
0.0
 11
1.605407735070016
 21
-2.3275
 31
0.0
  0
LINE
  5
142
330
11C
100
AcDbEntity
  8
AM_9
100
AcDbLine
 10
-0.9632152593352813
 20
-1.8275
 30
0.0
 11
-0.9632152593352813
 21
-2.3275
 31
0.0
  0
LINE
  5
143
330
11C
100
AcDbEntity
  8
AM_9
100
AcDbLine
 10
-1.032160775973981
 20
-2.2575
 30
0.0
 11
-1.032160775973981
 21
-2.3275
 31
0.0
  0
LINE
  5
144
330
11C
100
AcDbEntity
  8
AM_9
100
AcDbLine
 10
-2.098437582446245
 20
-2.2575
 30
0.0
 11
-2.098437582446245
 21
-2.3275
 31
0.0
  0
LINE
  5
145
330
11C
100
AcDbEntity
  8
AM_9
100
AcDbLine
 10
-1.921660887149573
 20
-2.2575
 30
0.0
 11
-1.921660887149573
 21
-2.3275
 31
0.0
  0
LINE
  5
146
330
11C
100
AcDbEntity
  8
AM_9
100
AcDbLine
 10
-2.13507061791847
 20
-2.2575
 30
0.0
 11
-2.13507061791847
 21
-2.3275
 31
0.0
  0
LINE
  5
147
330
11C
100
AcDbEntity
  8
AM_9
100
AcDbLine
 10
1.921660887149609
 20
-2.2575
 30
0.0
 11
1.921660887149609
 21
-2.3275
 31
0.0
  0
LINE
  5
148
330
11C
100
AcDbEntity
  8
AM_9
100
AcDbLine
 10
2.098437582446246
 20
-2.2575
 30
0.0
 11
2.098437582446246
 21
-2.3275
 31
0.0
  0
LINE
  5
149
330
11C
100
AcDbEntity
  8
AM_9
100
AcDbLine
 10
2.135070617918471
 20
-2.3275
 30
0.0
 11
2.135070617918471
 21
-2.2575
 31
0.0
  0
LINE
  5
14A
330
11C
100
AcDbEntity
  8
AM_9
100
AcDbLine
 10
-0.80119089284616
 20
-2.2575
 30
0.0
 11
-0.80119089284616
 21
-2.3275
 31
0.0
  0
LINE
  5
14B
330
11C
100
AcDbEntity
  8
AM_9
100
AcDbLine
 10
-0.7322453762074594
 20
-1.8275
 30
0.0
 11
-1.007971147405786
 21
-1.8275
 31
0.0
  0
LINE
  5
14C
330
11C
100
AcDbEntity
  8
AM_9
100
AcDbLine
 10
-0.7322453762074594
 20
-1.8275
 30
0.0
 11
-0.7322453762074594
 21
-2.3275
 31
0.0
  0
LINE
  5
14D
330
11C
100
AcDbEntity
  8
AM_9
100
AcDbLine
 10
-0.7770012642779636
 20
-2.2575
 30
0.0
 11
-0.7770012642779638
 21
-1.8275
 31
0.0
  0
LINE
  5
14E
330
11C
100
AcDbEntity
  8
AM_9
100
AcDbLine
 10
-1.007971147405786
 20
-1.8275
 30
0.0
 11
-1.007971147405786
 21
-2.2575
 31
0.0
  0
LINE
  5
14F
330
11C
100
AcDbEntity
  8
AM_9
100
AcDbLine
 10
-0.1249999999999996
 20
-2.2575
 30
0.0
 11
-0.1249999999999996
 21
-2.3275
 31
0.0
  0
LINE
  5
150
330
11C
100
AcDbEntity
  8
AM_9
100
AcDbLine
 10
0.1249999999999999
 20
-2.2575
 30
0.0
 11
0.1249999999999999
 21
-2.3275
 31
0.0
  0
LINE
  5
151
330
11C
100
AcDbEntity
  8
AM_4
100
AcDbLine
 10
-3.220000000000001
 20
-2.2575
 30
0.0
 11
-3.220000000000001
 21
-2.3275
 31
0.0
  0
LINE
  5
152
330
11C
100
AcDbEntity
  8
AM_4
100
AcDbLine
 10
3.220000000000001
 20
-2.3275
 30
0.0
 11
3.220000000000001
 21
-2.2575
 31
0.0
  0
LINE
  5
153
330
11C
100
AcDbEntity
  8
AM_4
100
AcDbLine
 10
-3.220000000000001
 20
-2.3275
 30
0.0
 11
3.220000000000001
 21
-2.3275
 31
0.0
  0
LINE
  5
154
330
11C
100
AcDbEntity
  8
AM_4
100
AcDbLine
 10
-3.220000000000001
 20
-2.2575
 30
0.0
 11
3.220000000000001
 21
-2.2575
 31
0.0
  0
ENDBLK
  5
11F
330
11C
100
AcDbEntity
  8
0
100
AcDbBlockEnd
  0
BLOCK
  5
157
330
155
100
AcDbEntity
  8
0
100
AcDbBlockBegin
  2
6_070940EL_0_in_071284_4
 70
     2
 10
0.0
 20
0.0
 30
0.0
  3
6_070940EL_0_in_071284_4
  1

  0
ATTDEF
  5
159
330
155
100
AcDbEntity
  8
AM_6
100
AcDbText
 10
8.937000000000001
 20
2.620375000000001
 30
0.0
 40
0.5
  1
Imperial/E Insert -Inch
100
AcDbAttributeDefinition
  3

  2
NN
 70
     8
280
     0
  0
ATTDEF
  5
15A
330
155
100
AcDbEntity
  8
AM_6
100
AcDbText
 10
8.937000000000001
 20
2.120375000000001
 30
0.0
 40
0.5
  1
Imperial Bearings
100
AcDbAttributeDefinition
  3

  2
NT
 70
     8
280
     0
  0
ATTDEF
  5
15B
330
155
100
AcDbEntity
  8
AM_6
100
AcDbText
 10
8.937000000000001
 20
1.620375000000001
 30
0.0
 40
0.5
  1
070940EL
100
AcDbAttributeDefinition
  3

  2
NB
 70
     8
280
     0
  0
ATTDEF
  5
15C
330
155
100
AcDbEntity
  8
AM_6
100
AcDbText
 10
8.937000000000001
 20
1.120375000000001
 30
0.0
 40
0.5
  1
$PN.
100
AcDbAttributeDefinition
  3

  2
NBSYN
 70
     8
280
     0
  0
ATTDEF
  5
15D
330
155
100
AcDbEntity
  8
AM_6
100
AcDbText
 10
8.937000000000001
 20
0.6203750000000015
 30
0.0
 40
0.5
  1
070940EL
100
AcDbAttributeDefinition
  3

  2
LINA
 70
     8
280
     0
  0
ATTDEF
  5
15E
330
155
100
AcDbEntity
  8
AM_6
100
AcDbText
 10
8.937000000000001
 20
0.1203750000000015
 30
0.0
 40
0.5
  1
4-7/16
100
AcDbAttributeDefinition
  3

  2
SS
 70
     8
280
     0
  0
ATTDEF
  5
15F
330
155
100
AcDbEntity
  8
AM_6
100
AcDbText
 10
8.937000000000001
 20
-0.3796249999999985
 30
0.0
 40
0.5
  1
4.437500
100
AcDbAttributeDefinition
  3

  2
SS1
 70
     8
280
     0
  0
ATTDEF
  5
160
330
155
100
AcDbEntity
  8
AM_6
100
AcDbText
 10
8.937000000000001
 20
-0.8796249999999985
 30
0.0
 40
0.5
  1
070940EL
100
AcDbAttributeDefinition
  3

  2
PN
 70
     8
280
     0
  0
ATTDEF
  5
161
330
155
100
AcDbEntity
  8
AM_6
100
AcDbText
 10
8.937000000000001
 20
-1.379624999999999
 30
0.0
 40
0.5
  1
INS-IP-407L
100
AcDbAttributeDefinition
  3

  2
DESCRIPTION
 70
     8
280
     0
  0
ATTDEF
  5
162
330
155
100
AcDbEntity
  8
AM_6
100
AcDbText
 10
8.937000000000001
 20
-1.879624999999999
 30
0.0
 40
0.5
  1
Labyrinth Seal
100
AcDbAttributeDefinition
  3

  2
ST
 70
     8
280
     0
  0
ATTDEF
  5
163
330
155
100
AcDbEntity
  8
AM_6
100
AcDbText
 10
8.937000000000001
 20
-2.379624999999999
 30
0.0
 40
0.5
  1
2
100
AcDbAttributeDefinition
  3

  2
ST1
 70
     8
280
     0
  0
ATTDEF
  5
164
330
155
100
AcDbEntity
  8
AM_6
100
AcDbText
 10
8.937000000000001
 20
-2.879624999999999
 30
0.0
 40
0.5
  1
7.8740
100
AcDbAttributeDefinition
  3

  2
A
 70
     8
280
     0
  0
ATTDEF
  5
165
330
155
100
AcDbEntity
  8
AM_6
100
AcDbText
 10
8.937000000000001
 20
-3.379624999999999
 30
0.0
 40
0.5
  1
2-5/32
100
AcDbAttributeDefinition
  3

  2
B
 70
     8
280
     0
  0
ATTDEF
  5
166
330
155
100
AcDbEntity
  8
AM_6
100
AcDbText
 10
8.937000000000001
 20
-3.879624999999999
 30
0.0
 40
0.5
  1
2.156250
100
AcDbAttributeDefinition
  3

  2
B1
 70
     8
280
     0
  0
ATTDEF
  5
167
330
155
100
AcDbEntity
  8
AM_6
100
AcDbText
 10
8.937000000000001
 20
-4.379624999999999
 30
0.0
 40
0.5
  1
5-15/64
100
AcDbAttributeDefinition
  3

  2
C
 70
     8
280
     0
  0
ATTDEF
  5
168
330
155
100
AcDbEntity
  8
AM_6
100
AcDbText
 10
8.937000000000001
 20
-4.879624999999999
 30
0.0
 40
0.5
  1
5.234375
100
AcDbAttributeDefinition
  3

  2
C1
 70
     8
280
     0
  0
ATTDEF
  5
169
330
155
100
AcDbEntity
  8
AM_6
100
AcDbText
 10
8.937000000000001
 20
-5.379624999999999
 30
0.0
 40
0.5
  1
7.12000
100
AcDbAttributeDefinition
  3

  2
CR
 70
     8
280
     0
  0
ATTDEF
  5
16A
330
155
100
AcDbEntity
  8
AM_6
100
AcDbText
 10
8.937000000000001
 20
-5.879624999999999
 30
0.0
 40
0.5
  1
1.935
100
AcDbAttributeDefinition
  3

  2
D
 70
     8
280
     0
  0
ATTDEF
  5
16B
330
155
100
AcDbEntity
  8
AM_6
100
AcDbText
 10
8.937000000000001
 20
-6.379624999999999
 30
0.0
 40
0.5
  1
6-7/16
100
AcDbAttributeDefinition
  3

  2
E
 70
     8
280
     0
  0
ATTDEF
  5
16C
330
155
100
AcDbEntity
  8
AM_6
100
AcDbText
 10
8.937000000000001
 20
-6.879624999999999
 30
0.0
 40
0.5
  1
6.437500
100
AcDbAttributeDefinition
  3

  2
E1
 70
     8
280
     0
  0
ATTDEF
  5
16D
330
155
100
AcDbEntity
  8
AM_6
100
AcDbText
 10
8.937000000000001
 20
-7.379624999999999
 30
0.0
 40
0.5
  1
0.2500
100
AcDbAttributeDefinition
  3

  2
NDM
 70
     8
280
     0
  0
ATTDEF
  5
16E
330
155
100
AcDbEntity
  8
AM_6
100
AcDbText
 10
8.937000000000001
 20
-7.879624999999999
 30
0.0
 40
0.5
  1
0.1960
100
AcDbAttributeDefinition
  3

  2
KDM
 70
     8
280
     0
  0
ATTDEF
  5
16F
330
155
100
AcDbEntity
  8
AM_6
100
AcDbText
 10
8.937000000000001
 20
-8.379624999999999
 30
0.0
 40
0.5
  1
5.60
100
AcDbAttributeDefinition
  3

  2
AL
 70
     8
280
     0
  0
ATTDEF
  5
170
330
155
100
AcDbEntity
  8
AM_6
100
AcDbText
 10
8.937000000000001
 20
-8.879624999999999
 30
0.0
 40
0.5
  1
0.50
100
AcDbAttributeDefinition
  3

  2
BL
 70
     8
280
     0
  0
ATTDEF
  5
171
330
155
100
AcDbEntity
  8
AM_6
100
AcDbText
 10
8.937000000000001
 20
-9.379624999999999
 30
0.0
 40
0.5
  1
0.07
100
AcDbAttributeDefinition
  3

  2
CL
 70
     8
280
     0
  0
ATTDEF
  5
172
330
155
100
AcDbEntity
  8
AM_6
100
AcDbText
 10
8.937000000000001
 20
-9.879624999999999
 30
0.0
 40
0.5
  1
0.50
100
AcDbAttributeDefinition
  3

  2
DL
 70
     8
280
     0
  0
ATTDEF
  5
173
330
155
100
AcDbEntity
  8
AM_6
100
AcDbText
 10
8.937000000000001
 20
-10.379625
 30
0.0
 40
0.5
  1
0.8000
100
AcDbAttributeDefinition
  3

  2
LL
 70
     8
280
     0
  0
ATTDEF
  5
174
330
155
100
AcDbEntity
  8
AM_6
100
AcDbText
 10
8.937000000000001
 20
-10.879625
 30
0.0
 40
0.5
  1
0.036
100
AcDbAttributeDefinition
  3

  2
Y
 70
     8
280
     0
  0
ATTDEF
  5
175
330
155
100
AcDbEntity
  8
AM_6
100
AcDbText
 10
8.937000000000001
 20
-11.379625
 30
0.0
 40
0.5
  1
0.036000
100
AcDbAttributeDefinition
  3

  2
Y1
 70
     8
280
     0
  0
ATTDEF
  5
176
330
155
100
AcDbEntity
  8
AM_6
100
AcDbText
 10
8.937000000000001
 20
-11.879625
 30
0.0
 40
0.5
  1
5
100
AcDbAttributeDefinition
  3

  2
Z
 70
     8
280
     0
  0
ATTDEF
  5
177
330
155
100
AcDbEntity
  8
AM_6
100
AcDbText
 10
8.937000000000001
 20
-12.379625
 30
0.0
 40
0.5
  1
5.000000
100
AcDbAttributeDefinition
  3

  2
Z1
 70
     8
280
     0
  0
ATTDEF
  5
178
330
155
100
AcDbEntity
  8
AM_6
100
AcDbText
 10
8.937000000000001
 20
-12.879625
 30
0.0
 40
0.5
  1
1.89000
100
AcDbAttributeDefinition
  3

  2
P1
 70
     8
280
     0
  0
ATTDEF
  5
179
330
155
100
AcDbEntity
  8
AM_6
100
AcDbText
 10
8.937000000000001
 20
-13.379625
 30
0.0
 40
0.5
  1
2.43000
100
AcDbAttributeDefinition
  3

  2
H1
 70
     8
280
     0
  0
ATTDEF
  5
17A
330
155
100
AcDbEntity
  8
AM_6
100
AcDbText
 10
8.937000000000001
 20
-13.879625
 30
0.0
 40
0.5
  1
1.42000
100
AcDbAttributeDefinition
  3

  2
G1
 70
     8
280
     0
  0
ATTDEF
  5
17B
330
155
100
AcDbEntity
  8
AM_6
100
AcDbText
 10
8.937000000000001
 20
-14.379625
 30
0.0
 40
0.5
  1
0.13200
100
AcDbAttributeDefinition
  3

  2
CW
 70
     8
280
     0
  0
ATTDEF
  5
17C
330
155
100
AcDbEntity
  8
AM_6
100
AcDbText
 10
8.937000000000001
 20
-14.879625
 30
0.0
 40
0.5
  1
6.44000
100
AcDbAttributeDefinition
  3

  2
L1
 70
     8
280
     0
  0
ATTDEF
  5
17D
330
155
100
AcDbEntity
  8
AM_6
100
AcDbText
 10
8.937000000000001
 20
-15.379625
 30
0.0
 40
0.5
  1
baldor
100
AcDbAttributeDefinition
  3

  2
COMPANY
 70
     8
280
     0
  0
LINE
  5
17E
330
155
100
AcDbEntity
  8
AM_9
100
AcDbLine
 10
-1.010332748206515
 20
1.727499999999999
 30
0.0
 11
-1.010332748206515
 21
-2.257499999999999
 31
0.0
  0
LINE
  5
17F
330
155
100
AcDbEntity
  8
AM_9
100
AcDbLine
 10
1.803122292025697
 20
-1.7575
 30
0.0
 11
1.803122292025697
 21
-2.2575
 31
0.0
  0
LINE
  5
180
330
155
100
AcDbEntity
  8
AM_9
100
AcDbLine
 10
2.15667568261897
 20
-1.7575
 30
0.0
 11
2.15667568261897
 21
-1.95
 31
0.0
  0
LINE
  5
181
330
155
100
AcDbEntity
  8
AM_9
100
AcDbLine
 10
-1.803122292025696
 20
-1.7575
 30
0.0
 11
-1.803122292025696
 21
-2.2575
 31
0.0
  0
LINE
  5
182
330
155
100
AcDbEntity
  8
AM_9
100
AcDbLine
 10
-2.156675682618969
 20
-1.7575
 30
0.0
 11
-2.156675682618969
 21
-1.95
 31
0.0
  0
LINE
  5
183
330
155
100
AcDbEntity
  8
AM_9
100
AcDbLine
 10
-0.7793628650786926
 20
1.727499999999999
 30
0.0
 11
-0.7793628650786926
 21
-2.257499999999999
 31
0.0
  0
LINE
  5
184
330
155
100
AcDbEntity
  8
AM_9
100
AcDbLine
 10
-0.7322453762074598
 20
1.727499999999999
 30
0.0
 11
-0.7322453762074598
 21
-2.65
 31
0.0
  0
LINE
  5
185
330
155
100
AcDbEntity
  8
AM_9
100
AcDbLine
 10
-0.9632152593352815
 20
-2.3275
 30
0.0
 11
-0.9632152593352817
 21
1.727499999999999
 31
0.0
  0
LINE
  5
186
330
155
100
AcDbEntity
  8
AM_9
100
AcDbLine
 10
-2.21875
 20
1.7275
 30
0.0
 11
-2.21875
 21
-2.649999999999999
 31
0.0
  0
LINE
  5
187
330
155
100
AcDbEntity
  8
AM_9
100
AcDbLine
 10
2.21875
 20
-2.649999999999999
 30
0.0
 11
2.21875
 21
1.7275
 31
0.0
  0
LINE
  5
188
330
155
100
AcDbEntity
  8
AM_9
100
AcDbLine
 10
-2.335526315789474
 20
2.584375
 30
0.0
 11
-2.335526315789474
 21
1.7275
 31
0.0
  0
LINE
  5
189
330
155
100
AcDbEntity
  8
AM_9
100
AcDbLine
 10
2.335526315789474
 20
1.7275
 30
0.0
 11
2.335526315789474
 21
2.584375
 31
0.0
  0
LINE
  5
18A
330
155
100
AcDbEntity
  8
AM_9
100
AcDbLine
 10
-0.7770012642779638
 20
-2.3275
 30
0.0
 11
-0.7770012642779639
 21
-2.2575
 31
0.0
  0
LINE
  5
18B
330
155
100
AcDbEntity
  8
AM_9
100
AcDbLine
 10
-1.007971147405786
 20
-2.2575
 30
0.0
 11
-1.007971147405786
 21
-2.3275
 31
0.0
  0
LINE
  5
18C
330
155
100
AcDbEntity
  8
AM_9
100
AcDbLine
 10
-2.335526315789474
 20
-2.2575
 30
0.0
 11
-2.335526315789474
 21
-2.3275
 31
0.0
  0
LINE
  5
18D
330
155
100
AcDbEntity
  8
AM_9
100
AcDbLine
 10
2.335526315789474
 20
-2.3275
 30
0.0
 11
2.335526315789474
 21
-2.2575
 31
0.0
  0
LINE
  5
18E
330
155
100
AcDbEntity
  8
AM_9
100
AcDbLine
 10
-2.452091093633778
 20
-1.7575
 30
0.0
 11
-1.803122292025696
 21
-1.7575
 31
0.0
  0
LINE
  5
18F
330
155
100
AcDbEntity
  8
AM_9
100
AcDbLine
 10
1.803122292025697
 20
-1.7575
 30
0.0
 11
2.45209109363378
 21
-1.7575
 31
0.0
  0
LINE
  5
190
330
155
100
AcDbEntity
  8
AM_9
100
AcDbLine
 10
2.5
 20
2.584375
 30
0.0
 11
-2.5
 21
2.584375
 31
0.0
  0
LINE
  5
191
330
155
100
AcDbEntity
  8
AM_9
100
AcDbLine
 10
-2.5
 20
2.620374999999999
 30
0.0
 11
-2.5
 21
2.584375
 31
0.0
  0
LINE
  5
192
330
155
100
AcDbEntity
  8
AM_9
100
AcDbLine
 10
2.5
 20
2.584375
 30
0.0
 11
2.5
 21
2.620374999999999
 31
0.0
  0
LINE
  5
193
330
155
100
AcDbEntity
  8
AM_9
100
AcDbLine
 10
-0.09795
 20
-1.474051458867124
 30
0.0
 11
-0.09795
 21
-2.23045
 31
0.0
  0
LINE
  5
194
330
155
100
AcDbEntity
  8
AM_9
100
AcDbLine
 10
0.09795
 20
-2.23045
 30
0.0
 11
0.09795
 21
-1.474051458867124
 31
0.0
  0
LINE
  5
195
330
155
100
AcDbEntity
  8
AM_9
100
AcDbLine
 10
0.09795
 20
-1.474051458867124
 30
0.0
 11
-0.09795
 21
-1.474051458867124
 31
0.0
  0
LINE
  5
196
330
155
100
AcDbEntity
  8
AM_9
100
AcDbLine
 10
0.0
 20
-1.4175
 30
0.0
 11
-0.09795
 21
-1.474051458867124
 31
0.0
  0
LINE
  5
197
330
155
100
AcDbEntity
  8
AM_9
100
AcDbLine
 10
0.09795
 20
-1.474051458867124
 30
0.0
 11
0.0
 21
-1.4175
 31
0.0
  0
LINE
  5
198
330
155
100
AcDbEntity
  8
AM_9
100
AcDbLine
 10
0.09795
 20
-2.23045
 30
0.0
 11
-0.09795
 21
-2.23045
 31
0.0
  0
LINE
  5
199
330
155
100
AcDbEntity
  8
AM_9
100
AcDbLine
 10
-0.09795
 20
-2.23045
 30
0.0
 11
-0.1249999999999999
 21
-2.2575
 31
0.0
  0
LINE
  5
19A
330
155
100
AcDbEntity
  8
AM_9
100
AcDbLine
 10
0.1249999999999999
 20
-2.2575
 30
0.0
 11
0.09795
 21
-2.23045
 31
0.0
  0
LINE
  5
19B
330
155
100
AcDbEntity
  8
AM_9
100
AcDbLine
 10
-2.449707976516332
 20
-1.950000000297191
 30
0.0
 11
-2.452091093633778
 21
-1.7575
 31
0.0
  0
LINE
  5
19C
330
155
100
AcDbEntity
  8
AM_9
100
AcDbLine
 10
-2.098537703040505
 20
-1.757499999999999
 30
0.0
 11
-2.096154585923059
 21
-1.950000000297191
 31
0.0
  0
LINE
  5
19D
330
155
100
AcDbEntity
  8
AM_9
100
AcDbLine
 10
2.09615458592306
 20
-1.950000000297191
 30
0.0
 11
2.098537703040506
 21
-1.757499999999999
 31
0.0
  0
LINE
  5
19E
330
155
100
AcDbEntity
  8
AM_9
100
AcDbLine
 10
2.45209109363378
 20
-1.7575
 30
0.0
 11
2.449707976516333
 21
-1.950000000297191
 31
0.0
  0
LINE
  5
19F
330
155
100
AcDbEntity
  8
AM_9
100
AcDbLine
 10
3.224117432465429
 20
-1.95
 30
0.0
 11
3.249813428385444
 21
-0.4778773796781368
 31
0.0
  0
LINE
  5
1A0
330
155
100
AcDbEntity
  8
AM_9
100
AcDbLine
 10
-3.249813428385444
 20
-0.4778773796781368
 30
0.0
 11
-3.224117432465429
 21
-1.95
 31
0.0
  0
LINE
  5
1A1
330
155
100
AcDbEntity
  8
AM_9
100
AcDbLine
 10
3.249813428385444
 20
-0.4778773796781368
 30
0.0
 11
-3.249813428385444
 21
-0.4778773796781368
 31
0.0
  0
ARC
  5
1A2
330
155
100
AcDbEntity
  8
AM_9
100
AcDbCircle
 10
-3.299805813143263
 20
-0.4787500000000002
 30
0.0
 40
0.0499999999999998
100
AcDbArc
 50
0.9999999999988067
 51
90.0
  0
ARC
  5
1A3
330
155
100
AcDbEntity
  8
AM_9
100
AcDbCircle
 10
3.299805813143263
 20
-0.4787500000000002
 30
0.0
 40
0.0499999999999996
100
AcDbArc
 50
90.0
 51
179.0000000000012
  0
LINE
  5
1A4
330
155
100
AcDbEntity
  8
AM_9
100
AcDbLine
 10
3.333333333333333
 20
2.620375000000001
 30
0.0
 11
-3.333333333333333
 21
2.620375000000001
 31
0.0
  0
LINE
  5
1A5
330
155
100
AcDbEntity
  8
AM_9
100
AcDbLine
 10
-3.333333333333333
 20
2.620375000000001
 30
0.0
 11
-3.333333333333333
 21
2.158749999999999
 31
0.0
  0
LINE
  5
1A6
330
155
100
AcDbEntity
  8
AM_9
100
AcDbLine
 10
3.333333333333333
 20
2.158749999999999
 30
0.0
 11
3.333333333333333
 21
2.620375000000001
 31
0.0
  0
LINE
  5
1A7
330
155
100
AcDbEntity
  8
AM_9
100
AcDbLine
 10
3.430282670983127
 20
2.158749999999999
 30
0.0
 11
-3.430282670970288
 21
2.158749999999999
 31
0.0
  0
ARC
  5
1A8
330
155
100
AcDbEntity
  8
AM_9
100
AcDbCircle
 10
-3.430282669493011
 20
2.058749999999999
 30
0.0
 40
0.1000000000000001
100
AcDbArc
 50
90.0
 51
149.9999999999999
  0
ARC
  5
1A9
330
155
100
AcDbEntity
  8
AM_9
100
AcDbCircle
 10
3.430282669493011
 20
2.058749999999999
 30
0.0
 40
0.1000000000000001
100
AcDbArc
 50
30.00000000000016
 51
90.0
  0
LINE
  5
1AA
330
155
100
AcDbEntity
  8
AM_9
100
AcDbLine
 10
3.516885209871455
 20
2.108749999999999
 30
0.0
 11
-3.516885209871455
 21
2.108749999999999
 31
0.0
  0
LINE
  5
1AB
330
155
100
AcDbEntity
  8
AM_9
100
AcDbLine
 10
-3.516885209871455
 20
2.108749999999999
 30
0.0
 11
-3.737
 21
1.7275
 31
0.0
  0
LINE
  5
1AC
330
155
100
AcDbEntity
  8
AM_9
100
AcDbLine
 10
3.737
 20
1.7275
 30
0.0
 11
3.516885209871455
 21
2.108749999999999
 31
0.0
  0
LINE
  5
1AD
330
155
100
AcDbEntity
  8
AM_9
100
AcDbLine
 10
-3.8291875
 20
0.691620575897006
 30
0.0
 11
-3.8291875
 21
0.567129424102993
 31
0.0
  0
LINE
  5
1AE
330
155
100
AcDbEntity
  8
AM_9
100
AcDbLine
 10
3.8291875
 20
0.567129424102993
 30
0.0
 11
3.8291875
 21
0.691620575897006
 31
0.0
  0
LINE
  5
1AF
330
155
100
AcDbEntity
  8
AM_9
100
AcDbLine
 10
3.8291875
 20
0.691620575897006
 30
0.0
 11
-3.8291875
 21
0.691620575897006
 31
0.0
  0
LINE
  5
1B0
330
155
100
AcDbEntity
  8
AM_9
100
AcDbLine
 10
3.8291875
 20
0.691620575897006
 30
0.0
 11
3.936999999999999
 21
0.7538661517940127
 31
0.0
  0
LINE
  5
1B1
330
155
100
AcDbEntity
  8
AM_9
100
AcDbLine
 10
-3.936999999999999
 20
0.7538661517940127
 30
0.0
 11
-3.8291875
 21
0.691620575897006
 31
0.0
  0
LINE
  5
1B2
330
155
100
AcDbEntity
  8
AM_9
100
AcDbLine
 10
3.8291875
 20
0.567129424102993
 30
0.0
 11
-3.8291875
 21
0.567129424102993
 31
0.0
  0
LINE
  5
1B3
330
155
100
AcDbEntity
  8
AM_9
100
AcDbLine
 10
-3.8291875
 20
0.567129424102993
 30
0.0
 11
-3.936999999999999
 21
0.5048838482059863
 31
0.0
  0
LINE
  5
1B4
330
155
100
AcDbEntity
  8
AM_9
100
AcDbLine
 10
3.936999999999999
 20
0.5048838482059863
 30
0.0
 11
3.8291875
 21
0.567129424102993
 31
0.0
  0
LINE
  5
1B5
330
155
100
AcDbEntity
  8
AM_9
100
AcDbLine
 10
3.887000000000001
 20
1.727499999999999
 30
0.0
 11
-3.886999999994941
 21
1.727499999999999
 31
0.0
  0
ARC
  5
1B6
330
155
100
AcDbEntity
  8
AM_9
100
AcDbCircle
 10
-3.887000000000001
 20
1.677500000000001
 30
0.0
 40
0.049999999999998
100
AcDbArc
 50
90.0
 51
180.0
  0
ARC
  5
1B7
330
155
100
AcDbEntity
  8
AM_9
100
AcDbCircle
 10
3.887000000000001
 20
1.677500000000001
 30
0.0
 40
0.0499999999999985
100
AcDbArc
 50
0.0
 51
90.0
  0
LINE
  5
1B8
330
155
100
AcDbEntity
  8
AM_9
100
AcDbLine
 10
3.936999999999999
 20
1.677499999999999
 30
0.0
 11
-3.936999999999999
 21
1.677499999999999
 31
0.0
  0
LINE
  5
1B9
330
155
100
AcDbEntity
  8
AM_9
100
AcDbLine
 10
3.936999999999999
 20
0.7538661517940127
 30
0.0
 11
-3.936999999999999
 21
0.7538661517940127
 31
0.0
  0
LINE
  5
1BA
330
155
100
AcDbEntity
  8
AM_9
100
AcDbLine
 10
-3.936999999999999
 20
1.677499999999999
 30
0.0
 11
-3.936999999999999
 21
0.7538661517940127
 31
0.0
  0
LINE
  5
1BB
330
155
100
AcDbEntity
  8
AM_9
100
AcDbLine
 10
3.936999999999999
 20
0.7538661517940127
 30
0.0
 11
3.936999999999999
 21
1.677499999999999
 31
0.0
  0
LINE
  5
1BC
330
155
100
AcDbEntity
  8
AM_9
100
AcDbLine
 10
3.927
 20
-0.4287500000000006
 30
0.0
 11
-3.926999999993848
 21
-0.4287500000000006
 31
0.0
  0
ARC
  5
1BD
330
155
100
AcDbEntity
  8
AM_9
100
AcDbCircle
 10
-3.927
 20
-0.418750000000001
 30
0.0
 40
0.0099999999999998
100
AcDbArc
 50
180.0
 51
270.0
  0
ARC
  5
1BE
330
155
100
AcDbEntity
  8
AM_9
100
AcDbCircle
 10
3.927
 20
-0.418750000000001
 30
0.0
 40
0.0099999999999996
100
AcDbArc
 50
270.0
 51
0.0
  0
LINE
  5
1BF
330
155
100
AcDbEntity
  8
AM_9
100
AcDbLine
 10
3.936999999999999
 20
0.5048838482059863
 30
0.0
 11
-3.937
 21
0.5048838482059863
 31
0.0
  0
LINE
  5
1C0
330
155
100
AcDbEntity
  8
AM_9
100
AcDbLine
 10
3.937
 20
-0.4187500000000015
 30
0.0
 11
-3.937
 21
-0.4187500000000015
 31
0.0
  0
LINE
  5
1C1
330
155
100
AcDbEntity
  8
AM_9
100
AcDbLine
 10
-3.937
 20
0.5048838482059863
 30
0.0
 11
-3.937
 21
-0.4187500000000015
 31
0.0
  0
LINE
  5
1C2
330
155
100
AcDbEntity
  8
AM_9
100
AcDbLine
 10
3.937
 20
-0.4187500000000015
 30
0.0
 11
3.937
 21
0.5048838482059863
 31
0.0
  0
LINE
  5
1C3
330
155
100
AcDbEntity
  8
AM_5
100
AcDbLine
 10
-0.1249999999999999
 20
-2.2575
 30
0.0
 11
-0.1249999999999999
 21
-1.557500000000001
 31
0.0
  0
LINE
  5
1C4
330
155
100
AcDbEntity
  8
AM_5
100
AcDbLine
 10
0.1249999999999999
 20
-2.2575
 30
0.0
 11
0.1249999999999999
 21
-1.557500000000001
 31
0.0
  0
LINE
  5
1C5
330
155
100
AcDbEntity
  8
AM_5
100
AcDbLine
 10
0.125
 20
-1.557500000000001
 30
0.0
 11
0.1094273103968557
 21
-1.530527310396855
 31
0.0
  0
LINE
  5
1C6
330
155
100
AcDbEntity
  8
AM_5
100
AcDbLine
 10
-0.1250000000000001
 20
-1.557499999999994
 30
0.0
 11
-0.1094273103968588
 21
-1.530527310396859
 31
0.0
  0
LINE
  5
1C7
330
155
100
AcDbEntity
  8
AM_4
100
AcDbLine
 10
2.15667568261897
 20
-1.95
 30
0.0
 11
2.15667568261897
 21
-2.2575
 31
0.0
  0
LINE
  5
1C8
330
155
100
AcDbEntity
  8
AM_4
100
AcDbLine
 10
-2.156675682618969
 20
-1.95
 30
0.0
 11
-2.156675682618969
 21
-2.2575
 31
0.0
  0
LINE
  5
1C9
330
155
100
AcDbEntity
  8
AM_4
100
AcDbLine
 10
-0.9632152593352817
 20
-2.65
 30
0.0
 11
-0.9632152593352815
 21
-2.3275
 31
0.0
  0
LINE
  5
1CA
330
155
100
AcDbEntity
  8
AM_4
100
AcDbLine
 10
-0.7770012642779638
 20
-2.65
 30
0.0
 11
-0.7770012642779638
 21
-2.3275
 31
0.0
  0
LINE
  5
1CB
330
155
100
AcDbEntity
  8
AM_4
100
AcDbLine
 10
-1.007971147405786
 20
-2.3275
 30
0.0
 11
-1.007971147405786
 21
-2.65
 31
0.0
  0
LINE
  5
1CC
330
155
100
AcDbEntity
  8
AM_4
100
AcDbLine
 10
-2.335526315789474
 20
-2.3275
 30
0.0
 11
-2.335526315789474
 21
-2.65
 31
0.0
  0
LINE
  5
1CD
330
155
100
AcDbEntity
  8
AM_4
100
AcDbLine
 10
2.335526315789474
 20
-2.65
 30
0.0
 11
2.335526315789474
 21
-2.3275
 31
0.0
  0
LINE
  5
1CE
330
155
100
AcDbEntity
  8
AM_4
100
AcDbLine
 10
2.335526315789474
 20
-2.65
 30
0.0
 11
-2.335526315789474
 21
-2.65
 31
0.0
  0
LINE
  5
1CF
330
155
100
AcDbEntity
  8
AM_4
100
AcDbLine
 10
-2.445901147866395
 20
-2.2575
 30
0.0
 11
-2.449707976516332
 21
-1.950000000297191
 31
0.0
  0
LINE
  5
1D0
330
155
100
AcDbEntity
  8
AM_4
100
AcDbLine
 10
-2.096154585923059
 20
-1.950000000297191
 30
0.0
 11
-2.092347757273122
 21
-2.2575
 31
0.0
  0
LINE
  5
1D1
330
155
100
AcDbEntity
  8
AM_4
100
AcDbLine
 10
2.092347757273123
 20
-2.2575
 30
0.0
 11
2.09615458592306
 21
-1.950000000297191
 31
0.0
  0
LINE
  5
1D2
330
155
100
AcDbEntity
  8
AM_4
100
AcDbLine
 10
2.449707976516333
 20
-1.950000000297191
 30
0.0
 11
2.445901147866396
 21
-2.2575
 31
0.0
  0
LINE
  5
1D3
330
155
100
AcDbEntity
  8
AM_4
100
AcDbLine
 10
3.218750000000002
 20
-2.2575
 30
0.0
 11
3.224117432465429
 21
-1.95
 31
0.0
  0
LINE
  5
1D4
330
155
100
AcDbEntity
  8
AM_4
100
AcDbLine
 10
-3.224117432465429
 20
-1.95
 30
0.0
 11
-3.218750000000002
 21
-2.2575
 31
0.0
  0
ENDBLK
  5
158
330
155
100
AcDbEntity
  8
0
100
AcDbBlockEnd
  0
BLOCK
  5
1D7
330
1D5
100
AcDbEntity
  8
0
100
AcDbBlockBegin
  2
7_071284H_0_in_071284_4
 70
     2
 10
0.0
 20
0.0
 30
0.0
  3
7_071284H_0_in_071284_4
  1

  0
ATTDEF
  5
1D9
330
1D5
100
AcDbEntity
  8
AM_6
100
AcDbText
 10
11.75
 20
3.4716
 30
0.0
 40
0.5
  1
EFC-IP -(Labyrinth Seal)-Housing -Inch
100
AcDbAttributeDefinition
  3

  2
NN
 70
     8
280
     0
  0
ATTDEF
  5
1DA
330
1D5
100
AcDbEntity
  8
AM_6
100
AcDbText
 10
11.75
 20
2.9716
 30
0.0
 40
0.5
  1
Imperial Piloted Flange Bearings
100
AcDbAttributeDefinition
  3

  2
NT
 70
     8
280
     0
  0
ATTDEF
  5
1DB
330
1D5
100
AcDbEntity
  8
AM_6
100
AcDbText
 10
11.75
 20
2.4716
 30
0.0
 40
0.5
  1
071284H
100
AcDbAttributeDefinition
  3

  2
NB
 70
     8
280
     0
  0
ATTDEF
  5
1DC
330
1D5
100
AcDbEntity
  8
AM_6
100
AcDbText
 10
11.75
 20
1.9716
 30
0.0
 40
0.5
  1
$PN.H
100
AcDbAttributeDefinition
  3

  2
NBSYN
 70
     8
280
     0
  0
ATTDEF
  5
1DD
330
1D5
100
AcDbEntity
  8
AM_6
100
AcDbText
 10
11.75
 20
1.4716
 30
0.0
 40
0.5
  1
071284
100
AcDbAttributeDefinition
  3

  2
LINA
 70
     8
280
     0
  0
ATTDEF
  5
1DE
330
1D5
100
AcDbEntity
  8
AM_6
100
AcDbText
 10
11.75
 20
0.9715999999999996
 30
0.0
 40
0.5
  1
4-7/16
100
AcDbAttributeDefinition
  3

  2
SS
 70
     8
280
     0
  0
ATTDEF
  5
1DF
330
1D5
100
AcDbEntity
  8
AM_6
100
AcDbText
 10
11.75
 20
0.4715999999999996
 30
0.0
 40
0.5
  1
4.437500
100
AcDbAttributeDefinition
  3

  2
SS1
 70
     8
280
     0
  0
ATTDEF
  5
1E0
330
1D5
100
AcDbEntity
  8
AM_6
100
AcDbText
 10
11.75
 20
-0.0284000000000004
 30
0.0
 40
0.5
  1
Expansion
100
AcDbAttributeDefinition
  3

  2
TYPE
 70
     8
280
     0
  0
ATTDEF
  5
1E1
330
1D5
100
AcDbEntity
  8
AM_6
100
AcDbText
 10
11.75
 20
-0.5284000000000004
 30
0.0
 40
0.5
  1
071280
100
AcDbAttributeDefinition
  3

  2
PN1
 70
     8
280
     0
  0
ATTDEF
  5
1E2
330
1D5
100
AcDbEntity
  8
AM_6
100
AcDbText
 10
11.75
 20
-1.0284
 30
0.0
 40
0.5
  1
071284
100
AcDbAttributeDefinition
  3

  2
PN2
 70
     8
280
     0
  0
ATTDEF
  5
1E3
330
1D5
100
AcDbEntity
  8
AM_6
100
AcDbText
 10
11.75
 20
-1.5284
 30
0.0
 40
0.5
  1
EFC-IP-108RL
100
AcDbAttributeDefinition
  3

  2
DESCRIPTION
 70
     8
280
     0
  0
ATTDEF
  5
1E4
330
1D5
100
AcDbEntity
  8
AM_6
100
AcDbText
 10
11.75
 20
-2.0284
 30
0.0
 40
0.5
  1
Non-Expansion Type
100
AcDbAttributeDefinition
  3

  2
EF
 70
     8
280
     0
  0
ATTDEF
  5
1E5
330
1D5
100
AcDbEntity
  8
AM_6
100
AcDbText
 10
11.75
 20
-2.5284
 30
0.0
 40
0.5
  1
1
100
AcDbAttributeDefinition
  3

  2
EF1
 70
     8
280
     0
  0
ATTDEF
  5
1E6
330
1D5
100
AcDbEntity
  8
AM_6
100
AcDbText
 10
11.75
 20
-3.0284
 30
0.0
 40
0.5
  1
Labyrinth Seal
100
AcDbAttributeDefinition
  3

  2
ST
 70
     8
280
     0
  0
ATTDEF
  5
1E7
330
1D5
100
AcDbEntity
  8
AM_6
100
AcDbText
 10
11.75
 20
-3.5284
 30
0.0
 40
0.5
  1
1
100
AcDbAttributeDefinition
  3

  2
ST1
 70
     8
280
     0
  0
ATTDEF
  5
1E8
330
1D5
100
AcDbEntity
  8
AM_6
100
AcDbText
 10
11.75
 20
-4.0284
 30
0.0
 40
0.5
  1
5.23
100
AcDbAttributeDefinition
  3

  2
A
 70
     8
280
     0
  0
ATTDEF
  5
1E9
330
1D5
100
AcDbEntity
  8
AM_6
100
AcDbText
 10
11.75
 20
-4.5284
 30
0.0
 40
0.5
  1
5.2300000
100
AcDbAttributeDefinition
  3

  2
A1
 70
     8
280
     0
  0
ATTDEF
  5
1EA
330
1D5
100
AcDbEntity
  8
AM_6
100
AcDbText
 10
11.75
 20
-5.0284
 30
0.0
 40
0.5
  1
13.5
100
AcDbAttributeDefinition
  3

  2
B
 70
     8
280
     0
  0
ATTDEF
  5
1EB
330
1D5
100
AcDbEntity
  8
AM_6
100
AcDbText
 10
11.75
 20
-5.5284
 30
0.0
 40
0.5
  1
13.5000000
100
AcDbAttributeDefinition
  3

  2
B1
 70
     8
280
     0
  0
ATTDEF
  5
1EC
330
1D5
100
AcDbEntity
  8
AM_6
100
AcDbText
 10
11.75
 20
-6.0284
 30
0.0
 40
0.5
  1
4.58
100
AcDbAttributeDefinition
  3

  2
C
 70
     8
280
     0
  0
ATTDEF
  5
1ED
330
1D5
100
AcDbEntity
  8
AM_6
100
AcDbText
 10
11.75
 20
-6.5284
 30
0.0
 40
0.5
  1
4.5800000
100
AcDbAttributeDefinition
  3

  2
C1
 70
     8
280
     0
  0
ATTDEF
  5
1EE
330
1D5
100
AcDbEntity
  8
AM_6
100
AcDbText
 10
11.75
 20
-7.0284
 30
0.0
 40
0.5
  1
5.88
100
AcDbAttributeDefinition
  3

  2
D
 70
     8
280
     0
  0
ATTDEF
  5
1EF
330
1D5
100
AcDbEntity
  8
AM_6
100
AcDbText
 10
11.75
 20
-7.5284
 30
0.0
 40
0.5
  1
5.8800000
100
AcDbAttributeDefinition
  3

  2
D1
 70
     8
280
     0
  0
ATTDEF
  5
1F0
330
1D5
100
AcDbEntity
  8
AM_6
100
AcDbText
 10
11.75
 20
-8.028400000000001
 30
0.0
 40
0.5
  1
11.75
100
AcDbAttributeDefinition
  3

  2
DD
 70
     8
280
     0
  0
ATTDEF
  5
1F1
330
1D5
100
AcDbEntity
  8
AM_6
100
AcDbText
 10
11.75
 20
-8.528400000000001
 30
0.0
 40
0.5
  1
11.7500000
100
AcDbAttributeDefinition
  3

  2
DD1
 70
     8
280
     0
  0
ATTDEF
  5
1F2
330
1D5
100
AcDbEntity
  8
AM_6
100
AcDbText
 10
11.75
 20
-9.028400000000001
 30
0.0
 40
0.5
  1
1.45
100
AcDbAttributeDefinition
  3

  2
E
 70
     8
280
     0
  0
ATTDEF
  5
1F3
330
1D5
100
AcDbEntity
  8
AM_6
100
AcDbText
 10
11.75
 20
-9.528400000000001
 30
0.0
 40
0.5
  1
1.450000
100
AcDbAttributeDefinition
  3

  2
E1
 70
     8
280
     0
  0
ATTDEF
  5
1F4
330
1D5
100
AcDbEntity
  8
AM_6
100
AcDbText
 10
11.75
 20
-10.0284
 30
0.0
 40
0.5
  1
3/4
100
AcDbAttributeDefinition
  3

  2
F
 70
     8
280
     0
  0
ATTDEF
  5
1F5
330
1D5
100
AcDbEntity
  8
AM_6
100
AcDbText
 10
11.75
 20
-10.5284
 30
0.0
 40
0.5
  1
0.7500000
100
AcDbAttributeDefinition
  3

  2
F1
 70
     8
280
     0
  0
ATTDEF
  5
1F6
330
1D5
100
AcDbEntity
  8
AM_6
100
AcDbText
 10
11.75
 20
-11.0284
 30
0.0
 40
0.5
  1
3.03
100
AcDbAttributeDefinition
  3

  2
G
 70
     8
280
     0
  0
ATTDEF
  5
1F7
330
1D5
100
AcDbEntity
  8
AM_6
100
AcDbText
 10
11.75
 20
-11.5284
 30
0.0
 40
0.5
  1
3.030000
100
AcDbAttributeDefinition
  3

  2
G1
 70
     8
280
     0
  0
ATTDEF
  5
1F8
330
1D5
100
AcDbEntity
  8
AM_6
100
AcDbText
 10
11.75
 20
-12.0284
 30
0.0
 40
0.5
  1
0.94
100
AcDbAttributeDefinition
  3

  2
H
 70
     8
280
     0
  0
ATTDEF
  5
1F9
330
1D5
100
AcDbEntity
  8
AM_6
100
AcDbText
 10
11.75
 20
-12.5284
 30
0.0
 40
0.5
  1
0.9400000
100
AcDbAttributeDefinition
  3

  2
H1
 70
     8
280
     0
  0
ATTDEF
  5
1FA
330
1D5
100
AcDbEntity
  8
AM_6
100
AcDbText
 10
11.75
 20
-13.0284
 30
0.0
 40
0.5
  1
10.250
100
AcDbAttributeDefinition
  3

  2
K
 70
     8
280
     0
  0
ATTDEF
  5
1FB
330
1D5
100
AcDbEntity
  8
AM_6
100
AcDbText
 10
11.75
 20
-13.5284
 30
0.0
 40
0.5
  1
6.44
100
AcDbAttributeDefinition
  3

  2
L
 70
     8
280
     0
  0
ATTDEF
  5
1FC
330
1D5
100
AcDbEntity
  8
AM_6
100
AcDbText
 10
11.75
 20
-14.0284
 30
0.0
 40
0.5
  1
6.4400000
100
AcDbAttributeDefinition
  3

  2
L1
 70
     8
280
     0
  0
ATTDEF
  5
1FD
330
1D5
100
AcDbEntity
  8
AM_6
100
AcDbText
 10
11.75
 20
-14.5284
 30
0.0
 40
0.5
  1
3/4-10
100
AcDbAttributeDefinition
  3

  2
M
 70
     8
280
     0
  0
ATTDEF
  5
1FE
330
1D5
100
AcDbEntity
  8
AM_6
100
AcDbText
 10
11.75
 20
-15.0284
 30
0.0
 40
0.5
  1
0.750000
100
AcDbAttributeDefinition
  3

  2
NDM
 70
     8
280
     0
  0
ATTDEF
  5
1FF
330
1D5
100
AcDbEntity
  8
AM_6
100
AcDbText
 10
11.75
 20
-15.5284
 30
0.0
 40
0.5
  1
0.642000
100
AcDbAttributeDefinition
  3

  2
KDM
 70
     8
280
     0
  0
ATTDEF
  5
200
330
1D5
100
AcDbEntity
  8
AM_6
100
AcDbText
 10
11.75
 20
-16.0284
 30
0.0
 40
0.5
  1
5.66
100
AcDbAttributeDefinition
  3

  2
N
 70
     8
280
     0
  0
ATTDEF
  5
201
330
1D5
100
AcDbEntity
  8
AM_6
100
AcDbText
 10
11.75
 20
-16.5284
 30
0.0
 40
0.5
  1
5.660000
100
AcDbAttributeDefinition
  3

  2
N1
 70
     8
280
     0
  0
ATTDEF
  5
202
330
1D5
100
AcDbEntity
  8
AM_6
100
AcDbText
 10
11.75
 20
-17.0284
 30
0.0
 40
0.5
  1
2.2
100
AcDbAttributeDefinition
  3

  2
P
 70
     8
280
     0
  0
ATTDEF
  5
203
330
1D5
100
AcDbEntity
  8
AM_6
100
AcDbText
 10
11.75
 20
-17.5284
 30
0.0
 40
0.5
  1
2.200000
100
AcDbAttributeDefinition
  3

  2
P1
 70
     8
280
     0
  0
ATTDEF
  5
204
330
1D5
100
AcDbEntity
  8
AM_6
100
AcDbText
 10
11.75
 20
-18.0284
 30
0.0
 40
0.5
  1
2.63
100
AcDbAttributeDefinition
  3

  2
Q
 70
     8
280
     0
  0
ATTDEF
  5
205
330
1D5
100
AcDbEntity
  8
AM_6
100
AcDbText
 10
11.75
 20
-18.5284
 30
0.0
 40
0.5
  1
2.630000
100
AcDbAttributeDefinition
  3

  2
Q1
 70
     8
280
     0
  0
ATTDEF
  5
206
330
1D5
100
AcDbEntity
  8
AM_6
100
AcDbText
 10
11.75
 20
-19.0284
 30
0.0
 40
0.5
  1
0.38
100
AcDbAttributeDefinition
  3

  2
X
 70
     8
280
     0
  0
ATTDEF
  5
207
330
1D5
100
AcDbEntity
  8
AM_6
100
AcDbText
 10
11.75
 20
-19.5284
 30
0.0
 40
0.5
  1
0.380000
100
AcDbAttributeDefinition
  3

  2
X1
 70
     8
280
     0
  0
ATTDEF
  5
208
330
1D5
100
AcDbEntity
  8
AM_6
100
AcDbText
 10
11.75
 20
-20.0284
 30
0.0
 40
0.5
  1
0.036
100
AcDbAttributeDefinition
  3

  2
Y
 70
     8
280
     0
  0
ATTDEF
  5
209
330
1D5
100
AcDbEntity
  8
AM_6
100
AcDbText
 10
11.75
 20
-20.5284
 30
0.0
 40
0.5
  1
5
100
AcDbAttributeDefinition
  3

  2
Z
 70
     8
280
     0
  0
ATTDEF
  5
20A
330
1D5
100
AcDbEntity
  8
AM_6
100
AcDbText
 10
11.75
 20
-21.0284
 30
0.0
 40
0.5
  1
5.000000
100
AcDbAttributeDefinition
  3

  2
Z1
 70
     8
280
     0
  0
ATTDEF
  5
20B
330
1D5
100
AcDbEntity
  8
AM_6
100
AcDbText
 10
11.75
 20
-21.5284
 30
0.0
 40
0.5
  1
7.8740
100
AcDbAttributeDefinition
  3

  2
BORE
 70
     8
280
     0
  0
ATTDEF
  5
20C
330
1D5
100
AcDbEntity
  8
AM_6
100
AcDbText
 10
11.75
 20
-22.0284
 30
0.0
 40
0.5
  1
baldor
100
AcDbAttributeDefinition
  3

  2
COMPANY
 70
     8
280
     0
  0
LINE
  5
20D
330
1D5
100
AcDbEntity
  8
AM_9
100
AcDbLine
 10
-5.408899247233578
 20
-0.0540000000000005
 30
0.0
 11
-5.408899247233578
 21
-0.698
 31
0.0
  0
LINE
  5
20E
330
1D5
100
AcDbEntity
  8
AM_9
100
AcDbLine
 10
-4.766899247233577
 20
-0.698
 30
0.0
 11
-4.766899247233577
 21
-0.0540000000000005
 31
0.0
  0
LINE
  5
20F
330
1D5
100
AcDbEntity
  8
AM_9
100
AcDbLine
 10
-4.766899247233577
 20
-0.0540000000000005
 30
0.0
 11
-5.408899247233578
 21
-0.0540000000000005
 31
0.0
  0
LINE
  5
210
330
1D5
100
AcDbEntity
  8
AM_9
100
AcDbLine
 10
-4.766899247233577
 20
-0.0540000000000005
 30
0.0
 11
-4.712899247233577
 21
-0.0000000000000002
 31
0.0
  0
LINE
  5
211
330
1D5
100
AcDbEntity
  8
AM_9
100
AcDbLine
 10
-5.462899247233577
 20
-0.0000000000000002
 30
0.0
 11
-5.408899247233578
 21
-0.0540000000000005
 31
0.0
  0
LINE
  5
212
330
1D5
100
AcDbEntity
  8
AM_9
100
AcDbLine
 10
-4.766899247233577
 20
-0.698
 30
0.0
 11
-5.408899247233578
 21
-0.698
 31
0.0
  0
LINE
  5
213
330
1D5
100
AcDbEntity
  8
AM_9
100
AcDbLine
 10
-5.408899247233578
 20
-0.698
 30
0.0
 11
-5.462899247233577
 21
-0.7520000000000001
 31
0.0
  0
LINE
  5
214
330
1D5
100
AcDbEntity
  8
AM_9
100
AcDbLine
 10
-4.712899247233577
 20
-0.7520000000000001
 30
0.0
 11
-4.766899247233577
 21
-0.698
 31
0.0
  0
LINE
  5
215
330
1D5
100
AcDbEntity
  8
AM_9
100
AcDbLine
 10
6.249999999999999
 20
-0.9400000000000001
 30
0.0
 11
6.249999999999999
 21
0.0
 31
0.0
  0
LINE
  5
216
330
1D5
100
AcDbEntity
  8
AM_9
100
AcDbLine
 10
5.499999999999999
 20
0.0
 30
0.0
 11
5.499999999999999
 21
-0.9400000000000001
 31
0.0
  0
LINE
  5
217
330
1D5
100
AcDbEntity
  8
AM_9
100
AcDbLine
 10
-5.5
 20
-0.9400000000000001
 30
0.0
 11
-5.5
 21
0.0
 31
0.0
  0
LINE
  5
218
330
1D5
100
AcDbEntity
  8
AM_9
100
AcDbLine
 10
-6.25
 20
0.0
 30
0.0
 11
-6.25
 21
-0.9400000000000001
 31
0.0
  0
LINE
  5
219
330
1D5
100
AcDbEntity
  8
AM_9
100
AcDbLine
 10
-4.899999999999999
 20
-1.927
 30
0.0
 11
-4.899999999999999
 21
-0.94
 31
0.0
  0
LINE
  5
21A
330
1D5
100
AcDbEntity
  8
AM_9
100
AcDbLine
 10
-4.899999999999999
 20
-0.94
 30
0.0
 11
-4.95150500717177
 21
-0.94
 31
0.0
  0
LINE
  5
21B
330
1D5
100
AcDbEntity
  8
AM_9
100
AcDbLine
 10
-4.899999999999999
 20
-1.927
 30
0.0
 11
-5.077970442161612
 21
-1.927
 31
0.0
  0
LINE
  5
21C
330
1D5
100
AcDbEntity
  8
AM_9
100
AcDbLine
 10
4.951504980537224
 20
-0.94
 30
0.0
 11
4.899999999999999
 21
-0.94
 31
0.0
  0
LINE
  5
21D
330
1D5
100
AcDbEntity
  8
AM_9
100
AcDbLine
 10
5.07797044216161
 20
-1.927
 30
0.0
 11
4.899999999999999
 21
-1.927
 31
0.0
  0
LINE
  5
21E
330
1D5
100
AcDbEntity
  8
AM_9
100
AcDbLine
 10
4.899999999999999
 20
-0.94
 30
0.0
 11
4.899999999999999
 21
-1.927
 31
0.0
  0
LINE
  5
21F
330
1D5
100
AcDbEntity
  8
AM_9
100
AcDbLine
 10
5.054982849516092
 20
-1.927
 30
0.0
 11
5.054982849516092
 21
-0.94
 31
0.0
  0
LINE
  5
220
330
1D5
100
AcDbEntity
  8
AM_9
100
AcDbLine
 10
-5.054982841455045
 20
-1.927
 30
0.0
 11
-5.054982841455045
 21
-0.94
 31
0.0
  0
LINE
  5
221
330
1D5
100
AcDbEntity
  8
AM_9
100
AcDbLine
 10
4.766899247233577
 20
-0.0540000000000001
 30
0.0
 11
4.766899247233577
 21
-0.6979999999999996
 31
0.0
  0
LINE
  5
222
330
1D5
100
AcDbEntity
  8
AM_9
100
AcDbLine
 10
5.408899247233576
 20
-0.6979999999999996
 30
0.0
 11
5.408899247233576
 21
-0.0540000000000001
 31
0.0
  0
LINE
  5
223
330
1D5
100
AcDbEntity
  8
AM_9
100
AcDbLine
 10
5.408899247233576
 20
-0.6979999999999996
 30
0.0
 11
4.766899247233577
 21
-0.6979999999999996
 31
0.0
  0
LINE
  5
224
330
1D5
100
AcDbEntity
  8
AM_9
100
AcDbLine
 10
4.766899247233577
 20
-0.6979999999999996
 30
0.0
 11
4.712899247233576
 21
-0.7519999999999998
 31
0.0
  0
LINE
  5
225
330
1D5
100
AcDbEntity
  8
AM_9
100
AcDbLine
 10
5.462899247233577
 20
-0.7519999999999998
 30
0.0
 11
5.408899247233576
 21
-0.6979999999999996
 31
0.0
  0
LINE
  5
226
330
1D5
100
AcDbEntity
  8
AM_9
100
AcDbLine
 10
5.408899247233576
 20
-0.0540000000000001
 30
0.0
 11
4.766899247233577
 21
-0.0540000000000001
 31
0.0
  0
LINE
  5
227
330
1D5
100
AcDbEntity
  8
AM_9
100
AcDbLine
 10
5.408899247233578
 20
-0.0540000000000001
 30
0.0
 11
5.462899247233579
 21
0.0000000000000002
 31
0.0
  0
LINE
  5
228
330
1D5
100
AcDbEntity
  8
AM_9
100
AcDbLine
 10
4.712899247233576
 20
0.0000000000000002
 30
0.0
 11
4.766899247233577
 21
-0.0540000000000001
 31
0.0
  0
LINE
  5
229
330
1D5
100
AcDbEntity
  8
AM_9
100
AcDbLine
 10
4.01227828780647
 20
-0.7519999999999996
 30
0.0
 11
3.565636828971835
 21
-0.7519999999999997
 31
0.0
  0
LINE
  5
22A
330
1D5
100
AcDbEntity
  8
AM_9
100
AcDbLine
 10
3.576974616264085
 20
-0.7519999999999997
 30
0.0
 11
3.576974616264085
 21
-0.9399999999999997
 31
0.0
  0
LINE
  5
22B
330
1D5
100
AcDbEntity
  8
AM_9
100
AcDbLine
 10
3.565636828971835
 20
-0.7519999999999997
 30
0.0
 11
3.565636828971835
 21
-0.9399999999999997
 31
0.0
  0
LINE
  5
22C
330
1D5
100
AcDbEntity
  8
AM_9
100
AcDbLine
 10
-3.576974616264083
 20
-0.7519999999999997
 30
0.0
 11
-3.576974616264083
 21
-0.9399999999999997
 31
0.0
  0
LINE
  5
22D
330
1D5
100
AcDbEntity
  8
AM_9
100
AcDbLine
 10
-3.565636828971834
 20
-0.9399999999999997
 30
0.0
 11
-3.565636828971834
 21
-0.7519999999999997
 31
0.0
  0
LINE
  5
22E
330
1D5
100
AcDbEntity
  8
AM_9
100
AcDbLine
 10
-3.565636828971834
 20
-0.7519999999999997
 30
0.0
 11
-4.012278287806467
 21
-0.7519999999999997
 31
0.0
  0
LINE
  5
22F
330
1D5
100
AcDbEntity
  8
AM_9
100
AcDbLine
 10
3.936999999999999
 20
-1.95
 30
0.0
 11
3.936999999999999
 21
2.63
 31
0.0
  0
LINE
  5
230
330
1D5
100
AcDbEntity
  8
AM_9
100
AcDbLine
 10
-3.936999999999999
 20
2.63
 30
0.0
 11
-3.936999999999999
 21
-1.95
 31
0.0
  0
LINE
  5
231
330
1D5
100
AcDbEntity
  8
AM_9
100
AcDbLine
 10
3.620814746561388
 20
-0.7519999999999997
 30
0.0
 11
3.620814746561388
 21
-0.9399999999999997
 31
0.0
  0
LINE
  5
232
330
1D5
100
AcDbEntity
  8
AM_9
100
AcDbLine
 10
-3.620814746561388
 20
-0.7519999999999997
 30
0.0
 11
-3.620814746561385
 21
-0.9399999999999997
 31
0.0
  0
LINE
  5
233
330
1D5
100
AcDbEntity
  8
AM_9
100
AcDbLine
 10
0.5
 20
-1.887333333333335
 30
0.0
 11
-0.5
 21
-1.887333333333335
 31
0.0
  0
LINE
  5
234
330
1D5
100
AcDbEntity
  8
AM_9
100
AcDbLine
 10
4.043520056751436
 20
-0.7519999999999997
 30
0.0
 11
4.043520056751436
 21
-0.9399999999999997
 31
0.0
  0
LINE
  5
235
330
1D5
100
AcDbEntity
  8
AM_9
100
AcDbLine
 10
-4.043520056751433
 20
-0.7519999999999997
 30
0.0
 11
-4.043520056751433
 21
-0.9399999999999997
 31
0.0
  0
LINE
  5
236
330
1D5
100
AcDbEntity
  8
AM_9
100
AcDbLine
 10
3.3125
 20
-0.9399999999999998
 30
0.0
 11
3.3125
 21
0.0000000000000003
 31
0.0
  0
LINE
  5
237
330
1D5
100
AcDbEntity
  8
AM_9
100
AcDbLine
 10
2.562500000000001
 20
0.0000000000000003
 30
0.0
 11
2.562500000000001
 21
-0.9399999999999998
 31
0.0
  0
LINE
  5
238
330
1D5
100
AcDbEntity
  8
AM_9
100
AcDbLine
 10
-2.5625
 20
-0.9399999999999998
 30
0.0
 11
-2.5625
 21
0.0000000000000003
 31
0.0
  0
LINE
  5
239
330
1D5
100
AcDbEntity
  8
AM_9
100
AcDbLine
 10
-3.312499999999999
 20
0.0000000000000003
 30
0.0
 11
-3.312499999999999
 21
-0.9399999999999998
 31
0.0
  0
LINE
  5
23A
330
1D5
100
AcDbEntity
  8
AM_5
100
AcDbLine
 10
4.712899247233577
 20
-0.0000000000000006
 30
0.0
 11
4.712899247233577
 21
-0.751999999999999
 31
0.0
  0
LINE
  5
23B
330
1D5
100
AcDbEntity
  8
AM_5
100
AcDbLine
 10
5.462899247233577
 20
-0.0000000000000006
 30
0.0
 11
5.462899247233577
 21
-0.751999999999999
 31
0.0
  0
LINE
  5
23C
330
1D5
100
AcDbEntity
  8
AM_5
100
AcDbLine
 10
-5.462899247233577
 20
0.0
 30
0.0
 11
-5.462899247233577
 21
-0.7520000000000001
 31
0.0
  0
LINE
  5
23D
330
1D5
100
AcDbEntity
  8
AM_5
100
AcDbLine
 10
-4.712899247233577
 20
0.0
 30
0.0
 11
-4.712899247233577
 21
-0.7520000000000001
 31
0.0
  0
LINE
  5
240
330
1D5
100
AcDbEntity
  8
AM_7
100
AcDbLine
 10
-5.875
 20
0.04935
 30
0.0
 11
-5.875
 21
-1.03635
 31
0.0
  0
LINE
  5
241
330
1D5
100
AcDbEntity
  8
AM_7
100
AcDbLine
 10
-2.937500000000002
 20
0.0493499999999997
 30
0.0
 11
-2.937500000000002
 21
-1.03635
 31
0.0
  0
LINE
  5
242
330
1D5
100
AcDbEntity
  8
AM_7
100
AcDbLine
 10
2.937499999999998
 20
0.0493499999999997
 30
0.0
 11
2.937499999999998
 21
-1.03635
 31
0.0
  0
LINE
  5
243
330
1D5
100
AcDbEntity
  8
AM_7
100
AcDbLine
 10
5.874999999999999
 20
0.04935
 30
0.0
 11
5.874999999999999
 21
-1.03635
 31
0.0
  0
LINE
  5
244
330
1D5
100
AcDbEntity
  8
AM_7
100
AcDbLine
 10
5.087899247233577
 20
0.0376000000000002
 30
0.0
 11
5.087899247233577
 21
-0.7895999999999997
 31
0.0
  0
LINE
  5
245
330
1D5
100
AcDbEntity
  8
AM_7
100
AcDbLine
 10
-5.087899247233577
 20
0.0375999999999998
 30
0.0
 11
-5.087899247233577
 21
-0.7896000000000001
 31
0.0
  0
LINE
  5
246
330
1D5
100
AcDbEntity
  8
AM_7
100
AcDbLine
 10
0.0
 20
3.4716
 30
0.0
 11
0.0
 21
-3.4716
 31
0.0
  0
LINE
  5
247
330
1D5
100
AcDbEntity
  8
AM_4
100
AcDbLine
 10
5.084787234042554
 20
-1.900721316852684
 30
0.0
 11
5.084787234042554
 21
-0.94
 31
0.0
  0
LWPOLYLINE
  5
248
330
1D5
100
AcDbEntity
  8
AM_4
100
AcDbPolyline
 90
        3
 70
     0
 43
0.0
 10
5.084787231594924
 20
-1.900816538323911
 10
5.084362521804943
 20
-1.907769606362551
 10
5.07797044216161
 20
-1.926999999999999
  0
LINE
  5
249
330
1D5
100
AcDbEntity
  8
AM_4
100
AcDbLine
 10
-5.084787234042554
 20
-0.94
 30
0.0
 11
-5.084787234042554
 21
-1.900758112914777
 31
0.0
  0
LWPOLYLINE
  5
24A
330
1D5
100
AcDbEntity
  8
AM_4
100
AcDbPolyline
 90
        4
 70
     0
 43
0.0
 10
-5.084787228958736
 20
-1.900809100909821
 10
-5.084703185557105
 20
-1.897696225904743
 10
-5.083320880512418
 20
-1.887606555604778
 10
-5.083260166980877
 20
-1.887333333333334
  0
LINE
  5
24B
330
1D5
100
AcDbEntity
  8
AM_4
100
AcDbLine
 10
6.443858873893543
 20
-0.7519999999999999
 30
0.0
 11
6.443858873893543
 21
-0.94
 31
0.0
  0
LINE
  5
24C
330
1D5
100
AcDbEntity
  8
AM_4
100
AcDbLine
 10
-6.443858873893542
 20
-0.7519999999999999
 30
0.0
 11
-6.443858873893542
 21
-0.94
 31
0.0
  0
LINE
  5
24D
330
1D5
100
AcDbEntity
  8
AM_4
100
AcDbLine
 10
-5.100494818031645
 20
-0.7519999999999998
 30
0.0
 11
-5.100494818031645
 21
-0.9399999999999998
 31
0.0
  0
LINE
  5
24E
330
1D5
100
AcDbEntity
  8
AM_4
100
AcDbLine
 10
-6.75
 20
-0.9399999999999998
 30
0.0
 11
-4.95150500717177
 21
-0.9399999999999998
 31
0.0
  0
LINE
  5
24F
330
1D5
100
AcDbEntity
  8
AM_4
100
AcDbLine
 10
4.951504980537224
 20
-0.9399999999999998
 30
0.0
 11
6.75
 21
-0.9399999999999998
 31
0.0
  0
LINE
  5
250
330
1D5
100
AcDbEntity
  8
AM_4
100
AcDbLine
 10
5.100494818031646
 20
-0.7519999999999998
 30
0.0
 11
5.100494818031646
 21
-0.9399999999999998
 31
0.0
  0
LINE
  5
251
330
1D5
100
AcDbEntity
  8
AM_4
100
AcDbLine
 10
5.083260166980878
 20
-1.887333333333335
 30
0.0
 11
5.083260166980878
 21
-0.94
 31
0.0
  0
LINE
  5
252
330
1D5
100
AcDbEntity
  8
AM_4
100
AcDbLine
 10
4.951504980537223
 20
-0.7519999999999998
 30
0.0
 11
4.951504980537224
 21
-0.9399999999999998
 31
0.0
  0
LINE
  5
253
330
1D5
100
AcDbEntity
  8
AM_4
100
AcDbLine
 10
-4.95150500717177
 20
-0.7519999999999998
 30
0.0
 11
-4.95150500717177
 21
-0.9399999999999998
 31
0.0
  0
LINE
  5
254
330
1D5
100
AcDbEntity
  8
AM_4
100
AcDbLine
 10
-5.083260166980878
 20
-1.887333333333335
 30
0.0
 11
-5.083260166980878
 21
-0.94
 31
0.0
  0
LINE
  5
255
330
1D5
100
AcDbEntity
  8
AM_4
100
AcDbLine
 10
3.106933812550451
 20
-1.887333333333334
 30
0.0
 11
3.106933812550451
 21
-0.9399999999999997
 31
0.0
  0
LINE
  5
256
330
1D5
100
AcDbEntity
  8
AM_4
100
AcDbLine
 10
-3.106933812550447
 20
-1.887333333333334
 30
0.0
 11
-3.106933812550447
 21
-0.9399999999999997
 31
0.0
  0
LINE
  5
257
330
1D5
100
AcDbEntity
  8
AM_4
100
AcDbLine
 10
-2.984271066474674
 20
-1.927
 30
0.0
 11
-2.984271066474674
 21
-0.9399999999999997
 31
0.0
  0
LINE
  5
258
330
1D5
100
AcDbEntity
  8
AM_4
100
AcDbLine
 10
2.984271066474675
 20
-1.927
 30
0.0
 11
2.984271066474675
 21
-0.9399999999999997
 31
0.0
  0
LINE
  5
259
330
1D5
100
AcDbEntity
  8
AM_4
100
AcDbLine
 10
2.070711768157415
 20
-1.927
 30
0.0
 11
2.070711768157415
 21
-0.9399999999999997
 31
0.0
  0
LINE
  5
25A
330
1D5
100
AcDbEntity
  8
AM_4
100
AcDbLine
 10
-2.070711774980369
 20
-1.927
 30
0.0
 11
-2.070711774980369
 21
-0.9399999999999997
 31
0.0
  0
LINE
  5
25B
330
1D5
100
AcDbEntity
  8
AM_4
100
AcDbLine
 10
-4.748971128120253
 20
2.63
 30
0.0
 11
4.748971128116151
 21
2.63
 31
0.0
  0
ARC
  5
25C
330
1D5
100
AcDbEntity
  8
AM_4
100
AcDbCircle
 10
4.748971128120254
 20
2.536000000000001
 30
0.0
 40
0.0939999999999988
100
AcDbArc
 50
1.9999999999994
 51
90.0
  0
ARC
  5
25D
330
1D5
100
AcDbEntity
  8
AM_4
100
AcDbCircle
 10
-4.748971128120254
 20
2.536000000000001
 30
0.0
 40
0.0939999999999985
100
AcDbArc
 50
90.0
 51
178.0000000000006
  0
LINE
  5
25E
330
1D5
100
AcDbEntity
  8
AM_4
100
AcDbLine
 10
-4.842913865860048
 20
2.539280552690035
 30
0.0
 11
4.842913865860048
 21
2.539280552690035
 31
0.0
  0
LINE
  5
25F
330
1D5
100
AcDbEntity
  8
AM_4
100
AcDbLine
 10
-4.842913865860048
 20
2.539280552690035
 30
0.0
 11
-4.87778438804445
 21
1.540719447309965
 31
0.0
  0
LINE
  5
260
330
1D5
100
AcDbEntity
  8
AM_4
100
AcDbLine
 10
4.87778438804445
 20
1.540719447309965
 30
0.0
 11
4.842913865860048
 21
2.539280552690035
 31
0.0
  0
LINE
  5
261
330
1D5
100
AcDbEntity
  8
AM_4
100
AcDbLine
 10
-4.87778438804445
 20
1.540719447309965
 30
0.0
 11
4.87778438804445
 21
1.540719447309965
 31
0.0
  0
ARC
  5
262
330
1D5
100
AcDbEntity
  8
AM_4
100
AcDbCircle
 10
4.971727125784247
 20
1.544000000000002
 30
0.0
 40
0.0940000000000016
100
AcDbArc
 50
182.000000000001
 51
270.0
  0
ARC
  5
263
330
1D5
100
AcDbEntity
  8
AM_4
100
AcDbCircle
 10
-4.971727125784247
 20
1.544000000000002
 30
0.0
 40
0.0940000000000021
100
AcDbArc
 50
270.0
 51
357.999999999999
  0
LINE
  5
264
330
1D5
100
AcDbEntity
  8
AM_4
100
AcDbLine
 10
1.97632635443043
 20
-1.887333333333334
 30
0.0
 11
1.97632635443043
 21
-0.9399999999999997
 31
0.0
  0
LINE
  5
265
330
1D5
100
AcDbEntity
  8
AM_4
100
AcDbLine
 10
1.330690223487333
 20
-0.7519999999999997
 30
0.0
 11
1.330690233975834
 21
-0.9399999999999997
 31
0.0
  0
LINE
  5
266
330
1D5
100
AcDbEntity
  8
AM_4
100
AcDbLine
 10
-1.330690233975835
 20
-0.7519999999999997
 30
0.0
 11
-1.330690233975835
 21
-0.9399999999999997
 31
0.0
  0
LINE
  5
267
330
1D5
100
AcDbEntity
  8
AM_4
100
AcDbLine
 10
-1.976326354430428
 20
-1.887333333333334
 30
0.0
 11
-1.976326354430428
 21
-0.9399999999999997
 31
0.0
  0
LINE
  5
268
330
1D5
100
AcDbEntity
  8
AM_4
100
AcDbLine
 10
-5.062333333333333
 20
-1.95
 30
0.0
 11
5.062333333331162
 21
-1.95
 31
0.0
  0
LINE
  5
269
330
1D5
100
AcDbEntity
  8
AM_4
100
AcDbLine
 10
-1.976326354430428
 20
-1.887333333333334
 30
0.0
 11
-0.5
 21
-1.887333333333334
 31
0.0
  0
LWPOLYLINE
  5
26A
330
1D5
100
AcDbEntity
  8
AM_4
100
AcDbPolyline
 90
        5
 70
     0
 43
0.0
 10
-2.037749638073658
 20
-1.927
 10
-2.016566771628623
 20
-1.913063591686919
 10
-1.992868294252259
 20
-1.897696225904746
 10
-1.976770370863675
 20
-1.887606555604817
 10
-1.976326354430426
 20
-1.887333333333334
  0
LINE
  5
26B
330
1D5
100
AcDbEntity
  8
AM_4
100
AcDbLine
 10
-3.040220804087954
 20
-1.927
 30
0.0
 11
-2.037749638073658
 21
-1.927
 31
0.0
  0
LWPOLYLINE
  5
26C
330
1D5
100
AcDbEntity
  8
AM_4
100
AcDbPolyline
 90
        4
 70
     0
 43
0.0
 10
-3.106933812550447
 20
-1.887333333333334
 10
-3.106550509648582
 20
-1.887606555604473
 10
-3.075880004201982
 20
-1.907769606362611
 10
-3.040220804087954
 20
-1.927
  0
LINE
  5
26D
330
1D5
100
AcDbEntity
  8
AM_4
100
AcDbLine
 10
-5.083260166980878
 20
-1.887333333333335
 30
0.0
 11
-3.106933812550447
 21
-1.887333333333334
 31
0.0
  0
LWPOLYLINE
  5
26E
330
1D5
100
AcDbEntity
  8
AM_4
100
AcDbPolyline
 90
        3
 70
     0
 43
0.0
 10
-5.077970442161612
 20
-1.926999999999999
 10
-5.083434301131717
 20
-1.913063591686918
 10
-5.084787228958736
 20
-1.900809100909821
  0
LINE
  5
26F
330
1D5
100
AcDbEntity
  8
AM_4
100
AcDbLine
 10
5.07797044216161
 20
-1.927
 30
0.0
 11
5.110847935946018
 21
-1.927
 31
0.0
  0
LWPOLYLINE
  5
270
330
1D5
100
AcDbEntity
  8
AM_4
100
AcDbPolyline
 90
        3
 70
     0
 43
0.0
 10
5.083260166980878
 20
-1.887333333333334
 10
5.083320880512448
 20
-1.887606555604357
 10
5.084787231594924
 20
-1.900816538323911
  0
LINE
  5
271
330
1D5
100
AcDbEntity
  8
AM_4
100
AcDbLine
 10
3.106933812550451
 20
-1.887333333333334
 30
0.0
 11
5.083260166980878
 21
-1.887333333333335
 31
0.0
  0
LWPOLYLINE
  5
272
330
1D5
100
AcDbEntity
  8
AM_4
100
AcDbPolyline
 90
        5
 70
     0
 43
0.0
 10
3.040220804087954
 20
-1.927
 10
3.066867529503094
 20
-1.913063591686919
 10
3.091834891304848
 20
-1.897696225904752
 10
3.106550509648849
 20
-1.887606555605067
 10
3.106933812550448
 20
-1.887333333333334
  0
LINE
  5
273
330
1D5
100
AcDbEntity
  8
AM_4
100
AcDbLine
 10
2.037749638073659
 20
-1.927
 30
0.0
 11
3.040220804087954
 21
-1.927
 31
0.0
  0
LWPOLYLINE
  5
274
330
1D5
100
AcDbEntity
  8
AM_4
100
AcDbPolyline
 90
        4
 70
     0
 43
0.0
 10
1.97632635443043
 20
-1.887333333333334
 10
1.976770370863947
 20
-1.887606555604303
 10
2.008482517602815
 20
-1.90776960636252
 10
2.037749638073659
 20
-1.927
  0
LINE
  5
275
330
1D5
100
AcDbEntity
  8
AM_4
100
AcDbLine
 10
0.5
 20
-1.887333333333325
 30
0.0
 11
1.97632635443043
 21
-1.887333333333334
 31
0.0
  0
ARC
  5
276
330
1D5
100
AcDbEntity
  8
AM_4
100
AcDbCircle
 10
5.062333333333332
 20
-1.88733333333333
 30
0.0
 40
0.06266666666667
100
AcDbArc
 50
270.0
 51
320.7297691379712
  0
ARC
  5
277
330
1D5
100
AcDbEntity
  8
AM_4
100
AcDbCircle
 10
-5.062333333333332
 20
-1.88733333333333
 30
0.0
 40
0.06266666666667
100
AcDbArc
 50
219.2702308620288
 51
270.0
  0
LINE
  5
278
330
1D5
100
AcDbEntity
  8
AM_4
100
AcDbLine
 10
-5.110847935946018
 20
-1.927
 30
0.0
 11
-5.077970442161612
 21
-1.927
 31
0.0
  0
LINE
  5
279
330
1D5
100
AcDbEntity
  8
AM_4
100
AcDbLine
 10
-5.125
 20
1.45
 30
0.0
 11
5.125
 21
1.45
 31
0.0
  0
LINE
  5
27A
330
1D5
100
AcDbEntity
  8
AM_4
100
AcDbLine
 10
5.125
 20
0.0
 30
0.0
 11
5.125
 21
1.45
 31
0.0
  0
LINE
  5
27B
330
1D5
100
AcDbEntity
  8
AM_4
100
AcDbLine
 10
-5.125
 20
1.45
 30
0.0
 11
-5.125
 21
0.0
 31
0.0
  0
LINE
  5
27C
330
1D5
100
AcDbEntity
  8
AM_4
100
AcDbLine
 10
4.06613532395672
 20
-0.9399999999999997
 30
0.0
 11
4.06613532395672
 21
-0.7519999999999997
 31
0.0
  0
LINE
  5
27D
330
1D5
100
AcDbEntity
  8
AM_4
100
AcDbLine
 10
4.06613532395672
 20
-0.9399999999999997
 30
0.0
 11
1.330690233975834
 21
-0.9399999999999997
 31
0.0
  0
LINE
  5
27E
330
1D5
100
AcDbEntity
  8
AM_4
100
AcDbLine
 10
-1.330690233975835
 20
-0.9399999999999997
 30
0.0
 11
-4.066135323956718
 21
-0.9399999999999997
 31
0.0
  0
LINE
  5
27F
330
1D5
100
AcDbEntity
  8
AM_4
100
AcDbLine
 10
-4.066135323956718
 20
-0.7519999999999997
 30
0.0
 11
-4.066135323956718
 21
-0.9399999999999997
 31
0.0
  0
LINE
  5
280
330
1D5
100
AcDbEntity
  8
AM_4
100
AcDbLine
 10
1.523520201767561
 20
-0.7519999999999997
 30
0.0
 11
1.523520201767561
 21
-0.9399999999999997
 31
0.0
  0
LINE
  5
281
330
1D5
100
AcDbEntity
  8
AM_4
100
AcDbLine
 10
-1.52352020176756
 20
-0.7519999999999997
 30
0.0
 11
-1.52352020176756
 21
-0.9399999999999997
 31
0.0
  0
LINE
  5
282
330
1D5
100
AcDbEntity
  8
AM_4
100
AcDbLine
 10
2.400338817142109
 20
-0.7519999999999996
 30
0.0
 11
2.400338817142109
 21
-0.9399999999999995
 31
0.0
  0
LINE
  5
283
330
1D5
100
AcDbEntity
  8
AM_4
100
AcDbLine
 10
-2.400338817142107
 20
-0.7519999999999996
 30
0.0
 11
-2.400338817142107
 21
-0.9399999999999995
 31
0.0
  0
LINE
  5
284
330
1D5
100
AcDbEntity
  8
AM_4
100
AcDbLine
 10
0.5
 20
-0.7519999999999996
 30
0.0
 11
0.5
 21
-1.949
 31
0.0
  0
LINE
  5
285
330
1D5
100
AcDbEntity
  8
AM_4
100
AcDbLine
 10
-0.5
 20
-0.7519999999999996
 30
0.0
 11
-0.5
 21
-1.949
 31
0.0
  0
LINE
  5
286
330
1D5
100
AcDbEntity
  8
AM_4
100
AcDbLine
 10
0.5
 20
-1.949
 30
0.0
 11
-0.5
 21
-1.949
 31
0.0
  0
LINE
  5
287
330
1D5
100
AcDbEntity
  8
AM_4
100
AcDbLine
 10
0.5
 20
-1.19638268480638
 30
0.0
 11
-0.5
 21
-1.19638268480638
 31
0.0
  0
LINE
  5
288
330
1D5
100
AcDbEntity
  8
AM_4
100
AcDbLine
 10
2.694721650238367
 20
-0.7519999999999996
 30
0.0
 11
-2.694721650238364
 21
-0.7519999999999996
 31
0.0
  0
LINE
  5
289
330
1D5
100
AcDbEntity
  8
AM_4
100
AcDbLine
 10
-6.75
 20
0.0
 30
0.0
 11
6.75
 21
0.0
 31
0.0
  0
LINE
  5
28A
330
1D5
100
AcDbEntity
  8
AM_4
100
AcDbLine
 10
4.01227828780647
 20
-0.7519999999999997
 30
0.0
 11
4.01227828780647
 21
-0.9399999999999997
 31
0.0
  0
LINE
  5
28B
330
1D5
100
AcDbEntity
  8
AM_4
100
AcDbLine
 10
6.706999938044831
 20
-0.7519999999999999
 30
0.0
 11
4.01227828780647
 21
-0.7519999999999997
 31
0.0
  0
LINE
  5
28C
330
1D5
100
AcDbEntity
  8
AM_4
100
AcDbLine
 10
6.706999938044831
 20
-0.94
 30
0.0
 11
6.706999938044831
 21
-0.7519999999999999
 31
0.0
  0
LINE
  5
28D
330
1D5
100
AcDbEntity
  8
AM_4
100
AcDbLine
 10
-6.706999938044835
 20
-0.7519999999999999
 30
0.0
 11
-6.706999938044835
 21
-0.94
 31
0.0
  0
LINE
  5
28E
330
1D5
100
AcDbEntity
  8
AM_4
100
AcDbLine
 10
-4.012278287806467
 20
-0.7519999999999997
 30
0.0
 11
-6.706999938044835
 21
-0.7519999999999999
 31
0.0
  0
LINE
  5
28F
330
1D5
100
AcDbEntity
  8
AM_4
100
AcDbLine
 10
-4.012278287806467
 20
-0.9399999999999997
 30
0.0
 11
-4.012278287806467
 21
-0.7519999999999997
 31
0.0
  0
LINE
  5
290
330
1D5
100
AcDbEntity
  8
AM_4
100
AcDbLine
 10
-2.694721650238364
 20
-0.7519999999999996
 30
0.0
 11
-2.694721650238364
 21
-0.9399999999999995
 31
0.0
  0
LINE
  5
291
330
1D5
100
AcDbEntity
  8
AM_4
100
AcDbLine
 10
2.694721650238367
 20
-0.9399999999999995
 30
0.0
 11
2.694721650238367
 21
-0.7519999999999996
 31
0.0
  0
LINE
  5
292
330
1D5
100
AcDbEntity
  8
AM_4
100
AcDbLine
 10
6.75
 20
-0.9399999999999998
 30
0.0
 11
6.75
 21
0.0
 31
0.0
  0
LINE
  5
293
330
1D5
100
AcDbEntity
  8
AM_4
100
AcDbLine
 10
-6.75
 20
0.0
 30
0.0
 11
-6.75
 21
-0.9399999999999998
 31
0.0
  0
ENDBLK
  5
1D8
330
1D5
100
AcDbEntity
  8
0
100
AcDbBlockEnd
  0
ENDSEC
  0
SECTION
  2
ENTITIES
  0
INSERT
  5
6F
330
1F
100
AcDbEntity
  8
0
100
AcDbBlockReference
  2
1_071284_4
 10
0.0
 20
0.0
 30
0.0
  0
POINT
  5
295
330
1F
100
AcDbEntity
  8
ConnectionPoints
100
AcDbPoint
 10
0.0
 20
-2.3275
 30
-2.842013888888889
  0
POINT
  5
296
330
1F
100
AcDbEntity
  8
ConnectionPoints
100
AcDbPoint
 10
0.0
 20
-2.3275
 30
2.842013888888889
  0
POINT
  5
297
330
1F
100
AcDbEntity
  8
ConnectionPoints
100
AcDbPoint
 10
0.0
 20
-2.2575
 30
0.0000000000000001
  0
POINT
  5
298
330
1F
100
AcDbEntity
  8
ConnectionPoints
100
AcDbPoint
 10
0.0
 20
-2.65
 30
0.0000000000000002
  0
POINT
  5
299
330
1F
100
AcDbEntity
  8
ConnectionPoints
100
AcDbPoint
 10
0.0
 20
-2.4565
 30
0.0000000000000002
  0
POINT
  5
29A
330
1F
100
AcDbEntity
  8
ConnectionPoints
100
AcDbPoint
 10
0.0
 20
-2.2575
 30
2.842013888888889
  0
POINT
  5
29B
330
1F
100
AcDbEntity
  8
ConnectionPoints
100
AcDbPoint
 10
0.0
 20
-2.2575
 30
-2.842013888888889
  0
POINT
  5
29C
330
1F
100
AcDbEntity
  8
ConnectionPoints
100
AcDbPoint
 10
0.0
 20
-2.2575
 30
0.0000000000000001
  0
POINT
  5
29D
330
1F
100
AcDbEntity
  8
ConnectionPoints
100
AcDbPoint
 10
0.0
 20
-1.350499999999999
 30
6.161632408329973
  0
POINT
  5
29E
330
1F
100
AcDbEntity
  8
ConnectionPoints
100
AcDbPoint
 10
0.0
 20
-1.57269134240319
 30
5.776785714285714
  0
POINT
  5
29F
330
1F
100
AcDbEntity
  8
ConnectionPoints
100
AcDbPoint
 10
0.0
 20
-2.65
 30
0.0000000000000002
  0
POINT
  5
2A0
330
1F
100
AcDbEntity
  8
ConnectionPoints
100
AcDbPoint
 10
0.0
 20
-3.03
 30
0.0000000000000002
  0
ENDSEC
  0
SECTION
  2
OBJECTS
  0
DICTIONARY
  5
C
330
0
100
AcDbDictionary
281
     1
  3
ACAD_DETAILVIEWSTYLE
350
2A8
  3
ACAD_GROUP
350
D
  3
ACAD_LAYOUT
350
1A
  3
ACAD_MATERIAL
350
43
  3
ACAD_MLEADERSTYLE
350
6B
  3
ACAD_MLINESTYLE
350
17
  3
ACAD_PLOTSETTINGS
350
19
  3
ACAD_PLOTSTYLENAME
350
E
  3
ACAD_SCALELIST
350
47
  3
ACAD_SECTIONVIEWSTYLE
350
2A9
  3
ACAD_TABLESTYLE
350
69
  3
ACAD_VISUALSTYLE
350
2A
  3
ACDB_RECOMPOSE_DATA
350
2A5
  3
AcDbVariableDictionary
350
2A1
  0
SUN
  5
6D
330
29
100
AcDbSun
 90
        1
290
     0
 63
     7
421
 16777215
 40
1.0
291
     1
 91
  2455826
 92
 54000000
292
     0
 70
     2
 71
   256
280
     1
  0
DICTIONARY
  5
2A8
102
{ACAD_REACTORS
330
C
102
}
330
C
100
AcDbDictionary
281
     1
  0
DICTIONARY
  5
D
102
{ACAD_REACTORS
330
C
102
}
330
C
100
AcDbDictionary
281
     1
  0
DICTIONARY
  5
1A
102
{ACAD_REACTORS
330
C
102
}
330
C
100
AcDbDictionary
281
     1
  3
Layout1
350
1E
  3
Layout2
350
26
  3
Model
350
22
  0
DICTIONARY
  5
43
102
{ACAD_REACTORS
330
C
102
}
330
C
100
AcDbDictionary
281
     1
  3
ByBlock
350
45
  3
ByLayer
350
44
  3
Global
350
46
  0
DICTIONARY
  5
6B
102
{ACAD_REACTORS
330
C
102
}
330
C
100
AcDbDictionary
281
     1
  3
Standard
350
6C
  0
DICTIONARY
  5
17
102
{ACAD_REACTORS
330
C
102
}
330
C
100
AcDbDictionary
281
     1
  3
Standard
350
18
  0
DICTIONARY
  5
19
102
{ACAD_REACTORS
330
C
102
}
330
C
100
AcDbDictionary
281
     1
  0
ACDBDICTIONARYWDFLT
  5
E
102
{ACAD_REACTORS
330
C
102
}
330
C
100
AcDbDictionary
281
     1
  3
Normal
350
F
100
AcDbDictionaryWithDefault
340
F
  0
DICTIONARY
  5
47
102
{ACAD_REACTORS
330
C
102
}
330
C
100
AcDbDictionary
281
     1
  3
A0
350
48
  3
A1
350
49
  3
A2
350
4A
  3
A3
350
4B
  3
A4
350
4C
  3
A5
350
4D
  3
A6
350
4E
  3
A7
350
4F
  3
A8
350
50
  3
A9
350
51
  3
B0
350
52
  3
B1
350
53
  3
B2
350
54
  3
B3
350
55
  3
B4
350
56
  3
B5
350
57
  3
B6
350
58
  3
B7
350
59
  3
B8
350
5A
  3
B9
350
5B
  3
C0
350
5C
  3
C1
350
5D
  3
C2
350
5E
  3
C3
350
5F
  3
C4
350
60
  3
C5
350
61
  3
C6
350
62
  3
C7
350
63
  3
C8
350
64
  3
C9
350
65
  3
D0
350
66
  3
D1
350
67
  3
D2
350
68
  0
DICTIONARY
  5
2A9
102
{ACAD_REACTORS
330
C
102
}
330
C
100
AcDbDictionary
281
     1
  0
DICTIONARY
  5
69
102
{ACAD_REACTORS
330
C
102
}
330
C
100
AcDbDictionary
281
     1
  3
Standard
350
6A
  0
DICTIONARY
  5
2A
102
{ACAD_REACTORS
330
C
102
}
330
C
100
AcDbDictionary
281
     1
  3
2dWireframe
350
2F
  3
Basic
350
32
  3
Brighten
350
36
  3
ColorChange
350
3A
  3
Conceptual
350
34
  3
Dim
350
35
  3
EdgeColorOff
350
3D
  3
Facepattern
350
39
  3
Flat
350
2B
  3
FlatWithEdges
350
2C
  3
Gouraud
350
2D
  3
GouraudWithEdges
350
2E
  3
Hidden
350
31
  3
JitterOff
350
3B
  3
Linepattern
350
38
  3
OverhangOff
350
3C
  3
Realistic
350
33
  3
Shaded
350
42
  3
Shaded with edges
350
41
  3
Shades of Gray
350
3E
  3
Sketchy
350
3F
  3
Thicken
350
37
  3
Wireframe
350
30
  3
X-Ray
350
40
  0
XRECORD
  5
2A5
102
{ACAD_REACTORS
330
C
102
}
330
C
100
AcDbXrecord
280
     1
 90
        1
330
6A
  0
DICTIONARY
  5
2A1
102
{ACAD_REACTORS
330
C
102
}
330
C
100
AcDbDictionary
281
     1
  3
CANNOSCALE
350
2A2
  3
CMLEADERSTYLE
350
2A7
  3
CTABLESTYLE
350
2A6
  0
LAYOUT
  5
1E
102
{ACAD_REACTORS
330
1A
102
}
330
1A
100
AcDbPlotSettings
  1

  2
none_device
  4

  6

 40
0.0
 41
0.0
 42
0.0
 43
0.0
 44
0.0
 45
0.0
 46
0.0
 47
0.0
 48
0.0
 49
0.0
140
0.0
141
0.0
142
1.0
143
1.0
 70
   688
 72
     0
 73
     0
 74
     5
  7

 75
    16
 76
     0
 77
     2
 78
   300
147
1.0
148
0.0
149
0.0
100
AcDbLayout
  1
Layout1
 70
     1
 71
     1
 10
0.0
 20
0.0
 11
12.0
 21
9.0
 12
0.0
 22
0.0
 32
0.0
 14
1.000000000000000E+20
 24
1.000000000000000E+20
 34
1.000000000000000E+20
 15
-1.000000000000000E+20
 25
-1.000000000000000E+20
 35
-1.000000000000000E+20
146
0.0
 13
0.0
 23
0.0
 33
0.0
 16
1.0
 26
0.0
 36
0.0
 17
0.0
 27
1.0
 37
0.0
 76
     0
330
1B
  0
LAYOUT
  5
26
102
{ACAD_REACTORS
330
1A
102
}
330
1A
100
AcDbPlotSettings
  1

  2
none_device
  4

  6

 40
0.0
 41
0.0
 42
0.0
 43
0.0
 44
0.0
 45
0.0
 46
0.0
 47
0.0
 48
0.0
 49
0.0
140
0.0
141
0.0
142
1.0
143
1.0
 70
   688
 72
     0
 73
     0
 74
     5
  7

 75
    16
 76
     0
 77
     2
 78
   300
147
1.0
148
0.0
149
0.0
100
AcDbLayout
  1
Layout2
 70
     1
 71
     2
 10
0.0
 20
0.0
 11
0.0
 21
0.0
 12
0.0
 22
0.0
 32
0.0
 14
0.0
 24
0.0
 34
0.0
 15
0.0
 25
0.0
 35
0.0
146
0.0
 13
0.0
 23
0.0
 33
0.0
 16
1.0
 26
0.0
 36
0.0
 17
0.0
 27
1.0
 37
0.0
 76
     0
330
23
  0
LAYOUT
  5
22
102
{ACAD_REACTORS
330
1A
102
}
330
1A
100
AcDbPlotSettings
  1

  2
none_device
  4
Letter_(8.50_x_11.00_Inches)
  6

 40
6.35
 41
6.35
 42
6.35000508
 43
6.35000508
 44
215.9
 45
279.4
 46
0.0
 47
0.0
 48
0.0
 49
0.0
140
0.0
141
0.0
142
1.0
143
1.0
 70
  1712
 72
     0
 73
     0
 74
     0
  7

 75
     0
 76
     0
 77
     2
 78
   300
147
1.0
148
0.0
149
0.0
100
AcDbLayout
  1
Model
 70
     1
 71
     0
 10
0.0
 20
0.0
 11
12.0
 21
9.0
 12
0.0
 22
0.0
 32
0.0
 14
1.000000000000000E+20
 24
1.000000000000000E+20
 34
1.000000000000000E+20
 15
-1.000000000000000E+20
 25
-1.000000000000000E+20
 35
-1.000000000000000E+20
146
0.0
 13
0.0
 23
0.0
 33
0.0
 16
1.0
 26
0.0
 36
0.0
 17
0.0
 27
1.0
 37
0.0
 76
     0
330
1F
331
29
  0
MATERIAL
  5
45
102
{ACAD_REACTORS
330
43
102
}
330
43
100
AcDbMaterial
  1
ByBlock
 72
     1
 94
      127
  0
MATERIAL
  5
44
102
{ACAD_REACTORS
330
43
102
}
330
43
100
AcDbMaterial
  1
ByLayer
 72
     1
 94
      127
  0
MATERIAL
  5
46
102
{ACAD_REACTORS
330
43
102
}
330
43
100
AcDbMaterial
  1
Global
 72
     1
 94
      127
  0
MLEADERSTYLE
  5
6C
102
{ACAD_REACTORS
330
6B
102
}
330
6B
100
AcDbMLeaderStyle
179
     2
170
     2
171
     1
172
     0
 90
        2
 40
0.0
 41
0.0
173
     1
 91
-1056964608
340
14
 92
       -2
290
     1
 42
0.09
291
     1
 43
0.36
  3
Standard
341
0
 44
0.18
300

342
11
174
     1
178
     6
175
     1
176
     0
 93
-1056964608
 45
0.18
292
     0
297
     0
 46
0.18
343
0
 94
-1056964608
 47
1.0
 49
1.0
140
1.0
293
     1
141
0.0
294
     1
177
     0
142
1.0
295
     0
296
     0
143
0.125
271
     0
272
     9
273
     9
298
     0
  0
MLINESTYLE
  5
18
102
{ACAD_REACTORS
330
17
102
}
330
17
100
AcDbMlineStyle
  2
Standard
 70
     0
  3

 62
   256
 51
90.0
 52
90.0
 71
     2
 49
0.5
 62
   256
  6
BYLAYER
 49
-0.5
 62
   256
  6
BYLAYER
  0
ACDBPLACEHOLDER
  5
F
102
{ACAD_REACTORS
330
E
102
}
330
E
  0
SCALE
  5
48
102
{ACAD_REACTORS
330
47
102
}
330
47
100
AcDbScale
 70
     0
300
1:1
140
1.0
141
1.0
290
     1
  0
SCALE
  5
49
102
{ACAD_REACTORS
330
47
102
}
330
47
100
AcDbScale
 70
     0
300
1:2
140
1.0
141
2.0
290
     0
  0
SCALE
  5
4A
102
{ACAD_REACTORS
330
47
102
}
330
47
100
AcDbScale
 70
     0
300
1:4
140
1.0
141
4.0
290
     0
  0
SCALE
  5
4B
102
{ACAD_REACTORS
330
47
102
}
330
47
100
AcDbScale
 70
     0
300
1:5
140
1.0
141
5.0
290
     0
  0
SCALE
  5
4C
102
{ACAD_REACTORS
330
47
102
}
330
47
100
AcDbScale
 70
     0
300
1:8
140
1.0
141
8.0
290
     0
  0
SCALE
  5
4D
102
{ACAD_REACTORS
330
47
102
}
330
47
100
AcDbScale
 70
     0
300
1:10
140
1.0
141
10.0
290
     0
  0
SCALE
  5
4E
102
{ACAD_REACTORS
330
47
102
}
330
47
100
AcDbScale
 70
     0
300
1:16
140
1.0
141
16.0
290
     0
  0
SCALE
  5
4F
102
{ACAD_REACTORS
330
47
102
}
330
47
100
AcDbScale
 70
     0
300
1:20
140
1.0
141
20.0
290
     0
  0
SCALE
  5
50
102
{ACAD_REACTORS
330
47
102
}
330
47
100
AcDbScale
 70
     0
300
1:30
140
1.0
141
30.0
290
     0
  0
SCALE
  5
51
102
{ACAD_REACTORS
330
47
102
}
330
47
100
AcDbScale
 70
     0
300
1:40
140
1.0
141
40.0
290
     0
  0
SCALE
  5
52
102
{ACAD_REACTORS
330
47
102
}
330
47
100
AcDbScale
 70
     0
300
1:50
140
1.0
141
50.0
290
     0
  0
SCALE
  5
53
102
{ACAD_REACTORS
330
47
102
}
330
47
100
AcDbScale
 70
     0
300
1:100
140
1.0
141
100.0
290
     0
  0
SCALE
  5
54
102
{ACAD_REACTORS
330
47
102
}
330
47
100
AcDbScale
 70
     0
300
2:1
140
2.0
141
1.0
290
     0
  0
SCALE
  5
55
102
{ACAD_REACTORS
330
47
102
}
330
47
100
AcDbScale
 70
     0
300
4:1
140
4.0
141
1.0
290
     0
  0
SCALE
  5
56
102
{ACAD_REACTORS
330
47
102
}
330
47
100
AcDbScale
 70
     0
300
8:1
140
8.0
141
1.0
290
     0
  0
SCALE
  5
57
102
{ACAD_REACTORS
330
47
102
}
330
47
100
AcDbScale
 70
     0
300
10:1
140
10.0
141
1.0
290
     0
  0
SCALE
  5
58
102
{ACAD_REACTORS
330
47
102
}
330
47
100
AcDbScale
 70
     0
300
100:1
140
100.0
141
1.0
290
     0
  0
SCALE
  5
59
102
{ACAD_REACTORS
330
47
102
}
330
47
100
AcDbScale
 70
     0
300
1/128" = 1'-0"
140
0.0078125
141
12.0
290
     0
  0
SCALE
  5
5A
102
{ACAD_REACTORS
330
47
102
}
330
47
100
AcDbScale
 70
     0
300
1/64" = 1'-0"
140
0.015625
141
12.0
290
     0
  0
SCALE
  5
5B
102
{ACAD_REACTORS
330
47
102
}
330
47
100
AcDbScale
 70
     0
300
1/32" = 1'-0"
140
0.03125
141
12.0
290
     0
  0
SCALE
  5
5C
102
{ACAD_REACTORS
330
47
102
}
330
47
100
AcDbScale
 70
     0
300
1/16" = 1'-0"
140
0.0625
141
12.0
290
     0
  0
SCALE
  5
5D
102
{ACAD_REACTORS
330
47
102
}
330
47
100
AcDbScale
 70
     0
300
3/32" = 1'-0"
140
0.09375
141
12.0
290
     0
  0
SCALE
  5
5E
102
{ACAD_REACTORS
330
47
102
}
330
47
100
AcDbScale
 70
     0
300
1/8" = 1'-0"
140
0.125
141
12.0
290
     0
  0
SCALE
  5
5F
102
{ACAD_REACTORS
330
47
102
}
330
47
100
AcDbScale
 70
     0
300
3/16" = 1'-0"
140
0.1875
141
12.0
290
     0
  0
SCALE
  5
60
102
{ACAD_REACTORS
330
47
102
}
330
47
100
AcDbScale
 70
     0
300
1/4" = 1'-0"
140
0.25
141
12.0
290
     0
  0
SCALE
  5
61
102
{ACAD_REACTORS
330
47
102
}
330
47
100
AcDbScale
 70
     0
300
3/8" = 1'-0"
140
0.375
141
12.0
290
     0
  0
SCALE
  5
62
102
{ACAD_REACTORS
330
47
102
}
330
47
100
AcDbScale
 70
     0
300
1/2" = 1'-0"
140
0.5
141
12.0
290
     0
  0
SCALE
  5
63
102
{ACAD_REACTORS
330
47
102
}
330
47
100
AcDbScale
 70
     0
300
3/4" = 1'-0"
140
0.75
141
12.0
290
     0
  0
SCALE
  5
64
102
{ACAD_REACTORS
330
47
102
}
330
47
100
AcDbScale
 70
     0
300
1" = 1'-0"
140
1.0
141
12.0
290
     0
  0
SCALE
  5
65
102
{ACAD_REACTORS
330
47
102
}
330
47
100
AcDbScale
 70
     0
300
1-1/2" = 1'-0"
140
1.5
141
12.0
290
     0
  0
SCALE
  5
66
102
{ACAD_REACTORS
330
47
102
}
330
47
100
AcDbScale
 70
     0
300
3" = 1'-0"
140
3.0
141
12.0
290
     0
  0
SCALE
  5
67
102
{ACAD_REACTORS
330
47
102
}
330
47
100
AcDbScale
 70
     0
300
6" = 1'-0"
140
6.0
141
12.0
290
     0
  0
SCALE
  5
68
102
{ACAD_REACTORS
330
47
102
}
330
47
100
AcDbScale
 70
     0
300
1'-0" = 1'-0"
140
12.0
141
12.0
290
     0
  0
TABLESTYLE
  5
6A
102
{ACAD_REACTORS
330
69
102
}
102
{ACAD_XDICTIONARY
360
2A3
102
}
330
69
100
AcDbTableStyle
  3
Standard
 70
     0
 71
     0
 40
0.06
 41
0.06
280
     0
281
     0
  7
Standard
140
0.18
170
     2
 62
     0
 63
   257
283
     0
 90
        4
 91
        0
  1

274
    -2
284
     1
 64
     0
275
    -2
285
     1
 65
     0
276
    -2
286
     1
 66
     0
277
    -2
287
     1
 67
     0
278
    -2
288
     1
 68
     0
279
    -2
289
     1
 69
     0
  7
Standard
140
0.25
170
     5
 62
     0
 63
   257
283
     0
 90
        4
 91
        0
  1

274
    -2
284
     1
 64
     0
275
    -2
285
     1
 65
     0
276
    -2
286
     1
 66
     0
277
    -2
287
     1
 67
     0
278
    -2
288
     1
 68
     0
279
    -2
289
     1
 69
     0
  7
Standard
140
0.18
170
     5
 62
     0
 63
   257
283
     0
 90
        4
 91
        0
  1

274
    -2
284
     1
 64
     0
275
    -2
285
     1
 65
     0
276
    -2
286
     1
 66
     0
277
    -2
287
     1
 67
     0
278
    -2
288
     1
 68
     0
279
    -2
289
     1
 69
     0
  0
VISUALSTYLE
  5
2F
102
{ACAD_REACTORS
330
2A
102
}
330
2A
100
AcDbVisualStyle
  2
2dWireframe
 70
     4
177
     3
291
     0
 70
    58
 90
        0
176
     1
 90
        2
176
     1
 90
        0
176
     1
 90
        0
176
     1
 40
0.6
176
     1
 40
30.0
176
     1
 62
     7
420
 16777215
176
     1
 90
        1
176
     1
 90
        4
176
     1
 62
     7
176
     1
 62
   257
176
     1
 90
        1
176
     1
 90
        1
176
     1
 40
1.0
176
     1
 90
        0
176
     1
 62
   257
176
     1
 40
1.0
176
     1
 90
        1
176
     1
 90
        6
176
     1
 90
        2
176
     1
 62
     7
176
     1
 90
        5
176
     1
 90
        0
176
     1
 90
        0
176
     1
290
     0
176
     1
 90
        1
176
     1
 40
0.0
176
     1
 90
        0
176
     1
290
     1
176
     1
290
     1
176
     1
290
     0
176
     1
290
     0
176
     1
290
     0
176
     1
290
     0
176
     1
290
     0
176
     1
290
     0
176
     1
290
     0
176
     1
 90
       50
176
     1
 40
0.0
176
     1
 40
1.0
176
     1
 90
        0
176
     1
 62
    18
420
        0
176
     1
 90
       50
176
     1
 90
        3
176
     1
 62
     5
420
      255
176
     1
290
     0
176
     1
 90
       50
176
     1
 90
       50
176
     1
 90
       50
176
     1
290
     0
176
     1
 90
       50
176
     1
 62
   256
176
     0
 40
1.0
176
     0
 90
        2
176
     1
  1
strokes_ogs.tif
176
     1
290
     0
176
     1
 40
1.0
176
     1
 40
1.0
176
     1
  0
VISUALSTYLE
  5
32
102
{ACAD_REACTORS
330
2A
102
}
330
2A
100
AcDbVisualStyle
  2
Basic
 70
     7
177
     3
291
     1
 70
    58
 90
        1
176
     1
 90
        0
176
     1
 90
        1
176
     1
 90
        0
176
     1
 40
0.6
176
     1
 40
30.0
176
     1
 62
     7
420
 16777215
176
     1
 90
        0
176
     1
 90
        4
176
     1
 62
     7
176
     1
 62
   257
176
     1
 90
        1
176
     1
 90
        1
176
     1
 40
1.0
176
     1
 90
        8
176
     1
 62
     7
176
     1
 40
1.0
176
     1
 90
        1
176
     1
 90
        6
176
     1
 90
        2
176
     1
 62
     7
176
     1
 90
        5
176
     1
 90
        0
176
     1
 90
        0
176
     1
290
     0
176
     1
 90
        1
176
     1
 40
0.0
176
     1
 90
        0
176
     1
290
     0
176
     1
290
     1
176
     1
290
     1
176
     1
290
     0
176
     1
290
     0
176
     1
290
     0
176
     1
290
     0
176
     1
290
     0
176
     1
290
     0
176
     1
 90
       50
176
     1
 40
0.0
176
     1
 40
1.0
176
     1
 90
        0
176
     1
 62
    18
420
        0
176
     1
 90
       50
176
     1
 90
        3
176
     1
 62
     5
420
      255
176
     1
290
     0
176
     1
 90
       50
176
     1
 90
       50
176
     1
 90
       50
176
     1
290
     0
176
     1
 90
       50
176
     1
 62
   256
176
     0
 40
1.0
176
     0
 90
        2
176
     1
  1
strokes_ogs.tif
176
     1
290
     0
176
     1
 40
1.0
176
     1
 40
1.0
176
     1
  0
VISUALSTYLE
  5
36
102
{ACAD_REACTORS
330
2A
102
}
330
2A
100
AcDbVisualStyle
  2
Brighten
 70
    12
177
     3
291
     1
 70
    58
 90
        2
176
     1
 90
        2
176
     1
 90
        0
176
     1
 90
        0
176
     1
 40
0.6
176
     1
 40
30.0
176
     1
 62
     7
420
 16777215
176
     1
 90
        1
176
     1
 90
        4
176
     1
 62
     7
176
     1
 62
   257
176
     1
 90
        1
176
     1
 90
        1
176
     1
 40
1.0
176
     1
 90
        8
176
     1
 62
     7
176
     1
 40
1.0
176
     1
 90
        1
176
     1
 90
        6
176
     1
 90
        2
176
     1
 62
     7
176
     1
 90
        5
176
     1
 90
        0
176
     1
 90
        0
176
     1
290
     0
176
     1
 90
        1
176
     1
 40
50.0
176
     1
 90
        0
176
     1
290
     0
176
     1
290
     1
176
     1
290
     1
176
     1
290
     0
176
     1
290
     0
176
     1
290
     0
176
     1
290
     0
176
     1
290
     0
176
     1
290
     0
176
     1
 90
       50
176
     1
 40
0.0
176
     1
 40
1.0
176
     1
 90
        0
176
     1
 62
    18
420
        0
176
     1
 90
       50
176
     1
 90
        3
176
     1
 62
     5
420
      255
176
     1
290
     0
176
     1
 90
       50
176
     1
 90
       50
176
     1
 90
       50
176
     1
290
     0
176
     1
 90
       50
176
     1
 62
   256
176
     0
 40
1.0
176
     0
 90
        2
176
     1
  1
strokes_ogs.tif
176
     1
290
     0
176
     1
 40
1.0
176
     1
 40
1.0
176
     1
  0
VISUALSTYLE
  5
3A
102
{ACAD_REACTORS
330
2A
102
}
330
2A
100
AcDbVisualStyle
  2
ColorChange
 70
    16
177
     3
291
     1
 70
    58
 90
        2
176
     1
 90
        2
176
     1
 90
        3
176
     1
 90
        0
176
     1
 40
0.6
176
     1
 40
30.0
176
     1
 62
     8
420
  8421504
176
     1
 90
        1
176
     1
 90
        4
176
     1
 62
     7
176
     1
 62
   257
176
     1
 90
        1
176
     1
 90
        1
176
     1
 40
1.0
176
     1
 90
        8
176
     1
 62
     8
420
  8421504
176
     1
 40
1.0
176
     1
 90
        1
176
     1
 90
        6
176
     1
 90
        2
176
     1
 62
     7
176
     1
 90
        5
176
     1
 90
        0
176
     1
 90
        0
176
     1
290
     0
176
     1
 90
        1
176
     1
 40
0.0
176
     1
 90
        0
176
     1
290
     0
176
     1
290
     1
176
     1
290
     1
176
     1
290
     0
176
     1
290
     0
176
     1
290
     0
176
     1
290
     0
176
     1
290
     0
176
     1
290
     0
176
     1
 90
       50
176
     1
 40
0.0
176
     1
 40
1.0
176
     1
 90
        0
176
     1
 62
    18
420
        0
176
     1
 90
       50
176
     1
 90
        3
176
     1
 62
     5
420
      255
176
     1
290
     0
176
     1
 90
       50
176
     1
 90
       50
176
     1
 90
       50
176
     1
290
     0
176
     1
 90
       50
176
     1
 62
   256
176
     0
 40
1.0
176
     0
 90
        2
176
     1
  1
strokes_ogs.tif
176
     1
290
     0
176
     1
 40
1.0
176
     1
 40
1.0
176
     1
  0
VISUALSTYLE
  5
34
102
{ACAD_REACTORS
330
2A
102
}
330
2A
100
AcDbVisualStyle
  2
Conceptual
 70
     9
177
     3
291
     0
 70
    58
 90
        3
176
     1
 90
        2
176
     1
 90
        0
176
     1
 90
        0
176
     1
 40
0.6
176
     1
 40
30.0
176
     1
 62
     7
420
 16777215
176
     1
 90
        2
176
     1
 90
        2
176
     1
 62
     7
176
     1
 62
   257
176
     1
 90
        1
176
     1
 90
        1
176
     1
 40
179.0
176
     1
 90
        8
176
     1
 62
     7
176
     1
 40
1.0
176
     1
 90
        1
176
     1
 90
        6
176
     1
 90
        2
176
     1
 62
     7
176
     1
 90
        3
176
     1
 90
        0
176
     1
 90
        0
176
     1
290
     0
176
     1
 90
        1
176
     1
 40
0.0
176
     1
 90
        0
176
     1
290
     0
176
     1
290
     1
176
     1
290
     1
176
     1
290
     0
176
     1
290
     0
176
     1
290
     0
176
     1
290
     0
176
     1
290
     0
176
     1
290
     0
176
     1
 90
       50
176
     1
 40
0.0
176
     1
 40
1.0
176
     1
 90
        0
176
     1
 62
    18
420
        0
176
     1
 90
       50
176
     1
 90
        3
176
     1
 62
     5
420
      255
176
     1
290
     0
176
     1
 90
       50
176
     1
 90
       50
176
     1
 90
       50
176
     1
290
     0
176
     1
 90
       50
176
     1
 62
   256
176
     0
 40
1.0
176
     0
 90
        2
176
     1
  1
strokes_ogs.tif
176
     1
290
     0
176
     1
 40
1.0
176
     1
 40
1.0
176
     1
  0
VISUALSTYLE
  5
35
102
{ACAD_REACTORS
330
2A
102
}
330
2A
100
AcDbVisualStyle
  2
Dim
 70
    11
177
     3
291
     1
 70
    58
 90
        2
176
     1
 90
        2
176
     1
 90
        0
176
     1
 90
        0
176
     1
 40
0.6
176
     1
 40
30.0
176
     1
 62
     7
420
 16777215
176
     1
 90
        1
176
     1
 90
        4
176
     1
 62
     7
176
     1
 62
   257
176
     1
 90
        1
176
     1
 90
        1
176
     1
 40
1.0
176
     1
 90
        8
176
     1
 62
     7
176
     1
 40
1.0
176
     1
 90
        1
176
     1
 90
        6
176
     1
 90
        2
176
     1
 62
     7
176
     1
 90
        5
176
     1
 90
        0
176
     1
 90
        0
176
     1
290
     0
176
     1
 90
        1
176
     1
 40
-50.0
176
     1
 90
        0
176
     1
290
     0
176
     1
290
     1
176
     1
290
     1
176
     1
290
     0
176
     1
290
     0
176
     1
290
     0
176
     1
290
     0
176
     1
290
     0
176
     1
290
     0
176
     1
 90
       50
176
     1
 40
0.0
176
     1
 40
1.0
176
     1
 90
        0
176
     1
 62
    18
420
        0
176
     1
 90
       50
176
     1
 90
        3
176
     1
 62
     5
420
      255
176
     1
290
     0
176
     1
 90
       50
176
     1
 90
       50
176
     1
 90
       50
176
     1
290
     0
176
     1
 90
       50
176
     1
 62
   256
176
     0
 40
1.0
176
     0
 90
        2
176
     1
  1
strokes_ogs.tif
176
     1
290
     0
176
     1
 40
1.0
176
     1
 40
1.0
176
     1
  0
VISUALSTYLE
  5
3D
102
{ACAD_REACTORS
330
2A
102
}
330
2A
100
AcDbVisualStyle
  2
EdgeColorOff
 70
    22
177
     3
291
     1
 70
    58
 90
        2
176
     0
 90
        2
176
     0
 90
        0
176
     0
 90
        0
176
     0
 40
0.6
176
     0
 40
30.0
176
     0
 62
     7
420
 16777215
176
     0
 90
        1
176
     0
 90
        4
176
     0
 62
     7
176
     0
 62
   257
176
     0
 90
        1
176
     0
 90
        1
176
     0
 40
1.0
176
     0
 90
        8
176
     2
 62
     7
176
     0
 40
1.0
176
     0
 90
        1
176
     0
 90
        6
176
     0
 90
        2
176
     0
 62
     7
176
     0
 90
        5
176
     0
 90
        0
176
     0
 90
        0
176
     0
290
     0
176
     0
 90
        1
176
     0
 40
0.0
176
     0
 90
        0
176
     0
290
     0
176
     0
290
     1
176
     0
290
     1
176
     0
290
     0
176
     0
290
     0
176
     0
290
     0
176
     0
290
     0
176
     0
290
     0
176
     0
290
     0
176
     0
 90
       50
176
     0
 40
0.0
176
     0
 40
1.0
176
     0
 90
        0
176
     0
 62
    18
420
        0
176
     0
 90
       50
176
     0
 90
        3
176
     0
 62
     5
420
      255
176
     0
290
     0
176
     0
 90
       50
176
     0
 90
       50
176
     0
 90
       50
176
     0
290
     0
176
     0
 90
       50
176
     0
 62
   256
176
     0
 40
1.0
176
     0
 90
        2
176
     0
  1
strokes_ogs.tif
176
     0
290
     0
176
     0
 40
1.0
176
     0
 40
1.0
176
     0
  0
VISUALSTYLE
  5
39
102
{ACAD_REACTORS
330
2A
102
}
330
2A
100
AcDbVisualStyle
  2
Facepattern
 70
    15
177
     3
291
     1
 70
    58
 90
        2
176
     1
 90
        2
176
     1
 90
        0
176
     1
 90
        0
176
     1
 40
0.6
176
     1
 40
30.0
176
     1
 62
     7
420
 16777215
176
     1
 90
        1
176
     1
 90
        4
176
     1
 62
     7
176
     1
 62
   257
176
     1
 90
        1
176
     1
 90
        1
176
     1
 40
1.0
176
     1
 90
        8
176
     1
 62
     7
176
     1
 40
1.0
176
     1
 90
        1
176
     1
 90
        6
176
     1
 90
        2
176
     1
 62
     7
176
     1
 90
        5
176
     1
 90
        0
176
     1
 90
        0
176
     1
290
     0
176
     1
 90
        1
176
     1
 40
0.0
176
     1
 90
        0
176
     1
290
     0
176
     1
290
     1
176
     1
290
     1
176
     1
290
     0
176
     1
290
     0
176
     1
290
     0
176
     1
290
     0
176
     1
290
     0
176
     1
290
     0
176
     1
 90
       50
176
     1
 40
0.0
176
     1
 40
1.0
176
     1
 90
        0
176
     1
 62
    18
420
        0
176
     1
 90
       50
176
     1
 90
        3
176
     1
 62
     5
420
      255
176
     1
290
     0
176
     1
 90
       50
176
     1
 90
       50
176
     1
 90
       50
176
     1
290
     0
176
     1
 90
       50
176
     1
 62
   256
176
     0
 40
1.0
176
     0
 90
        2
176
     1
  1
strokes_ogs.tif
176
     1
290
     0
176
     1
 40
1.0
176
     1
 40
1.0
176
     1
  0
VISUALSTYLE
  5
2B
102
{ACAD_REACTORS
330
2A
102
}
330
2A
100
AcDbVisualStyle
  2
Flat
 70
     0
177
     3
291
     1
 70
    58
 90
        2
176
     1
 90
        1
176
     1
 90
        1
176
     1
 90
        2
176
     1
 40
0.6
176
     1
 40
30.0
176
     1
 62
     7
420
 16777215
176
     1
 90
        0
176
     1
 90
        0
176
     1
 62
     7
176
     1
 62
   257
176
     1
 90
        1
176
     1
 90
        1
176
     1
 40
1.0
176
     1
 90
        8
176
     1
 62
     7
176
     1
 40
1.0
176
     1
 90
        1
176
     1
 90
        6
176
     1
 90
        2
176
     1
 62
     7
176
     1
 90
        5
176
     1
 90
        0
176
     1
 90
        0
176
     1
290
     0
176
     1
 90
       13
176
     1
 40
0.0
176
     1
 90
        0
176
     1
290
     0
176
     1
290
     1
176
     1
290
     1
176
     1
290
     0
176
     1
290
     0
176
     1
290
     0
176
     1
290
     0
176
     1
290
     0
176
     1
290
     0
176
     1
 90
       50
176
     1
 40
0.0
176
     1
 40
1.0
176
     1
 90
        0
176
     1
 62
    18
420
        0
176
     1
 90
       50
176
     1
 90
        3
176
     1
 62
     5
420
      255
176
     1
290
     0
176
     1
 90
       50
176
     1
 90
       50
176
     1
 90
       50
176
     1
290
     0
176
     1
 90
       50
176
     1
 62
   256
176
     0
 40
1.0
176
     0
 90
        2
176
     1
  1
strokes_ogs.tif
176
     1
290
     0
176
     1
 40
1.0
176
     1
 40
1.0
176
     1
  0
VISUALSTYLE
  5
2C
102
{ACAD_REACTORS
330
2A
102
}
330
2A
100
AcDbVisualStyle
  2
FlatWithEdges
 70
     1
177
     3
291
     1
 70
    58
 90
        2
176
     1
 90
        1
176
     1
 90
        1
176
     1
 90
        2
176
     1
 40
0.6
176
     1
 40
30.0
176
     1
 62
     7
420
 16777215
176
     1
 90
        1
176
     1
 90
        0
176
     1
 62
     7
176
     1
 62
   257
176
     1
 90
        1
176
     1
 90
        1
176
     1
 40
1.0
176
     1
 90
        0
176
     1
 62
   257
176
     1
 40
1.0
176
     1
 90
        1
176
     1
 90
        6
176
     1
 90
        2
176
     1
 62
     7
176
     1
 90
        5
176
     1
 90
        0
176
     1
 90
        0
176
     1
290
     0
176
     1
 90
       13
176
     1
 40
0.0
176
     1
 90
        0
176
     1
290
     0
176
     1
290
     1
176
     1
290
     1
176
     1
290
     0
176
     1
290
     0
176
     1
290
     0
176
     1
290
     0
176
     1
290
     0
176
     1
290
     0
176
     1
 90
       50
176
     1
 40
0.0
176
     1
 40
1.0
176
     1
 90
        0
176
     1
 62
    18
420
        0
176
     1
 90
       50
176
     1
 90
        3
176
     1
 62
     5
420
      255
176
     1
290
     0
176
     1
 90
       50
176
     1
 90
       50
176
     1
 90
       50
176
     1
290
     0
176
     1
 90
       50
176
     1
 62
   256
176
     0
 40
1.0
176
     0
 90
        2
176
     1
  1
strokes_ogs.tif
176
     1
290
     0
176
     1
 40
1.0
176
     1
 40
1.0
176
     1
  0
VISUALSTYLE
  5
2D
102
{ACAD_REACTORS
330
2A
102
}
330
2A
100
AcDbVisualStyle
  2
Gouraud
 70
     2
177
     3
291
     1
 70
    58
 90
        2
176
     1
 90
        2
176
     1
 90
        1
176
     1
 90
        2
176
     1
 40
0.6
176
     1
 40
30.0
176
     1
 62
     7
420
 16777215
176
     1
 90
        0
176
     1
 90
        0
176
     1
 62
     7
176
     1
 62
   257
176
     1
 90
        1
176
     1
 90
        1
176
     1
 40
1.0
176
     1
 90
        0
176
     1
 62
     7
176
     1
 40
1.0
176
     1
 90
        1
176
     1
 90
        6
176
     1
 90
        2
176
     1
 62
     7
176
     1
 90
        5
176
     1
 90
        0
176
     1
 90
        0
176
     1
290
     0
176
     1
 90
       13
176
     1
 40
0.0
176
     1
 90
        0
176
     1
290
     0
176
     1
290
     1
176
     1
290
     1
176
     1
290
     0
176
     1
290
     0
176
     1
290
     0
176
     1
290
     0
176
     1
290
     0
176
     1
290
     0
176
     1
 90
       50
176
     1
 40
0.0
176
     1
 40
1.0
176
     1
 90
        0
176
     1
 62
    18
420
        0
176
     1
 90
       50
176
     1
 90
        3
176
     1
 62
     5
420
      255
176
     1
290
     0
176
     1
 90
       50
176
     1
 90
       50
176
     1
 90
       50
176
     1
290
     0
176
     1
 90
       50
176
     1
 62
   256
176
     0
 40
1.0
176
     0
 90
        2
176
     1
  1
strokes_ogs.tif
176
     1
290
     0
176
     1
 40
1.0
176
     1
 40
1.0
176
     1
  0
VISUALSTYLE
  5
2E
102
{ACAD_REACTORS
330
2A
102
}
330
2A
100
AcDbVisualStyle
  2
GouraudWithEdges
 70
     3
177
     3
291
     1
 70
    58
 90
        2
176
     1
 90
        2
176
     1
 90
        1
176
     1
 90
        2
176
     1
 40
0.6
176
     1
 40
30.0
176
     1
 62
     7
420
 16777215
176
     1
 90
        1
176
     1
 90
        0
176
     1
 62
     7
176
     1
 62
   257
176
     1
 90
        1
176
     1
 90
        1
176
     1
 40
1.0
176
     1
 90
        0
176
     1
 62
   257
176
     1
 40
1.0
176
     1
 90
        1
176
     1
 90
        6
176
     1
 90
        2
176
     1
 62
     7
176
     1
 90
        5
176
     1
 90
        0
176
     1
 90
        0
176
     1
290
     0
176
     1
 90
       13
176
     1
 40
0.0
176
     1
 90
        0
176
     1
290
     0
176
     1
290
     1
176
     1
290
     1
176
     1
290
     0
176
     1
290
     0
176
     1
290
     0
176
     1
290
     0
176
     1
290
     0
176
     1
290
     0
176
     1
 90
       50
176
     1
 40
0.0
176
     1
 40
1.0
176
     1
 90
        0
176
     1
 62
    18
420
        0
176
     1
 90
       50
176
     1
 90
        3
176
     1
 62
     5
420
      255
176
     1
290
     0
176
     1
 90
       50
176
     1
 90
       50
176
     1
 90
       50
176
     1
290
     0
176
     1
 90
       50
176
     1
 62
   256
176
     0
 40
1.0
176
     0
 90
        2
176
     1
  1
strokes_ogs.tif
176
     1
290
     0
176
     1
 40
1.0
176
     1
 40
1.0
176
     1
  0
VISUALSTYLE
  5
31
102
{ACAD_REACTORS
330
2A
102
}
330
2A
100
AcDbVisualStyle
  2
Hidden
 70
     6
177
     3
291
     0
 70
    58
 90
        1
176
     1
 90
        2
176
     1
 90
        2
176
     1
 90
        0
176
     1
 40
0.6
176
     1
 40
30.0
176
     1
 62
     7
420
 16777215
176
     1
 90
        2
176
     1
 90
        2
176
     1
 62
     7
176
     1
 62
   257
176
     1
 90
        2
176
     1
 90
        1
176
     1
 40
40.0
176
     1
 90
        0
176
     1
 62
   257
176
     1
 40
1.0
176
     1
 90
        1
176
     1
 90
        6
176
     1
 90
        2
176
     1
 62
     7
176
     1
 90
        3
176
     1
 90
        0
176
     1
 90
        0
176
     1
290
     0
176
     1
 90
        1
176
     1
 40
0.0
176
     1
 90
        0
176
     1
290
     0
176
     1
290
     1
176
     1
290
     1
176
     1
290
     0
176
     1
290
     0
176
     1
290
     0
176
     1
290
     0
176
     1
290
     0
176
     1
290
     0
176
     1
 90
       50
176
     1
 40
0.0
176
     1
 40
1.0
176
     1
 90
        0
176
     1
 62
    18
420
        0
176
     1
 90
       50
176
     1
 90
        3
176
     1
 62
     5
420
      255
176
     1
290
     0
176
     1
 90
       50
176
     1
 90
       50
176
     1
 90
       50
176
     1
290
     0
176
     1
 90
       50
176
     1
 62
   256
176
     0
 40
1.0
176
     0
 90
        2
176
     1
  1
strokes_ogs.tif
176
     1
290
     0
176
     1
 40
1.0
176
     1
 40
1.0
176
     1
  0
VISUALSTYLE
  5
3B
102
{ACAD_REACTORS
330
2A
102
}
330
2A
100
AcDbVisualStyle
  2
JitterOff
 70
    20
177
     3
291
     1
 70
    58
 90
        2
176
     0
 90
        2
176
     0
 90
        0
176
     0
 90
        0
176
     0
 40
0.6
176
     0
 40
30.0
176
     0
 62
     7
420
 16777215
176
     0
 90
        1
176
     0
 90
        4
176
     0
 62
     7
176
     0
 62
   257
176
     0
 90
        1
176
     0
 90
        1
176
     0
 40
1.0
176
     0
 90
       10
176
     2
 62
     7
176
     0
 40
1.0
176
     0
 90
        1
176
     0
 90
        6
176
     0
 90
        2
176
     0
 62
     7
176
     0
 90
        5
176
     0
 90
        0
176
     0
 90
        0
176
     0
290
     0
176
     0
 90
        1
176
     0
 40
0.0
176
     0
 90
        0
176
     0
290
     0
176
     0
290
     1
176
     0
290
     1
176
     0
290
     0
176
     0
290
     0
176
     0
290
     0
176
     0
290
     0
176
     0
290
     0
176
     0
290
     0
176
     0
 90
       50
176
     0
 40
0.0
176
     0
 40
1.0
176
     0
 90
        0
176
     0
 62
    18
420
        0
176
     0
 90
       50
176
     0
 90
        3
176
     0
 62
     5
420
      255
176
     0
290
     0
176
     0
 90
       50
176
     0
 90
       50
176
     0
 90
       50
176
     0
290
     0
176
     0
 90
       50
176
     0
 62
   256
176
     0
 40
1.0
176
     0
 90
        2
176
     0
  1
strokes_ogs.tif
176
     0
290
     0
176
     0
 40
1.0
176
     0
 40
1.0
176
     0
  0
VISUALSTYLE
  5
38
102
{ACAD_REACTORS
330
2A
102
}
330
2A
100
AcDbVisualStyle
  2
Linepattern
 70
    14
177
     3
291
     1
 70
    58
 90
        2
176
     1
 90
        2
176
     1
 90
        0
176
     1
 90
        0
176
     1
 40
0.6
176
     1
 40
30.0
176
     1
 62
     7
420
 16777215
176
     1
 90
        1
176
     1
 90
        4
176
     1
 62
     7
176
     1
 62
   257
176
     1
 90
        7
176
     1
 90
        7
176
     1
 40
1.0
176
     1
 90
        8
176
     1
 62
     7
176
     1
 40
1.0
176
     1
 90
        1
176
     1
 90
        6
176
     1
 90
        2
176
     1
 62
     7
176
     1
 90
        5
176
     1
 90
        0
176
     1
 90
        0
176
     1
290
     0
176
     1
 90
        1
176
     1
 40
0.0
176
     1
 90
        0
176
     1
290
     0
176
     1
290
     1
176
     1
290
     1
176
     1
290
     0
176
     1
290
     0
176
     1
290
     0
176
     1
290
     0
176
     1
290
     0
176
     1
290
     0
176
     1
 90
       50
176
     1
 40
0.0
176
     1
 40
1.0
176
     1
 90
        0
176
     1
 62
    18
420
        0
176
     1
 90
       50
176
     1
 90
        3
176
     1
 62
     5
420
      255
176
     1
290
     0
176
     1
 90
       50
176
     1
 90
       50
176
     1
 90
       50
176
     1
290
     0
176
     1
 90
       50
176
     1
 62
   256
176
     0
 40
1.0
176
     0
 90
        2
176
     1
  1
strokes_ogs.tif
176
     1
290
     0
176
     1
 40
1.0
176
     1
 40
1.0
176
     1
  0
VISUALSTYLE
  5
3C
102
{ACAD_REACTORS
330
2A
102
}
330
2A
100
AcDbVisualStyle
  2
OverhangOff
 70
    21
177
     3
291
     1
 70
    58
 90
        2
176
     0
 90
        2
176
     0
 90
        0
176
     0
 90
        0
176
     0
 40
0.6
176
     0
 40
30.0
176
     0
 62
     7
420
 16777215
176
     0
 90
        1
176
     0
 90
        4
176
     0
 62
     7
176
     0
 62
   257
176
     0
 90
        1
176
     0
 90
        1
176
     0
 40
1.0
176
     0
 90
        9
176
     2
 62
     7
176
     0
 40
1.0
176
     0
 90
        1
176
     0
 90
        6
176
     0
 90
        2
176
     0
 62
     7
176
     0
 90
        5
176
     0
 90
        0
176
     0
 90
        0
176
     0
290
     0
176
     0
 90
        1
176
     0
 40
0.0
176
     0
 90
        0
176
     0
290
     0
176
     0
290
     1
176
     0
290
     1
176
     0
290
     0
176
     0
290
     0
176
     0
290
     0
176
     0
290
     0
176
     0
290
     0
176
     0
290
     0
176
     0
 90
       50
176
     0
 40
0.0
176
     0
 40
1.0
176
     0
 90
        0
176
     0
 62
    18
420
        0
176
     0
 90
       50
176
     0
 90
        3
176
     0
 62
     5
420
      255
176
     0
290
     0
176
     0
 90
       50
176
     0
 90
       50
176
     0
 90
       50
176
     0
290
     0
176
     0
 90
       50
176
     0
 62
   256
176
     0
 40
1.0
176
     0
 90
        2
176
     0
  1
strokes_ogs.tif
176
     0
290
     0
176
     0
 40
1.0
176
     0
 40
1.0
176
     0
  0
VISUALSTYLE
  5
33
102
{ACAD_REACTORS
330
2A
102
}
330
2A
100
AcDbVisualStyle
  2
Realistic
 70
     8
177
     3
291
     0
 70
    58
 90
        2
176
     1
 90
        3
176
     1
 90
        0
176
     1
 90
        2
176
     1
 40
0.6
176
     1
 40
30.0
176
     1
 62
     7
420
 16777215
176
     1
 90
        0
176
     1
 90
        0
176
     1
 62
     7
176
     1
 62
   257
176
     1
 90
        1
176
     1
 90
        1
176
     1
 40
1.0
176
     1
 90
        8
176
     1
 62
   257
176
     1
 40
1.0
176
     1
 90
        1
176
     1
 90
        6
176
     1
 90
        2
176
     1
 62
     7
176
     1
 90
        3
176
     1
 90
        0
176
     1
 90
        0
176
     1
290
     0
176
     1
 90
       13
176
     1
 40
0.0
176
     1
 90
        0
176
     1
290
     0
176
     1
290
     1
176
     1
290
     1
176
     1
290
     0
176
     1
290
     0
176
     1
290
     0
176
     1
290
     0
176
     1
290
     0
176
     1
290
     0
176
     1
 90
       50
176
     1
 40
0.0
176
     1
 40
1.0
176
     1
 90
        0
176
     1
 62
    18
420
        0
176
     1
 90
       50
176
     1
 90
        3
176
     1
 62
     5
420
      255
176
     1
290
     0
176
     1
 90
       50
176
     1
 90
       50
176
     1
 90
       50
176
     1
290
     0
176
     1
 90
       50
176
     1
 62
   256
176
     0
 40
1.0
176
     0
 90
        2
176
     1
  1
strokes_ogs.tif
176
     1
290
     0
176
     1
 40
1.0
176
     1
 40
1.0
176
     1
  0
VISUALSTYLE
  5
42
102
{ACAD_REACTORS
330
2A
102
}
330
2A
100
AcDbVisualStyle
  2
Shaded
 70
    27
177
     3
291
     0
 70
    58
 90
        2
176
     1
 90
        2
176
     1
 90
        1
176
     1
 90
        2
176
     1
 40
0.6
176
     1
 40
30.0
176
     1
 62
     7
420
 16777215
176
     1
 90
        0
176
     1
 90
        4
176
     1
 62
     7
176
     1
 62
   257
176
     1
 90
        1
176
     1
 90
        1
176
     1
 40
1.0
176
     1
 90
        8
176
     1
 62
   257
176
     1
 40
1.0
176
     1
 90
        1
176
     1
 90
        6
176
     1
 90
        2
176
     1
 62
     8
420
  7895160
176
     1
 90
        3
176
     1
 90
        0
176
     1
 90
        0
176
     1
290
     0
176
     1
 90
        5
176
     1
 40
0.0
176
     1
 90
        0
176
     1
290
     0
176
     1
290
     1
176
     1
290
     1
176
     1
290
     0
176
     1
290
     0
176
     1
290
     0
176
     1
290
     0
176
     1
290
     0
176
     1
290
     0
176
     1
 90
       50
176
     1
 40
0.0
176
     1
 40
1.0
176
     1
 90
        0
176
     1
 62
    18
420
        0
176
     1
 90
       50
176
     1
 90
        3
176
     1
 62
     5
420
      255
176
     1
290
     0
176
     1
 90
       50
176
     1
 90
       50
176
     1
 90
       50
176
     1
290
     0
176
     1
 90
       50
176
     1
 62
   256
176
     0
 40
1.0
176
     0
 90
        2
176
     1
  1
strokes_ogs.tif
176
     1
290
     0
176
     1
 40
1.0
176
     1
 40
1.0
176
     1
  0
VISUALSTYLE
  5
41
102
{ACAD_REACTORS
330
2A
102
}
330
2A
100
AcDbVisualStyle
  2
Shaded with edges
 70
    26
177
     3
291
     0
 70
    58
 90
        2
176
     1
 90
        2
176
     1
 90
        1
176
     1
 90
        2
176
     1
 40
0.6
176
     1
 40
30.0
176
     1
 62
     7
420
 16777215
176
     1
 90
        1
176
     1
 90
       10
176
     1
 62
     7
176
     1
 62
   257
176
     1
 90
        2
176
     1
 90
        1
176
     1
 40
1.0
176
     1
 90
        8
176
     1
 62
   257
176
     1
 40
1.0
176
     1
 90
        1
176
     1
 90
        6
176
     1
 90
        2
176
     1
 62
     7
176
     1
 90
        3
176
     1
 90
        0
176
     1
 90
        0
176
     1
290
     0
176
     1
 90
        5
176
     1
 40
0.0
176
     1
 90
        0
176
     1
290
     0
176
     1
290
     1
176
     1
290
     1
176
     1
290
     0
176
     1
290
     0
176
     1
290
     0
176
     1
290
     0
176
     1
290
     0
176
     1
290
     0
176
     1
 90
       50
176
     1
 40
0.0
176
     1
 40
1.0
176
     1
 90
        0
176
     1
 62
    18
420
        0
176
     1
 90
       50
176
     1
 90
        3
176
     1
 62
     5
420
      255
176
     1
290
     0
176
     1
 90
       50
176
     1
 90
       50
176
     1
 90
       50
176
     1
290
     0
176
     1
 90
       50
176
     1
 62
   256
176
     0
 40
1.0
176
     0
 90
        2
176
     1
  1
strokes_ogs.tif
176
     1
290
     0
176
     1
 40
1.0
176
     1
 40
1.0
176
     1
  0
VISUALSTYLE
  5
3E
102
{ACAD_REACTORS
330
2A
102
}
330
2A
100
AcDbVisualStyle
  2
Shades of Gray
 70
    23
177
     3
291
     0
 70
    58
 90
        2
176
     1
 90
        2
176
     1
 90
        3
176
     1
 90
        0
176
     1
 40
0.6
176
     1
 40
30.0
176
     1
 62
     7
420
 16777215
176
     1
 90
        2
176
     1
 90
        2
176
     1
 62
     7
176
     1
 62
     7
176
     1
 90
        1
176
     1
 90
        1
176
     1
 40
40.0
176
     1
 90
        8
176
     1
 62
     7
176
     1
 40
1.0
176
     1
 90
        1
176
     1
 90
        6
176
     1
 90
        2
176
     1
 62
     7
176
     1
 90
        3
176
     1
 90
        0
176
     1
 90
        0
176
     1
290
     0
176
     1
 90
        1
176
     1
 40
0.0
176
     1
 90
        0
176
     1
290
     0
176
     1
290
     1
176
     1
290
     1
176
     1
290
     0
176
     1
290
     0
176
     1
290
     0
176
     1
290
     0
176
     1
290
     0
176
     1
290
     0
176
     1
 90
       50
176
     1
 40
0.0
176
     1
 40
1.0
176
     1
 90
        0
176
     1
 62
    18
420
        0
176
     1
 90
       50
176
     1
 90
        3
176
     1
 62
     5
420
      255
176
     1
290
     0
176
     1
 90
       50
176
     1
 90
       50
176
     1
 90
       50
176
     1
290
     0
176
     1
 90
       50
176
     1
 62
   256
176
     0
 40
1.0
176
     0
 90
        2
176
     1
  1
strokes_ogs.tif
176
     1
290
     0
176
     1
 40
1.0
176
     1
 40
1.0
176
     1
  0
VISUALSTYLE
  5
3F
102
{ACAD_REACTORS
330
2A
102
}
330
2A
100
AcDbVisualStyle
  2
Sketchy
 70
    24
177
     3
291
     0
 70
    58
 90
        1
176
     1
 90
        2
176
     1
 90
        2
176
     1
 90
        0
176
     1
 40
0.6
176
     1
 40
30.0
176
     1
 62
     7
420
 16777215
176
     1
 90
        2
176
     1
 90
        2
176
     1
 62
     7
176
     1
 62
     7
176
     1
 90
        1
176
     1
 90
        1
176
     1
 40
40.0
176
     1
 90
       11
176
     1
 62
     7
176
     1
 40
1.0
176
     1
 90
        1
176
     1
 90
        6
176
     1
 90
        2
176
     1
 62
     7
176
     1
 90
        6
176
     1
 90
        0
176
     1
 90
        0
176
     1
290
     0
176
     1
 90
        1
176
     1
 40
0.0
176
     1
 90
        0
176
     1
290
     0
176
     1
290
     1
176
     1
290
     1
176
     1
290
     0
176
     1
290
     0
176
     1
290
     0
176
     1
290
     0
176
     1
290
     0
176
     1
290
     0
176
     1
 90
       50
176
     1
 40
0.0
176
     1
 40
1.0
176
     1
 90
        0
176
     1
 62
    18
420
        0
176
     1
 90
       50
176
     1
 90
        3
176
     1
 62
     5
420
      255
176
     1
290
     0
176
     1
 90
       50
176
     1
 90
       50
176
     1
 90
       50
176
     1
290
     0
176
     1
 90
       50
176
     1
 62
   256
176
     0
 40
1.0
176
     0
 90
        2
176
     1
  1
strokes_ogs.tif
176
     1
290
     0
176
     1
 40
1.0
176
     1
 40
1.0
176
     1
  0
VISUALSTYLE
  5
37
102
{ACAD_REACTORS
330
2A
102
}
330
2A
100
AcDbVisualStyle
  2
Thicken
 70
    13
177
     3
291
     1
 70
    58
 90
        2
176
     1
 90
        2
176
     1
 90
        0
176
     1
 90
        0
176
     1
 40
0.6
176
     1
 40
30.0
176
     1
 62
     7
420
 16777215
176
     1
 90
        1
176
     1
 90
        4
176
     1
 62
     7
176
     1
 62
   257
176
     1
 90
        1
176
     1
 90
        1
176
     1
 40
1.0
176
     1
 90
       12
176
     1
 62
     7
176
     1
 40
1.0
176
     1
 90
        1
176
     1
 90
        6
176
     1
 90
        2
176
     1
 62
     7
176
     1
 90
        5
176
     1
 90
        0
176
     1
 90
        0
176
     1
290
     0
176
     1
 90
        1
176
     1
 40
0.0
176
     1
 90
        0
176
     1
290
     0
176
     1
290
     1
176
     1
290
     1
176
     1
290
     0
176
     1
290
     0
176
     1
290
     0
176
     1
290
     0
176
     1
290
     0
176
     1
290
     0
176
     1
 90
       50
176
     1
 40
0.0
176
     1
 40
1.0
176
     1
 90
        0
176
     1
 62
    18
420
        0
176
     1
 90
       50
176
     1
 90
        3
176
     1
 62
     5
420
      255
176
     1
290
     0
176
     1
 90
       50
176
     1
 90
       50
176
     1
 90
       50
176
     1
290
     0
176
     1
 90
       50
176
     1
 62
   256
176
     0
 40
1.0
176
     0
 90
        2
176
     1
  1
strokes_ogs.tif
176
     1
290
     0
176
     1
 40
1.0
176
     1
 40
1.0
176
     1
  0
VISUALSTYLE
  5
30
102
{ACAD_REACTORS
330
2A
102
}
330
2A
100
AcDbVisualStyle
  2
Wireframe
 70
     5
177
     3
291
     0
 70
    58
 90
        0
176
     1
 90
        2
176
     1
 90
        0
176
     1
 90
        0
176
     1
 40
0.6
176
     1
 40
30.0
176
     1
 62
     7
420
 16777215
176
     1
 90
        1
176
     1
 90
        4
176
     1
 62
     7
176
     1
 62
   257
176
     1
 90
        1
176
     1
 90
        1
176
     1
 40
1.0
176
     1
 90
        0
176
     1
 62
   257
176
     1
 40
1.0
176
     1
 90
        1
176
     1
 90
        6
176
     1
 90
        2
176
     1
 62
     7
176
     1
 90
        3
176
     1
 90
        0
176
     1
 90
        0
176
     1
290
     0
176
     1
 90
        1
176
     1
 40
0.0
176
     1
 90
        0
176
     1
290
     0
176
     1
290
     1
176
     1
290
     1
176
     1
290
     0
176
     1
290
     0
176
     1
290
     0
176
     1
290
     0
176
     1
290
     0
176
     1
290
     0
176
     1
 90
       50
176
     1
 40
0.0
176
     1
 40
1.0
176
     1
 90
        0
176
     1
 62
    18
420
        0
176
     1
 90
       50
176
     1
 90
        3
176
     1
 62
     5
420
      255
176
     1
290
     0
176
     1
 90
       50
176
     1
 90
       50
176
     1
 90
       50
176
     1
290
     0
176
     1
 90
       50
176
     1
 62
   256
176
     0
 40
1.0
176
     0
 90
        2
176
     1
  1
strokes_ogs.tif
176
     1
290
     0
176
     1
 40
1.0
176
     1
 40
1.0
176
     1
  0
VISUALSTYLE
  5
40
102
{ACAD_REACTORS
330
2A
102
}
330
2A
100
AcDbVisualStyle
  2
X-Ray
 70
    25
177
     3
291
     0
 70
    58
 90
        2
176
     1
 90
        2
176
     1
 90
        1
176
     1
 90
        1
176
     1
 40
0.5
176
     1
 40
30.0
176
     1
 62
     7
420
 16777215
176
     1
 90
        1
176
     1
 90
        0
176
     1
 62
     7
176
     1
 62
   257
176
     1
 90
        1
176
     1
 90
        1
176
     1
 40
1.0
176
     1
 90
        8
176
     1
 62
     7
176
     1
 40
1.0
176
     1
 90
        1
176
     1
 90
        6
176
     1
 90
        2
176
     1
 62
     7
176
     1
 90
        3
176
     1
 90
        0
176
     1
 90
        0
176
     1
290
     0
176
     1
 90
       13
176
     1
 40
0.0
176
     1
 90
        0
176
     1
290
     0
176
     1
290
     1
176
     1
290
     1
176
     1
290
     0
176
     1
290
     0
176
     1
290
     0
176
     1
290
     0
176
     1
290
     0
176
     1
290
     0
176
     1
 90
       50
176
     1
 40
0.0
176
     1
 40
1.0
176
     1
 90
        0
176
     1
 62
    18
420
        0
176
     1
 90
       50
176
     1
 90
        3
176
     1
 62
     5
420
      255
176
     1
290
     0
176
     1
 90
       50
176
     1
 90
       50
176
     1
 90
       50
176
     1
290
     0
176
     1
 90
       50
176
     1
 62
   256
176
     0
 40
1.0
176
     0
 90
        2
176
     1
  1
strokes_ogs.tif
176
     1
290
     0
176
     1
 40
1.0
176
     1
 40
1.0
176
     1
  0
DICTIONARYVAR
  5
2A2
102
{ACAD_REACTORS
330
2A1
102
}
330
2A1
100
DictionaryVariables
280
     0
  1
1:1
  0
DICTIONARYVAR
  5
2A7
102
{ACAD_REACTORS
330
2A1
102
}
330
2A1
100
DictionaryVariables
280
     0
  1
Standard
  0
DICTIONARYVAR
  5
2A6
102
{ACAD_REACTORS
330
2A1
102
}
330
2A1
100
DictionaryVariables
280
     0
  1
Standard
  0
DICTIONARY
  5
2A3
330
6A
100
AcDbDictionary
280
     1
281
     1
  3
ACAD_ROUNDTRIP_2008_TABLESTYLE_CELLSTYLEMAP
360
2A4
  0
CELLSTYLEMAP
  5
2A4
102
{ACAD_REACTORS
330
2A3
102
}
330
2A3
100
AcDbCellStyleMap
 90
        3
300
CELLSTYLE
  1
TABLEFORMAT_BEGIN
 90
        5
170
     1
 91
        0
 92
    32768
 62
   257
 93
        1
300
CONTENTFORMAT
  1
CONTENTFORMAT_BEGIN
 90
        0
 91
        0
 92
        4
 93
        0
300

 40
0.0
140
1.0
 94
        5
 62
     0
340
11
144
0.25
309
CONTENTFORMAT_END
171
     1
301
MARGIN
  1
CELLMARGIN_BEGIN
 40
0.06
 40
0.06
 40
0.06
 40
0.06
 40
0.06
 40
0.06
309
CELLMARGIN_END
 94
        6
 95
        1
302
GRIDFORMAT
  1
GRIDFORMAT_BEGIN
 90
        0
 91
        1
 62
     0
 92
       -2
340
14
 93
        0
 40
0.045
309
GRIDFORMAT_END
 95
        2
302
GRIDFORMAT
  1
GRIDFORMAT_BEGIN
 90
        0
 91
        1
 62
     0
 92
       -2
340
14
 93
        0
 40
0.045
309
GRIDFORMAT_END
 95
        4
302
GRIDFORMAT
  1
GRIDFORMAT_BEGIN
 90
        0
 91
        1
 62
     0
 92
       -2
340
14
 93
        0
 40
0.045
309
GRIDFORMAT_END
 95
        8
302
GRIDFORMAT
  1
GRIDFORMAT_BEGIN
 90
        0
 91
        1
 62
     0
 92
       -2
340
14
 93
        0
 40
0.045
309
GRIDFORMAT_END
 95
       16
302
GRIDFORMAT
  1
GRIDFORMAT_BEGIN
 90
        0
 91
        1
 62
     0
 92
       -2
340
14
 93
        0
 40
0.045
309
GRIDFORMAT_END
 95
       32
302
GRIDFORMAT
  1
GRIDFORMAT_BEGIN
 90
        0
 91
        1
 62
     0
 92
       -2
340
14
 93
        0
 40
0.045
309
GRIDFORMAT_END
309
TABLEFORMAT_END
  1
CELLSTYLE_BEGIN
 90
        1
 91
        1
300
_TITLE
309
CELLSTYLE_END
300
CELLSTYLE
  1
TABLEFORMAT_BEGIN
 90
        5
170
     1
 91
        0
 92
        0
 62
   257
 93
        1
300
CONTENTFORMAT
  1
CONTENTFORMAT_BEGIN
 90
        0
 91
        0
 92
        4
 93
        0
300

 40
0.0
140
1.0
 94
        5
 62
     0
340
11
144
0.18
309
CONTENTFORMAT_END
171
     1
301
MARGIN
  1
CELLMARGIN_BEGIN
 40
0.06
 40
0.06
 40
0.06
 40
0.06
 40
0.06
 40
0.06
309
CELLMARGIN_END
 94
        6
 95
        1
302
GRIDFORMAT
  1
GRIDFORMAT_BEGIN
 90
        0
 91
        1
 62
     0
 92
       -2
340
14
 93
        0
 40
0.045
309
GRIDFORMAT_END
 95
        2
302
GRIDFORMAT
  1
GRIDFORMAT_BEGIN
 90
        0
 91
        1
 62
     0
 92
       -2
340
14
 93
        0
 40
0.045
309
GRIDFORMAT_END
 95
        4
302
GRIDFORMAT
  1
GRIDFORMAT_BEGIN
 90
        0
 91
        1
 62
     0
 92
       -2
340
14
 93
        0
 40
0.045
309
GRIDFORMAT_END
 95
        8
302
GRIDFORMAT
  1
GRIDFORMAT_BEGIN
 90
        0
 91
        1
 62
     0
 92
       -2
340
14
 93
        0
 40
0.045
309
GRIDFORMAT_END
 95
       16
302
GRIDFORMAT
  1
GRIDFORMAT_BEGIN
 90
        0
 91
        1
 62
     0
 92
       -2
340
14
 93
        0
 40
0.045
309
GRIDFORMAT_END
 95
       32
302
GRIDFORMAT
  1
GRIDFORMAT_BEGIN
 90
        0
 91
        1
 62
     0
 92
       -2
340
14
 93
        0
 40
0.045
309
GRIDFORMAT_END
309
TABLEFORMAT_END
  1
CELLSTYLE_BEGIN
 90
        2
 91
        1
300
_HEADER
309
CELLSTYLE_END
300
CELLSTYLE
  1
TABLEFORMAT_BEGIN
 90
        5
170
     1
 91
        0
 92
        0
 62
   257
 93
        1
300
CONTENTFORMAT
  1
CONTENTFORMAT_BEGIN
 90
        0
 91
        0
 92
        4
 93
        0
300

 40
0.0
140
1.0
 94
        2
 62
     0
340
11
144
0.18
309
CONTENTFORMAT_END
171
     1
301
MARGIN
  1
CELLMARGIN_BEGIN
 40
0.06
 40
0.06
 40
0.06
 40
0.06
 40
0.06
 40
0.06
309
CELLMARGIN_END
 94
        6
 95
        1
302
GRIDFORMAT
  1
GRIDFORMAT_BEGIN
 90
        0
 91
        1
 62
     0
 92
       -2
340
14
 93
        0
 40
0.045
309
GRIDFORMAT_END
 95
        2
302
GRIDFORMAT
  1
GRIDFORMAT_BEGIN
 90
        0
 91
        1
 62
     0
 92
       -2
340
14
 93
        0
 40
0.045
309
GRIDFORMAT_END
 95
        4
302
GRIDFORMAT
  1
GRIDFORMAT_BEGIN
 90
        0
 91
        1
 62
     0
 92
       -2
340
14
 93
        0
 40
0.045
309
GRIDFORMAT_END
 95
        8
302
GRIDFORMAT
  1
GRIDFORMAT_BEGIN
 90
        0
 91
        1
 62
     0
 92
       -2
340
14
 93
        0
 40
0.045
309
GRIDFORMAT_END
 95
       16
302
GRIDFORMAT
  1
GRIDFORMAT_BEGIN
 90
        0
 91
        1
 62
     0
 92
       -2
340
14
 93
        0
 40
0.045
309
GRIDFORMAT_END
 95
       32
302
GRIDFORMAT
  1
GRIDFORMAT_BEGIN
 90
        0
 91
        1
 62
     0
 92
       -2
340
14
 93
        0
 40
0.045
309
GRIDFORMAT_END
309
TABLEFORMAT_END
  1
CELLSTYLE_BEGIN
 90
        3
 91
        2
300
_DATA
309
CELLSTYLE_END
  0
ENDSEC
  0
EOF