0
SECTION
  2
HEADER
  9
$ACADVER
  1
AC1027
  9
$ACADMAINTVER
 70
     8
  9
$DWGCODEPAGE
  3
ANSI_1252
  9
$REQUIREDVERSIONS
160
                 0
  9
$COMMENTS
  1
File was created by Cadenas
  9
$CUSTOMPROPERTYTAG
  1
NN
  9
$CUSTOMPROPERTY
  1
Imperial - IP Piloted Flange with Type E Dimensions 1-3/8 thru 2-1/2 inch Trident Seal Expansion
  9
$CUSTOMPROPERTYTAG
  1
NT
  9
$CUSTOMPROPERTY
  1
Imperial Piloted Flange Bearings
  9
$CUSTOMPROPERTYTAG
  1
NB
  9
$CUSTOMPROPERTY
  1
071279
  9
$CUSTOMPROPERTYTAG
  1
NBSYN
  9
$CUSTOMPROPERTY
  1
$PN.
  9
$CUSTOMPROPERTYTAG
  1
LINA
  9
$CUSTOMPROPERTY
  1
071279
  9
$CUSTOMPROPERTYTAG
  1
SS
  9
$CUSTOMPROPERTY
  1
5
  9
$CUSTOMPROPERTYTAG
  1
TYPE
  9
$CUSTOMPROPERTY
  1
Expansion
  9
$CUSTOMPROPERTYTAG
  1
PN
  9
$CUSTOMPROPERTY
  1
071279
  9
$CUSTOMPROPERTYTAG
  1
DESCRIPTION
  9
$CUSTOMPROPERTY
  1
EFC-IP-500RE
  9
$CUSTOMPROPERTYTAG
  1
ST
  9
$CUSTOMPROPERTY
  1
Contact Seal
  9
$CUSTOMPROPERTYTAG
  1
A
  9
$CUSTOMPROPERTY
  1
5.98
  9
$CUSTOMPROPERTYTAG
  1
B
  9
$CUSTOMPROPERTY
  1
14.75
  9
$CUSTOMPROPERTYTAG
  1
C
  9
$CUSTOMPROPERTY
  1
4.88
  9
$CUSTOMPROPERTYTAG
  1
D
  9
$CUSTOMPROPERTY
  1
6.38
  9
$CUSTOMPROPERTYTAG
  1
DD
  9
$CUSTOMPROPERTY
  1
12.75
  9
$CUSTOMPROPERTYTAG
  1
E
  9
$CUSTOMPROPERTY
  1
1.7
  9
$CUSTOMPROPERTYTAG
  1
F
  9
$CUSTOMPROPERTY
  1
7/8
  9
$CUSTOMPROPERTYTAG
  1
G
  9
$CUSTOMPROPERTY
  1
3.4
  9
$CUSTOMPROPERTYTAG
  1
H
  9
$CUSTOMPROPERTY
  1
1.25
  9
$CUSTOMPROPERTYTAG
  1
K
  9
$CUSTOMPROPERTY
  1
11.000
  9
$CUSTOMPROPERTYTAG
  1
L
  9
$CUSTOMPROPERTY
  1
7.63
  9
$CUSTOMPROPERTYTAG
  1
M
  9
$CUSTOMPROPERTY
  1
3/4-10
  9
$CUSTOMPROPERTYTAG
  1
N
  9
$CUSTOMPROPERTY
  1
6.41
  9
$CUSTOMPROPERTYTAG
  1
P
  9
$CUSTOMPROPERTY
  1
2.59
  9
$CUSTOMPROPERTYTAG
  1
Q
  9
$CUSTOMPROPERTY
  1
3.01
  9
$CUSTOMPROPERTYTAG
  1
X
  9
$CUSTOMPROPERTY
  1
0.38
  9
$CUSTOMPROPERTYTAG
  1
Y
  9
$CUSTOMPROPERTY
  1
0.036
  9
$CUSTOMPROPERTYTAG
  1
Z
  9
$CUSTOMPROPERTY
  1
5.84
  9
$CUSTOMPROPERTYTAG
  1
COMPANY
  9
$CUSTOMPROPERTY
  1
baldor
  9
$INSBASE
 10
0.0
 20
0.0
 30
0.0
  9
$EXTMIN
 10
1.000000000000000E+20
 20
1.000000000000000E+20
 30
1.000000000000000E+20
  9
$EXTMAX
 10
-1.000000000000000E+20
 20
-1.000000000000000E+20
 30
-1.000000000000000E+20
  9
$LIMMIN
 10
0.0
 20
0.0
  9
$LIMMAX
 10
12.0
 20
9.0
  9
$ORTHOMODE
 70
     0
  9
$REGENMODE
 70
     1
  9
$FILLMODE
 70
     1
  9
$QTEXTMODE
 70
     0
  9
$MIRRTEXT
 70
     1
  9
$LTSCALE
 40
1.0
  9
$ATTMODE
 70
     1
  9
$TEXTSIZE
 40
0.2
  9
$TRACEWID
 40
0.05
  9
$TEXTSTYLE
  7
Standard
  9
$CLAYER
  8
0
  9
$CELTYPE
  6
ByLayer
  9
$CECOLOR
 62
   256
  9
$CELTSCALE
 40
1.0
  9
$DISPSILH
 70
     0
  9
$DIMSCALE
 40
1.0
  9
$DIMASZ
 40
0.18
  9
$DIMEXO
 40
0.0625
  9
$DIMDLI
 40
0.38
  9
$DIMRND
 40
0.0
  9
$DIMDLE
 40
0.0
  9
$DIMEXE
 40
0.18
  9
$DIMTP
 40
0.0
  9
$DIMTM
 40
0.0
  9
$DIMTXT
 40
0.18
  9
$DIMCEN
 40
0.09
  9
$DIMTSZ
 40
0.0
  9
$DIMTOL
 70
     0
  9
$DIMLIM
 70
     0
  9
$DIMTIH
 70
     1
  9
$DIMTOH
 70
     1
  9
$DIMSE1
 70
     0
  9
$DIMSE2
 70
     0
  9
$DIMTAD
 70
     0
  9
$DIMZIN
 70
     0
  9
$DIMBLK
  1

  9
$DIMASO
 70
     1
  9
$DIMSHO
 70
     1
  9
$DIMPOST
  1

  9
$DIMAPOST
  1

  9
$DIMALT
 70
     0
  9
$DIMALTD
 70
     2
  9
$DIMALTF
 40
25.4
  9
$DIMLFAC
 40
1.0
  9
$DIMTOFL
 70
     0
  9
$DIMTVP
 40
0.0
  9
$DIMTIX
 70
     0
  9
$DIMSOXD
 70
     0
  9
$DIMSAH
 70
     0
  9
$DIMBLK1
  1

  9
$DIMBLK2
  1

  9
$DIMSTYLE
  2
Standard
  9
$DIMCLRD
 70
     0
  9
$DIMCLRE
 70
     0
  9
$DIMCLRT
 70
     0
  9
$DIMTFAC
 40
1.0
  9
$DIMGAP
 40
0.09
  9
$DIMJUST
 70
     0
  9
$DIMSD1
 70
     0
  9
$DIMSD2
 70
     0
  9
$DIMTOLJ
 70
     1
  9
$DIMTZIN
 70
     0
  9
$DIMALTZ
 70
     0
  9
$DIMALTTZ
 70
     0
  9
$DIMUPT
 70
     0
  9
$DIMDEC
 70
     4
  9
$DIMTDEC
 70
     4
  9
$DIMALTU
 70
     2
  9
$DIMALTTD
 70
     2
  9
$DIMTXSTY
  7
Standard
  9
$DIMAUNIT
 70
     0
  9
$DIMADEC
 70
     0
  9
$DIMALTRND
 40
0.0
  9
$DIMAZIN
 70
     0
  9
$DIMDSEP
 70
    46
  9
$DIMATFIT
 70
     3
  9
$DIMFRAC
 70
     0
  9
$DIMLDRBLK
  1

  9
$DIMLUNIT
 70
     2
  9
$DIMLWD
 70
    -2
  9
$DIMLWE
 70
    -2
  9
$DIMTMOVE
 70
     0
  9
$DIMFXL
 40
1.0
  9
$DIMFXLON
 70
     0
  9
$DIMJOGANG
 40
0.7853981633974483
  9
$DIMTFILL
 70
     0
  9
$DIMTFILLCLR
 70
     0
  9
$DIMARCSYM
 70
     0
  9
$DIMLTYPE
  6

  9
$DIMLTEX1
  6

  9
$DIMLTEX2
  6

  9
$DIMTXTDIRECTION
 70
     0
  9
$LUNITS
 70
     2
  9
$LUPREC
 70
     4
  9
$SKETCHINC
 40
0.1
  9
$FILLETRAD
 40
0.5
  9
$AUNITS
 70
     0
  9
$AUPREC
 70
     0
  9
$MENU
  1
.
  9
$ELEVATION
 40
0.0
  9
$PELEVATION
 40
0.0
  9
$THICKNESS
 40
0.0
  9
$LIMCHECK
 70
     0
  9
$CHAMFERA
 40
0.0
  9
$CHAMFERB
 40
0.0
  9
$CHAMFERC
 40
0.0
  9
$CHAMFERD
 40
0.0
  9
$SKPOLY
 70
     0
  9
$TDCREATE
 40
2458168.983474977
  9
$TDUCREATE
 40
2458168.94180831
  9
$TDUPDATE
 40
2458168.983475162
  9
$TDUUPDATE
 40
2458168.941808495
  9
$TDINDWG
 40
0.0000000116
  9
$TDUSRTIMER
 40
0.0000000116
  9
$USRTIMER
 70
     1
  9
$ANGBASE
 50
0.0
  9
$ANGDIR
 70
     0
  9
$PDMODE
 70
     0
  9
$PDSIZE
 40
0.0
  9
$PLINEWID
 40
0.0
  9
$SPLFRAME
 70
     0
  9
$SPLINETYPE
 70
     6
  9
$SPLINESEGS
 70
     8
  9
$HANDSEED
  5
2A0
  9
$SURFTAB1
 70
     6
  9
$SURFTAB2
 70
     6
  9
$SURFTYPE
 70
     6
  9
$SURFU
 70
     6
  9
$SURFV
 70
     6
  9
$UCSBASE
  2

  9
$UCSNAME
  2

  9
$UCSORG
 10
0.0
 20
0.0
 30
0.0
  9
$UCSXDIR
 10
1.0
 20
0.0
 30
0.0
  9
$UCSYDIR
 10
0.0
 20
1.0
 30
0.0
  9
$UCSORTHOREF
  2

  9
$UCSORTHOVIEW
 70
     0
  9
$UCSORGTOP
 10
0.0
 20
0.0
 30
0.0
  9
$UCSORGBOTTOM
 10
0.0
 20
0.0
 30
0.0
  9
$UCSORGLEFT
 10
0.0
 20
0.0
 30
0.0
  9
$UCSORGRIGHT
 10
0.0
 20
0.0
 30
0.0
  9
$UCSORGFRONT
 10
0.0
 20
0.0
 30
0.0
  9
$UCSORGBACK
 10
0.0
 20
0.0
 30
0.0
  9
$PUCSBASE
  2

  9
$PUCSNAME
  2

  9
$PUCSORG
 10
0.0
 20
0.0
 30
0.0
  9
$PUCSXDIR
 10
1.0
 20
0.0
 30
0.0
  9
$PUCSYDIR
 10
0.0
 20
1.0
 30
0.0
  9
$PUCSORTHOREF
  2

  9
$PUCSORTHOVIEW
 70
     0
  9
$PUCSORGTOP
 10
0.0
 20
0.0
 30
0.0
  9
$PUCSORGBOTTOM
 10
0.0
 20
0.0
 30
0.0
  9
$PUCSORGLEFT
 10
0.0
 20
0.0
 30
0.0
  9
$PUCSORGRIGHT
 10
0.0
 20
0.0
 30
0.0
  9
$PUCSORGFRONT
 10
0.0
 20
0.0
 30
0.0
  9
$PUCSORGBACK
 10
0.0
 20
0.0
 30
0.0
  9
$USERI1
 70
     0
  9
$USERI2
 70
     0
  9
$USERI3
 70
     0
  9
$USERI4
 70
     0
  9
$USERI5
 70
     0
  9
$USERR1
 40
0.0
  9
$USERR2
 40
0.0
  9
$USERR3
 40
0.0
  9
$USERR4
 40
0.0
  9
$USERR5
 40
0.0
  9
$WORLDVIEW
 70
     1
  9
$SHADEDGE
 70
     3
  9
$SHADEDIF
 70
    70
  9
$TILEMODE
 70
     1
  9
$MAXACTVP
 70
    64
  9
$PINSBASE
 10
0.0
 20
0.0
 30
0.0
  9
$PLIMCHECK
 70
     0
  9
$PEXTMIN
 10
1.000000000000000E+20
 20
1.000000000000000E+20
 30
1.000000000000000E+20
  9
$PEXTMAX
 10
-1.000000000000000E+20
 20
-1.000000000000000E+20
 30
-1.000000000000000E+20
  9
$PLIMMIN
 10
0.0
 20
0.0
  9
$PLIMMAX
 10
12.0
 20
9.0
  9
$UNITMODE
 70
     0
  9
$VISRETAIN
 70
     1
  9
$PLINEGEN
 70
     0
  9
$PSLTSCALE
 70
     1
  9
$TREEDEPTH
 70
  3020
  9
$CMLSTYLE
  2
Standard
  9
$CMLJUST
 70
     0
  9
$CMLSCALE
 40
1.0
  9
$PROXYGRAPHICS
 70
     1
  9
$MEASUREMENT
 70
     0
  9
$CELWEIGHT
370
    -1
  9
$ENDCAPS
280
     0
  9
$JOINSTYLE
280
     0
  9
$LWDISPLAY
290
     0
  9
$INSUNITS
 70
     1
  9
$HYPERLINKBASE
  1

  9
$STYLESHEET
  1

  9
$XEDIT
290
     1
  9
$CEPSNTYPE
380
     0
  9
$PSTYLEMODE
290
     1
  9
$FINGERPRINTGUID
  2
{A7089FE3-CB72-4D8C-994C-3AF25EA75F76}
  9
$VERSIONGUID
  2
{FAEB1C32-E019-11D5-929B-00C0DF256EC4}
  9
$EXTNAMES
290
     1
  9
$PSVPSCALE
 40
0.0
  9
$OLESTARTUP
290
     0
  9
$SORTENTS
280
   127
  9
$INDEXCTL
280
     0
  9
$HIDETEXT
280
     1
  9
$XCLIPFRAME
280
     2
  9
$HALOGAP
280
     0
  9
$OBSCOLOR
 70
   257
  9
$OBSLTYPE
280
     0
  9
$INTERSECTIONDISPLAY
280
     0
  9
$INTERSECTIONCOLOR
 70
   257
  9
$DIMASSOC
280
     2
  9
$PROJECTNAME
  1

  9
$CAMERADISPLAY
290
     0
  9
$LENSLENGTH
 40
50.0
  9
$CAMERAHEIGHT
 40
0.0
  9
$STEPSPERSEC
 40
2.0
  9
$STEPSIZE
 40
6.0
  9
$3DDWFPREC
 40
2.0
  9
$PSOLWIDTH
 40
0.25
  9
$PSOLHEIGHT
 40
4.0
  9
$LOFTANG1
 40
1.570796326794897
  9
$LOFTANG2
 40
1.570796326794897
  9
$LOFTMAG1
 40
0.0
  9
$LOFTMAG2
 40
0.0
  9
$LOFTPARAM
 70
     7
  9
$LOFTNORMALS
280
     1
  9
$LATITUDE
 40
37.795
  9
$LONGITUDE
 40
-122.394
  9
$NORTHDIRECTION
 40
0.0
  9
$TIMEZONE
 70
 -8000
  9
$LIGHTGLYPHDISPLAY
280
     1
  9
$TILEMODELIGHTSYNCH
280
     1
  9
$CMATERIAL
347
44
  9
$SOLIDHIST
280
     0
  9
$SHOWHIST
280
     1
  9
$DWFFRAME
280
     2
  9
$DGNFRAME
280
     2
  9
$REALWORLDSCALE
290
     1
  9
$INTERFERECOLOR
 62
   256
  9
$CSHADOW
280
     0
  9
$SHADOWPLANELOCATION
 40
0.0
  0
ENDSEC
  0
SECTION
  2
CLASSES
  0
CLASS
  1
ACDBDICTIONARYWDFLT
  2
AcDbDictionaryWithDefault
  3
ObjectDBX Classes
 90
        0
 91
        4
280
     0
281
     0
  0
CLASS
  1
VISUALSTYLE
  2
AcDbVisualStyle
  3
ObjectDBX Classes
 90
     4095
 91
        4
280
     0
281
     0
  0
CLASS
  1
MATERIAL
  2
AcDbMaterial
  3
ObjectDBX Classes
 90
     1153
 91
        4
280
     0
281
     0
  0
CLASS
  1
SCALE
  2
AcDbScale
  3
ObjectDBX Classes
 90
     1153
 91
        4
280
     0
281
     0
  0
CLASS
  1
TABLESTYLE
  2
AcDbTableStyle
  3
ObjectDBX Classes
 90
     4095
 91
        4
280
     0
281
     0
  0
CLASS
  1
MLEADERSTYLE
  2
AcDbMLeaderStyle
  3
ACDB_MLEADERSTYLE_CLASS
 90
     4095
 91
        4
280
     0
281
     0
  0
CLASS
  1
SUN
  2
AcDbSun
  3
SCENEOE
 90
     1153
 91
        4
280
     0
281
     0
  0
CLASS
  1
DICTIONARYVAR
  2
AcDbDictionaryVar
  3
ObjectDBX Classes
 90
        0
 91
        4
280
     0
281
     0
  0
CLASS
  1
CELLSTYLEMAP
  2
AcDbCellStyleMap
  3
ObjectDBX Classes
 90
     1152
 91
        4
280
     0
281
     0
  0
ENDSEC
  0
SECTION
  2
TABLES
  0
TABLE
  2
VPORT
  5
8
330
0
100
AcDbSymbolTable
 70
     1
  0
VPORT
  5
29
330
8
100
AcDbSymbolTableRecord
100
AcDbViewportTableRecord
  2
*Active
 70
     0
 10
0.0
 20
0.0
 11
1.0
 21
1.0
 12
0.0
 22
0.0
 13
0.0
 23
0.0
 14
0.5
 24
0.5
 15
0.5
 25
0.5
 16
0.0
 26
0.0
 36
1.0
 17
0.0
 27
0.0
 37
0.0
 40
8.105327999999997
 41
1.856186449209706
 42
50.0
 43
0.0
 44
0.0
 50
0.0
 51
0.0
 71
     0
 72
   100
 73
     1
 74
     3
 75
     0
 76
     0
 77
     0
 78
     0
281
     0
 65
     1
110
0.0
120
0.0
130
0.0
111
1.0
121
0.0
131
0.0
112
0.0
122
1.0
132
0.0
 79
     0
146
0.0
348
2F
 60
     3
 61
     5
292
     1
282
     1
141
0.0
142
0.0
 63
   250
361
6D
  0
ENDTAB
  0
TABLE
  2
LTYPE
  5
5
330
0
100
AcDbSymbolTable
 70
     3
  0
LTYPE
  5
14
330
5
100
AcDbSymbolTableRecord
100
AcDbLinetypeTableRecord
  2
ByBlock
 70
     0
  3

 72
    65
 73
     0
 40
0.0
  0
LTYPE
  5
15
330
5
100
AcDbSymbolTableRecord
100
AcDbLinetypeTableRecord
  2
ByLayer
 70
     0
  3

 72
    65
 73
     0
 40
0.0
  0
LTYPE
  5
16
330
5
100
AcDbSymbolTableRecord
100
AcDbLinetypeTableRecord
  2
Continuous
 70
     0
  3
Solid line
 72
    65
 73
     0
 40
0.0
  0
LTYPE
  5
9C
330
5
100
AcDbSymbolTableRecord
100
AcDbLinetypeTableRecord
  2
Dashed
 70
     0
  3

 72
    65
 73
     2
 40
2.0
 49
1.0
 74
     0
 49
-1.0
 74
     0
  0
LTYPE
  5
235
330
5
100
AcDbSymbolTableRecord
100
AcDbLinetypeTableRecord
  2
Center
 70
     0
  3

 72
    65
 73
     4
 40
1.5
 49
0.45
 74
     0
 49
-0.5
 74
     0
 49
0.05
 74
     0
 49
-0.5
 74
     0
  0
ENDTAB
  0
TABLE
  2
LAYER
  5
2
330
0
100
AcDbSymbolTable
 70
     7
  0
LAYER
  5
10
330
2
100
AcDbSymbolTableRecord
100
AcDbLayerTableRecord
  2
0
 70
     0
 62
     7
  6
Continuous
370
    -3
390
F
347
46
348
0
  0
LAYER
  5
72
330
2
100
AcDbSymbolTableRecord
100
AcDbLayerTableRecord
  2
AM_6
 70
     0
 62
    -2
  6
Continuous
370
    35
390
F
347
46
348
0
  0
LAYER
  5
9D
330
2
100
AcDbSymbolTableRecord
100
AcDbLayerTableRecord
  2
AM_9
 70
     0
 62
     6
  6
Dashed
370
    25
390
F
347
46
348
0
  0
LAYER
  5
BF
330
2
100
AcDbSymbolTableRecord
100
AcDbLayerTableRecord
  2
AM_4
 70
     0
 62
     7
  6
Continuous
370
    50
390
F
347
46
348
0
  0
LAYER
  5
F8
330
2
100
AcDbSymbolTableRecord
100
AcDbLayerTableRecord
  2
AM_5
 70
     0
 62
     3
  6
Continuous
370
    25
390
F
347
46
348
0
  0
LAYER
  5
236
330
2
100
AcDbSymbolTableRecord
100
AcDbLayerTableRecord
  2
AM_7
 70
     0
 62
     7
  6
Center
370
    25
390
F
347
46
348
0
  0
LAYER
  5
28A
330
2
100
AcDbSymbolTableRecord
100
AcDbLayerTableRecord
  2
ConnectionPoints
 70
     0
 62
     7
  6
Continuous
370
    50
390
F
347
46
348
0
  0
ENDTAB
  0
TABLE
  2
STYLE
  5
3
330
0
100
AcDbSymbolTable
 70
     1
  0
STYLE
  5
11
330
3
100
AcDbSymbolTableRecord
100
AcDbTextStyleTableRecord
  2
Standard
 70
     0
 40
0.0
 41
1.0
 50
0.0
 71
     0
 42
0.2
  3
txt
  4

  0
ENDTAB
  0
TABLE
  2
VIEW
  5
6
330
0
100
AcDbSymbolTable
 70
     0
  0
ENDTAB
  0
TABLE
  2
UCS
  5
7
330
0
100
AcDbSymbolTable
 70
     0
  0
ENDTAB
  0
TABLE
  2
APPID
  5
9
330
0
100
AcDbSymbolTable
 70
     1
  0
APPID
  5
12
330
9
100
AcDbSymbolTableRecord
100
AcDbRegAppTableRecord
  2
ACAD
 70
     0
  0
ENDTAB
  0
TABLE
  2
DIMSTYLE
  5
A
330
0
100
AcDbSymbolTable
 70
     1
100
AcDbDimStyleTable
  0
DIMSTYLE
105
27
330
A
100
AcDbSymbolTableRecord
100
AcDbDimStyleTableRecord
  2
Standard
 70
     0
178
     0
340
11
  0
ENDTAB
  0
TABLE
  2
BLOCK_RECORD
  5
1
330
0
100
AcDbSymbolTable
 70
     8
  0
BLOCK_RECORD
  5
1F
330
1
100
AcDbSymbolTableRecord
100
AcDbBlockTableRecord
  2
*Model_Space
340
22
 70
     0
280
     1
281
     0
  0
BLOCK_RECORD
  5
1B
330
1
100
AcDbSymbolTableRecord
100
AcDbBlockTableRecord
  2
*Paper_Space
340
1E
 70
     0
280
     1
281
     0
  0
BLOCK_RECORD
  5
23
330
1
100
AcDbSymbolTableRecord
100
AcDbBlockTableRecord
  2
*Paper_Space0
340
26
 70
     0
280
     1
281
     0
  0
BLOCK_RECORD
  5
6E
330
1
100
AcDbSymbolTableRecord
100
AcDbBlockTableRecord
  2
1_071279_4
340
0
102
{BLKREFS
331
6F
102
}
 70
     0
280
     1
281
     0
  0
BLOCK_RECORD
  5
90
330
1
100
AcDbSymbolTableRecord
100
AcDbBlockTableRecord
  2
2_405015E_Inch_0_in_071279_4
340
0
102
{BLKREFS
331
91
102
}
 70
     0
280
     1
281
     0
  0
BLOCK_RECORD
  5
E8
330
1
100
AcDbSymbolTableRecord
100
AcDbBlockTableRecord
  2
3_ASME_B18_3_5_16_1_0_in_071279_4
340
0
102
{BLKREFS
331
E9
102
}
 70
     0
280
     1
281
     0
  0
BLOCK_RECORD
  5
FB
330
1
100
AcDbSymbolTableRecord
100
AcDbBlockTableRecord
  2
4_ASME_B18_3_5_16_2_0_in_071279_4
340
0
102
{BLKREFS
331
FC
102
}
 70
     0
280
     1
281
     0
  0
BLOCK_RECORD
  5
11D
330
1
100
AcDbSymbolTableRecord
100
AcDbBlockTableRecord
  2
5_070911LWE_0_in_071279_4
340
0
102
{BLKREFS
331
11E
102
}
 70
     0
280
     1
281
     0
  0
BLOCK_RECORD
  5
156
330
1
100
AcDbSymbolTableRecord
100
AcDbBlockTableRecord
  2
6_070943E_0_in_071279_4
340
0
102
{BLKREFS
331
157
102
}
 70
     0
280
     1
281
     0
  0
BLOCK_RECORD
  5
1CE
330
1
100
AcDbSymbolTableRecord
100
AcDbBlockTableRecord
  2
7_071279H_0_in_071279_4
340
0
102
{BLKREFS
331
1CF
102
}
 70
     0
280
     1
281
     0
  0
ENDTAB
  0
ENDSEC
  0
SECTION
  2
BLOCKS
  0
BLOCK
  5
20
330
1F
100
AcDbEntity
  8
0
100
AcDbBlockBegin
  2
*Model_Space
 70
     0
 10
0.0
 20
0.0
 30
0.0
  3
*Model_Space
  1

  0
ENDBLK
  5
21
330
1F
100
AcDbEntity
  8
0
100
AcDbBlockEnd
  0
BLOCK
  5
1C
330
1B
100
AcDbEntity
 67
     1
  8
0
100
AcDbBlockBegin
  2
*Paper_Space
 70
     0
 10
0.0
 20
0.0
 30
0.0
  3
*Paper_Space
  1

  0
ENDBLK
  5
1D
330
1B
100
AcDbEntity
 67
     1
  8
0
100
AcDbBlockEnd
  0
BLOCK
  5
24
330
23
100
AcDbEntity
  8
0
100
AcDbBlockBegin
  2
*Paper_Space0
 70
     0
 10
0.0
 20
0.0
 30
0.0
  3
*Paper_Space0
  1

  0
ENDBLK
  5
25
330
23
100
AcDbEntity
  8
0
100
AcDbBlockEnd
  0
BLOCK
  5
70
330
6E
100
AcDbEntity
  8
0
100
AcDbBlockBegin
  2
1_071279_4
 70
     2
 10
0.0
 20
0.0
 30
0.0
  3
1_071279_4
  1

  0
ATTDEF
  5
73
330
6E
100
AcDbEntity
  8
AM_6
100
AcDbText
 10
12.375
 20
3.973199999999999
 30
0.0
 40
0.5
  1
Imperial - IP Piloted Flange with Type E Dimensions 1-3/8 thru 2-1/2 inch Trident Seal Expansion
100
AcDbAttributeDefinition
  3

  2
NN
 70
     8
280
     0
  0
ATTDEF
  5
74
330
6E
100
AcDbEntity
  8
AM_6
100
AcDbText
 10
12.375
 20
3.473199999999999
 30
0.0
 40
0.5
  1
Imperial Piloted Flange Bearings
100
AcDbAttributeDefinition
  3

  2
NT
 70
     8
280
     0
  0
ATTDEF
  5
75
330
6E
100
AcDbEntity
  8
AM_6
100
AcDbText
 10
12.375
 20
2.973199999999999
 30
0.0
 40
0.5
  1
071279
100
AcDbAttributeDefinition
  3

  2
NB
 70
     8
280
     0
  0
ATTDEF
  5
76
330
6E
100
AcDbEntity
  8
AM_6
100
AcDbText
 10
12.375
 20
2.473199999999999
 30
0.0
 40
0.5
  1
$PN.
100
AcDbAttributeDefinition
  3

  2
NBSYN
 70
     8
280
     0
  0
ATTDEF
  5
77
330
6E
100
AcDbEntity
  8
AM_6
100
AcDbText
 10
12.375
 20
1.973199999999999
 30
0.0
 40
0.5
  1
071279
100
AcDbAttributeDefinition
  3

  2
LINA
 70
     8
280
     0
  0
ATTDEF
  5
78
330
6E
100
AcDbEntity
  8
AM_6
100
AcDbText
 10
12.375
 20
1.473199999999999
 30
0.0
 40
0.5
  1
5
100
AcDbAttributeDefinition
  3

  2
SS
 70
     8
280
     0
  0
ATTDEF
  5
79
330
6E
100
AcDbEntity
  8
AM_6
100
AcDbText
 10
12.375
 20
0.9731999999999994
 30
0.0
 40
0.5
  1
Expansion
100
AcDbAttributeDefinition
  3

  2
TYPE
 70
     8
280
     0
  0
ATTDEF
  5
7A
330
6E
100
AcDbEntity
  8
AM_6
100
AcDbText
 10
12.375
 20
0.4731999999999994
 30
0.0
 40
0.5
  1
071279
100
AcDbAttributeDefinition
  3

  2
PN
 70
     8
280
     0
  0
ATTDEF
  5
7B
330
6E
100
AcDbEntity
  8
AM_6
100
AcDbText
 10
12.375
 20
-0.0268000000000006
 30
0.0
 40
0.5
  1
EFC-IP-500RE
100
AcDbAttributeDefinition
  3

  2
DESCRIPTION
 70
     8
280
     0
  0
ATTDEF
  5
7C
330
6E
100
AcDbEntity
  8
AM_6
100
AcDbText
 10
12.375
 20
-0.5268000000000006
 30
0.0
 40
0.5
  1
Contact Seal
100
AcDbAttributeDefinition
  3

  2
ST
 70
     8
280
     0
  0
ATTDEF
  5
7D
330
6E
100
AcDbEntity
  8
AM_6
100
AcDbText
 10
12.375
 20
-1.026800000000001
 30
0.0
 40
0.5
  1
5.98
100
AcDbAttributeDefinition
  3

  2
A
 70
     8
280
     0
  0
ATTDEF
  5
7E
330
6E
100
AcDbEntity
  8
AM_6
100
AcDbText
 10
12.375
 20
-1.526800000000001
 30
0.0
 40
0.5
  1
14.75
100
AcDbAttributeDefinition
  3

  2
B
 70
     8
280
     0
  0
ATTDEF
  5
7F
330
6E
100
AcDbEntity
  8
AM_6
100
AcDbText
 10
12.375
 20
-2.026800000000001
 30
0.0
 40
0.5
  1
4.88
100
AcDbAttributeDefinition
  3

  2
C
 70
     8
280
     0
  0
ATTDEF
  5
80
330
6E
100
AcDbEntity
  8
AM_6
100
AcDbText
 10
12.375
 20
-2.526800000000001
 30
0.0
 40
0.5
  1
6.38
100
AcDbAttributeDefinition
  3

  2
D
 70
     8
280
     0
  0
ATTDEF
  5
81
330
6E
100
AcDbEntity
  8
AM_6
100
AcDbText
 10
12.375
 20
-3.026800000000001
 30
0.0
 40
0.5
  1
12.75
100
AcDbAttributeDefinition
  3

  2
DD
 70
     8
280
     0
  0
ATTDEF
  5
82
330
6E
100
AcDbEntity
  8
AM_6
100
AcDbText
 10
12.375
 20
-3.526800000000001
 30
0.0
 40
0.5
  1
1.7
100
AcDbAttributeDefinition
  3

  2
E
 70
     8
280
     0
  0
ATTDEF
  5
83
330
6E
100
AcDbEntity
  8
AM_6
100
AcDbText
 10
12.375
 20
-4.026800000000001
 30
0.0
 40
0.5
  1
7/8
100
AcDbAttributeDefinition
  3

  2
F
 70
     8
280
     0
  0
ATTDEF
  5
84
330
6E
100
AcDbEntity
  8
AM_6
100
AcDbText
 10
12.375
 20
-4.526800000000001
 30
0.0
 40
0.5
  1
3.4
100
AcDbAttributeDefinition
  3

  2
G
 70
     8
280
     0
  0
ATTDEF
  5
85
330
6E
100
AcDbEntity
  8
AM_6
100
AcDbText
 10
12.375
 20
-5.026800000000001
 30
0.0
 40
0.5
  1
1.25
100
AcDbAttributeDefinition
  3

  2
H
 70
     8
280
     0
  0
ATTDEF
  5
86
330
6E
100
AcDbEntity
  8
AM_6
100
AcDbText
 10
12.375
 20
-5.526800000000001
 30
0.0
 40
0.5
  1
11.000
100
AcDbAttributeDefinition
  3

  2
K
 70
     8
280
     0
  0
ATTDEF
  5
87
330
6E
100
AcDbEntity
  8
AM_6
100
AcDbText
 10
12.375
 20
-6.026800000000001
 30
0.0
 40
0.5
  1
7.63
100
AcDbAttributeDefinition
  3

  2
L
 70
     8
280
     0
  0
ATTDEF
  5
88
330
6E
100
AcDbEntity
  8
AM_6
100
AcDbText
 10
12.375
 20
-6.526800000000001
 30
0.0
 40
0.5
  1
3/4-10
100
AcDbAttributeDefinition
  3

  2
M
 70
     8
280
     0
  0
ATTDEF
  5
89
330
6E
100
AcDbEntity
  8
AM_6
100
AcDbText
 10
12.375
 20
-7.026800000000001
 30
0.0
 40
0.5
  1
6.41
100
AcDbAttributeDefinition
  3

  2
N
 70
     8
280
     0
  0
ATTDEF
  5
8A
330
6E
100
AcDbEntity
  8
AM_6
100
AcDbText
 10
12.375
 20
-7.526800000000001
 30
0.0
 40
0.5
  1
2.59
100
AcDbAttributeDefinition
  3

  2
P
 70
     8
280
     0
  0
ATTDEF
  5
8B
330
6E
100
AcDbEntity
  8
AM_6
100
AcDbText
 10
12.375
 20
-8.026800000000001
 30
0.0
 40
0.5
  1
3.01
100
AcDbAttributeDefinition
  3

  2
Q
 70
     8
280
     0
  0
ATTDEF
  5
8C
330
6E
100
AcDbEntity
  8
AM_6
100
AcDbText
 10
12.375
 20
-8.526800000000001
 30
0.0
 40
0.5
  1
0.38
100
AcDbAttributeDefinition
  3

  2
X
 70
     8
280
     0
  0
ATTDEF
  5
8D
330
6E
100
AcDbEntity
  8
AM_6
100
AcDbText
 10
12.375
 20
-9.026800000000001
 30
0.0
 40
0.5
  1
0.036
100
AcDbAttributeDefinition
  3

  2
Y
 70
     8
280
     0
  0
ATTDEF
  5
8E
330
6E
100
AcDbEntity
  8
AM_6
100
AcDbText
 10
12.375
 20
-9.526800000000001
 30
0.0
 40
0.5
  1
5.84
100
AcDbAttributeDefinition
  3

  2
Z
 70
     8
280
     0
  0
ATTDEF
  5
8F
330
6E
100
AcDbEntity
  8
AM_6
100
AcDbText
 10
12.375
 20
-10.0268
 30
0.0
 40
0.5
  1
baldor
100
AcDbAttributeDefinition
  3

  2
COMPANY
 70
     8
280
     0
  0
INSERT
  5
91
330
6E
100
AcDbEntity
  8
0
100
AcDbBlockReference
  2
2_405015E_Inch_0_in_071279_4
 10
0.0
 20
0.0
 30
0.0
  0
INSERT
  5
E9
330
6E
100
AcDbEntity
  8
0
100
AcDbBlockReference
  2
3_ASME_B18_3_5_16_1_0_in_071279_4
 10
0.0
 20
0.0
 30
0.0
  0
INSERT
  5
FC
330
6E
100
AcDbEntity
  8
0
100
AcDbBlockReference
  2
4_ASME_B18_3_5_16_2_0_in_071279_4
 10
0.0
 20
0.0
 30
0.0
  0
INSERT
  5
11E
330
6E
100
AcDbEntity
  8
0
100
AcDbBlockReference
  2
5_070911LWE_0_in_071279_4
 10
0.0
 20
0.0
 30
0.0
  0
INSERT
  5
157
330
6E
100
AcDbEntity
  8
0
100
AcDbBlockReference
  2
6_070943E_0_in_071279_4
 10
0.0
 20
0.0
 30
0.0
  0
INSERT
  5
1CF
330
6E
100
AcDbEntity
  8
0
100
AcDbBlockReference
  2
7_071279H_0_in_071279_4
 10
0.0
 20
0.0
 30
0.0
  0
ENDBLK
  5
71
330
6E
100
AcDbEntity
  8
0
100
AcDbBlockEnd
  0
BLOCK
  5
92
330
90
100
AcDbEntity
  8
0
100
AcDbBlockBegin
  2
2_405015E_Inch_0_in_071279_4
 70
     2
 10
0.0
 20
0.0
 30
0.0
  3
2_405015E_Inch_0_in_071279_4
  1

  0
ATTDEF
  5
94
330
90
100
AcDbEntity
  8
AM_6
100
AcDbText
 10
5.252590742770462
 20
-1.124051831760988
 30
0.0
 40
0.5
  1
405015E -Inch
100
AcDbAttributeDefinition
  3

  2
NN
 70
     8
280
     0
  0
ATTDEF
  5
95
330
90
100
AcDbEntity
  8
AM_6
100
AcDbText
 10
5.252590742770462
 20
-1.624051831760988
 30
0.0
 40
0.5
  1
Grease Fitting
100
AcDbAttributeDefinition
  3

  2
NT
 70
     8
280
     0
  0
ATTDEF
  5
96
330
90
100
AcDbEntity
  8
AM_6
100
AcDbText
 10
5.252590742770462
 20
-2.124051831760988
 30
0.0
 40
0.5
  1
405015E-Inch
100
AcDbAttributeDefinition
  3

  2
NB
 70
     8
280
     0
  0
ATTDEF
  5
97
330
90
100
AcDbEntity
  8
AM_6
100
AcDbText
 10
5.252590742770462
 20
-2.624051831760988
 30
0.0
 40
0.5
  1
$MN.-Inch
100
AcDbAttributeDefinition
  3

  2
NBSYN
 70
     8
280
     0
  0
ATTDEF
  5
98
330
90
100
AcDbEntity
  8
AM_6
100
AcDbText
 10
5.252590742770462
 20
-3.124051831760988
 30
0.0
 40
0.5
  1
405015E
100
AcDbAttributeDefinition
  3

  2
LINA
 70
     8
280
     0
  0
ATTDEF
  5
99
330
90
100
AcDbEntity
  8
AM_6
100
AcDbText
 10
5.252590742770462
 20
-3.624051831760988
 30
0.0
 40
0.5
  1
405015E
100
AcDbAttributeDefinition
  3

  2
MN
 70
     8
280
     0
  0
ATTDEF
  5
9A
330
90
100
AcDbEntity
  8
AM_6
100
AcDbText
 10
5.252590742770462
 20
-4.124051831760989
 30
0.0
 40
0.5
  1
1/8 x 27PTF
100
AcDbAttributeDefinition
  3

  2
T
 70
     8
280
     0
  0
ATTDEF
  5
9B
330
90
100
AcDbEntity
  8
AM_6
100
AcDbText
 10
5.252590742770462
 20
-4.624051831760989
 30
0.0
 40
0.5
  1
baldor
100
AcDbAttributeDefinition
  3

  2
COMPANY
 70
     8
280
     0
  0
LINE
  5
9E
330
90
100
AcDbEntity
  8
AM_9
100
AcDbLine
 10
0.1262953713852306
 20
-1.622624768689827
 30
0.0
 11
0.1262953713852306
 21
-1.551727771688616
 31
0.0
  0
LINE
  5
9F
330
90
100
AcDbEntity
  8
AM_9
100
AcDbLine
 10
-0.1262953713852306
 20
-1.622624768689827
 30
0.0
 11
-0.1262953713852306
 21
-1.551727771688616
 31
0.0
  0
LWPOLYLINE
  5
A0
330
90
100
AcDbEntity
  8
AM_9
100
AcDbPolyline
 90
        3
 70
     0
 43
0.0
 10
0.1262953713852306
 20
-1.551727771688616
 10
0.0634316146914367
 20
-1.545966039944442
 10
0.0
 20
-1.543875
  0
LWPOLYLINE
  5
A1
330
90
100
AcDbEntity
  8
AM_9
100
AcDbPolyline
 90
        4
 70
     0
 43
0.0
 10
0.0
 20
-1.543875
 10
-0.0483998160558989
 20
-1.545102643592448
 10
-0.0967996321117978
 20
-1.548622908514478
 10
-0.1262953713852306
 20
-1.551727771688616
  0
LWPOLYLINE
  5
A2
330
90
100
AcDbEntity
  8
AM_9
100
AcDbPolyline
 90
        3
 70
     0
 43
0.0
 10
-0.1262953713852306
 20
-1.551727771688616
 10
-0.1577272497321276
 20
-1.518745234807367
 10
-0.1894430570778459
 20
-1.4891875
  0
LWPOLYLINE
  5
A3
330
90
100
AcDbEntity
  8
AM_9
100
AcDbPolyline
 90
        3
 70
     0
 43
0.0
 10
0.1894430570778459
 20
-1.4891875
 10
0.1578692142315383
 20
-1.518603978560769
 10
0.1262953713852306
 20
-1.551727771688616
  0
LWPOLYLINE
  5
A4
330
90
100
AcDbEntity
  8
AM_9
100
AcDbPolyline
 90
        4
 70
     0
 43
0.0
 10
-0.1019822422641935
 20
-1.62523217406613
 10
-0.0967996321117978
 20
-1.625729631863965
 10
-0.0485424412477544
 20
-1.62924273689851
 10
0.0
 20
-1.630477540378444
  0
LINE
  5
A5
330
90
100
AcDbEntity
  8
AM_9
100
AcDbLine
 10
-0.1050087569988762
 20
-1.624931822993173
 30
0.0
 11
-0.1019822422641935
 21
-1.62523217406613
 31
0.0
  0
LINE
  5
A6
330
90
100
AcDbEntity
  8
AM_9
100
AcDbLine
 10
0.101866192704947
 20
-1.625243547533002
 30
0.0
 11
0.1050474083588161
 21
-1.624927940950328
 31
0.0
  0
LWPOLYLINE
  5
A7
330
90
100
AcDbEntity
  8
AM_9
100
AcDbPolyline
 90
        3
 70
     0
 43
0.0
 10
0.0
 20
-1.630477540378444
 10
0.0631476856926153
 20
-1.628404811817674
 10
0.101866192704947
 20
-1.625243547533002
  0
LWPOLYLINE
  5
A8
330
90
100
AcDbEntity
  8
AM_9
100
AcDbPolyline
 90
        3
 70
     0
 43
0.0
 10
-0.1894430570778459
 20
-1.4891875
 10
-0.2210168999241536
 20
-1.463916478560769
 10
-0.2525907427704612
 20
-1.442352771688616
  0
LWPOLYLINE
  5
A9
330
90
100
AcDbEntity
  8
AM_9
100
AcDbPolyline
 90
        3
 70
     0
 43
0.0
 10
0.2525907427704612
 20
-1.442352771688616
 10
0.2211588644235643
 20
-1.463811845081517
 10
0.1894430570778459
 20
-1.4891875
  0
LINE
  5
AA
330
90
100
AcDbEntity
  8
AM_9
100
AcDbLine
 10
-0.1321931418159853
 20
-1.158265934494904
 30
0.0
 11
-0.1621706131788416
 21
-1.179463207778406
 31
0.0
  0
LINE
  5
AB
330
90
100
AcDbEntity
  8
AM_9
100
AcDbLine
 10
0.1621706131788416
 20
-1.179463207778406
 30
0.0
 11
0.1321931418159853
 21
-1.158265934494904
 31
0.0
  0
LINE
  5
AC
330
90
100
AcDbEntity
  8
AM_9
100
AcDbLine
 10
-0.1985852938306408
 20
-1.235007339313555
 30
0.0
 11
-0.2057184028850727
 21
-1.43264379922237
 31
0.0
  0
LINE
  5
AD
330
90
100
AcDbEntity
  8
AM_9
100
AcDbLine
 10
0.2057184028850727
 20
-1.43264379922237
 30
0.0
 11
0.1985852938306408
 21
-1.235007339313555
 31
0.0
  0
LINE
  5
AE
330
90
100
AcDbEntity
  8
AM_9
100
AcDbLine
 10
0.1017810272422101
 20
-1.624935374164287
 30
0.0
 11
0.105
 21
-1.618632979524759
 31
0.0
  0
LINE
  5
AF
330
90
100
AcDbEntity
  8
AM_9
100
AcDbLine
 10
-0.105
 20
-1.618632979524759
 30
0.0
 11
-0.1017810272422101
 21
-1.624935374164287
 31
0.0
  0
ELLIPSE
  5
B0
330
90
100
AcDbEntity
  8
AM_9
100
AcDbEllipse
 10
0.0
 20
-1.61203520777581
 30
0.0
 11
-0.1049999999999993
 21
1.285879139104712E-17
 31
0.0
210
0.0
220
0.0
230
1.0
 40
0.499999999999999
 41
0.0
 42
3.141592653589793
  0
LINE
  5
B1
330
90
100
AcDbEntity
  8
AM_9
100
AcDbLine
 10
-0.105
 20
-1.630273436588269
 30
0.0
 11
-0.105
 21
-1.638015969889343
 31
0.0
  0
LINE
  5
B2
330
90
100
AcDbEntity
  8
AM_9
100
AcDbLine
 10
0.105
 20
-1.638015969889343
 30
0.0
 11
0.105
 21
-1.630273436588269
 31
0.0
  0
ELLIPSE
  5
B3
330
90
100
AcDbEntity
  8
AM_9
100
AcDbEllipse
 10
0.0
 20
-1.638015969889343
 30
0.0
 11
-0.1050000000000001
 21
1.285879139104722E-17
 31
0.0
210
0.0
220
0.0
230
1.0
 40
0.4999999999999996
 41
5.990342535451008
 42
9.71762073249796
  0
LINE
  5
B4
330
90
100
AcDbEntity
  8
AM_9
100
AcDbLine
 10
0.0976523208201058
 20
-1.617954707637192
 30
0.0
 11
0.1098343496897826
 21
-1.609167854510342
 31
0.0
  0
LINE
  5
B5
330
90
100
AcDbEntity
  8
AM_9
100
AcDbLine
 10
-0.1098343496897826
 20
-1.609167854510342
 30
0.0
 11
-0.0976523208201058
 21
-1.617954707637192
 31
0.0
  0
ELLIPSE
  5
B6
330
90
100
AcDbEntity
  8
AM_9
100
AcDbEllipse
 10
0.0000000000000021
 20
-1.584108591904748
 30
0.0
 11
-0.1188200907348954
 21
1.455126437928877E-17
 31
0.0
210
0.0
220
0.0
230
1.0
 40
0.4999999999999895
 41
0.2500328930987754
 42
2.891559760491009
  0
ELLIPSE
  5
B7
330
90
100
AcDbEntity
  8
AM_9
100
AcDbEllipse
 10
0.0
 20
-1.536966565666415
 30
0.0
 11
-0.1725340532830156
 21
2.112932760969639E-17
 31
0.0
210
0.0
220
0.0
230
1.0
 40
0.4999999999999986
 41
0.6061451401950855
 42
2.535447513394709
  0
ELLIPSE
  5
B8
330
90
100
AcDbEntity
  8
AM_9
100
AcDbEllipse
 10
-0.0000000000000015
 20
-1.521102540378446
 30
0.0
 11
-0.2187499999999949
 21
2.678914873134773E-17
 31
0.0
210
0.0
220
0.0
230
1.0
 40
0.4999999999999973
 41
1.06524463825123
 42
2.076348015338576
  0
ELLIPSE
  5
B9
330
90
100
AcDbEntity
  8
AM_9
100
AcDbEllipse
 10
0.0000000000067776
 20
-1.521102540368016
 30
0.0
 11
-0.2137500000135507
 21
2.617682533343416E-17
 31
0.0
210
0.0
220
0.0
230
1.0
 40
0.5000000000184293
 41
1.042972124173177
 42
2.098620529361829
  0
ELLIPSE
  5
BA
330
90
100
AcDbEntity
  8
AM_9
100
AcDbEllipse
 10
0.0
 20
-1.689977494116409
 30
0.0
 11
-0.1350000000000005
 21
1.653273178848933E-17
 31
0.0
210
0.0
220
0.0
230
1.0
 40
0.4999999999999973
 41
0.2354336045415639
 42
2.906159049048231
  0
ELLIPSE
  5
BB
330
90
100
AcDbEntity
  8
AM_9
100
AcDbEllipse
 10
0.0000000000000077
 20
-1.205003267997117
 30
0.0
 11
-0.1619028724722612
 21
1.982738345459168E-17
 31
0.0
210
0.0
220
0.0
230
1.0
 40
0.4999999999999915
 41
0.0
 42
6.283185307179586
  0
ELLIPSE
  5
BC
330
90
100
AcDbEntity
  8
AM_9
100
AcDbEllipse
 10
0.0000000000000001
 20
-1.4345
 30
0.0
 11
-0.2187499999999994
 21
2.678914873134828E-17
 31
0.0
210
0.0
220
0.0
230
1.0
 40
0.5000000000000023
 41
0.0
 42
6.283185307179586
  0
ELLIPSE
  5
BD
330
90
100
AcDbEntity
  8
AM_9
100
AcDbEllipse
 10
-0.0000000000005277
 20
-1.434500000007923
 30
0.0
 11
-0.2057518972235973
 21
3.065942211666140E-9
 31
0.0
210
0.0
220
0.0
230
1.0
 40
0.50000000000031
 41
0.0
 42
6.283185307179586
  0
ELLIPSE
  5
BE
330
90
100
AcDbEntity
  8
AM_9
100
AcDbEllipse
 10
-0.0000000000010655
 20
-1.236799177921647
 30
0.0
 11
-0.1986176267822809
 21
2.959633296945886E-9
 31
0.0
210
0.0
220
0.0
230
1.0
 40
0.4999999999999448
 41
0.0
 42
6.283185307179586
  0
LWPOLYLINE
  5
C0
330
90
100
AcDbEntity
  8
AM_4
100
AcDbPolyline
 90
        3
 70
     0
 43
0.0
 10
-0.1894430570778459
 20
-1.575790040378444
 10
-0.1578692142315383
 20
-1.601061061817674
 10
-0.1262953713852306
 20
-1.622624768689827
  0
LINE
  5
C1
330
90
100
AcDbEntity
  8
AM_4
100
AcDbLine
 10
-0.1262953713852306
 20
-1.622624768689827
 30
0.0
 11
-0.1050087569988762
 21
-1.624931822993173
 31
0.0
  0
LWPOLYLINE
  5
C2
330
90
100
AcDbEntity
  8
AM_4
100
AcDbPolyline
 90
        3
 70
     0
 43
0.0
 10
0.1262953713852306
 20
-1.622624768689827
 10
0.1577272497321276
 20
-1.601165695296926
 10
0.1894430570778459
 20
-1.575790040378444
  0
LINE
  5
C3
330
90
100
AcDbEntity
  8
AM_4
100
AcDbLine
 10
0.1050474083588161
 20
-1.624927940950328
 30
0.0
 11
0.1262953713852306
 21
-1.622624768689827
 31
0.0
  0
LWPOLYLINE
  5
C4
330
90
100
AcDbEntity
  8
AM_4
100
AcDbPolyline
 90
        3
 70
     0
 43
0.0
 10
-0.2525907427704612
 20
-1.513249768689827
 10
-0.2211588644235643
 20
-1.546232305571076
 10
-0.1894430570778459
 20
-1.575790040378444
  0
LWPOLYLINE
  5
C5
330
90
100
AcDbEntity
  8
AM_4
100
AcDbPolyline
 90
        3
 70
     0
 43
0.0
 10
0.1894430570778459
 20
-1.575790040378444
 10
0.2210168999241535
 20
-1.546373561817674
 10
0.2525907427704612
 20
-1.513249768689827
  0
LINE
  5
C6
330
90
100
AcDbEntity
  8
AM_4
100
AcDbLine
 10
0.105
 20
-1.618632979524759
 30
0.0
 11
0.1151252948555658
 21
-1.598808765769945
 31
0.0
  0
LINE
  5
C7
330
90
100
AcDbEntity
  8
AM_4
100
AcDbLine
 10
-0.1151252948555658
 20
-1.598808765769945
 30
0.0
 11
-0.105
 21
-1.618632979524759
 31
0.0
  0
ELLIPSE
  5
C8
330
90
100
AcDbEntity
  8
AM_4
100
AcDbEllipse
 10
0.0000000000000016
 20
-1.584108591904778
 30
0.0
 11
-0.118820090734896
 21
1.455126437928885E-17
 31
0.0
210
0.0
220
0.0
230
1.0
 40
0.4999999999999661
 41
2.891559760491496
 42
6.533218200277878
  0
ELLIPSE
  5
C9
330
90
100
AcDbEntity
  8
AM_4
100
AcDbEllipse
 10
0.0
 20
-1.61203520777581
 30
0.0
 11
-0.1050000000000002
 21
1.285879139104723E-17
 31
0.0
210
0.0
220
0.0
230
1.0
 40
0.5000000000000012
 41
3.141592653589793
 42
6.283185307179586
  0
LINE
  5
CA
330
90
100
AcDbEntity
  8
AM_4
100
AcDbLine
 10
-0.105
 20
-1.61203520777581
 30
0.0
 11
-0.105
 21
-1.630273436588269
 31
0.0
  0
LINE
  5
CB
330
90
100
AcDbEntity
  8
AM_4
100
AcDbLine
 10
0.105
 20
-1.630273436588269
 30
0.0
 11
0.105
 21
-1.61203520777581
 31
0.0
  0
LINE
  5
CC
330
90
100
AcDbEntity
  8
AM_4
100
AcDbLine
 10
0.1098343496897826
 20
-1.609167854510342
 30
0.0
 11
0.1417971541629018
 21
-1.586113199868485
 31
0.0
  0
LINE
  5
CD
330
90
100
AcDbEntity
  8
AM_4
100
AcDbLine
 10
-0.1417971541629018
 20
-1.586113199868485
 30
0.0
 11
-0.1098343496897826
 21
-1.609167854510342
 31
0.0
  0
ELLIPSE
  5
CE
330
90
100
AcDbEntity
  8
AM_4
100
AcDbEllipse
 10
-0.0000000000000032
 20
-1.536966565666413
 30
0.0
 11
-0.1725340532830185
 21
2.570957760527487E-9
 31
0.0
210
0.0
220
0.0
230
1.0
 40
0.5000000000000017
 41
2.535447535942501
 42
6.889330469922486
  0
LWPOLYLINE
  5
CF
330
90
100
AcDbEntity
  8
AM_4
100
AcDbPolyline
 90
        3
 70
     0
 43
0.0
 10
0.2525907427704612
 20
-1.513249768689827
 10
0.2211588644235643
 20
-1.491790695296926
 10
0.1894430570778459
 20
-1.466415040378444
  0
LINE
  5
D0
330
90
100
AcDbEntity
  8
AM_4
100
AcDbLine
 10
0.2525907427704612
 20
-1.513249768689827
 30
0.0
 11
0.2525907427704612
 21
-1.442352771688616
 31
0.0
  0
LWPOLYLINE
  5
D1
330
90
100
AcDbEntity
  8
AM_4
100
AcDbPolyline
 90
        3
 70
     0
 43
0.0
 10
0.1894430570778459
 20
-1.3798125
 10
0.2210168999241536
 20
-1.409228978560769
 10
0.2525907427704612
 20
-1.442352771688616
  0
LWPOLYLINE
  5
D2
330
90
100
AcDbEntity
  8
AM_4
100
AcDbPolyline
 90
        3
 70
     0
 43
0.0
 10
0.1262953713852306
 20
-1.332977771688616
 10
0.1577272497321276
 20
-1.354436845081517
 10
0.1894430570778459
 20
-1.3798125
  0
LINE
  5
D3
330
90
100
AcDbEntity
  8
AM_4
100
AcDbLine
 10
-0.2525907427704612
 20
-1.513249768689827
 30
0.0
 11
-0.2525907427704612
 21
-1.442352771688616
 31
0.0
  0
LWPOLYLINE
  5
D4
330
90
100
AcDbEntity
  8
AM_4
100
AcDbPolyline
 90
        3
 70
     0
 43
0.0
 10
-0.1894430570778459
 20
-1.466415040378444
 10
-0.2210168999241536
 20
-1.491686061817674
 10
-0.2525907427704612
 20
-1.513249768689827
  0
LWPOLYLINE
  5
D5
330
90
100
AcDbEntity
  8
AM_4
100
AcDbPolyline
 90
        3
 70
     0
 43
0.0
 10
-0.1262953713852306
 20
-1.403874768689827
 10
-0.1577272497321276
 20
-1.436857305571076
 10
-0.1894430570778459
 20
-1.466415040378444
  0
LWPOLYLINE
  5
D6
330
90
100
AcDbEntity
  8
AM_4
100
AcDbPolyline
 90
        3
 70
     0
 43
0.0
 10
-0.1894430570778459
 20
-1.3798125
 10
-0.1578692142315383
 20
-1.354541478560769
 10
-0.1262953713852306
 20
-1.332977771688616
  0
LWPOLYLINE
  5
D7
330
90
100
AcDbEntity
  8
AM_4
100
AcDbPolyline
 90
        3
 70
     0
 43
0.0
 10
-0.2525907427704612
 20
-1.442352771688616
 10
-0.2211588644235643
 20
-1.409370234807367
 10
-0.1894430570778459
 20
-1.3798125
  0
ELLIPSE
  5
D8
330
90
100
AcDbEntity
  8
AM_4
100
AcDbEllipse
 10
0.0000000000000017
 20
-1.521102540378446
 30
0.0
 11
-0.2187500000000029
 21
2.678914873134871E-17
 31
0.0
210
0.0
220
0.0
230
1.0
 40
0.5000000000000024
 41
2.076348015338565
 42
7.348429945430801
  0
LINE
  5
D9
330
90
100
AcDbEntity
  8
AM_4
100
AcDbLine
 10
-0.1262953713852306
 20
-1.403874768689827
 30
0.0
 11
-0.1262953713852306
 21
-1.332977771688616
 31
0.0
  0
LWPOLYLINE
  5
DA
330
90
100
AcDbEntity
  8
AM_4
100
AcDbPolyline
 90
        4
 70
     0
 43
0.0
 10
0.0
 20
-1.411727540378444
 10
-0.0483998160558989
 20
-1.410499896785996
 10
-0.0967996321117978
 20
-1.406979631863965
 10
-0.1262953713852306
 20
-1.403874768689827
  0
LINE
  5
DB
330
90
100
AcDbEntity
  8
AM_4
100
AcDbLine
 10
0.1262953713852306
 20
-1.403874768689827
 30
0.0
 11
0.1262953713852306
 21
-1.332977771688616
 31
0.0
  0
LWPOLYLINE
  5
DC
330
90
100
AcDbEntity
  8
AM_4
100
AcDbPolyline
 90
        3
 70
     0
 43
0.0
 10
0.0
 20
-1.325125
 10
0.0631476856926153
 20
-1.327197728560769
 10
0.1262953713852306
 20
-1.332977771688616
  0
LWPOLYLINE
  5
DD
330
90
100
AcDbEntity
  8
AM_4
100
AcDbPolyline
 90
        4
 70
     0
 43
0.0
 10
-0.1262953713852306
 20
-1.332977771688616
 10
-0.0967996321117978
 20
-1.329872908514478
 10
-0.0485424412477544
 20
-1.326359803479933
 10
0.0
 20
-1.325125
  0
LWPOLYLINE
  5
DE
330
90
100
AcDbEntity
  8
AM_4
100
AcDbPolyline
 90
        3
 70
     0
 43
0.0
 10
0.1894430570778459
 20
-1.466415040378444
 10
0.1578692142315383
 20
-1.436998561817674
 10
0.1262953713852306
 20
-1.403874768689827
  0
LWPOLYLINE
  5
DF
330
90
100
AcDbEntity
  8
AM_4
100
AcDbPolyline
 90
        3
 70
     0
 43
0.0
 10
0.1262953713852306
 20
-1.403874768689827
 10
0.0634316146914367
 20
-1.409636500434001
 10
0.0
 20
-1.411727540378444
  0
ELLIPSE
  5
E0
330
90
100
AcDbEntity
  8
AM_4
100
AcDbEllipse
 10
0.0000000000000019
 20
-1.521102540378447
 30
0.0
 11
-0.2137499999999982
 21
2.617682533177446E-17
 31
0.0
210
0.0
220
0.0
230
1.0
 40
0.499999999999994
 41
2.098620529422327
 42
7.326157431347037
  0
LINE
  5
E1
330
90
100
AcDbEntity
  8
AM_4
100
AcDbLine
 10
-0.1005298463144155
 20
-1.622860525323115
 30
0.0
 11
-0.1292526595471057
 21
-1.670491922531259
 31
0.0
  0
LINE
  5
E2
330
90
100
AcDbEntity
  8
AM_4
100
AcDbLine
 10
0.1292526595471057
 20
-1.670491922531259
 30
0.0
 11
0.1005298463144155
 21
-1.622860525323115
 31
0.0
  0
ELLIPSE
  5
E3
330
90
100
AcDbEntity
  8
AM_4
100
AcDbEllipse
 10
0.0
 20
-1.638015969889343
 30
0.0
 11
-0.1049999999999999
 21
1.564621938212795E-9
 31
0.0
210
0.0
220
0.0
230
1.0
 40
0.5000000000000108
 41
3.434435453258047
 42
5.990342563390688
  0
LINE
  5
E4
330
90
100
AcDbEntity
  8
AM_4
100
AcDbLine
 10
0.0998453562378797
 20
-1.771235088860363
 30
0.0
 11
0.1312757938985219
 21
-1.705722858007987
 31
0.0
  0
LINE
  5
E5
330
90
100
AcDbEntity
  8
AM_4
100
AcDbLine
 10
-0.1312757938985219
 20
-1.705722858007987
 30
0.0
 11
-0.0998453562378797
 21
-1.771235088860363
 31
0.0
  0
ELLIPSE
  5
E6
330
90
100
AcDbEntity
  8
AM_4
100
AcDbEllipse
 10
-0.0000000000000089
 20
-1.689977494116393
 30
0.0
 11
-0.1350000000000089
 21
1.653273178849036E-17
 31
0.0
210
0.0
220
0.0
230
1.0
 40
0.5000000000000173
 41
2.90615904904803
 42
6.518618911721381
  0
ELLIPSE
  5
E7
330
90
100
AcDbEntity
  8
AM_4
100
AcDbEllipse
 10
-0.0000000000000002
 20
-1.759259526419164
 30
0.0
 11
-0.1026779019331873
 21
1.257441639456436E-17
 31
0.0
210
0.0
220
0.0
230
1.0
 40
0.5000000000000017
 41
0.0
 42
6.283185307179586
  0
ENDBLK
  5
93
330
90
100
AcDbEntity
  8
0
100
AcDbBlockEnd
  0
BLOCK
  5
EA
330
E8
100
AcDbEntity
  8
0
100
AcDbBlockBegin
  2
3_ASME_B18_3_5_16_1_0_in_071279_4
 70
     2
 10
0.0
 20
0.0
 30
0.0
  3
3_ASME_B18_3_5_16_1_0_in_071279_4
  1

  0
ATTDEF
  5
EC
330
E8
100
AcDbEntity
  8
AM_6
100
AcDbText
 10
5.15625
 20
-2.588833333333333
 30
0.0
 40
0.5
  1
ANSI/ASME B18.3-1998
100
AcDbAttributeDefinition
  3

  2
NN
 70
     8
280
     0
  0
ATTDEF
  5
ED
330
E8
100
AcDbEntity
  8
AM_6
100
AcDbText
 10
5.15625
 20
-3.088833333333333
 30
0.0
 40
0.5
  1
Socket Button Head Cap Screws
100
AcDbAttributeDefinition
  3

  2
NT
 70
     8
280
     0
  0
ATTDEF
  5
EE
330
E8
100
AcDbEntity
  8
AM_6
100
AcDbText
 10
5.15625
 20
-3.588833333333333
 30
0.0
 40
0.5
  1
ASME B18.3-5/16
100
AcDbAttributeDefinition
  3

  2
NB
 70
     8
280
     0
  0
ATTDEF
  5
EF
330
E8
100
AcDbEntity
  8
AM_6
100
AcDbText
 10
5.15625
 20
-4.088833333333334
 30
0.0
 40
0.5
  1
ASME B18.3-$NS.
100
AcDbAttributeDefinition
  3

  2
NBSYN
 70
     8
280
     0
  0
ATTDEF
  5
F0
330
E8
100
AcDbEntity
  8
AM_6
100
AcDbText
 10
5.15625
 20
-4.588833333333334
 30
0.0
 40
0.5
  1
ASME B18.3-5/16
100
AcDbAttributeDefinition
  3

  2
LINA
 70
     8
280
     0
  0
ATTDEF
  5
F1
330
E8
100
AcDbEntity
  8
AM_6
100
AcDbText
 10
5.15625
 20
-5.088833333333334
 30
0.0
 40
0.5
  1
5/16
100
AcDbAttributeDefinition
  3

  2
NS
 70
     8
280
     0
  0
ATTDEF
  5
F2
330
E8
100
AcDbEntity
  8
AM_6
100
AcDbText
 10
5.15625
 20
-5.588833333333334
 30
0.0
 40
0.5
  1
0.547
100
AcDbAttributeDefinition
  3

  2
A
 70
     8
280
     0
  0
ATTDEF
  5
F3
330
E8
100
AcDbEntity
  8
AM_6
100
AcDbText
 10
5.15625
 20
-6.088833333333334
 30
0.0
 40
0.5
  1
0.166
100
AcDbAttributeDefinition
  3

  2
H
 70
     8
280
     0
  0
ATTDEF
  5
F4
330
E8
100
AcDbEntity
  8
AM_6
100
AcDbText
 10
5.15625
 20
-6.588833333333334
 30
0.0
 40
0.5
  1
1.000
100
AcDbAttributeDefinition
  3

  2
L
 70
     8
280
     0
  0
ATTDEF
  5
F5
330
E8
100
AcDbEntity
  8
AM_6
100
AcDbText
 10
5.15625
 20
-7.088833333333334
 30
0.0
 40
0.5
  1
0.031
100
AcDbAttributeDefinition
  3

  2
S
 70
     8
280
     0
  0
ATTDEF
  5
F6
330
E8
100
AcDbEntity
  8
AM_6
100
AcDbText
 10
5.15625
 20
-7.588833333333334
 30
0.0
 40
0.5
  1
0.187500
100
AcDbAttributeDefinition
  3

  2
J
 70
     8
280
     0
  0
ATTDEF
  5
F7
330
E8
100
AcDbEntity
  8
AM_6
100
AcDbText
 10
5.15625
 20
-8.088833333333334
 30
0.0
 40
0.5
  1
baldor
100
AcDbAttributeDefinition
  3

  2
COMPANY
 70
     8
280
     0
  0
LINE
  5
F9
330
E8
100
AcDbEntity
  8
AM_5
100
AcDbLine
 10
0.15625
 20
-2.588833333333334
 30
0.0
 11
-0.15625
 21
-2.588833333333333
 31
0.0
  0
LINE
  5
FA
330
E8
100
AcDbEntity
  8
AM_5
100
AcDbLine
 10
0.13765
 20
-2.588833333333334
 30
0.0
 11
0.1562500000000001
 21
-2.621049478354115
 31
0.0
  0
ENDBLK
  5
EB
330
E8
100
AcDbEntity
  8
0
100
AcDbBlockEnd
  0
BLOCK
  5
FD
330
FB
100
AcDbEntity
  8
0
100
AcDbBlockBegin
  2
4_ASME_B18_3_5_16_2_0_in_071279_4
 70
     2
 10
0.0
 20
0.0
 30
0.0
  3
4_ASME_B18_3_5_16_2_0_in_071279_4
  1

  0
ATTDEF
  5
FF
330
FB
100
AcDbEntity
  8
AM_6
100
AcDbText
 10
5.2735
 20
-1.668833333333334
 30
0.0
 40
0.5
  1
ANSI/ASME B18.3-1998
100
AcDbAttributeDefinition
  3

  2
NN
 70
     8
280
     0
  0
ATTDEF
  5
100
330
FB
100
AcDbEntity
  8
AM_6
100
AcDbText
 10
5.2735
 20
-2.168833333333334
 30
0.0
 40
0.5
  1
Socket Button Head Cap Screws
100
AcDbAttributeDefinition
  3

  2
NT
 70
     8
280
     0
  0
ATTDEF
  5
101
330
FB
100
AcDbEntity
  8
AM_6
100
AcDbText
 10
5.2735
 20
-2.668833333333334
 30
0.0
 40
0.5
  1
ASME B18.3-5/16
100
AcDbAttributeDefinition
  3

  2
NB
 70
     8
280
     0
  0
ATTDEF
  5
102
330
FB
100
AcDbEntity
  8
AM_6
100
AcDbText
 10
5.2735
 20
-3.168833333333334
 30
0.0
 40
0.5
  1
ASME B18.3-$NS.
100
AcDbAttributeDefinition
  3

  2
NBSYN
 70
     8
280
     0
  0
ATTDEF
  5
103
330
FB
100
AcDbEntity
  8
AM_6
100
AcDbText
 10
5.2735
 20
-3.668833333333334
 30
0.0
 40
0.5
  1
ASME B18.3-5/16
100
AcDbAttributeDefinition
  3

  2
LINA
 70
     8
280
     0
  0
ATTDEF
  5
104
330
FB
100
AcDbEntity
  8
AM_6
100
AcDbText
 10
5.2735
 20
-4.168833333333334
 30
0.0
 40
0.5
  1
5/16
100
AcDbAttributeDefinition
  3

  2
NS
 70
     8
280
     0
  0
ATTDEF
  5
105
330
FB
100
AcDbEntity
  8
AM_6
100
AcDbText
 10
5.2735
 20
-4.668833333333334
 30
0.0
 40
0.5
  1
0.547
100
AcDbAttributeDefinition
  3

  2
A
 70
     8
280
     0
  0
ATTDEF
  5
106
330
FB
100
AcDbEntity
  8
AM_6
100
AcDbText
 10
5.2735
 20
-5.168833333333334
 30
0.0
 40
0.5
  1
0.166
100
AcDbAttributeDefinition
  3

  2
H
 70
     8
280
     0
  0
ATTDEF
  5
107
330
FB
100
AcDbEntity
  8
AM_6
100
AcDbText
 10
5.2735
 20
-5.668833333333334
 30
0.0
 40
0.5
  1
1.000
100
AcDbAttributeDefinition
  3

  2
L
 70
     8
280
     0
  0
ATTDEF
  5
108
330
FB
100
AcDbEntity
  8
AM_6
100
AcDbText
 10
5.2735
 20
-6.168833333333334
 30
0.0
 40
0.5
  1
0.031
100
AcDbAttributeDefinition
  3

  2
S
 70
     8
280
     0
  0
ATTDEF
  5
109
330
FB
100
AcDbEntity
  8
AM_6
100
AcDbText
 10
5.2735
 20
-6.668833333333334
 30
0.0
 40
0.5
  1
0.187500
100
AcDbAttributeDefinition
  3

  2
J
 70
     8
280
     0
  0
ATTDEF
  5
10A
330
FB
100
AcDbEntity
  8
AM_6
100
AcDbText
 10
5.2735
 20
-7.168833333333334
 30
0.0
 40
0.5
  1
baldor
100
AcDbAttributeDefinition
  3

  2
COMPANY
 70
     8
280
     0
  0
LINE
  5
10B
330
FB
100
AcDbEntity
  8
AM_9
100
AcDbLine
 10
0.0
 20
-2.730833333333333
 30
0.0
 11
0.0
 21
-2.834833333333333
 31
0.0
  0
LINE
  5
10C
330
FB
100
AcDbEntity
  8
AM_9
100
AcDbLine
 10
0.09375
 20
-2.730833333333333
 30
0.0
 11
0.09375
 21
-2.834833333333333
 31
0.0
  0
LINE
  5
10D
330
FB
100
AcDbEntity
  8
AM_9
100
AcDbLine
 10
-0.09375
 20
-2.730833333333333
 30
0.0
 11
-0.09375
 21
-2.834833333333333
 31
0.0
  0
LINE
  5
10E
330
FB
100
AcDbEntity
  8
AM_9
100
AcDbLine
 10
-0.09375
 20
-2.730833333333333
 30
0.0
 11
0.09375
 21
-2.730833333333333
 31
0.0
  0
LINE
  5
10F
330
FB
100
AcDbEntity
  8
AM_9
100
AcDbLine
 10
0.15625
 20
-2.598833333333333
 30
0.0
 11
0.15625
 21
-1.687433333333333
 31
0.0
  0
LINE
  5
110
330
FB
100
AcDbEntity
  8
AM_9
100
AcDbLine
 10
-0.15625
 20
-1.687433333333333
 30
0.0
 11
-0.15625
 21
-2.598833333333333
 31
0.0
  0
LINE
  5
111
330
FB
100
AcDbEntity
  8
AM_9
100
AcDbLine
 10
-0.13765
 20
-1.668833333333334
 30
0.0
 11
-0.15625
 21
-1.687433333333333
 31
0.0
  0
LINE
  5
112
330
FB
100
AcDbEntity
  8
AM_9
100
AcDbLine
 10
0.15625
 20
-1.687433333333333
 30
0.0
 11
0.13765
 21
-1.668833333333334
 31
0.0
  0
LINE
  5
113
330
FB
100
AcDbEntity
  8
AM_9
100
AcDbLine
 10
-0.13765
 20
-1.668833333333334
 30
0.0
 11
0.13765
 21
-1.668833333333334
 31
0.0
  0
LINE
  5
114
330
FB
100
AcDbEntity
  8
AM_9
100
AcDbLine
 10
-0.15625
 20
-1.687433333333333
 30
0.0
 11
0.15625
 21
-1.687433333333333
 31
0.0
  0
LINE
  5
115
330
FB
100
AcDbEntity
  8
AM_5
100
AcDbLine
 10
-0.1562499999999998
 20
-2.588833333333333
 30
0.0
 11
0.1562500000000002
 21
-2.588833333333334
 31
0.0
  0
LINE
  5
116
330
FB
100
AcDbEntity
  8
AM_5
100
AcDbLine
 10
-0.13765
 20
-2.588833333333333
 30
0.0
 11
-0.1562500061726096
 21
-2.621049489045388
 31
0.0
  0
LINE
  5
117
330
FB
100
AcDbEntity
  8
AM_4
100
AcDbLine
 10
0.2735
 20
-2.699833333333333
 30
0.0
 11
0.2735
 21
-2.668833333333334
 31
0.0
  0
LINE
  5
118
330
FB
100
AcDbEntity
  8
AM_4
100
AcDbLine
 10
-0.2735
 20
-2.668833333333334
 30
0.0
 11
-0.2735
 21
-2.699833333333333
 31
0.0
  0
LINE
  5
119
330
FB
100
AcDbEntity
  8
AM_4
100
AcDbLine
 10
-0.1384999971973788
 20
-2.834833333333333
 30
0.0
 11
0.1385
 21
-2.834833333333333
 31
0.0
  0
ARC
  5
11A
330
FB
100
AcDbEntity
  8
AM_4
100
AcDbCircle
 10
0.1385000000000008
 20
-2.699833333333334
 30
0.0
 40
0.1349999999999993
100
AcDbArc
 50
270.0
 51
0.0
  0
ARC
  5
11B
330
FB
100
AcDbEntity
  8
AM_4
100
AcDbCircle
 10
-0.1385000000000005
 20
-2.699833333333333
 30
0.0
 40
0.1349999999999995
100
AcDbArc
 50
180.0
 51
270.0
  0
LINE
  5
11C
330
FB
100
AcDbEntity
  8
AM_4
100
AcDbLine
 10
-0.2735
 20
-2.699833333333333
 30
0.0
 11
0.2735
 21
-2.699833333333333
 31
0.0
  0
ENDBLK
  5
FE
330
FB
100
AcDbEntity
  8
0
100
AcDbBlockEnd
  0
BLOCK
  5
11F
330
11D
100
AcDbEntity
  8
0
100
AcDbBlockBegin
  2
5_070911LWE_0_in_071279_4
 70
     2
 10
0.0
 20
0.0
 30
0.0
  3
5_070911LWE_0_in_071279_4
  1

  0
ATTDEF
  5
121
330
11D
100
AcDbEntity
  8
AM_6
100
AcDbText
 10
8.815000000000001
 20
-2.168833333333333
 30
0.0
 40
0.5
  1
Imperial/E Insert Lockwasher -Inch
100
AcDbAttributeDefinition
  3

  2
NN
 70
     8
280
     0
  0
ATTDEF
  5
122
330
11D
100
AcDbEntity
  8
AM_6
100
AcDbText
 10
8.815000000000001
 20
-2.668833333333333
 30
0.0
 40
0.5
  1
Imperial/E Bearings
100
AcDbAttributeDefinition
  3

  2
NT
 70
     8
280
     0
  0
ATTDEF
  5
123
330
11D
100
AcDbEntity
  8
AM_6
100
AcDbText
 10
8.815000000000001
 20
-3.168833333333333
 30
0.0
 40
0.5
  1
070911LWE
100
AcDbAttributeDefinition
  3

  2
NB
 70
     8
280
     0
  0
ATTDEF
  5
124
330
11D
100
AcDbEntity
  8
AM_6
100
AcDbText
 10
8.815000000000001
 20
-3.668833333333333
 30
0.0
 40
0.5
  1
$PN.LWE
100
AcDbAttributeDefinition
  3

  2
NBSYN
 70
     8
280
     0
  0
ATTDEF
  5
125
330
11D
100
AcDbEntity
  8
AM_6
100
AcDbText
 10
8.815000000000001
 20
-4.168833333333334
 30
0.0
 40
0.5
  1
070911
100
AcDbAttributeDefinition
  3

  2
LINA
 70
     8
280
     0
  0
ATTDEF
  5
126
330
11D
100
AcDbEntity
  8
AM_6
100
AcDbText
 10
8.815000000000001
 20
-4.668833333333334
 30
0.0
 40
0.5
  1
5
100
AcDbAttributeDefinition
  3

  2
SS
 70
     8
280
     0
  0
ATTDEF
  5
127
330
11D
100
AcDbEntity
  8
AM_6
100
AcDbText
 10
8.815000000000001
 20
-5.168833333333334
 30
0.0
 40
0.5
  1
7.630000
100
AcDbAttributeDefinition
  3

  2
E1
 70
     8
280
     0
  0
ATTDEF
  5
128
330
11D
100
AcDbEntity
  8
AM_6
100
AcDbText
 10
8.815000000000001
 20
-5.668833333333334
 30
0.0
 40
0.5
  1
5.000000
100
AcDbAttributeDefinition
  3

  2
SS1
 70
     8
280
     0
  0
ATTDEF
  5
129
330
11D
100
AcDbEntity
  8
AM_6
100
AcDbText
 10
8.815000000000001
 20
-6.168833333333334
 30
0.0
 40
0.5
  1
070911
100
AcDbAttributeDefinition
  3

  2
PN
 70
     8
280
     0
  0
ATTDEF
  5
12A
330
11D
100
AcDbEntity
  8
AM_6
100
AcDbText
 10
8.815000000000001
 20
-6.668833333333334
 30
0.0
 40
0.5
  1
INS-IP-500R
100
AcDbAttributeDefinition
  3

  2
DESCRIPTION
 70
     8
280
     0
  0
ATTDEF
  5
12B
330
11D
100
AcDbEntity
  8
AM_6
100
AcDbText
 10
8.815000000000001
 20
-7.168833333333334
 30
0.0
 40
0.5
  1
9.0551
100
AcDbAttributeDefinition
  3

  2
A
 70
     8
280
     0
  0
ATTDEF
  5
12C
330
11D
100
AcDbEntity
  8
AM_6
100
AcDbText
 10
8.815000000000001
 20
-7.668833333333334
 30
0.0
 40
0.5
  1
2-19/32
100
AcDbAttributeDefinition
  3

  2
B
 70
     8
280
     0
  0
ATTDEF
  5
12D
330
11D
100
AcDbEntity
  8
AM_6
100
AcDbText
 10
8.815000000000001
 20
-8.168833333333334
 30
0.0
 40
0.5
  1
2.593750
100
AcDbAttributeDefinition
  3

  2
B1
 70
     8
280
     0
  0
ATTDEF
  5
12E
330
11D
100
AcDbEntity
  8
AM_6
100
AcDbText
 10
8.815000000000001
 20
-8.668833333333334
 30
0.0
 40
0.5
  1
5-63/64
100
AcDbAttributeDefinition
  3

  2
C
 70
     8
280
     0
  0
ATTDEF
  5
12F
330
11D
100
AcDbEntity
  8
AM_6
100
AcDbText
 10
8.815000000000001
 20
-9.168833333333334
 30
0.0
 40
0.5
  1
5.984375
100
AcDbAttributeDefinition
  3

  2
C1
 70
     8
280
     0
  0
ATTDEF
  5
130
330
11D
100
AcDbEntity
  8
AM_6
100
AcDbText
 10
8.815000000000001
 20
-9.668833333333334
 30
0.0
 40
0.5
  1
2.107
100
AcDbAttributeDefinition
  3

  2
D
 70
     8
280
     0
  0
ATTDEF
  5
131
330
11D
100
AcDbEntity
  8
AM_6
100
AcDbText
 10
8.815000000000001
 20
-10.16883333333333
 30
0.0
 40
0.5
  1
7-5/8
100
AcDbAttributeDefinition
  3

  2
E
 70
     8
280
     0
  0
ATTDEF
  5
132
330
11D
100
AcDbEntity
  8
AM_6
100
AcDbText
 10
8.815000000000001
 20
-10.66883333333333
 30
0.0
 40
0.5
  1
0.3125
100
AcDbAttributeDefinition
  3

  2
NDM
 70
     8
280
     0
  0
ATTDEF
  5
133
330
11D
100
AcDbEntity
  8
AM_6
100
AcDbText
 10
8.815000000000001
 20
-11.16883333333333
 30
0.0
 40
0.5
  1
0.2580
100
AcDbAttributeDefinition
  3

  2
KDM
 70
     8
280
     0
  0
ATTDEF
  5
134
330
11D
100
AcDbEntity
  8
AM_6
100
AcDbText
 10
8.815000000000001
 20
-11.66883333333333
 30
0.0
 40
0.5
  1
6.80
100
AcDbAttributeDefinition
  3

  2
AL
 70
     8
280
     0
  0
ATTDEF
  5
135
330
11D
100
AcDbEntity
  8
AM_6
100
AcDbText
 10
8.815000000000001
 20
-12.16883333333333
 30
0.0
 40
0.5
  1
0.50
100
AcDbAttributeDefinition
  3

  2
BL
 70
     8
280
     0
  0
ATTDEF
  5
136
330
11D
100
AcDbEntity
  8
AM_6
100
AcDbText
 10
8.815000000000001
 20
-12.66883333333333
 30
0.0
 40
0.5
  1
0.07
100
AcDbAttributeDefinition
  3

  2
CL
 70
     8
280
     0
  0
ATTDEF
  5
137
330
11D
100
AcDbEntity
  8
AM_6
100
AcDbText
 10
8.815000000000001
 20
-13.16883333333333
 30
0.0
 40
0.5
  1
0.50
100
AcDbAttributeDefinition
  3

  2
DL
 70
     8
280
     0
  0
ATTDEF
  5
138
330
11D
100
AcDbEntity
  8
AM_6
100
AcDbText
 10
8.815000000000001
 20
-13.66883333333333
 30
0.0
 40
0.5
  1
baldor
100
AcDbAttributeDefinition
  3

  2
COMPANY
 70
     8
280
     0
  0
LINE
  5
139
330
11D
100
AcDbEntity
  8
AM_9
100
AcDbLine
 10
-3.296388888888889
 20
-2.598833333333333
 30
0.0
 11
-3.296388888888889
 21
-2.668833333333334
 31
0.0
  0
LINE
  5
13A
330
11D
100
AcDbEntity
  8
AM_9
100
AcDbLine
 10
-3.45268281476811
 20
-2.598833333333333
 30
0.0
 11
-3.45268281476811
 21
-2.668833333333334
 31
0.0
  0
LINE
  5
13B
330
11D
100
AcDbEntity
  8
AM_9
100
AcDbLine
 10
3.296388888888889
 20
-2.598833333333333
 30
0.0
 11
3.296388888888889
 21
-2.668833333333334
 31
0.0
  0
LINE
  5
13C
330
11D
100
AcDbEntity
  8
AM_9
100
AcDbLine
 10
3.45268281476811
 20
-2.668833333333334
 30
0.0
 11
3.45268281476811
 21
-2.598833333333333
 31
0.0
  0
LINE
  5
13D
330
11D
100
AcDbEntity
  8
AM_9
100
AcDbLine
 10
-2.698182320877612
 20
-2.598833333333333
 30
0.0
 11
-2.698182320877612
 21
-2.668833333333334
 31
0.0
  0
LINE
  5
13E
330
11D
100
AcDbEntity
  8
AM_9
100
AcDbLine
 10
2.698182320877612
 20
-2.598833333333333
 30
0.0
 11
2.698182320877612
 21
-2.668833333333334
 31
0.0
  0
LINE
  5
13F
330
11D
100
AcDbEntity
  8
AM_9
100
AcDbLine
 10
2.018388450530614
 20
-2.598833333333333
 30
0.0
 11
2.018388450530614
 21
-2.668833333333334
 31
0.0
  0
LINE
  5
140
330
11D
100
AcDbEntity
  8
AM_9
100
AcDbLine
 10
-2.018388450530613
 20
-2.598833333333333
 30
0.0
 11
-2.018388450530613
 21
-2.668833333333334
 31
0.0
  0
LINE
  5
141
330
11D
100
AcDbEntity
  8
AM_9
100
AcDbLine
 10
-1.070996888386167
 20
-2.168833333333333
 30
0.0
 11
-1.070996888386167
 21
-2.668833333333334
 31
0.0
  0
LINE
  5
142
330
11D
100
AcDbEntity
  8
AM_9
100
AcDbLine
 10
1.797417581409819
 20
-2.598833333333333
 30
0.0
 11
1.797417581409817
 21
-2.668833333333334
 31
0.0
  0
LINE
  5
143
330
11D
100
AcDbEntity
  8
AM_9
100
AcDbLine
 10
-1.797417581409817
 20
-2.598833333333333
 30
0.0
 11
-1.797417581409817
 21
-2.668833333333334
 31
0.0
  0
LINE
  5
144
330
11D
100
AcDbEntity
  8
AM_9
100
AcDbLine
 10
-1.148657702011688
 20
-2.598833333333333
 30
0.0
 11
-1.148657702011688
 21
-2.668833333333334
 31
0.0
  0
LINE
  5
145
330
11D
100
AcDbEntity
  8
AM_9
100
AcDbLine
 10
-0.9176878188838651
 20
-2.598833333333333
 30
0.0
 11
-0.9176878188838651
 21
-2.668833333333334
 31
0.0
  0
LINE
  5
146
330
11D
100
AcDbEntity
  8
AM_9
100
AcDbLine
 10
-0.8400270052583462
 20
-2.168833333333333
 30
0.0
 11
-1.121409872692203
 21
-2.168833333333333
 31
0.0
  0
LINE
  5
147
330
11D
100
AcDbEntity
  8
AM_9
100
AcDbLine
 10
-0.8400270052583462
 20
-2.168833333333333
 30
0.0
 11
-0.8400270052583462
 21
-2.668833333333334
 31
0.0
  0
LINE
  5
148
330
11D
100
AcDbEntity
  8
AM_9
100
AcDbLine
 10
-0.8904399895643811
 20
-2.598833333333333
 30
0.0
 11
-0.8904399895643811
 21
-2.168833333333333
 31
0.0
  0
LINE
  5
149
330
11D
100
AcDbEntity
  8
AM_9
100
AcDbLine
 10
-1.121409872692203
 20
-2.168833333333333
 30
0.0
 11
-1.121409872692203
 21
-2.598833333333333
 31
0.0
  0
LINE
  5
14A
330
11D
100
AcDbEntity
  8
AM_9
100
AcDbLine
 10
2.220413502200924
 20
-2.598833333333333
 30
0.0
 11
2.220413502200924
 21
-2.668833333333334
 31
0.0
  0
LINE
  5
14B
330
11D
100
AcDbEntity
  8
AM_9
100
AcDbLine
 10
2.44138437132172
 20
-2.598833333333333
 30
0.0
 11
2.44138437132172
 21
-2.668833333333334
 31
0.0
  0
LINE
  5
14C
330
11D
100
AcDbEntity
  8
AM_9
100
AcDbLine
 10
2.487179998856305
 20
-2.668833333333334
 30
0.0
 11
2.487179998856305
 21
-2.598833333333333
 31
0.0
  0
LINE
  5
14D
330
11D
100
AcDbEntity
  8
AM_9
100
AcDbLine
 10
-2.44138437132172
 20
-2.598833333333333
 30
0.0
 11
-2.44138437132172
 21
-2.668833333333334
 31
0.0
  0
LINE
  5
14E
330
11D
100
AcDbEntity
  8
AM_9
100
AcDbLine
 10
-2.220413502200926
 20
-2.598833333333333
 30
0.0
 11
-2.220413502200926
 21
-2.668833333333334
 31
0.0
  0
LINE
  5
14F
330
11D
100
AcDbEntity
  8
AM_9
100
AcDbLine
 10
-2.487179998856304
 20
-2.598833333333333
 30
0.0
 11
-2.487179998856304
 21
-2.668833333333334
 31
0.0
  0
LINE
  5
150
330
11D
100
AcDbEntity
  8
AM_9
100
AcDbLine
 10
-0.1562499999999997
 20
-2.598833333333333
 30
0.0
 11
-0.1562499999999997
 21
-2.668833333333334
 31
0.0
  0
LINE
  5
151
330
11D
100
AcDbEntity
  8
AM_9
100
AcDbLine
 10
0.1562500000000003
 20
-2.598833333333333
 30
0.0
 11
0.15625
 21
-2.668833333333334
 31
0.0
  0
LINE
  5
152
330
11D
100
AcDbEntity
  8
AM_4
100
AcDbLine
 10
-3.815000000000001
 20
-2.598833333333333
 30
0.0
 11
-3.815000000000001
 21
-2.668833333333334
 31
0.0
  0
LINE
  5
153
330
11D
100
AcDbEntity
  8
AM_4
100
AcDbLine
 10
3.815000000000001
 20
-2.668833333333334
 30
0.0
 11
3.815000000000001
 21
-2.598833333333333
 31
0.0
  0
LINE
  5
154
330
11D
100
AcDbEntity
  8
AM_4
100
AcDbLine
 10
-3.815000000000001
 20
-2.668833333333334
 30
0.0
 11
3.815000000000001
 21
-2.668833333333334
 31
0.0
  0
LINE
  5
155
330
11D
100
AcDbEntity
  8
AM_4
100
AcDbLine
 10
-3.815000000000001
 20
-2.598833333333333
 30
0.0
 11
3.815000000000001
 21
-2.598833333333333
 31
0.0
  0
ENDBLK
  5
120
330
11D
100
AcDbEntity
  8
0
100
AcDbBlockEnd
  0
BLOCK
  5
158
330
156
100
AcDbEntity
  8
0
100
AcDbBlockBegin
  2
6_070943E_0_in_071279_4
 70
     2
 10
0.0
 20
0.0
 30
0.0
  3
6_070943E_0_in_071279_4
  1

  0
ATTDEF
  5
15A
330
156
100
AcDbEntity
  8
AM_6
100
AcDbText
 10
9.52755
 20
3.000375000000004
 30
0.0
 40
0.5
  1
Imperial/E Insert -Inch
100
AcDbAttributeDefinition
  3

  2
NN
 70
     8
280
     0
  0
ATTDEF
  5
15B
330
156
100
AcDbEntity
  8
AM_6
100
AcDbText
 10
9.52755
 20
2.500375000000004
 30
0.0
 40
0.5
  1
Imperial Bearings
100
AcDbAttributeDefinition
  3

  2
NT
 70
     8
280
     0
  0
ATTDEF
  5
15C
330
156
100
AcDbEntity
  8
AM_6
100
AcDbText
 10
9.52755
 20
2.000375000000004
 30
0.0
 40
0.5
  1
070943E
100
AcDbAttributeDefinition
  3

  2
NB
 70
     8
280
     0
  0
ATTDEF
  5
15D
330
156
100
AcDbEntity
  8
AM_6
100
AcDbText
 10
9.52755
 20
1.500375000000004
 30
0.0
 40
0.5
  1
$PN.
100
AcDbAttributeDefinition
  3

  2
NBSYN
 70
     8
280
     0
  0
ATTDEF
  5
15E
330
156
100
AcDbEntity
  8
AM_6
100
AcDbText
 10
9.52755
 20
1.000375000000004
 30
0.0
 40
0.5
  1
070943E
100
AcDbAttributeDefinition
  3

  2
LINA
 70
     8
280
     0
  0
ATTDEF
  5
15F
330
156
100
AcDbEntity
  8
AM_6
100
AcDbText
 10
9.52755
 20
0.5003750000000036
 30
0.0
 40
0.5
  1
5
100
AcDbAttributeDefinition
  3

  2
SS
 70
     8
280
     0
  0
ATTDEF
  5
160
330
156
100
AcDbEntity
  8
AM_6
100
AcDbText
 10
9.52755
 20
0.0003750000000036
 30
0.0
 40
0.5
  1
5.000000
100
AcDbAttributeDefinition
  3

  2
SS1
 70
     8
280
     0
  0
ATTDEF
  5
161
330
156
100
AcDbEntity
  8
AM_6
100
AcDbText
 10
9.52755
 20
-0.4996249999999964
 30
0.0
 40
0.5
  1
070943E
100
AcDbAttributeDefinition
  3

  2
PN
 70
     8
280
     0
  0
ATTDEF
  5
162
330
156
100
AcDbEntity
  8
AM_6
100
AcDbText
 10
9.52755
 20
-0.9996249999999964
 30
0.0
 40
0.5
  1
INS-IP-500L
100
AcDbAttributeDefinition
  3

  2
DESCRIPTION
 70
     8
280
     0
  0
ATTDEF
  5
163
330
156
100
AcDbEntity
  8
AM_6
100
AcDbText
 10
9.52755
 20
-1.499624999999996
 30
0.0
 40
0.5
  1
Contact Seal
100
AcDbAttributeDefinition
  3

  2
ST
 70
     8
280
     0
  0
ATTDEF
  5
164
330
156
100
AcDbEntity
  8
AM_6
100
AcDbText
 10
9.52755
 20
-1.999624999999996
 30
0.0
 40
0.5
  1
2
100
AcDbAttributeDefinition
  3

  2
ST1
 70
     8
280
     0
  0
ATTDEF
  5
165
330
156
100
AcDbEntity
  8
AM_6
100
AcDbText
 10
9.52755
 20
-2.499624999999996
 30
0.0
 40
0.5
  1
9.0551
100
AcDbAttributeDefinition
  3

  2
A
 70
     8
280
     0
  0
ATTDEF
  5
166
330
156
100
AcDbEntity
  8
AM_6
100
AcDbText
 10
9.52755
 20
-2.999624999999996
 30
0.0
 40
0.5
  1
2-19/32
100
AcDbAttributeDefinition
  3

  2
B
 70
     8
280
     0
  0
ATTDEF
  5
167
330
156
100
AcDbEntity
  8
AM_6
100
AcDbText
 10
9.52755
 20
-3.499624999999996
 30
0.0
 40
0.5
  1
2.593750
100
AcDbAttributeDefinition
  3

  2
B1
 70
     8
280
     0
  0
ATTDEF
  5
168
330
156
100
AcDbEntity
  8
AM_6
100
AcDbText
 10
9.52755
 20
-3.999624999999996
 30
0.0
 40
0.5
  1
5-63/64
100
AcDbAttributeDefinition
  3

  2
C
 70
     8
280
     0
  0
ATTDEF
  5
169
330
156
100
AcDbEntity
  8
AM_6
100
AcDbText
 10
9.52755
 20
-4.499624999999996
 30
0.0
 40
0.5
  1
5.984375
100
AcDbAttributeDefinition
  3

  2
C1
 70
     8
280
     0
  0
ATTDEF
  5
16A
330
156
100
AcDbEntity
  8
AM_6
100
AcDbText
 10
9.52755
 20
-4.999624999999996
 30
0.0
 40
0.5
  1
5.98438
100
AcDbAttributeDefinition
  3

  2
CR
 70
     8
280
     0
  0
ATTDEF
  5
16B
330
156
100
AcDbEntity
  8
AM_6
100
AcDbText
 10
9.52755
 20
-5.499624999999996
 30
0.0
 40
0.5
  1
2.107
100
AcDbAttributeDefinition
  3

  2
D
 70
     8
280
     0
  0
ATTDEF
  5
16C
330
156
100
AcDbEntity
  8
AM_6
100
AcDbText
 10
9.52755
 20
-5.999624999999996
 30
0.0
 40
0.5
  1
7-5/8
100
AcDbAttributeDefinition
  3

  2
E
 70
     8
280
     0
  0
ATTDEF
  5
16D
330
156
100
AcDbEntity
  8
AM_6
100
AcDbText
 10
9.52755
 20
-6.499624999999996
 30
0.0
 40
0.5
  1
7.625000
100
AcDbAttributeDefinition
  3

  2
E1
 70
     8
280
     0
  0
ATTDEF
  5
16E
330
156
100
AcDbEntity
  8
AM_6
100
AcDbText
 10
9.52755
 20
-6.999624999999996
 30
0.0
 40
0.5
  1
0.3125
100
AcDbAttributeDefinition
  3

  2
NDM
 70
     8
280
     0
  0
ATTDEF
  5
16F
330
156
100
AcDbEntity
  8
AM_6
100
AcDbText
 10
9.52755
 20
-7.499624999999996
 30
0.0
 40
0.5
  1
0.2580
100
AcDbAttributeDefinition
  3

  2
KDM
 70
     8
280
     0
  0
ATTDEF
  5
170
330
156
100
AcDbEntity
  8
AM_6
100
AcDbText
 10
9.52755
 20
-7.999624999999996
 30
0.0
 40
0.5
  1
6.80
100
AcDbAttributeDefinition
  3

  2
AL
 70
     8
280
     0
  0
ATTDEF
  5
171
330
156
100
AcDbEntity
  8
AM_6
100
AcDbText
 10
9.52755
 20
-8.499624999999996
 30
0.0
 40
0.5
  1
0.50
100
AcDbAttributeDefinition
  3

  2
BL
 70
     8
280
     0
  0
ATTDEF
  5
172
330
156
100
AcDbEntity
  8
AM_6
100
AcDbText
 10
9.52755
 20
-8.999624999999996
 30
0.0
 40
0.5
  1
0.07
100
AcDbAttributeDefinition
  3

  2
CL
 70
     8
280
     0
  0
ATTDEF
  5
173
330
156
100
AcDbEntity
  8
AM_6
100
AcDbText
 10
9.52755
 20
-9.499624999999996
 30
0.0
 40
0.5
  1
0.50
100
AcDbAttributeDefinition
  3

  2
DL
 70
     8
280
     0
  0
ATTDEF
  5
174
330
156
100
AcDbEntity
  8
AM_6
100
AcDbText
 10
9.52755
 20
-9.999624999999996
 30
0.0
 40
0.5
  1
1.0000
100
AcDbAttributeDefinition
  3

  2
LL
 70
     8
280
     0
  0
ATTDEF
  5
175
330
156
100
AcDbEntity
  8
AM_6
100
AcDbText
 10
9.52755
 20
-10.499625
 30
0.0
 40
0.5
  1
0.036
100
AcDbAttributeDefinition
  3

  2
Y
 70
     8
280
     0
  0
ATTDEF
  5
176
330
156
100
AcDbEntity
  8
AM_6
100
AcDbText
 10
9.52755
 20
-10.999625
 30
0.0
 40
0.5
  1
0.036000
100
AcDbAttributeDefinition
  3

  2
Y1
 70
     8
280
     0
  0
ATTDEF
  5
177
330
156
100
AcDbEntity
  8
AM_6
100
AcDbText
 10
9.52755
 20
-11.499625
 30
0.0
 40
0.5
  1
5-27/32
100
AcDbAttributeDefinition
  3

  2
Z
 70
     8
280
     0
  0
ATTDEF
  5
178
330
156
100
AcDbEntity
  8
AM_6
100
AcDbText
 10
9.52755
 20
-11.999625
 30
0.0
 40
0.5
  1
5.843750
100
AcDbAttributeDefinition
  3

  2
Z1
 70
     8
280
     0
  0
ATTDEF
  5
179
330
156
100
AcDbEntity
  8
AM_6
100
AcDbText
 10
9.52755
 20
-12.499625
 30
0.0
 40
0.5
  1
0.00000
100
AcDbAttributeDefinition
  3

  2
P1
 70
     8
280
     0
  0
ATTDEF
  5
17A
330
156
100
AcDbEntity
  8
AM_6
100
AcDbText
 10
9.52755
 20
-12.999625
 30
0.0
 40
0.5
  1
0.00000
100
AcDbAttributeDefinition
  3

  2
H1
 70
     8
280
     0
  0
ATTDEF
  5
17B
330
156
100
AcDbEntity
  8
AM_6
100
AcDbText
 10
9.52755
 20
-13.499625
 30
0.0
 40
0.5
  1
0.00000
100
AcDbAttributeDefinition
  3

  2
G1
 70
     8
280
     0
  0
ATTDEF
  5
17C
330
156
100
AcDbEntity
  8
AM_6
100
AcDbText
 10
9.52755
 20
-13.999625
 30
0.0
 40
0.5
  1
0.16600
100
AcDbAttributeDefinition
  3

  2
CW
 70
     8
280
     0
  0
ATTDEF
  5
17D
330
156
100
AcDbEntity
  8
AM_6
100
AcDbText
 10
9.52755
 20
-14.499625
 30
0.0
 40
0.5
  1
7.63000
100
AcDbAttributeDefinition
  3

  2
L1
 70
     8
280
     0
  0
ATTDEF
  5
17E
330
156
100
AcDbEntity
  8
AM_6
100
AcDbText
 10
9.52755
 20
-14.999625
 30
0.0
 40
0.5
  1
baldor
100
AcDbAttributeDefinition
  3

  2
COMPANY
 70
     8
280
     0
  0
LINE
  5
17F
330
156
100
AcDbEntity
  8
AM_9
100
AcDbLine
 10
-1.124070022248447
 20
2.15425
 30
0.0
 11
-1.124070022248447
 21
-2.598833333333333
 31
0.0
  0
LINE
  5
180
330
156
100
AcDbEntity
  8
AM_9
100
AcDbLine
 10
-0.8931001391206257
 20
2.15425
 30
0.0
 11
-0.8931001391206257
 21
-2.598833333333333
 31
0.0
  0
LINE
  5
181
330
156
100
AcDbEntity
  8
AM_9
100
AcDbLine
 10
-0.8400270052583456
 20
2.15425
 30
0.0
 11
-0.8400270052583456
 21
-3.02
 31
0.0
  0
LINE
  5
182
330
156
100
AcDbEntity
  8
AM_9
100
AcDbLine
 10
-1.070996888386167
 20
-2.668833333333334
 30
0.0
 11
-1.070996888386167
 21
2.15425
 31
0.0
  0
LINE
  5
183
330
156
100
AcDbEntity
  8
AM_9
100
AcDbLine
 10
-2.5
 20
2.15425
 30
0.0
 11
-2.5
 21
-3.02
 31
0.0
  0
LINE
  5
184
330
156
100
AcDbEntity
  8
AM_9
100
AcDbLine
 10
2.5
 20
-3.02
 30
0.0
 11
2.5
 21
2.15425
 31
0.0
  0
LINE
  5
185
330
156
100
AcDbEntity
  8
AM_9
100
AcDbLine
 10
-2.227386360737624
 20
-2.098833333333333
 30
0.0
 11
-2.227386360737624
 21
-2.598833333333333
 31
0.0
  0
LINE
  5
186
330
156
100
AcDbEntity
  8
AM_9
100
AcDbLine
 10
2.227386360737624
 20
-2.098833333333333
 30
0.0
 11
2.227386360737624
 21
-2.598833333333333
 31
0.0
  0
LINE
  5
187
330
156
100
AcDbEntity
  8
AM_9
100
AcDbLine
 10
-2.631578947368421
 20
2.964375
 30
0.0
 11
-2.631578947368421
 21
2.15425
 31
0.0
  0
LINE
  5
188
330
156
100
AcDbEntity
  8
AM_9
100
AcDbLine
 10
2.631578947368421
 20
2.15425
 30
0.0
 11
2.631578947368421
 21
2.964375
 31
0.0
  0
LINE
  5
189
330
156
100
AcDbEntity
  8
AM_9
100
AcDbLine
 10
-0.8904399895643812
 20
-2.668833333333334
 30
0.0
 11
-0.8904399895643814
 21
-2.598833333333333
 31
0.0
  0
LINE
  5
18A
330
156
100
AcDbEntity
  8
AM_9
100
AcDbLine
 10
-1.121409872692203
 20
-2.598833333333333
 30
0.0
 11
-1.121409872692203
 21
-2.668833333333334
 31
0.0
  0
LINE
  5
18B
330
156
100
AcDbEntity
  8
AM_9
100
AcDbLine
 10
-2.631578947368421
 20
-2.598833333333333
 30
0.0
 11
-2.631578947368421
 21
-2.668833333333334
 31
0.0
  0
LINE
  5
18C
330
156
100
AcDbEntity
  8
AM_9
100
AcDbLine
 10
2.631578947368421
 20
-2.668833333333334
 30
0.0
 11
2.631578947368421
 21
-2.598833333333333
 31
0.0
  0
LINE
  5
18D
330
156
100
AcDbEntity
  8
AM_9
100
AcDbLine
 10
-2.519450284657177
 20
-2.098833333333333
 30
0.0
 11
-2.227386360737624
 21
-2.098833333333333
 31
0.0
  0
LINE
  5
18E
330
156
100
AcDbEntity
  8
AM_9
100
AcDbLine
 10
2.227386360737624
 20
-2.098833333333333
 30
0.0
 11
2.519450284657177
 21
-2.098833333333333
 31
0.0
  0
LINE
  5
18F
330
156
100
AcDbEntity
  8
AM_9
100
AcDbLine
 10
2.921875
 20
2.964375
 30
0.0
 11
-2.921875
 21
2.964375
 31
0.0
  0
LINE
  5
190
330
156
100
AcDbEntity
  8
AM_9
100
AcDbLine
 10
-2.921875
 20
3.000375000000004
 30
0.0
 11
-2.921875
 21
2.964375
 31
0.0
  0
LINE
  5
191
330
156
100
AcDbEntity
  8
AM_9
100
AcDbLine
 10
2.921875
 20
2.964375
 30
0.0
 11
2.921875
 21
3.000375000000004
 31
0.0
  0
LINE
  5
192
330
156
100
AcDbEntity
  8
AM_9
100
AcDbLine
 10
0.0
 20
-1.548833333333334
 30
0.0
 11
-0.1261999999999999
 21
-1.621694937305064
 31
0.0
  0
LINE
  5
193
330
156
100
AcDbEntity
  8
AM_9
100
AcDbLine
 10
0.1261999999999999
 20
-1.621694937305064
 30
0.0
 11
0.0
 21
-1.548833333333334
 31
0.0
  0
LINE
  5
194
330
156
100
AcDbEntity
  8
AM_9
100
AcDbLine
 10
0.1261999999999999
 20
-1.621694937305064
 30
0.0
 11
-0.1261999999999999
 21
-1.621694937305064
 31
0.0
  0
LINE
  5
195
330
156
100
AcDbEntity
  8
AM_9
100
AcDbLine
 10
-0.1261999999999999
 20
-1.621694937305064
 30
0.0
 11
-0.1261999999999999
 21
-2.568783333333334
 31
0.0
  0
LINE
  5
196
330
156
100
AcDbEntity
  8
AM_9
100
AcDbLine
 10
0.1261999999999999
 20
-2.568783333333334
 30
0.0
 11
0.1261999999999999
 21
-1.621694937305064
 31
0.0
  0
LINE
  5
197
330
156
100
AcDbEntity
  8
AM_9
100
AcDbLine
 10
0.1261999999999999
 20
-2.568783333333334
 30
0.0
 11
-0.1261999999999999
 21
-2.568783333333334
 31
0.0
  0
LINE
  5
198
330
156
100
AcDbEntity
  8
AM_9
100
AcDbLine
 10
-0.1261999999999999
 20
-2.568783333333334
 30
0.0
 11
-0.1562499999999997
 21
-2.598833333333333
 31
0.0
  0
LINE
  5
199
330
156
100
AcDbEntity
  8
AM_9
100
AcDbLine
 10
0.1562499999999997
 20
-2.598833333333333
 30
0.0
 11
0.1261999999999999
 21
-2.568783333333334
 31
0.0
  0
LINE
  5
19A
330
156
100
AcDbEntity
  8
AM_9
100
AcDbLine
 10
3.825221833155182
 20
-1.87
 30
0.0
 11
3.849333781932964
 21
-0.4886273796781364
 31
0.0
  0
LINE
  5
19B
330
156
100
AcDbEntity
  8
AM_9
100
AcDbLine
 10
-3.849333781932964
 20
-0.4886273796781364
 30
0.0
 11
-3.825221833155182
 21
-1.87
 31
0.0
  0
LINE
  5
19C
330
156
100
AcDbEntity
  8
AM_9
100
AcDbLine
 10
3.895833333333333
 20
3.000375000000004
 30
0.0
 11
-3.895833333333333
 21
3.000375000000004
 31
0.0
  0
LINE
  5
19D
330
156
100
AcDbEntity
  8
AM_9
100
AcDbLine
 10
-3.895833333333333
 20
3.000375000000004
 30
0.0
 11
-3.895833333333333
 21
2.673
 31
0.0
  0
LINE
  5
19E
330
156
100
AcDbEntity
  8
AM_9
100
AcDbLine
 10
3.895833333333333
 20
2.673
 30
0.0
 11
3.895833333333333
 21
3.000375000000004
 31
0.0
  0
LINE
  5
19F
330
156
100
AcDbEntity
  8
AM_9
100
AcDbLine
 10
3.849333781932964
 20
-0.4886273796781364
 30
0.0
 11
-3.849333781932964
 21
-0.4886273796781364
 31
0.0
  0
ARC
  5
1A0
330
156
100
AcDbEntity
  8
AM_9
100
AcDbCircle
 10
-3.899326166690783
 20
-0.4895000000000003
 30
0.0
 40
0.0499999999999994
100
AcDbArc
 50
0.9999999999999003
 51
90.0
  0
ARC
  5
1A1
330
156
100
AcDbEntity
  8
AM_9
100
AcDbCircle
 10
3.899326166690783
 20
-0.4895000000000003
 30
0.0
 40
0.0499999999999995
100
AcDbArc
 50
90.0
 51
179.0000000000001
  0
LINE
  5
1A2
330
156
100
AcDbEntity
  8
AM_9
100
AcDbLine
 10
3.970314520938917
 20
2.673
 30
0.0
 11
-3.970314520934849
 21
2.673
 31
0.0
  0
ARC
  5
1A3
330
156
100
AcDbEntity
  8
AM_9
100
AcDbCircle
 10
-3.970314520938917
 20
2.572999999999997
 30
0.0
 40
0.1000000000000023
100
AcDbArc
 50
90.0
 51
149.999999999999
  0
ARC
  5
1A4
330
156
100
AcDbEntity
  8
AM_9
100
AcDbCircle
 10
3.970314520938916
 20
2.572999999999996
 30
0.0
 40
0.1000000000000036
100
AcDbArc
 50
30.00000000000105
 51
90.0
  0
LINE
  5
1A5
330
156
100
AcDbEntity
  8
AM_9
100
AcDbLine
 10
4.056917061317362
 20
2.623
 30
0.0
 11
-4.056917061317362
 21
2.623
 31
0.0
  0
LINE
  5
1A6
330
156
100
AcDbEntity
  8
AM_9
100
AcDbLine
 10
-4.056917061317362
 20
2.623
 30
0.0
 11
-4.32755
 21
2.15425
 31
0.0
  0
LINE
  5
1A7
330
156
100
AcDbEntity
  8
AM_9
100
AcDbLine
 10
4.32755
 20
2.15425
 30
0.0
 11
4.056917061317362
 21
2.623
 31
0.0
  0
LINE
  5
1A8
330
156
100
AcDbEntity
  8
AM_9
100
AcDbLine
 10
-4.397862499999999
 20
0.9122501130355285
 30
0.0
 11
-4.397862499999999
 21
0.7624998869644701
 31
0.0
  0
LINE
  5
1A9
330
156
100
AcDbEntity
  8
AM_9
100
AcDbLine
 10
4.397862499999999
 20
0.7624998869644701
 30
0.0
 11
4.397862499999999
 21
0.9122501130355285
 31
0.0
  0
LINE
  5
1AA
330
156
100
AcDbEntity
  8
AM_9
100
AcDbLine
 10
-4.52755
 20
0.6876247739289401
 30
0.0
 11
-4.52755
 21
-0.4295000000000022
 31
0.0
  0
LINE
  5
1AB
330
156
100
AcDbEntity
  8
AM_9
100
AcDbLine
 10
4.52755
 20
-0.4295000000000022
 30
0.0
 11
4.52755
 21
0.6876247739289401
 31
0.0
  0
LINE
  5
1AC
330
156
100
AcDbEntity
  8
AM_9
100
AcDbLine
 10
4.52755
 20
-0.4295000000000022
 30
0.0
 11
-4.52755
 21
-0.4295000000000022
 31
0.0
  0
LINE
  5
1AD
330
156
100
AcDbEntity
  8
AM_9
100
AcDbLine
 10
4.517549999999998
 20
-0.4395000000000007
 30
0.0
 11
-4.517549999996402
 21
-0.4395000000000007
 31
0.0
  0
ARC
  5
1AE
330
156
100
AcDbEntity
  8
AM_9
100
AcDbCircle
 10
-4.517550000000001
 20
-0.4295000000000015
 30
0.0
 40
0.0099999999999989
100
AcDbArc
 50
180.0
 51
270.0
  0
ARC
  5
1AF
330
156
100
AcDbEntity
  8
AM_9
100
AcDbCircle
 10
4.517550000000001
 20
-0.4295000000000015
 30
0.0
 40
0.0099999999999992
100
AcDbArc
 50
270.0
 51
0.0
  0
LINE
  5
1B0
330
156
100
AcDbEntity
  8
AM_9
100
AcDbLine
 10
4.477549999999998
 20
2.15425
 30
0.0
 11
-4.477549999990289
 21
2.15425
 31
0.0
  0
ARC
  5
1B1
330
156
100
AcDbEntity
  8
AM_9
100
AcDbCircle
 10
-4.477549999999996
 20
2.104249999999997
 30
0.0
 40
0.0500000000000029
100
AcDbArc
 50
90.0
 51
180.0
  0
ARC
  5
1B2
330
156
100
AcDbEntity
  8
AM_9
100
AcDbCircle
 10
4.477549999999996
 20
2.104249999999997
 30
0.0
 40
0.0500000000000034
100
AcDbArc
 50
0.0
 51
90.0
  0
LINE
  5
1B3
330
156
100
AcDbEntity
  8
AM_9
100
AcDbLine
 10
4.397862499999999
 20
0.7624998869644701
 30
0.0
 11
-4.397862499999999
 21
0.7624998869644701
 31
0.0
  0
LINE
  5
1B4
330
156
100
AcDbEntity
  8
AM_9
100
AcDbLine
 10
4.52755
 20
0.6876247739289401
 30
0.0
 11
-4.52755
 21
0.6876247739289401
 31
0.0
  0
LINE
  5
1B5
330
156
100
AcDbEntity
  8
AM_9
100
AcDbLine
 10
-4.397862499999999
 20
0.7624998869644701
 30
0.0
 11
-4.52755
 21
0.6876247739289401
 31
0.0
  0
LINE
  5
1B6
330
156
100
AcDbEntity
  8
AM_9
100
AcDbLine
 10
4.52755
 20
0.6876247739289401
 30
0.0
 11
4.397862499999999
 21
0.7624998869644701
 31
0.0
  0
LINE
  5
1B7
330
156
100
AcDbEntity
  8
AM_9
100
AcDbLine
 10
4.3978625
 20
0.9122501130355285
 30
0.0
 11
-4.3978625
 21
0.9122501130355285
 31
0.0
  0
LINE
  5
1B8
330
156
100
AcDbEntity
  8
AM_9
100
AcDbLine
 10
4.3978625
 20
0.9122501130355285
 30
0.0
 11
4.52755
 21
0.9871252260710591
 31
0.0
  0
LINE
  5
1B9
330
156
100
AcDbEntity
  8
AM_9
100
AcDbLine
 10
-4.52755
 20
0.9871252260710591
 30
0.0
 11
-4.3978625
 21
0.9122501130355285
 31
0.0
  0
LINE
  5
1BA
330
156
100
AcDbEntity
  8
AM_9
100
AcDbLine
 10
4.52755
 20
2.104249999999999
 30
0.0
 11
-4.52755
 21
2.104249999999999
 31
0.0
  0
LINE
  5
1BB
330
156
100
AcDbEntity
  8
AM_9
100
AcDbLine
 10
4.52755
 20
0.9871252260710591
 30
0.0
 11
-4.52755
 21
0.9871252260710591
 31
0.0
  0
LINE
  5
1BC
330
156
100
AcDbEntity
  8
AM_9
100
AcDbLine
 10
-4.52755
 20
2.104249999999999
 30
0.0
 11
-4.52755
 21
0.9871252260710591
 31
0.0
  0
LINE
  5
1BD
330
156
100
AcDbEntity
  8
AM_9
100
AcDbLine
 10
4.52755
 20
0.9871252260710591
 30
0.0
 11
4.52755
 21
2.104249999999999
 31
0.0
  0
LINE
  5
1BE
330
156
100
AcDbEntity
  8
AM_4
100
AcDbLine
 10
-1.070996888386167
 20
-3.02
 30
0.0
 11
-1.070996888386167
 21
-2.668833333333334
 31
0.0
  0
LINE
  5
1BF
330
156
100
AcDbEntity
  8
AM_4
100
AcDbLine
 10
-2.580939751330899
 20
-2.098833333333333
 30
0.0
 11
-2.580939751330899
 21
-2.598833333333333
 31
0.0
  0
LINE
  5
1C0
330
156
100
AcDbEntity
  8
AM_4
100
AcDbLine
 10
2.580939751330898
 20
-2.098833333333333
 30
0.0
 11
2.580939751330898
 21
-2.598833333333333
 31
0.0
  0
LINE
  5
1C1
330
156
100
AcDbEntity
  8
AM_4
100
AcDbLine
 10
-0.8904399895643812
 20
-3.02
 30
0.0
 11
-0.8904399895643812
 21
-2.668833333333334
 31
0.0
  0
LINE
  5
1C2
330
156
100
AcDbEntity
  8
AM_4
100
AcDbLine
 10
-1.121409872692203
 20
-2.668833333333334
 30
0.0
 11
-1.121409872692203
 21
-3.02
 31
0.0
  0
LINE
  5
1C3
330
156
100
AcDbEntity
  8
AM_4
100
AcDbLine
 10
-2.631578947368421
 20
-2.668833333333334
 30
0.0
 11
-2.631578947368421
 21
-3.02
 31
0.0
  0
LINE
  5
1C4
330
156
100
AcDbEntity
  8
AM_4
100
AcDbLine
 10
2.631578947368421
 20
-3.02
 30
0.0
 11
2.631578947368421
 21
-2.668833333333334
 31
0.0
  0
LINE
  5
1C5
330
156
100
AcDbEntity
  8
AM_4
100
AcDbLine
 10
2.631578947368421
 20
-3.02
 30
0.0
 11
-2.631578947368421
 21
-3.02
 31
0.0
  0
LINE
  5
1C6
330
156
100
AcDbEntity
  8
AM_4
100
AcDbLine
 10
-2.866819097378803
 20
-2.598833333333333
 30
0.0
 11
-2.873003675250451
 21
-2.098833333333333
 31
0.0
  0
LINE
  5
1C7
330
156
100
AcDbEntity
  8
AM_4
100
AcDbLine
 10
-2.873003675250451
 20
-2.098833333333333
 30
0.0
 11
-2.519450284657177
 21
-2.098833333333333
 31
0.0
  0
LINE
  5
1C8
330
156
100
AcDbEntity
  8
AM_4
100
AcDbLine
 10
-2.519450284657177
 20
-2.098833333333333
 30
0.0
 11
-2.513265706785529
 21
-2.598833333333333
 31
0.0
  0
LINE
  5
1C9
330
156
100
AcDbEntity
  8
AM_4
100
AcDbLine
 10
2.513265706785529
 20
-2.598833333333333
 30
0.0
 11
2.519450284657177
 21
-2.098833333333333
 31
0.0
  0
LINE
  5
1CA
330
156
100
AcDbEntity
  8
AM_4
100
AcDbLine
 10
2.519450284657177
 20
-2.098833333333333
 30
0.0
 11
2.873003675250452
 21
-2.098833333333333
 31
0.0
  0
LINE
  5
1CB
330
156
100
AcDbEntity
  8
AM_4
100
AcDbLine
 10
2.873003675250452
 20
-2.098833333333333
 30
0.0
 11
2.866819097378804
 21
-2.598833333333333
 31
0.0
  0
LINE
  5
1CC
330
156
100
AcDbEntity
  8
AM_4
100
AcDbLine
 10
3.812499999999998
 20
-2.598833333333333
 30
0.0
 11
3.825221833155182
 21
-1.87
 31
0.0
  0
LINE
  5
1CD
330
156
100
AcDbEntity
  8
AM_4
100
AcDbLine
 10
-3.825221833155182
 20
-1.87
 30
0.0
 11
-3.812499999999998
 21
-2.598833333333333
 31
0.0
  0
ENDBLK
  5
159
330
156
100
AcDbEntity
  8
0
100
AcDbBlockEnd
  0
BLOCK
  5
1D0
330
1CE
100
AcDbEntity
  8
0
100
AcDbBlockBegin
  2
7_071279H_0_in_071279_4
 70
     2
 10
0.0
 20
0.0
 30
0.0
  3
7_071279H_0_in_071279_4
  1

  0
ATTDEF
  5
1D2
330
1CE
100
AcDbEntity
  8
AM_6
100
AcDbText
 10
12.375
 20
3.973199999999999
 30
0.0
 40
0.5
  1
EFC-IP -(Contact Seal)-Housing -Inch
100
AcDbAttributeDefinition
  3

  2
NN
 70
     8
280
     0
  0
ATTDEF
  5
1D3
330
1CE
100
AcDbEntity
  8
AM_6
100
AcDbText
 10
12.375
 20
3.473199999999999
 30
0.0
 40
0.5
  1
Imperial/E Piloted Flange Bearings
100
AcDbAttributeDefinition
  3

  2
NT
 70
     8
280
     0
  0
ATTDEF
  5
1D4
330
1CE
100
AcDbEntity
  8
AM_6
100
AcDbText
 10
12.375
 20
2.973199999999999
 30
0.0
 40
0.5
  1
071279H
100
AcDbAttributeDefinition
  3

  2
NB
 70
     8
280
     0
  0
ATTDEF
  5
1D5
330
1CE
100
AcDbEntity
  8
AM_6
100
AcDbText
 10
12.375
 20
2.473199999999999
 30
0.0
 40
0.5
  1
$PN.H
100
AcDbAttributeDefinition
  3

  2
NBSYN
 70
     8
280
     0
  0
ATTDEF
  5
1D6
330
1CE
100
AcDbEntity
  8
AM_6
100
AcDbText
 10
12.375
 20
1.973199999999999
 30
0.0
 40
0.5
  1
071279
100
AcDbAttributeDefinition
  3

  2
LINA
 70
     8
280
     0
  0
ATTDEF
  5
1D7
330
1CE
100
AcDbEntity
  8
AM_6
100
AcDbText
 10
12.375
 20
1.473199999999999
 30
0.0
 40
0.5
  1
5
100
AcDbAttributeDefinition
  3

  2
SS
 70
     8
280
     0
  0
ATTDEF
  5
1D8
330
1CE
100
AcDbEntity
  8
AM_6
100
AcDbText
 10
12.375
 20
0.9731999999999994
 30
0.0
 40
0.5
  1
5.000000
100
AcDbAttributeDefinition
  3

  2
SS1
 70
     8
280
     0
  0
ATTDEF
  5
1D9
330
1CE
100
AcDbEntity
  8
AM_6
100
AcDbText
 10
12.375
 20
0.4731999999999994
 30
0.0
 40
0.5
  1
Expansion
100
AcDbAttributeDefinition
  3

  2
TYPE
 70
     8
280
     0
  0
ATTDEF
  5
1DA
330
1CE
100
AcDbEntity
  8
AM_6
100
AcDbText
 10
12.375
 20
-0.0268000000000006
 30
0.0
 40
0.5
  1
071275
100
AcDbAttributeDefinition
  3

  2
PN1
 70
     8
280
     0
  0
ATTDEF
  5
1DB
330
1CE
100
AcDbEntity
  8
AM_6
100
AcDbText
 10
12.375
 20
-0.5268000000000006
 30
0.0
 40
0.5
  1
071279
100
AcDbAttributeDefinition
  3

  2
PN2
 70
     8
280
     0
  0
ATTDEF
  5
1DC
330
1CE
100
AcDbEntity
  8
AM_6
100
AcDbText
 10
12.375
 20
-1.026800000000001
 30
0.0
 40
0.5
  1
FC-IP-500R
100
AcDbAttributeDefinition
  3

  2
DESCRIPTION
 70
     8
280
     0
  0
ATTDEF
  5
1DD
330
1CE
100
AcDbEntity
  8
AM_6
100
AcDbText
 10
12.375
 20
-1.526800000000001
 30
0.0
 40
0.5
  1
Non-Expansion Type
100
AcDbAttributeDefinition
  3

  2
EF
 70
     8
280
     0
  0
ATTDEF
  5
1DE
330
1CE
100
AcDbEntity
  8
AM_6
100
AcDbText
 10
12.375
 20
-2.026800000000001
 30
0.0
 40
0.5
  1
1
100
AcDbAttributeDefinition
  3

  2
EF1
 70
     8
280
     0
  0
ATTDEF
  5
1DF
330
1CE
100
AcDbEntity
  8
AM_6
100
AcDbText
 10
12.375
 20
-2.526800000000001
 30
0.0
 40
0.5
  1
Contact Seal
100
AcDbAttributeDefinition
  3

  2
ST
 70
     8
280
     0
  0
ATTDEF
  5
1E0
330
1CE
100
AcDbEntity
  8
AM_6
100
AcDbText
 10
12.375
 20
-3.026800000000001
 30
0.0
 40
0.5
  1
1
100
AcDbAttributeDefinition
  3

  2
ST1
 70
     8
280
     0
  0
ATTDEF
  5
1E1
330
1CE
100
AcDbEntity
  8
AM_6
100
AcDbText
 10
12.375
 20
-3.526800000000001
 30
0.0
 40
0.5
  1
5.98
100
AcDbAttributeDefinition
  3

  2
A
 70
     8
280
     0
  0
ATTDEF
  5
1E2
330
1CE
100
AcDbEntity
  8
AM_6
100
AcDbText
 10
12.375
 20
-4.026800000000001
 30
0.0
 40
0.5
  1
5.9800000
100
AcDbAttributeDefinition
  3

  2
A1
 70
     8
280
     0
  0
ATTDEF
  5
1E3
330
1CE
100
AcDbEntity
  8
AM_6
100
AcDbText
 10
12.375
 20
-4.526800000000001
 30
0.0
 40
0.5
  1
14.75
100
AcDbAttributeDefinition
  3

  2
B
 70
     8
280
     0
  0
ATTDEF
  5
1E4
330
1CE
100
AcDbEntity
  8
AM_6
100
AcDbText
 10
12.375
 20
-5.026800000000001
 30
0.0
 40
0.5
  1
14.7500000
100
AcDbAttributeDefinition
  3

  2
B1
 70
     8
280
     0
  0
ATTDEF
  5
1E5
330
1CE
100
AcDbEntity
  8
AM_6
100
AcDbText
 10
12.375
 20
-5.526800000000001
 30
0.0
 40
0.5
  1
4.88
100
AcDbAttributeDefinition
  3

  2
C
 70
     8
280
     0
  0
ATTDEF
  5
1E6
330
1CE
100
AcDbEntity
  8
AM_6
100
AcDbText
 10
12.375
 20
-6.026800000000001
 30
0.0
 40
0.5
  1
4.8800000
100
AcDbAttributeDefinition
  3

  2
C1
 70
     8
280
     0
  0
ATTDEF
  5
1E7
330
1CE
100
AcDbEntity
  8
AM_6
100
AcDbText
 10
12.375
 20
-6.526800000000001
 30
0.0
 40
0.5
  1
6.38
100
AcDbAttributeDefinition
  3

  2
D
 70
     8
280
     0
  0
ATTDEF
  5
1E8
330
1CE
100
AcDbEntity
  8
AM_6
100
AcDbText
 10
12.375
 20
-7.026800000000001
 30
0.0
 40
0.5
  1
6.3800000
100
AcDbAttributeDefinition
  3

  2
D1
 70
     8
280
     0
  0
ATTDEF
  5
1E9
330
1CE
100
AcDbEntity
  8
AM_6
100
AcDbText
 10
12.375
 20
-7.526800000000001
 30
0.0
 40
0.5
  1
12.75
100
AcDbAttributeDefinition
  3

  2
DD
 70
     8
280
     0
  0
ATTDEF
  5
1EA
330
1CE
100
AcDbEntity
  8
AM_6
100
AcDbText
 10
12.375
 20
-8.026800000000001
 30
0.0
 40
0.5
  1
12.7500000
100
AcDbAttributeDefinition
  3

  2
DD1
 70
     8
280
     0
  0
ATTDEF
  5
1EB
330
1CE
100
AcDbEntity
  8
AM_6
100
AcDbText
 10
12.375
 20
-8.526800000000001
 30
0.0
 40
0.5
  1
1.7
100
AcDbAttributeDefinition
  3

  2
E
 70
     8
280
     0
  0
ATTDEF
  5
1EC
330
1CE
100
AcDbEntity
  8
AM_6
100
AcDbText
 10
12.375
 20
-9.026800000000001
 30
0.0
 40
0.5
  1
1.700000
100
AcDbAttributeDefinition
  3

  2
E1
 70
     8
280
     0
  0
ATTDEF
  5
1ED
330
1CE
100
AcDbEntity
  8
AM_6
100
AcDbText
 10
12.375
 20
-9.526800000000001
 30
0.0
 40
0.5
  1
7/8
100
AcDbAttributeDefinition
  3

  2
F
 70
     8
280
     0
  0
ATTDEF
  5
1EE
330
1CE
100
AcDbEntity
  8
AM_6
100
AcDbText
 10
12.375
 20
-10.0268
 30
0.0
 40
0.5
  1
0.8750000
100
AcDbAttributeDefinition
  3

  2
F1
 70
     8
280
     0
  0
ATTDEF
  5
1EF
330
1CE
100
AcDbEntity
  8
AM_6
100
AcDbText
 10
12.375
 20
-10.5268
 30
0.0
 40
0.5
  1
3.4
100
AcDbAttributeDefinition
  3

  2
G
 70
     8
280
     0
  0
ATTDEF
  5
1F0
330
1CE
100
AcDbEntity
  8
AM_6
100
AcDbText
 10
12.375
 20
-11.0268
 30
0.0
 40
0.5
  1
3.400000
100
AcDbAttributeDefinition
  3

  2
G1
 70
     8
280
     0
  0
ATTDEF
  5
1F1
330
1CE
100
AcDbEntity
  8
AM_6
100
AcDbText
 10
12.375
 20
-11.5268
 30
0.0
 40
0.5
  1
1.25
100
AcDbAttributeDefinition
  3

  2
H
 70
     8
280
     0
  0
ATTDEF
  5
1F2
330
1CE
100
AcDbEntity
  8
AM_6
100
AcDbText
 10
12.375
 20
-12.0268
 30
0.0
 40
0.5
  1
1.2500000
100
AcDbAttributeDefinition
  3

  2
H1
 70
     8
280
     0
  0
ATTDEF
  5
1F3
330
1CE
100
AcDbEntity
  8
AM_6
100
AcDbText
 10
12.375
 20
-12.5268
 30
0.0
 40
0.5
  1
11.000
100
AcDbAttributeDefinition
  3

  2
K
 70
     8
280
     0
  0
ATTDEF
  5
1F4
330
1CE
100
AcDbEntity
  8
AM_6
100
AcDbText
 10
12.375
 20
-13.0268
 30
0.0
 40
0.5
  1
7.63
100
AcDbAttributeDefinition
  3

  2
L
 70
     8
280
     0
  0
ATTDEF
  5
1F5
330
1CE
100
AcDbEntity
  8
AM_6
100
AcDbText
 10
12.375
 20
-13.5268
 30
0.0
 40
0.5
  1
7.6300000
100
AcDbAttributeDefinition
  3

  2
L1
 70
     8
280
     0
  0
ATTDEF
  5
1F6
330
1CE
100
AcDbEntity
  8
AM_6
100
AcDbText
 10
12.375
 20
-14.0268
 30
0.0
 40
0.5
  1
3/4-10
100
AcDbAttributeDefinition
  3

  2
M
 70
     8
280
     0
  0
ATTDEF
  5
1F7
330
1CE
100
AcDbEntity
  8
AM_6
100
AcDbText
 10
12.375
 20
-14.5268
 30
0.0
 40
0.5
  1
0.750000
100
AcDbAttributeDefinition
  3

  2
NDM
 70
     8
280
     0
  0
ATTDEF
  5
1F8
330
1CE
100
AcDbEntity
  8
AM_6
100
AcDbText
 10
12.375
 20
-15.0268
 30
0.0
 40
0.5
  1
0.642000
100
AcDbAttributeDefinition
  3

  2
KDM
 70
     8
280
     0
  0
ATTDEF
  5
1F9
330
1CE
100
AcDbEntity
  8
AM_6
100
AcDbText
 10
12.375
 20
-15.5268
 30
0.0
 40
0.5
  1
6.41
100
AcDbAttributeDefinition
  3

  2
N
 70
     8
280
     0
  0
ATTDEF
  5
1FA
330
1CE
100
AcDbEntity
  8
AM_6
100
AcDbText
 10
12.375
 20
-16.0268
 30
0.0
 40
0.5
  1
6.410000
100
AcDbAttributeDefinition
  3

  2
N1
 70
     8
280
     0
  0
ATTDEF
  5
1FB
330
1CE
100
AcDbEntity
  8
AM_6
100
AcDbText
 10
12.375
 20
-16.5268
 30
0.0
 40
0.5
  1
2.59
100
AcDbAttributeDefinition
  3

  2
P
 70
     8
280
     0
  0
ATTDEF
  5
1FC
330
1CE
100
AcDbEntity
  8
AM_6
100
AcDbText
 10
12.375
 20
-17.0268
 30
0.0
 40
0.5
  1
2.590000
100
AcDbAttributeDefinition
  3

  2
P1
 70
     8
280
     0
  0
ATTDEF
  5
1FD
330
1CE
100
AcDbEntity
  8
AM_6
100
AcDbText
 10
12.375
 20
-17.5268
 30
0.0
 40
0.5
  1
3.01
100
AcDbAttributeDefinition
  3

  2
Q
 70
     8
280
     0
  0
ATTDEF
  5
1FE
330
1CE
100
AcDbEntity
  8
AM_6
100
AcDbText
 10
12.375
 20
-18.0268
 30
0.0
 40
0.5
  1
3.010000
100
AcDbAttributeDefinition
  3

  2
Q1
 70
     8
280
     0
  0
ATTDEF
  5
1FF
330
1CE
100
AcDbEntity
  8
AM_6
100
AcDbText
 10
12.375
 20
-18.5268
 30
0.0
 40
0.5
  1
0.38
100
AcDbAttributeDefinition
  3

  2
X
 70
     8
280
     0
  0
ATTDEF
  5
200
330
1CE
100
AcDbEntity
  8
AM_6
100
AcDbText
 10
12.375
 20
-19.0268
 30
0.0
 40
0.5
  1
0.380000
100
AcDbAttributeDefinition
  3

  2
X1
 70
     8
280
     0
  0
ATTDEF
  5
201
330
1CE
100
AcDbEntity
  8
AM_6
100
AcDbText
 10
12.375
 20
-19.5268
 30
0.0
 40
0.5
  1
0.036
100
AcDbAttributeDefinition
  3

  2
Y
 70
     8
280
     0
  0
ATTDEF
  5
202
330
1CE
100
AcDbEntity
  8
AM_6
100
AcDbText
 10
12.375
 20
-20.0268
 30
0.0
 40
0.5
  1
5.84
100
AcDbAttributeDefinition
  3

  2
Z
 70
     8
280
     0
  0
ATTDEF
  5
203
330
1CE
100
AcDbEntity
  8
AM_6
100
AcDbText
 10
12.375
 20
-20.5268
 30
0.0
 40
0.5
  1
5.840000
100
AcDbAttributeDefinition
  3

  2
Z1
 70
     8
280
     0
  0
ATTDEF
  5
204
330
1CE
100
AcDbEntity
  8
AM_6
100
AcDbText
 10
12.375
 20
-21.0268
 30
0.0
 40
0.5
  1
9.0551
100
AcDbAttributeDefinition
  3

  2
BORE
 70
     8
280
     0
  0
ATTDEF
  5
205
330
1CE
100
AcDbEntity
  8
AM_6
100
AcDbText
 10
12.375
 20
-21.5268
 30
0.0
 40
0.5
  1
baldor
100
AcDbAttributeDefinition
  3

  2
COMPANY
 70
     8
280
     0
  0
LINE
  5
206
330
1CE
100
AcDbEntity
  8
AM_9
100
AcDbLine
 10
0.5
 20
-1.78666666666667
 30
0.0
 11
-0.5
 21
-1.78666666666667
 31
0.0
  0
LINE
  5
207
330
1CE
100
AcDbEntity
  8
AM_9
100
AcDbLine
 10
-5.841911949125794
 20
-0.0540000000000004
 30
0.0
 11
-5.841911949125794
 21
-0.9459999999999998
 31
0.0
  0
LINE
  5
208
330
1CE
100
AcDbEntity
  8
AM_9
100
AcDbLine
 10
-5.199911949125798
 20
-0.9459999999999998
 30
0.0
 11
-5.199911949125798
 21
-0.0540000000000004
 31
0.0
  0
LINE
  5
209
330
1CE
100
AcDbEntity
  8
AM_9
100
AcDbLine
 10
-5.199911949125798
 20
-0.0540000000000004
 30
0.0
 11
-5.841911949125795
 21
-0.0540000000000004
 31
0.0
  0
LINE
  5
20A
330
1CE
100
AcDbEntity
  8
AM_9
100
AcDbLine
 10
-5.199911949125797
 20
-0.0540000000000004
 30
0.0
 11
-5.145911949125796
 21
-0.0000000000000002
 31
0.0
  0
LINE
  5
20B
330
1CE
100
AcDbEntity
  8
AM_9
100
AcDbLine
 10
-5.895911949125797
 20
-0.0000000000000002
 30
0.0
 11
-5.841911949125795
 21
-0.0540000000000004
 31
0.0
  0
LINE
  5
20C
330
1CE
100
AcDbEntity
  8
AM_9
100
AcDbLine
 10
-5.199911949125798
 20
-0.9459999999999998
 30
0.0
 11
-5.841911949125794
 21
-0.9459999999999998
 31
0.0
  0
LINE
  5
20D
330
1CE
100
AcDbEntity
  8
AM_9
100
AcDbLine
 10
-5.841911949125794
 20
-0.9459999999999998
 30
0.0
 11
-5.895911949125795
 21
-1.0
 31
0.0
  0
LINE
  5
20E
330
1CE
100
AcDbEntity
  8
AM_9
100
AcDbLine
 10
-5.145911949125797
 20
-1.0
 30
0.0
 11
-5.199911949125798
 21
-0.9459999999999998
 31
0.0
  0
LINE
  5
20F
330
1CE
100
AcDbEntity
  8
AM_9
100
AcDbLine
 10
6.812500000000001
 20
-1.25
 30
0.0
 11
6.812500000000001
 21
0.0
 31
0.0
  0
LINE
  5
210
330
1CE
100
AcDbEntity
  8
AM_9
100
AcDbLine
 10
5.937500000000001
 20
0.0
 30
0.0
 11
5.937500000000001
 21
-1.25
 31
0.0
  0
LINE
  5
211
330
1CE
100
AcDbEntity
  8
AM_9
100
AcDbLine
 10
-5.937500000000001
 20
-1.25
 30
0.0
 11
-5.937500000000001
 21
0.0
 31
0.0
  0
LINE
  5
212
330
1CE
100
AcDbEntity
  8
AM_9
100
AcDbLine
 10
-6.812500000000001
 20
0.0
 30
0.0
 11
-6.812500000000001
 21
-1.25
 31
0.0
  0
LINE
  5
213
330
1CE
100
AcDbEntity
  8
AM_9
100
AcDbLine
 10
-5.2375
 20
-1.87
 30
0.0
 11
-5.2375
 21
-1.25
 31
0.0
  0
LINE
  5
214
330
1CE
100
AcDbEntity
  8
AM_9
100
AcDbLine
 10
-5.2375
 20
-1.25
 30
0.0
 11
-5.276146018402896
 21
-1.25
 31
0.0
  0
LINE
  5
215
330
1CE
100
AcDbEntity
  8
AM_9
100
AcDbLine
 10
5.276146018402896
 20
-1.25
 30
0.0
 11
5.2375
 21
-1.25
 31
0.0
  0
LINE
  5
216
330
1CE
100
AcDbEntity
  8
AM_9
100
AcDbLine
 10
5.2375
 20
-1.25
 30
0.0
 11
5.2375
 21
-1.87
 31
0.0
  0
LINE
  5
217
330
1CE
100
AcDbEntity
  8
AM_9
100
AcDbLine
 10
5.41535579879069
 20
-1.86317959062341
 30
0.0
 11
5.41535579879069
 21
-1.25
 31
0.0
  0
LINE
  5
218
330
1CE
100
AcDbEntity
  8
AM_9
100
AcDbLine
 10
-5.415355769530811
 20
-1.863179605394166
 30
0.0
 11
-5.415355769530811
 21
-1.25
 31
0.0
  0
LINE
  5
219
330
1CE
100
AcDbEntity
  8
AM_9
100
AcDbLine
 10
5.199911949125796
 20
-0.054
 30
0.0
 11
5.199911949125796
 21
-0.9459999999999995
 31
0.0
  0
LINE
  5
21A
330
1CE
100
AcDbEntity
  8
AM_9
100
AcDbLine
 10
5.841911949125796
 20
-0.9459999999999995
 30
0.0
 11
5.841911949125796
 21
-0.054
 31
0.0
  0
LINE
  5
21B
330
1CE
100
AcDbEntity
  8
AM_9
100
AcDbLine
 10
5.841911949125796
 20
-0.9459999999999995
 30
0.0
 11
5.199911949125796
 21
-0.9459999999999995
 31
0.0
  0
LINE
  5
21C
330
1CE
100
AcDbEntity
  8
AM_9
100
AcDbLine
 10
5.199911949125796
 20
-0.9459999999999995
 30
0.0
 11
5.145911949125796
 21
-0.9999999999999999
 31
0.0
  0
LINE
  5
21D
330
1CE
100
AcDbEntity
  8
AM_9
100
AcDbLine
 10
5.895911949125797
 20
-0.9999999999999999
 30
0.0
 11
5.841911949125796
 21
-0.9459999999999995
 31
0.0
  0
LINE
  5
21E
330
1CE
100
AcDbEntity
  8
AM_9
100
AcDbLine
 10
5.841911949125796
 20
-0.054
 30
0.0
 11
5.199911949125795
 21
-0.054
 31
0.0
  0
LINE
  5
21F
330
1CE
100
AcDbEntity
  8
AM_9
100
AcDbLine
 10
5.841911949125797
 20
-0.054
 30
0.0
 11
5.895911949125797
 21
0.0000000000000002
 31
0.0
  0
LINE
  5
220
330
1CE
100
AcDbEntity
  8
AM_9
100
AcDbLine
 10
5.145911949125795
 20
0.0000000000000002
 30
0.0
 11
5.199911949125795
 21
-0.054
 31
0.0
  0
LINE
  5
221
330
1CE
100
AcDbEntity
  8
AM_9
100
AcDbLine
 10
4.421519062102289
 20
-0.9999999999999996
 30
0.0
 11
3.914194610310159
 21
-0.9999999999999997
 31
0.0
  0
LINE
  5
222
330
1CE
100
AcDbEntity
  8
AM_9
100
AcDbLine
 10
3.929271455113682
 20
-0.9999999999999997
 30
0.0
 11
3.929271455113682
 21
-1.25
 31
0.0
  0
LINE
  5
223
330
1CE
100
AcDbEntity
  8
AM_9
100
AcDbLine
 10
3.914194610310159
 20
-0.9999999999999997
 30
0.0
 11
3.914194610310159
 21
-1.25
 31
0.0
  0
LINE
  5
224
330
1CE
100
AcDbEntity
  8
AM_9
100
AcDbLine
 10
-3.929271455113679
 20
-0.9999999999999997
 30
0.0
 11
-3.929271455113679
 21
-1.25
 31
0.0
  0
LINE
  5
225
330
1CE
100
AcDbEntity
  8
AM_9
100
AcDbLine
 10
-3.914194610310155
 20
-1.25
 30
0.0
 11
-3.914194610310155
 21
-0.9999999999999997
 31
0.0
  0
LINE
  5
226
330
1CE
100
AcDbEntity
  8
AM_9
100
AcDbLine
 10
-3.914194610310155
 20
-0.9999999999999997
 30
0.0
 11
-4.421519062102284
 21
-0.9999999999999997
 31
0.0
  0
LINE
  5
227
330
1CE
100
AcDbEntity
  8
AM_9
100
AcDbLine
 10
3.983142670731456
 20
-0.9999999999999997
 30
0.0
 11
3.983142670731454
 21
-1.25
 31
0.0
  0
LINE
  5
228
330
1CE
100
AcDbEntity
  8
AM_9
100
AcDbLine
 10
-3.983142682503599
 20
-0.9999999999999997
 30
0.0
 11
-3.983142670731454
 21
-1.25
 31
0.0
  0
LINE
  5
229
330
1CE
100
AcDbEntity
  8
AM_9
100
AcDbLine
 10
4.52755
 20
-1.87
 30
0.0
 11
4.52755
 21
3.01
 31
0.0
  0
LINE
  5
22A
330
1CE
100
AcDbEntity
  8
AM_9
100
AcDbLine
 10
-4.52755
 20
3.01
 30
0.0
 11
-4.52755
 21
-1.87
 31
0.0
  0
LINE
  5
22B
330
1CE
100
AcDbEntity
  8
AM_9
100
AcDbLine
 10
4.463444930167286
 20
-0.9999999999999997
 30
0.0
 11
4.463444930167286
 21
-1.25
 31
0.0
  0
LINE
  5
22C
330
1CE
100
AcDbEntity
  8
AM_9
100
AcDbLine
 10
-4.463444930167282
 20
-0.9999999999999997
 30
0.0
 11
-4.463444930167282
 21
-1.25
 31
0.0
  0
LINE
  5
22D
330
1CE
100
AcDbEntity
  8
AM_9
100
AcDbLine
 10
3.625000000000001
 20
-1.25
 30
0.0
 11
3.625000000000001
 21
0.0000000000000003
 31
0.0
  0
LINE
  5
22E
330
1CE
100
AcDbEntity
  8
AM_9
100
AcDbLine
 10
2.750000000000001
 20
0.0000000000000003
 30
0.0
 11
2.750000000000001
 21
-1.25
 31
0.0
  0
LINE
  5
22F
330
1CE
100
AcDbEntity
  8
AM_9
100
AcDbLine
 10
-2.749999999999999
 20
-1.25
 30
0.0
 11
-2.749999999999999
 21
0.0000000000000003
 31
0.0
  0
LINE
  5
230
330
1CE
100
AcDbEntity
  8
AM_9
100
AcDbLine
 10
-3.624999999999999
 20
0.0000000000000003
 30
0.0
 11
-3.624999999999999
 21
-1.25
 31
0.0
  0
LINE
  5
231
330
1CE
100
AcDbEntity
  8
AM_5
100
AcDbLine
 10
5.145911949125795
 20
0.0000000000000005
 30
0.0
 11
5.145911949125795
 21
-0.9999999999999999
 31
0.0
  0
LINE
  5
232
330
1CE
100
AcDbEntity
  8
AM_5
100
AcDbLine
 10
5.895911949125795
 20
-0.0000000000000017
 30
0.0
 11
5.895911949125795
 21
-0.9999999999999979
 31
0.0
  0
LINE
  5
233
330
1CE
100
AcDbEntity
  8
AM_5
100
AcDbLine
 10
-5.895911949125795
 20
-0.0000000000000011
 30
0.0
 11
-5.895911949125795
 21
-0.9999999999999992
 31
0.0
  0
LINE
  5
234
330
1CE
100
AcDbEntity
  8
AM_5
100
AcDbLine
 10
-5.145911949125795
 20
0.000000000000001
 30
0.0
 11
-5.145911949125795
 21
-1.0
 31
0.0
  0
LINE
  5
237
330
1CE
100
AcDbEntity
  8
AM_7
100
AcDbLine
 10
-6.375000000000001
 20
0.065625
 30
0.0
 11
-6.375000000000001
 21
-1.378125
 31
0.0
  0
LINE
  5
238
330
1CE
100
AcDbEntity
  8
AM_7
100
AcDbLine
 10
-3.187500000000003
 20
0.0656249999999997
 30
0.0
 11
-3.187500000000003
 21
-1.378125
 31
0.0
  0
LINE
  5
239
330
1CE
100
AcDbEntity
  8
AM_7
100
AcDbLine
 10
3.187499999999997
 20
0.0656249999999997
 30
0.0
 11
3.187499999999997
 21
-1.378125
 31
0.0
  0
LINE
  5
23A
330
1CE
100
AcDbEntity
  8
AM_7
100
AcDbLine
 10
6.375000000000001
 20
0.065625
 30
0.0
 11
6.375000000000001
 21
-1.378125
 31
0.0
  0
LINE
  5
23B
330
1CE
100
AcDbEntity
  8
AM_7
100
AcDbLine
 10
5.520911949125796
 20
0.0500000000000002
 30
0.0
 11
5.520911949125796
 21
-1.05
 31
0.0
  0
LINE
  5
23C
330
1CE
100
AcDbEntity
  8
AM_7
100
AcDbLine
 10
-5.520911949125796
 20
0.0499999999999998
 30
0.0
 11
-5.520911949125796
 21
-1.05
 31
0.0
  0
LINE
  5
23D
330
1CE
100
AcDbEntity
  8
AM_7
100
AcDbLine
 10
0.0
 20
3.973199999999999
 30
0.0
 11
0.0
 21
-3.973199999999999
 31
0.0
  0
LINE
  5
23E
330
1CE
100
AcDbEntity
  8
AM_4
100
AcDbLine
 10
5.449558823529413
 20
-1.804793534754678
 30
0.0
 11
5.449558823529413
 21
-1.25
 31
0.0
  0
LWPOLYLINE
  5
23F
330
1CE
100
AcDbEntity
  8
AM_4
100
AcDbPolyline
 90
        6
 70
     0
 43
0.0
 10
5.44955882346451
 20
-1.804840379523987
 10
5.449473209688637
 20
-1.80845412639804
 10
5.445279447964499
 20
-1.829397199128599
 10
5.436717762352282
 20
-1.845230328820047
 10
5.422806911963056
 20
-1.858729437642054
 10
5.41535579879069
 20
-1.863179590623409
  0
LINE
  5
240
330
1CE
100
AcDbEntity
  8
AM_4
100
AcDbLine
 10
-5.449558823529412
 20
-1.25
 30
0.0
 11
-5.449558823529412
 21
-1.804675017547116
 31
0.0
  0
LWPOLYLINE
  5
241
330
1CE
100
AcDbEntity
  8
AM_4
100
AcDbPolyline
 90
        4
 70
     0
 43
0.0
 10
-5.449558806006804
 20
-1.804791649915502
 10
-5.449040051550393
 20
-1.795837771197175
 10
-5.447539614694311
 20
-1.786976642973069
 10
-5.447469544030631
 20
-1.78666666666667
  0
LINE
  5
242
330
1CE
100
AcDbEntity
  8
AM_4
100
AcDbLine
 10
7.010650013512954
 20
-1.0
 30
0.0
 11
7.010650013512954
 21
-1.25
 31
0.0
  0
LINE
  5
243
330
1CE
100
AcDbEntity
  8
AM_4
100
AcDbLine
 10
-7.010650013512953
 20
-1.0
 30
0.0
 11
-7.010650013512953
 21
-1.25
 31
0.0
  0
LINE
  5
244
330
1CE
100
AcDbEntity
  8
AM_4
100
AcDbLine
 10
5.276146018402896
 20
-1.25
 30
0.0
 11
7.375
 21
-1.25
 31
0.0
  0
LINE
  5
245
330
1CE
100
AcDbEntity
  8
AM_4
100
AcDbLine
 10
5.472558793004477
 20
-0.9999999999999999
 30
0.0
 11
5.472558793004477
 21
-1.25
 31
0.0
  0
LINE
  5
246
330
1CE
100
AcDbEntity
  8
AM_4
100
AcDbLine
 10
-5.472558793004476
 20
-0.9999999999999999
 30
0.0
 11
-5.472558793004476
 21
-1.25
 31
0.0
  0
LINE
  5
247
330
1CE
100
AcDbEntity
  8
AM_4
100
AcDbLine
 10
-7.375
 20
-1.25
 30
0.0
 11
-5.276146018402896
 21
-1.25
 31
0.0
  0
LINE
  5
248
330
1CE
100
AcDbEntity
  8
AM_4
100
AcDbLine
 10
5.447469547839896
 20
-1.78666666666667
 30
0.0
 11
5.447469547839896
 21
-1.25
 31
0.0
  0
LINE
  5
249
330
1CE
100
AcDbEntity
  8
AM_4
100
AcDbLine
 10
5.276146018402896
 20
-0.9999999999999999
 30
0.0
 11
5.276146018402896
 21
-1.25
 31
0.0
  0
LINE
  5
24A
330
1CE
100
AcDbEntity
  8
AM_4
100
AcDbLine
 10
-5.276146018402898
 20
-0.9999999999999999
 30
0.0
 11
-5.276146018402896
 21
-1.25
 31
0.0
  0
LINE
  5
24B
330
1CE
100
AcDbEntity
  8
AM_4
100
AcDbLine
 10
-5.44746954403063
 20
-1.78666666666667
 30
0.0
 11
-5.44746954403063
 21
-1.25
 31
0.0
  0
LINE
  5
24C
330
1CE
100
AcDbEntity
  8
AM_4
100
AcDbLine
 10
-3.380474182262277
 20
-1.78666666666667
 30
0.0
 11
-3.380474182262277
 21
-1.25
 31
0.0
  0
LINE
  5
24D
330
1CE
100
AcDbEntity
  8
AM_4
100
AcDbLine
 10
3.380474199143026
 20
-1.78666666666667
 30
0.0
 11
3.380474199143026
 21
-1.25
 31
0.0
  0
LINE
  5
24E
330
1CE
100
AcDbEntity
  8
AM_4
100
AcDbLine
 10
-5.387215413943348
 20
-1.87000000000002
 30
0.0
 11
5.387215413943356
 21
-1.87
 31
0.0
  0
LWPOLYLINE
  5
24F
330
1CE
100
AcDbEntity
  8
AM_4
100
AcDbPolyline
 90
        5
 70
     0
 43
0.0
 10
-5.415355769530811
 20
-1.863179605394165
 10
-5.429757415614075
 20
-1.853065383317115
 10
-5.440297169149328
 20
-1.839860290240654
 10
-5.448191591731266
 20
-1.819035592010934
 10
-5.449558806006804
 20
-1.804791649915502
  0
LINE
  5
250
330
1CE
100
AcDbEntity
  8
AM_4
100
AcDbLine
 10
-5.415355769530811
 20
-1.863179605394166
 30
0.0
 11
-5.387215413943348
 21
-1.87000000000002
 31
0.0
  0
LWPOLYLINE
  5
251
330
1CE
100
AcDbEntity
  8
AM_4
100
AcDbPolyline
 90
        7
 70
     0
 43
0.0
 10
-3.380474182262277
 20
-1.78666666666667
 10
-3.380069550995542
 20
-1.786976642972907
 10
-3.350056039875863
 20
-1.808454126398016
 10
-3.315970291638492
 20
-1.829397199128388
 10
-3.285026278450778
 20
-1.84523039317523
 10
-3.251241077910999
 20
-1.858729540882681
 10
-3.236584243224795
 20
-1.863179596335067
  0
LINE
  5
252
330
1CE
100
AcDbEntity
  8
AM_4
100
AcDbLine
 10
-5.44746954403063
 20
-1.78666666666667
 30
0.0
 11
-3.380474182262277
 21
-1.78666666666667
 31
0.0
  0
LWPOLYLINE
  5
253
330
1CE
100
AcDbEntity
  8
AM_4
100
AcDbPolyline
 90
        7
 70
     0
 43
0.0
 10
3.236584276617631
 20
-1.863179587275966
 10
3.266738019150018
 20
-1.853064983211923
 10
3.296229291335266
 20
-1.839859334333394
 10
3.333569301855873
 20
-1.819034362199442
 10
3.368180320309705
 20
-1.795836316365429
 10
3.380069550995661
 20
-1.786976642973155
 10
3.380474199143029
 20
-1.78666666666667
  0
LWPOLYLINE
  5
254
330
1CE
100
AcDbEntity
  8
AM_4
100
AcDbPolyline
 90
        3
 70
     0
 43
0.0
 10
5.387215413943356
 20
-1.87
 10
5.39101624687226
 20
-1.869879950746011
 10
5.41535579879069
 20
-1.86317959062341
  0
LWPOLYLINE
  5
255
330
1CE
100
AcDbEntity
  8
AM_4
100
AcDbPolyline
 90
        3
 70
     0
 43
0.0
 10
5.447469546819665
 20
-1.786666678900888
 10
5.447539614694349
 20
-1.786976642972635
 10
5.44955882346451
 20
-1.804840379523987
  0
LINE
  5
256
330
1CE
100
AcDbEntity
  8
AM_4
100
AcDbLine
 10
3.380474199143026
 20
-1.78666666666667
 30
0.0
 11
5.447469547839896
 21
-1.78666666666667
 31
0.0
  0
LINE
  5
257
330
1CE
100
AcDbEntity
  8
AM_4
100
AcDbLine
 10
3.236584276617631
 20
-1.863179587275966
 30
0.0
 11
3.182116556596402
 21
-1.87000000000002
 31
0.0
  0
LINE
  5
258
330
1CE
100
AcDbEntity
  8
AM_4
100
AcDbLine
 10
3.236584276617631
 20
-1.863179587275966
 30
0.0
 11
3.236584276617631
 21
-1.25
 31
0.0
  0
LINE
  5
259
330
1CE
100
AcDbEntity
  8
AM_4
100
AcDbLine
 10
-3.236584243224795
 20
-1.863179596335067
 30
0.0
 11
-3.236584243224795
 21
-1.25
 31
0.0
  0
LWPOLYLINE
  5
25A
330
1CE
100
AcDbEntity
  8
AM_4
100
AcDbPolyline
 90
        3
 70
     0
 43
0.0
 10
-3.18211655659641
 20
-1.87
 10
-3.189736479244955
 20
-1.869879950746011
 10
-3.236584243224795
 20
-1.863179596335067
  0
LINE
  5
25B
330
1CE
100
AcDbEntity
  8
AM_4
100
AcDbLine
 10
-2.178771530585945
 20
-1.863179588320918
 30
0.0
 11
-2.178771530585945
 21
-1.25
 31
0.0
  0
LINE
  5
25C
330
1CE
100
AcDbEntity
  8
AM_4
100
AcDbLine
 10
2.178771544251486
 20
-1.863179596335068
 30
0.0
 11
2.178771544251486
 21
-1.25
 31
0.0
  0
LINE
  5
25D
330
1CE
100
AcDbEntity
  8
AM_4
100
AcDbLine
 10
-5.071637933210165
 20
3.01
 30
0.0
 11
5.07163793320712
 21
3.01
 31
0.0
  0
ARC
  5
25E
330
1CE
100
AcDbEntity
  8
AM_4
100
AcDbCircle
 10
5.071637933210165
 20
2.885
 30
0.0
 40
0.1249999999999995
100
AcDbArc
 50
1.999999999999765
 51
90.0
  0
ARC
  5
25F
330
1CE
100
AcDbEntity
  8
AM_4
100
AcDbCircle
 10
-5.071637933210165
 20
2.885
 30
0.0
 40
0.1249999999999996
100
AcDbArc
 50
90.0
 51
178.0000000000003
  0
LINE
  5
260
330
1CE
100
AcDbEntity
  8
AM_4
100
AcDbLine
 10
-5.196561786587552
 20
2.889362437087813
 30
0.0
 11
5.196561786587552
 21
2.889362437087813
 31
0.0
  0
LINE
  5
261
330
1CE
100
AcDbEntity
  8
AM_4
100
AcDbLine
 10
-5.196561786587552
 20
2.889362437087813
 30
0.0
 11
-5.233882481568735
 21
1.820637562912187
 31
0.0
  0
LINE
  5
262
330
1CE
100
AcDbEntity
  8
AM_4
100
AcDbLine
 10
5.233882481568735
 20
1.820637562912187
 30
0.0
 11
5.196561786587552
 21
2.889362437087813
 31
0.0
  0
LINE
  5
263
330
1CE
100
AcDbEntity
  8
AM_4
100
AcDbLine
 10
-5.233882481568735
 20
1.820637562912187
 30
0.0
 11
5.233882481568735
 21
1.820637562912187
 31
0.0
  0
ARC
  5
264
330
1CE
100
AcDbEntity
  8
AM_4
100
AcDbCircle
 10
5.358806334946122
 20
1.825
 30
0.0
 40
0.1249999999999995
100
AcDbArc
 50
182.0000000000001
 51
270.0
  0
ARC
  5
265
330
1CE
100
AcDbEntity
  8
AM_4
100
AcDbCircle
 10
-5.358806334946122
 20
1.825
 30
0.0
 40
0.125
100
AcDbArc
 50
270.0
 51
357.9999999999999
  0
LINE
  5
266
330
1CE
100
AcDbEntity
  8
AM_4
100
AcDbLine
 10
-1.293003347671439
 20
-0.9999999999999997
 30
0.0
 11
-1.293003347671439
 21
-1.25
 31
0.0
  0
LINE
  5
267
330
1CE
100
AcDbEntity
  8
AM_4
100
AcDbLine
 10
-2.066995344887604
 20
-1.78666666666667
 30
0.0
 11
-2.066995344887604
 21
-1.25
 31
0.0
  0
LINE
  5
268
330
1CE
100
AcDbEntity
  8
AM_4
100
AcDbLine
 10
2.066995344887599
 20
-1.78666666666667
 30
0.0
 11
2.066995344887599
 21
-1.25
 31
0.0
  0
LINE
  5
269
330
1CE
100
AcDbEntity
  8
AM_4
100
AcDbLine
 10
1.293003347671442
 20
-0.9999999999999997
 30
0.0
 11
1.293003347671442
 21
-1.25
 31
0.0
  0
LINE
  5
26A
330
1CE
100
AcDbEntity
  8
AM_4
100
AcDbLine
 10
-2.178771530585945
 20
-1.863179588320918
 30
0.0
 11
-2.205098857346947
 21
-1.87000000000002
 31
0.0
  0
LWPOLYLINE
  5
26B
330
1CE
100
AcDbEntity
  8
AM_4
100
AcDbPolyline
 90
        3
 70
     0
 43
0.0
 10
2.205098857346945
 20
-1.87
 10
2.201279767627313
 20
-1.869879950746011
 10
2.178771544251486
 20
-1.863179596335068
  0
LWPOLYLINE
  5
26C
330
1CE
100
AcDbEntity
  8
AM_4
100
AcDbPolyline
 90
        7
 70
     0
 43
0.0
 10
2.066995344887599
 20
-1.78666666666667
 10
2.067470063698705
 20
-1.786976642973032
 10
2.09941716981275
 20
-1.808454126398002
 10
2.12930915632594
 20
-1.82939719912829
 10
2.151691371955719
 20
-1.845230348305925
 10
2.171565574280563
 20
-1.858729468902119
 10
2.178771544251486
 20
-1.863179596335068
  0
LINE
  5
26D
330
1CE
100
AcDbEntity
  8
AM_4
100
AcDbLine
 10
0.5
 20
-1.78666666666667
 30
0.0
 11
2.066995344887599
 21
-1.78666666666667
 31
0.0
  0
LINE
  5
26E
330
1CE
100
AcDbEntity
  8
AM_4
100
AcDbLine
 10
-2.066995344887604
 20
-1.78666666666667
 30
0.0
 11
-0.5
 21
-1.78666666666667
 31
0.0
  0
LWPOLYLINE
  5
26F
330
1CE
100
AcDbEntity
  8
AM_4
100
AcDbPolyline
 90
        7
 70
     0
 43
0.0
 10
-2.178771530585945
 20
-1.863179588320918
 10
-2.163020196053455
 20
-1.85306523905804
 10
-2.144069336669921
 20
-1.839859964652266
 10
-2.114623688793791
 20
-1.819035173127829
 10
-2.080860997056258
 20
-1.795837275669464
 10
-2.067470063698592
 20
-1.786976642973257
 10
-2.066995344887608
 20
-1.78666666666667
  0
LINE
  5
270
330
1CE
100
AcDbEntity
  8
AM_4
100
AcDbLine
 10
-5.5
 20
1.7
 30
0.0
 11
5.499999999999997
 21
1.7
 31
0.0
  0
LINE
  5
271
330
1CE
100
AcDbEntity
  8
AM_4
100
AcDbLine
 10
5.499999999999997
 20
0.0
 30
0.0
 11
5.499999999999997
 21
1.7
 31
0.0
  0
LINE
  5
272
330
1CE
100
AcDbEntity
  8
AM_4
100
AcDbLine
 10
-5.499999999999997
 20
1.7
 30
0.0
 11
-5.499999999999997
 21
0.0
 31
0.0
  0
LINE
  5
273
330
1CE
100
AcDbEntity
  8
AM_4
100
AcDbLine
 10
4.489829408573452
 20
-1.25
 30
0.0
 11
4.489829408573452
 21
-0.9999999999999996
 31
0.0
  0
LINE
  5
274
330
1CE
100
AcDbEntity
  8
AM_4
100
AcDbLine
 10
4.489829408573452
 20
-1.25
 30
0.0
 11
1.293003347671442
 21
-1.25
 31
0.0
  0
LINE
  5
275
330
1CE
100
AcDbEntity
  8
AM_4
100
AcDbLine
 10
-1.293003347671439
 20
-1.25
 30
0.0
 11
-4.489829408573448
 21
-1.25
 31
0.0
  0
LINE
  5
276
330
1CE
100
AcDbEntity
  8
AM_4
100
AcDbLine
 10
-4.489829408573448
 20
-0.9999999999999996
 30
0.0
 11
-4.489829408573448
 21
-1.25
 31
0.0
  0
LINE
  5
277
330
1CE
100
AcDbEntity
  8
AM_4
100
AcDbLine
 10
1.543287337890797
 20
-0.9999999999999997
 30
0.0
 11
1.543287337890797
 21
-1.25
 31
0.0
  0
LINE
  5
278
330
1CE
100
AcDbEntity
  8
AM_4
100
AcDbLine
 10
-1.543287337890794
 20
-0.9999999999999997
 30
0.0
 11
-1.543287337890794
 21
-1.25
 31
0.0
  0
LINE
  5
279
330
1CE
100
AcDbEntity
  8
AM_4
100
AcDbLine
 10
2.547205083345672
 20
-0.9999999999999996
 30
0.0
 11
2.547205083345672
 21
-1.25
 31
0.0
  0
LINE
  5
27A
330
1CE
100
AcDbEntity
  8
AM_4
100
AcDbLine
 10
-2.547205083345668
 20
-0.9999999999999996
 30
0.0
 11
-2.547205083345668
 21
-1.25
 31
0.0
  0
LINE
  5
27B
330
1CE
100
AcDbEntity
  8
AM_4
100
AcDbLine
 10
-0.5
 20
-0.9999999999999993
 30
0.0
 11
-0.5
 21
-1.869
 31
0.0
  0
LINE
  5
27C
330
1CE
100
AcDbEntity
  8
AM_4
100
AcDbLine
 10
0.5
 20
-1.869
 30
0.0
 11
-0.5
 21
-1.869
 31
0.0
  0
LINE
  5
27D
330
1CE
100
AcDbEntity
  8
AM_4
100
AcDbLine
 10
0.5
 20
-0.9999999999999993
 30
0.0
 11
0.5
 21
-1.869
 31
0.0
  0
LINE
  5
27E
330
1CE
100
AcDbEntity
  8
AM_4
100
AcDbLine
 10
-7.375
 20
0.0
 30
0.0
 11
7.375
 21
0.0
 31
0.0
  0
LINE
  5
27F
330
1CE
100
AcDbEntity
  8
AM_4
100
AcDbLine
 10
4.421519062102289
 20
-0.9999999999999996
 30
0.0
 11
4.421519062102289
 21
-1.25
 31
0.0
  0
LINE
  5
280
330
1CE
100
AcDbEntity
  8
AM_4
100
AcDbLine
 10
7.322568959971552
 20
-1.0
 30
0.0
 11
4.421519062102289
 21
-0.9999999999999996
 31
0.0
  0
LINE
  5
281
330
1CE
100
AcDbEntity
  8
AM_4
100
AcDbLine
 10
7.322568959971552
 20
-1.25
 30
0.0
 11
7.322568959971552
 21
-1.0
 31
0.0
  0
LINE
  5
282
330
1CE
100
AcDbEntity
  8
AM_4
100
AcDbLine
 10
-7.322568959971552
 20
-1.0
 30
0.0
 11
-7.322568959971552
 21
-1.25
 31
0.0
  0
LINE
  5
283
330
1CE
100
AcDbEntity
  8
AM_4
100
AcDbLine
 10
-4.421519062102284
 20
-0.9999999999999996
 30
0.0
 11
-7.322568959971552
 21
-1.0
 31
0.0
  0
LINE
  5
284
330
1CE
100
AcDbEntity
  8
AM_4
100
AcDbLine
 10
-4.421519062102284
 20
-1.25
 30
0.0
 11
-4.421519062102284
 21
-0.9999999999999996
 31
0.0
  0
LINE
  5
285
330
1CE
100
AcDbEntity
  8
AM_4
100
AcDbLine
 10
-2.901049897869263
 20
-0.9999999999999996
 30
0.0
 11
-2.901049897869263
 21
-1.25
 31
0.0
  0
LINE
  5
286
330
1CE
100
AcDbEntity
  8
AM_4
100
AcDbLine
 10
2.901049897869268
 20
-0.9999999999999996
 30
0.0
 11
-2.901049897869263
 21
-0.9999999999999996
 31
0.0
  0
LINE
  5
287
330
1CE
100
AcDbEntity
  8
AM_4
100
AcDbLine
 10
2.901049897869268
 20
-1.25
 30
0.0
 11
2.901049897869268
 21
-0.9999999999999996
 31
0.0
  0
LINE
  5
288
330
1CE
100
AcDbEntity
  8
AM_4
100
AcDbLine
 10
7.375
 20
-1.25
 30
0.0
 11
7.375
 21
0.0
 31
0.0
  0
LINE
  5
289
330
1CE
100
AcDbEntity
  8
AM_4
100
AcDbLine
 10
-7.375
 20
0.0
 30
0.0
 11
-7.375
 21
-1.25
 31
0.0
  0
ENDBLK
  5
1D1
330
1CE
100
AcDbEntity
  8
0
100
AcDbBlockEnd
  0
ENDSEC
  0
SECTION
  2
ENTITIES
  0
INSERT
  5
6F
330
1F
100
AcDbEntity
  8
0
100
AcDbBlockReference
  2
1_071279_4
 10
0.0
 20
0.0
 30
0.0
  0
POINT
  5
28B
330
1F
100
AcDbEntity
  8
ConnectionPoints
100
AcDbPoint
 10
0.0
 20
-2.668833333333334
 30
-3.295138888888889
  0
POINT
  5
28C
330
1F
100
AcDbEntity
  8
ConnectionPoints
100
AcDbPoint
 10
0.0
 20
-2.668833333333334
 30
3.295138888888889
  0
POINT
  5
28D
330
1F
100
AcDbEntity
  8
ConnectionPoints
100
AcDbPoint
 10
0.0
 20
-2.598833333333334
 30
0.0000000000000002
  0
POINT
  5
28E
330
1F
100
AcDbEntity
  8
ConnectionPoints
100
AcDbPoint
 10
0.0
 20
-3.02
 30
0.0000000000000002
  0
POINT
  5
28F
330
1F
100
AcDbEntity
  8
ConnectionPoints
100
AcDbPoint
 10
0.0
 20
-2.797833333333334
 30
0.0000000000000002
  0
POINT
  5
290
330
1F
100
AcDbEntity
  8
ConnectionPoints
100
AcDbPoint
 10
0.0
 20
-2.598833333333334
 30
3.295138888888889
  0
POINT
  5
291
330
1F
100
AcDbEntity
  8
ConnectionPoints
100
AcDbPoint
 10
0.0
 20
-2.598833333333334
 30
-3.295138888888889
  0
POINT
  5
292
330
1F
100
AcDbEntity
  8
ConnectionPoints
100
AcDbPoint
 10
0.0
 20
-2.598833333333334
 30
0.0000000000000002
  0
POINT
  5
293
330
1F
100
AcDbEntity
  8
ConnectionPoints
100
AcDbPoint
 10
0.0
 20
-1.434499999999999
 30
6.252576075888676
  0
POINT
  5
294
330
1F
100
AcDbEntity
  8
ConnectionPoints
100
AcDbPoint
 10
0.0
 20
-1.429114080617427
 30
6.261904761904762
  0
POINT
  5
295
330
1F
100
AcDbEntity
  8
ConnectionPoints
100
AcDbPoint
 10
0.0
 20
-3.02
 30
0.0000000000000002
  0
POINT
  5
296
330
1F
100
AcDbEntity
  8
ConnectionPoints
100
AcDbPoint
 10
0.0
 20
-3.4
 30
0.0000000000000002
  0
ENDSEC
  0
SECTION
  2
OBJECTS
  0
DICTIONARY
  5
C
330
0
100
AcDbDictionary
281
     1
  3
ACAD_DETAILVIEWSTYLE
350
29E
  3
ACAD_GROUP
350
D
  3
ACAD_LAYOUT
350
1A
  3
ACAD_MATERIAL
350
43
  3
ACAD_MLEADERSTYLE
350
6B
  3
ACAD_MLINESTYLE
350
17
  3
ACAD_PLOTSETTINGS
350
19
  3
ACAD_PLOTSTYLENAME
350
E
  3
ACAD_SCALELIST
350
47
  3
ACAD_SECTIONVIEWSTYLE
350
29F
  3
ACAD_TABLESTYLE
350
69
  3
ACAD_VISUALSTYLE
350
2A
  3
ACDB_RECOMPOSE_DATA
350
29B
  3
AcDbVariableDictionary
350
297
  0
SUN
  5
6D
330
29
100
AcDbSun
 90
        1
290
     0
 63
     7
421
 16777215
 40
1.0
291
     1
 91
  2455826
 92
 54000000
292
     0
 70
     2
 71
   256
280
     1
  0
DICTIONARY
  5
29E
102
{ACAD_REACTORS
330
C
102
}
330
C
100
AcDbDictionary
281
     1
  0
DICTIONARY
  5
D
102
{ACAD_REACTORS
330
C
102
}
330
C
100
AcDbDictionary
281
     1
  0
DICTIONARY
  5
1A
102
{ACAD_REACTORS
330
C
102
}
330
C
100
AcDbDictionary
281
     1
  3
Layout1
350
1E
  3
Layout2
350
26
  3
Model
350
22
  0
DICTIONARY
  5
43
102
{ACAD_REACTORS
330
C
102
}
330
C
100
AcDbDictionary
281
     1
  3
ByBlock
350
45
  3
ByLayer
350
44
  3
Global
350
46
  0
DICTIONARY
  5
6B
102
{ACAD_REACTORS
330
C
102
}
330
C
100
AcDbDictionary
281
     1
  3
Standard
350
6C
  0
DICTIONARY
  5
17
102
{ACAD_REACTORS
330
C
102
}
330
C
100
AcDbDictionary
281
     1
  3
Standard
350
18
  0
DICTIONARY
  5
19
102
{ACAD_REACTORS
330
C
102
}
330
C
100
AcDbDictionary
281
     1
  0
ACDBDICTIONARYWDFLT
  5
E
102
{ACAD_REACTORS
330
C
102
}
330
C
100
AcDbDictionary
281
     1
  3
Normal
350
F
100
AcDbDictionaryWithDefault
340
F
  0
DICTIONARY
  5
47
102
{ACAD_REACTORS
330
C
102
}
330
C
100
AcDbDictionary
281
     1
  3
A0
350
48
  3
A1
350
49
  3
A2
350
4A
  3
A3
350
4B
  3
A4
350
4C
  3
A5
350
4D
  3
A6
350
4E
  3
A7
350
4F
  3
A8
350
50
  3
A9
350
51
  3
B0
350
52
  3
B1
350
53
  3
B2
350
54
  3
B3
350
55
  3
B4
350
56
  3
B5
350
57
  3
B6
350
58
  3
B7
350
59
  3
B8
350
5A
  3
B9
350
5B
  3
C0
350
5C
  3
C1
350
5D
  3
C2
350
5E
  3
C3
350
5F
  3
C4
350
60
  3
C5
350
61
  3
C6
350
62
  3
C7
350
63
  3
C8
350
64
  3
C9
350
65
  3
D0
350
66
  3
D1
350
67
  3
D2
350
68
  0
DICTIONARY
  5
29F
102
{ACAD_REACTORS
330
C
102
}
330
C
100
AcDbDictionary
281
     1
  0
DICTIONARY
  5
69
102
{ACAD_REACTORS
330
C
102
}
330
C
100
AcDbDictionary
281
     1
  3
Standard
350
6A
  0
DICTIONARY
  5
2A
102
{ACAD_REACTORS
330
C
102
}
330
C
100
AcDbDictionary
281
     1
  3
2dWireframe
350
2F
  3
Basic
350
32
  3
Brighten
350
36
  3
ColorChange
350
3A
  3
Conceptual
350
34
  3
Dim
350
35
  3
EdgeColorOff
350
3D
  3
Facepattern
350
39
  3
Flat
350
2B
  3
FlatWithEdges
350
2C
  3
Gouraud
350
2D
  3
GouraudWithEdges
350
2E
  3
Hidden
350
31
  3
JitterOff
350
3B
  3
Linepattern
350
38
  3
OverhangOff
350
3C
  3
Realistic
350
33
  3
Shaded
350
42
  3
Shaded with edges
350
41
  3
Shades of Gray
350
3E
  3
Sketchy
350
3F
  3
Thicken
350
37
  3
Wireframe
350
30
  3
X-Ray
350
40
  0
XRECORD
  5
29B
102
{ACAD_REACTORS
330
C
102
}
330
C
100
AcDbXrecord
280
     1
 90
        1
330
6A
  0
DICTIONARY
  5
297
102
{ACAD_REACTORS
330
C
102
}
330
C
100
AcDbDictionary
281
     1
  3
CANNOSCALE
350
298
  3
CMLEADERSTYLE
350
29D
  3
CTABLESTYLE
350
29C
  0
LAYOUT
  5
1E
102
{ACAD_REACTORS
330
1A
102
}
330
1A
100
AcDbPlotSettings
  1

  2
none_device
  4

  6

 40
0.0
 41
0.0
 42
0.0
 43
0.0
 44
0.0
 45
0.0
 46
0.0
 47
0.0
 48
0.0
 49
0.0
140
0.0
141
0.0
142
1.0
143
1.0
 70
   688
 72
     0
 73
     0
 74
     5
  7

 75
    16
 76
     0
 77
     2
 78
   300
147
1.0
148
0.0
149
0.0
100
AcDbLayout
  1
Layout1
 70
     1
 71
     1
 10
0.0
 20
0.0
 11
12.0
 21
9.0
 12
0.0
 22
0.0
 32
0.0
 14
1.000000000000000E+20
 24
1.000000000000000E+20
 34
1.000000000000000E+20
 15
-1.000000000000000E+20
 25
-1.000000000000000E+20
 35
-1.000000000000000E+20
146
0.0
 13
0.0
 23
0.0
 33
0.0
 16
1.0
 26
0.0
 36
0.0
 17
0.0
 27
1.0
 37
0.0
 76
     0
330
1B
  0
LAYOUT
  5
26
102
{ACAD_REACTORS
330
1A
102
}
330
1A
100
AcDbPlotSettings
  1

  2
none_device
  4

  6

 40
0.0
 41
0.0
 42
0.0
 43
0.0
 44
0.0
 45
0.0
 46
0.0
 47
0.0
 48
0.0
 49
0.0
140
0.0
141
0.0
142
1.0
143
1.0
 70
   688
 72
     0
 73
     0
 74
     5
  7

 75
    16
 76
     0
 77
     2
 78
   300
147
1.0
148
0.0
149
0.0
100
AcDbLayout
  1
Layout2
 70
     1
 71
     2
 10
0.0
 20
0.0
 11
0.0
 21
0.0
 12
0.0
 22
0.0
 32
0.0
 14
0.0
 24
0.0
 34
0.0
 15
0.0
 25
0.0
 35
0.0
146
0.0
 13
0.0
 23
0.0
 33
0.0
 16
1.0
 26
0.0
 36
0.0
 17
0.0
 27
1.0
 37
0.0
 76
     0
330
23
  0
LAYOUT
  5
22
102
{ACAD_REACTORS
330
1A
102
}
330
1A
100
AcDbPlotSettings
  1

  2
none_device
  4
Letter_(8.50_x_11.00_Inches)
  6

 40
6.35
 41
6.35
 42
6.35000508
 43
6.35000508
 44
215.9
 45
279.4
 46
0.0
 47
0.0
 48
0.0
 49
0.0
140
0.0
141
0.0
142
1.0
143
1.0
 70
  1712
 72
     0
 73
     0
 74
     0
  7

 75
     0
 76
     0
 77
     2
 78
   300
147
1.0
148
0.0
149
0.0
100
AcDbLayout
  1
Model
 70
     1
 71
     0
 10
0.0
 20
0.0
 11
12.0
 21
9.0
 12
0.0
 22
0.0
 32
0.0
 14
1.000000000000000E+20
 24
1.000000000000000E+20
 34
1.000000000000000E+20
 15
-1.000000000000000E+20
 25
-1.000000000000000E+20
 35
-1.000000000000000E+20
146
0.0
 13
0.0
 23
0.0
 33
0.0
 16
1.0
 26
0.0
 36
0.0
 17
0.0
 27
1.0
 37
0.0
 76
     0
330
1F
331
29
  0
MATERIAL
  5
45
102
{ACAD_REACTORS
330
43
102
}
330
43
100
AcDbMaterial
  1
ByBlock
 72
     1
 94
      127
  0
MATERIAL
  5
44
102
{ACAD_REACTORS
330
43
102
}
330
43
100
AcDbMaterial
  1
ByLayer
 72
     1
 94
      127
  0
MATERIAL
  5
46
102
{ACAD_REACTORS
330
43
102
}
330
43
100
AcDbMaterial
  1
Global
 72
     1
 94
      127
  0
MLEADERSTYLE
  5
6C
102
{ACAD_REACTORS
330
6B
102
}
330
6B
100
AcDbMLeaderStyle
179
     2
170
     2
171
     1
172
     0
 90
        2
 40
0.0
 41
0.0
173
     1
 91
-1056964608
340
14
 92
       -2
290
     1
 42
0.09
291
     1
 43
0.36
  3
Standard
341
0
 44
0.18
300

342
11
174
     1
178
     6
175
     1
176
     0
 93
-1056964608
 45
0.18
292
     0
297
     0
 46
0.18
343
0
 94
-1056964608
 47
1.0
 49
1.0
140
1.0
293
     1
141
0.0
294
     1
177
     0
142
1.0
295
     0
296
     0
143
0.125
271
     0
272
     9
273
     9
298
     0
  0
MLINESTYLE
  5
18
102
{ACAD_REACTORS
330
17
102
}
330
17
100
AcDbMlineStyle
  2
Standard
 70
     0
  3

 62
   256
 51
90.0
 52
90.0
 71
     2
 49
0.5
 62
   256
  6
BYLAYER
 49
-0.5
 62
   256
  6
BYLAYER
  0
ACDBPLACEHOLDER
  5
F
102
{ACAD_REACTORS
330
E
102
}
330
E
  0
SCALE
  5
48
102
{ACAD_REACTORS
330
47
102
}
330
47
100
AcDbScale
 70
     0
300
1:1
140
1.0
141
1.0
290
     1
  0
SCALE
  5
49
102
{ACAD_REACTORS
330
47
102
}
330
47
100
AcDbScale
 70
     0
300
1:2
140
1.0
141
2.0
290
     0
  0
SCALE
  5
4A
102
{ACAD_REACTORS
330
47
102
}
330
47
100
AcDbScale
 70
     0
300
1:4
140
1.0
141
4.0
290
     0
  0
SCALE
  5
4B
102
{ACAD_REACTORS
330
47
102
}
330
47
100
AcDbScale
 70
     0
300
1:5
140
1.0
141
5.0
290
     0
  0
SCALE
  5
4C
102
{ACAD_REACTORS
330
47
102
}
330
47
100
AcDbScale
 70
     0
300
1:8
140
1.0
141
8.0
290
     0
  0
SCALE
  5
4D
102
{ACAD_REACTORS
330
47
102
}
330
47
100
AcDbScale
 70
     0
300
1:10
140
1.0
141
10.0
290
     0
  0
SCALE
  5
4E
102
{ACAD_REACTORS
330
47
102
}
330
47
100
AcDbScale
 70
     0
300
1:16
140
1.0
141
16.0
290
     0
  0
SCALE
  5
4F
102
{ACAD_REACTORS
330
47
102
}
330
47
100
AcDbScale
 70
     0
300
1:20
140
1.0
141
20.0
290
     0
  0
SCALE
  5
50
102
{ACAD_REACTORS
330
47
102
}
330
47
100
AcDbScale
 70
     0
300
1:30
140
1.0
141
30.0
290
     0
  0
SCALE
  5
51
102
{ACAD_REACTORS
330
47
102
}
330
47
100
AcDbScale
 70
     0
300
1:40
140
1.0
141
40.0
290
     0
  0
SCALE
  5
52
102
{ACAD_REACTORS
330
47
102
}
330
47
100
AcDbScale
 70
     0
300
1:50
140
1.0
141
50.0
290
     0
  0
SCALE
  5
53
102
{ACAD_REACTORS
330
47
102
}
330
47
100
AcDbScale
 70
     0
300
1:100
140
1.0
141
100.0
290
     0
  0
SCALE
  5
54
102
{ACAD_REACTORS
330
47
102
}
330
47
100
AcDbScale
 70
     0
300
2:1
140
2.0
141
1.0
290
     0
  0
SCALE
  5
55
102
{ACAD_REACTORS
330
47
102
}
330
47
100
AcDbScale
 70
     0
300
4:1
140
4.0
141
1.0
290
     0
  0
SCALE
  5
56
102
{ACAD_REACTORS
330
47
102
}
330
47
100
AcDbScale
 70
     0
300
8:1
140
8.0
141
1.0
290
     0
  0
SCALE
  5
57
102
{ACAD_REACTORS
330
47
102
}
330
47
100
AcDbScale
 70
     0
300
10:1
140
10.0
141
1.0
290
     0
  0
SCALE
  5
58
102
{ACAD_REACTORS
330
47
102
}
330
47
100
AcDbScale
 70
     0
300
100:1
140
100.0
141
1.0
290
     0
  0
SCALE
  5
59
102
{ACAD_REACTORS
330
47
102
}
330
47
100
AcDbScale
 70
     0
300
1/128" = 1'-0"
140
0.0078125
141
12.0
290
     0
  0
SCALE
  5
5A
102
{ACAD_REACTORS
330
47
102
}
330
47
100
AcDbScale
 70
     0
300
1/64" = 1'-0"
140
0.015625
141
12.0
290
     0
  0
SCALE
  5
5B
102
{ACAD_REACTORS
330
47
102
}
330
47
100
AcDbScale
 70
     0
300
1/32" = 1'-0"
140
0.03125
141
12.0
290
     0
  0
SCALE
  5
5C
102
{ACAD_REACTORS
330
47
102
}
330
47
100
AcDbScale
 70
     0
300
1/16" = 1'-0"
140
0.0625
141
12.0
290
     0
  0
SCALE
  5
5D
102
{ACAD_REACTORS
330
47
102
}
330
47
100
AcDbScale
 70
     0
300
3/32" = 1'-0"
140
0.09375
141
12.0
290
     0
  0
SCALE
  5
5E
102
{ACAD_REACTORS
330
47
102
}
330
47
100
AcDbScale
 70
     0
300
1/8" = 1'-0"
140
0.125
141
12.0
290
     0
  0
SCALE
  5
5F
102
{ACAD_REACTORS
330
47
102
}
330
47
100
AcDbScale
 70
     0
300
3/16" = 1'-0"
140
0.1875
141
12.0
290
     0
  0
SCALE
  5
60
102
{ACAD_REACTORS
330
47
102
}
330
47
100
AcDbScale
 70
     0
300
1/4" = 1'-0"
140
0.25
141
12.0
290
     0
  0
SCALE
  5
61
102
{ACAD_REACTORS
330
47
102
}
330
47
100
AcDbScale
 70
     0
300
3/8" = 1'-0"
140
0.375
141
12.0
290
     0
  0
SCALE
  5
62
102
{ACAD_REACTORS
330
47
102
}
330
47
100
AcDbScale
 70
     0
300
1/2" = 1'-0"
140
0.5
141
12.0
290
     0
  0
SCALE
  5
63
102
{ACAD_REACTORS
330
47
102
}
330
47
100
AcDbScale
 70
     0
300
3/4" = 1'-0"
140
0.75
141
12.0
290
     0
  0
SCALE
  5
64
102
{ACAD_REACTORS
330
47
102
}
330
47
100
AcDbScale
 70
     0
300
1" = 1'-0"
140
1.0
141
12.0
290
     0
  0
SCALE
  5
65
102
{ACAD_REACTORS
330
47
102
}
330
47
100
AcDbScale
 70
     0
300
1-1/2" = 1'-0"
140
1.5
141
12.0
290
     0
  0
SCALE
  5
66
102
{ACAD_REACTORS
330
47
102
}
330
47
100
AcDbScale
 70
     0
300
3" = 1'-0"
140
3.0
141
12.0
290
     0
  0
SCALE
  5
67
102
{ACAD_REACTORS
330
47
102
}
330
47
100
AcDbScale
 70
     0
300
6" = 1'-0"
140
6.0
141
12.0
290
     0
  0
SCALE
  5
68
102
{ACAD_REACTORS
330
47
102
}
330
47
100
AcDbScale
 70
     0
300
1'-0" = 1'-0"
140
12.0
141
12.0
290
     0
  0
TABLESTYLE
  5
6A
102
{ACAD_REACTORS
330
69
102
}
102
{ACAD_XDICTIONARY
360
299
102
}
330
69
100
AcDbTableStyle
  3
Standard
 70
     0
 71
     0
 40
0.06
 41
0.06
280
     0
281
     0
  7
Standard
140
0.18
170
     2
 62
     0
 63
   257
283
     0
 90
        4
 91
        0
  1

274
    -2
284
     1
 64
     0
275
    -2
285
     1
 65
     0
276
    -2
286
     1
 66
     0
277
    -2
287
     1
 67
     0
278
    -2
288
     1
 68
     0
279
    -2
289
     1
 69
     0
  7
Standard
140
0.25
170
     5
 62
     0
 63
   257
283
     0
 90
        4
 91
        0
  1

274
    -2
284
     1
 64
     0
275
    -2
285
     1
 65
     0
276
    -2
286
     1
 66
     0
277
    -2
287
     1
 67
     0
278
    -2
288
     1
 68
     0
279
    -2
289
     1
 69
     0
  7
Standard
140
0.18
170
     5
 62
     0
 63
   257
283
     0
 90
        4
 91
        0
  1

274
    -2
284
     1
 64
     0
275
    -2
285
     1
 65
     0
276
    -2
286
     1
 66
     0
277
    -2
287
     1
 67
     0
278
    -2
288
     1
 68
     0
279
    -2
289
     1
 69
     0
  0
VISUALSTYLE
  5
2F
102
{ACAD_REACTORS
330
2A
102
}
330
2A
100
AcDbVisualStyle
  2
2dWireframe
 70
     4
177
     3
291
     0
 70
    58
 90
        0
176
     1
 90
        2
176
     1
 90
        0
176
     1
 90
        0
176
     1
 40
0.6
176
     1
 40
30.0
176
     1
 62
     7
420
 16777215
176
     1
 90
        1
176
     1
 90
        4
176
     1
 62
     7
176
     1
 62
   257
176
     1
 90
        1
176
     1
 90
        1
176
     1
 40
1.0
176
     1
 90
        0
176
     1
 62
   257
176
     1
 40
1.0
176
     1
 90
        1
176
     1
 90
        6
176
     1
 90
        2
176
     1
 62
     7
176
     1
 90
        5
176
     1
 90
        0
176
     1
 90
        0
176
     1
290
     0
176
     1
 90
        1
176
     1
 40
0.0
176
     1
 90
        0
176
     1
290
     1
176
     1
290
     1
176
     1
290
     0
176
     1
290
     0
176
     1
290
     0
176
     1
290
     0
176
     1
290
     0
176
     1
290
     0
176
     1
290
     0
176
     1
 90
       50
176
     1
 40
0.0
176
     1
 40
1.0
176
     1
 90
        0
176
     1
 62
    18
420
        0
176
     1
 90
       50
176
     1
 90
        3
176
     1
 62
     5
420
      255
176
     1
290
     0
176
     1
 90
       50
176
     1
 90
       50
176
     1
 90
       50
176
     1
290
     0
176
     1
 90
       50
176
     1
 62
   256
176
     0
 40
1.0
176
     0
 90
        2
176
     1
  1
strokes_ogs.tif
176
     1
290
     0
176
     1
 40
1.0
176
     1
 40
1.0
176
     1
  0
VISUALSTYLE
  5
32
102
{ACAD_REACTORS
330
2A
102
}
330
2A
100
AcDbVisualStyle
  2
Basic
 70
     7
177
     3
291
     1
 70
    58
 90
        1
176
     1
 90
        0
176
     1
 90
        1
176
     1
 90
        0
176
     1
 40
0.6
176
     1
 40
30.0
176
     1
 62
     7
420
 16777215
176
     1
 90
        0
176
     1
 90
        4
176
     1
 62
     7
176
     1
 62
   257
176
     1
 90
        1
176
     1
 90
        1
176
     1
 40
1.0
176
     1
 90
        8
176
     1
 62
     7
176
     1
 40
1.0
176
     1
 90
        1
176
     1
 90
        6
176
     1
 90
        2
176
     1
 62
     7
176
     1
 90
        5
176
     1
 90
        0
176
     1
 90
        0
176
     1
290
     0
176
     1
 90
        1
176
     1
 40
0.0
176
     1
 90
        0
176
     1
290
     0
176
     1
290
     1
176
     1
290
     1
176
     1
290
     0
176
     1
290
     0
176
     1
290
     0
176
     1
290
     0
176
     1
290
     0
176
     1
290
     0
176
     1
 90
       50
176
     1
 40
0.0
176
     1
 40
1.0
176
     1
 90
        0
176
     1
 62
    18
420
        0
176
     1
 90
       50
176
     1
 90
        3
176
     1
 62
     5
420
      255
176
     1
290
     0
176
     1
 90
       50
176
     1
 90
       50
176
     1
 90
       50
176
     1
290
     0
176
     1
 90
       50
176
     1
 62
   256
176
     0
 40
1.0
176
     0
 90
        2
176
     1
  1
strokes_ogs.tif
176
     1
290
     0
176
     1
 40
1.0
176
     1
 40
1.0
176
     1
  0
VISUALSTYLE
  5
36
102
{ACAD_REACTORS
330
2A
102
}
330
2A
100
AcDbVisualStyle
  2
Brighten
 70
    12
177
     3
291
     1
 70
    58
 90
        2
176
     1
 90
        2
176
     1
 90
        0
176
     1
 90
        0
176
     1
 40
0.6
176
     1
 40
30.0
176
     1
 62
     7
420
 16777215
176
     1
 90
        1
176
     1
 90
        4
176
     1
 62
     7
176
     1
 62
   257
176
     1
 90
        1
176
     1
 90
        1
176
     1
 40
1.0
176
     1
 90
        8
176
     1
 62
     7
176
     1
 40
1.0
176
     1
 90
        1
176
     1
 90
        6
176
     1
 90
        2
176
     1
 62
     7
176
     1
 90
        5
176
     1
 90
        0
176
     1
 90
        0
176
     1
290
     0
176
     1
 90
        1
176
     1
 40
50.0
176
     1
 90
        0
176
     1
290
     0
176
     1
290
     1
176
     1
290
     1
176
     1
290
     0
176
     1
290
     0
176
     1
290
     0
176
     1
290
     0
176
     1
290
     0
176
     1
290
     0
176
     1
 90
       50
176
     1
 40
0.0
176
     1
 40
1.0
176
     1
 90
        0
176
     1
 62
    18
420
        0
176
     1
 90
       50
176
     1
 90
        3
176
     1
 62
     5
420
      255
176
     1
290
     0
176
     1
 90
       50
176
     1
 90
       50
176
     1
 90
       50
176
     1
290
     0
176
     1
 90
       50
176
     1
 62
   256
176
     0
 40
1.0
176
     0
 90
        2
176
     1
  1
strokes_ogs.tif
176
     1
290
     0
176
     1
 40
1.0
176
     1
 40
1.0
176
     1
  0
VISUALSTYLE
  5
3A
102
{ACAD_REACTORS
330
2A
102
}
330
2A
100
AcDbVisualStyle
  2
ColorChange
 70
    16
177
     3
291
     1
 70
    58
 90
        2
176
     1
 90
        2
176
     1
 90
        3
176
     1
 90
        0
176
     1
 40
0.6
176
     1
 40
30.0
176
     1
 62
     8
420
  8421504
176
     1
 90
        1
176
     1
 90
        4
176
     1
 62
     7
176
     1
 62
   257
176
     1
 90
        1
176
     1
 90
        1
176
     1
 40
1.0
176
     1
 90
        8
176
     1
 62
     8
420
  8421504
176
     1
 40
1.0
176
     1
 90
        1
176
     1
 90
        6
176
     1
 90
        2
176
     1
 62
     7
176
     1
 90
        5
176
     1
 90
        0
176
     1
 90
        0
176
     1
290
     0
176
     1
 90
        1
176
     1
 40
0.0
176
     1
 90
        0
176
     1
290
     0
176
     1
290
     1
176
     1
290
     1
176
     1
290
     0
176
     1
290
     0
176
     1
290
     0
176
     1
290
     0
176
     1
290
     0
176
     1
290
     0
176
     1
 90
       50
176
     1
 40
0.0
176
     1
 40
1.0
176
     1
 90
        0
176
     1
 62
    18
420
        0
176
     1
 90
       50
176
     1
 90
        3
176
     1
 62
     5
420
      255
176
     1
290
     0
176
     1
 90
       50
176
     1
 90
       50
176
     1
 90
       50
176
     1
290
     0
176
     1
 90
       50
176
     1
 62
   256
176
     0
 40
1.0
176
     0
 90
        2
176
     1
  1
strokes_ogs.tif
176
     1
290
     0
176
     1
 40
1.0
176
     1
 40
1.0
176
     1
  0
VISUALSTYLE
  5
34
102
{ACAD_REACTORS
330
2A
102
}
330
2A
100
AcDbVisualStyle
  2
Conceptual
 70
     9
177
     3
291
     0
 70
    58
 90
        3
176
     1
 90
        2
176
     1
 90
        0
176
     1
 90
        0
176
     1
 40
0.6
176
     1
 40
30.0
176
     1
 62
     7
420
 16777215
176
     1
 90
        2
176
     1
 90
        2
176
     1
 62
     7
176
     1
 62
   257
176
     1
 90
        1
176
     1
 90
        1
176
     1
 40
179.0
176
     1
 90
        8
176
     1
 62
     7
176
     1
 40
1.0
176
     1
 90
        1
176
     1
 90
        6
176
     1
 90
        2
176
     1
 62
     7
176
     1
 90
        3
176
     1
 90
        0
176
     1
 90
        0
176
     1
290
     0
176
     1
 90
        1
176
     1
 40
0.0
176
     1
 90
        0
176
     1
290
     0
176
     1
290
     1
176
     1
290
     1
176
     1
290
     0
176
     1
290
     0
176
     1
290
     0
176
     1
290
     0
176
     1
290
     0
176
     1
290
     0
176
     1
 90
       50
176
     1
 40
0.0
176
     1
 40
1.0
176
     1
 90
        0
176
     1
 62
    18
420
        0
176
     1
 90
       50
176
     1
 90
        3
176
     1
 62
     5
420
      255
176
     1
290
     0
176
     1
 90
       50
176
     1
 90
       50
176
     1
 90
       50
176
     1
290
     0
176
     1
 90
       50
176
     1
 62
   256
176
     0
 40
1.0
176
     0
 90
        2
176
     1
  1
strokes_ogs.tif
176
     1
290
     0
176
     1
 40
1.0
176
     1
 40
1.0
176
     1
  0
VISUALSTYLE
  5
35
102
{ACAD_REACTORS
330
2A
102
}
330
2A
100
AcDbVisualStyle
  2
Dim
 70
    11
177
     3
291
     1
 70
    58
 90
        2
176
     1
 90
        2
176
     1
 90
        0
176
     1
 90
        0
176
     1
 40
0.6
176
     1
 40
30.0
176
     1
 62
     7
420
 16777215
176
     1
 90
        1
176
     1
 90
        4
176
     1
 62
     7
176
     1
 62
   257
176
     1
 90
        1
176
     1
 90
        1
176
     1
 40
1.0
176
     1
 90
        8
176
     1
 62
     7
176
     1
 40
1.0
176
     1
 90
        1
176
     1
 90
        6
176
     1
 90
        2
176
     1
 62
     7
176
     1
 90
        5
176
     1
 90
        0
176
     1
 90
        0
176
     1
290
     0
176
     1
 90
        1
176
     1
 40
-50.0
176
     1
 90
        0
176
     1
290
     0
176
     1
290
     1
176
     1
290
     1
176
     1
290
     0
176
     1
290
     0
176
     1
290
     0
176
     1
290
     0
176
     1
290
     0
176
     1
290
     0
176
     1
 90
       50
176
     1
 40
0.0
176
     1
 40
1.0
176
     1
 90
        0
176
     1
 62
    18
420
        0
176
     1
 90
       50
176
     1
 90
        3
176
     1
 62
     5
420
      255
176
     1
290
     0
176
     1
 90
       50
176
     1
 90
       50
176
     1
 90
       50
176
     1
290
     0
176
     1
 90
       50
176
     1
 62
   256
176
     0
 40
1.0
176
     0
 90
        2
176
     1
  1
strokes_ogs.tif
176
     1
290
     0
176
     1
 40
1.0
176
     1
 40
1.0
176
     1
  0
VISUALSTYLE
  5
3D
102
{ACAD_REACTORS
330
2A
102
}
330
2A
100
AcDbVisualStyle
  2
EdgeColorOff
 70
    22
177
     3
291
     1
 70
    58
 90
        2
176
     0
 90
        2
176
     0
 90
        0
176
     0
 90
        0
176
     0
 40
0.6
176
     0
 40
30.0
176
     0
 62
     7
420
 16777215
176
     0
 90
        1
176
     0
 90
        4
176
     0
 62
     7
176
     0
 62
   257
176
     0
 90
        1
176
     0
 90
        1
176
     0
 40
1.0
176
     0
 90
        8
176
     2
 62
     7
176
     0
 40
1.0
176
     0
 90
        1
176
     0
 90
        6
176
     0
 90
        2
176
     0
 62
     7
176
     0
 90
        5
176
     0
 90
        0
176
     0
 90
        0
176
     0
290
     0
176
     0
 90
        1
176
     0
 40
0.0
176
     0
 90
        0
176
     0
290
     0
176
     0
290
     1
176
     0
290
     1
176
     0
290
     0
176
     0
290
     0
176
     0
290
     0
176
     0
290
     0
176
     0
290
     0
176
     0
290
     0
176
     0
 90
       50
176
     0
 40
0.0
176
     0
 40
1.0
176
     0
 90
        0
176
     0
 62
    18
420
        0
176
     0
 90
       50
176
     0
 90
        3
176
     0
 62
     5
420
      255
176
     0
290
     0
176
     0
 90
       50
176
     0
 90
       50
176
     0
 90
       50
176
     0
290
     0
176
     0
 90
       50
176
     0
 62
   256
176
     0
 40
1.0
176
     0
 90
        2
176
     0
  1
strokes_ogs.tif
176
     0
290
     0
176
     0
 40
1.0
176
     0
 40
1.0
176
     0
  0
VISUALSTYLE
  5
39
102
{ACAD_REACTORS
330
2A
102
}
330
2A
100
AcDbVisualStyle
  2
Facepattern
 70
    15
177
     3
291
     1
 70
    58
 90
        2
176
     1
 90
        2
176
     1
 90
        0
176
     1
 90
        0
176
     1
 40
0.6
176
     1
 40
30.0
176
     1
 62
     7
420
 16777215
176
     1
 90
        1
176
     1
 90
        4
176
     1
 62
     7
176
     1
 62
   257
176
     1
 90
        1
176
     1
 90
        1
176
     1
 40
1.0
176
     1
 90
        8
176
     1
 62
     7
176
     1
 40
1.0
176
     1
 90
        1
176
     1
 90
        6
176
     1
 90
        2
176
     1
 62
     7
176
     1
 90
        5
176
     1
 90
        0
176
     1
 90
        0
176
     1
290
     0
176
     1
 90
        1
176
     1
 40
0.0
176
     1
 90
        0
176
     1
290
     0
176
     1
290
     1
176
     1
290
     1
176
     1
290
     0
176
     1
290
     0
176
     1
290
     0
176
     1
290
     0
176
     1
290
     0
176
     1
290
     0
176
     1
 90
       50
176
     1
 40
0.0
176
     1
 40
1.0
176
     1
 90
        0
176
     1
 62
    18
420
        0
176
     1
 90
       50
176
     1
 90
        3
176
     1
 62
     5
420
      255
176
     1
290
     0
176
     1
 90
       50
176
     1
 90
       50
176
     1
 90
       50
176
     1
290
     0
176
     1
 90
       50
176
     1
 62
   256
176
     0
 40
1.0
176
     0
 90
        2
176
     1
  1
strokes_ogs.tif
176
     1
290
     0
176
     1
 40
1.0
176
     1
 40
1.0
176
     1
  0
VISUALSTYLE
  5
2B
102
{ACAD_REACTORS
330
2A
102
}
330
2A
100
AcDbVisualStyle
  2
Flat
 70
     0
177
     3
291
     1
 70
    58
 90
        2
176
     1
 90
        1
176
     1
 90
        1
176
     1
 90
        2
176
     1
 40
0.6
176
     1
 40
30.0
176
     1
 62
     7
420
 16777215
176
     1
 90
        0
176
     1
 90
        0
176
     1
 62
     7
176
     1
 62
   257
176
     1
 90
        1
176
     1
 90
        1
176
     1
 40
1.0
176
     1
 90
        8
176
     1
 62
     7
176
     1
 40
1.0
176
     1
 90
        1
176
     1
 90
        6
176
     1
 90
        2
176
     1
 62
     7
176
     1
 90
        5
176
     1
 90
        0
176
     1
 90
        0
176
     1
290
     0
176
     1
 90
       13
176
     1
 40
0.0
176
     1
 90
        0
176
     1
290
     0
176
     1
290
     1
176
     1
290
     1
176
     1
290
     0
176
     1
290
     0
176
     1
290
     0
176
     1
290
     0
176
     1
290
     0
176
     1
290
     0
176
     1
 90
       50
176
     1
 40
0.0
176
     1
 40
1.0
176
     1
 90
        0
176
     1
 62
    18
420
        0
176
     1
 90
       50
176
     1
 90
        3
176
     1
 62
     5
420
      255
176
     1
290
     0
176
     1
 90
       50
176
     1
 90
       50
176
     1
 90
       50
176
     1
290
     0
176
     1
 90
       50
176
     1
 62
   256
176
     0
 40
1.0
176
     0
 90
        2
176
     1
  1
strokes_ogs.tif
176
     1
290
     0
176
     1
 40
1.0
176
     1
 40
1.0
176
     1
  0
VISUALSTYLE
  5
2C
102
{ACAD_REACTORS
330
2A
102
}
330
2A
100
AcDbVisualStyle
  2
FlatWithEdges
 70
     1
177
     3
291
     1
 70
    58
 90
        2
176
     1
 90
        1
176
     1
 90
        1
176
     1
 90
        2
176
     1
 40
0.6
176
     1
 40
30.0
176
     1
 62
     7
420
 16777215
176
     1
 90
        1
176
     1
 90
        0
176
     1
 62
     7
176
     1
 62
   257
176
     1
 90
        1
176
     1
 90
        1
176
     1
 40
1.0
176
     1
 90
        0
176
     1
 62
   257
176
     1
 40
1.0
176
     1
 90
        1
176
     1
 90
        6
176
     1
 90
        2
176
     1
 62
     7
176
     1
 90
        5
176
     1
 90
        0
176
     1
 90
        0
176
     1
290
     0
176
     1
 90
       13
176
     1
 40
0.0
176
     1
 90
        0
176
     1
290
     0
176
     1
290
     1
176
     1
290
     1
176
     1
290
     0
176
     1
290
     0
176
     1
290
     0
176
     1
290
     0
176
     1
290
     0
176
     1
290
     0
176
     1
 90
       50
176
     1
 40
0.0
176
     1
 40
1.0
176
     1
 90
        0
176
     1
 62
    18
420
        0
176
     1
 90
       50
176
     1
 90
        3
176
     1
 62
     5
420
      255
176
     1
290
     0
176
     1
 90
       50
176
     1
 90
       50
176
     1
 90
       50
176
     1
290
     0
176
     1
 90
       50
176
     1
 62
   256
176
     0
 40
1.0
176
     0
 90
        2
176
     1
  1
strokes_ogs.tif
176
     1
290
     0
176
     1
 40
1.0
176
     1
 40
1.0
176
     1
  0
VISUALSTYLE
  5
2D
102
{ACAD_REACTORS
330
2A
102
}
330
2A
100
AcDbVisualStyle
  2
Gouraud
 70
     2
177
     3
291
     1
 70
    58
 90
        2
176
     1
 90
        2
176
     1
 90
        1
176
     1
 90
        2
176
     1
 40
0.6
176
     1
 40
30.0
176
     1
 62
     7
420
 16777215
176
     1
 90
        0
176
     1
 90
        0
176
     1
 62
     7
176
     1
 62
   257
176
     1
 90
        1
176
     1
 90
        1
176
     1
 40
1.0
176
     1
 90
        0
176
     1
 62
     7
176
     1
 40
1.0
176
     1
 90
        1
176
     1
 90
        6
176
     1
 90
        2
176
     1
 62
     7
176
     1
 90
        5
176
     1
 90
        0
176
     1
 90
        0
176
     1
290
     0
176
     1
 90
       13
176
     1
 40
0.0
176
     1
 90
        0
176
     1
290
     0
176
     1
290
     1
176
     1
290
     1
176
     1
290
     0
176
     1
290
     0
176
     1
290
     0
176
     1
290
     0
176
     1
290
     0
176
     1
290
     0
176
     1
 90
       50
176
     1
 40
0.0
176
     1
 40
1.0
176
     1
 90
        0
176
     1
 62
    18
420
        0
176
     1
 90
       50
176
     1
 90
        3
176
     1
 62
     5
420
      255
176
     1
290
     0
176
     1
 90
       50
176
     1
 90
       50
176
     1
 90
       50
176
     1
290
     0
176
     1
 90
       50
176
     1
 62
   256
176
     0
 40
1.0
176
     0
 90
        2
176
     1
  1
strokes_ogs.tif
176
     1
290
     0
176
     1
 40
1.0
176
     1
 40
1.0
176
     1
  0
VISUALSTYLE
  5
2E
102
{ACAD_REACTORS
330
2A
102
}
330
2A
100
AcDbVisualStyle
  2
GouraudWithEdges
 70
     3
177
     3
291
     1
 70
    58
 90
        2
176
     1
 90
        2
176
     1
 90
        1
176
     1
 90
        2
176
     1
 40
0.6
176
     1
 40
30.0
176
     1
 62
     7
420
 16777215
176
     1
 90
        1
176
     1
 90
        0
176
     1
 62
     7
176
     1
 62
   257
176
     1
 90
        1
176
     1
 90
        1
176
     1
 40
1.0
176
     1
 90
        0
176
     1
 62
   257
176
     1
 40
1.0
176
     1
 90
        1
176
     1
 90
        6
176
     1
 90
        2
176
     1
 62
     7
176
     1
 90
        5
176
     1
 90
        0
176
     1
 90
        0
176
     1
290
     0
176
     1
 90
       13
176
     1
 40
0.0
176
     1
 90
        0
176
     1
290
     0
176
     1
290
     1
176
     1
290
     1
176
     1
290
     0
176
     1
290
     0
176
     1
290
     0
176
     1
290
     0
176
     1
290
     0
176
     1
290
     0
176
     1
 90
       50
176
     1
 40
0.0
176
     1
 40
1.0
176
     1
 90
        0
176
     1
 62
    18
420
        0
176
     1
 90
       50
176
     1
 90
        3
176
     1
 62
     5
420
      255
176
     1
290
     0
176
     1
 90
       50
176
     1
 90
       50
176
     1
 90
       50
176
     1
290
     0
176
     1
 90
       50
176
     1
 62
   256
176
     0
 40
1.0
176
     0
 90
        2
176
     1
  1
strokes_ogs.tif
176
     1
290
     0
176
     1
 40
1.0
176
     1
 40
1.0
176
     1
  0
VISUALSTYLE
  5
31
102
{ACAD_REACTORS
330
2A
102
}
330
2A
100
AcDbVisualStyle
  2
Hidden
 70
     6
177
     3
291
     0
 70
    58
 90
        1
176
     1
 90
        2
176
     1
 90
        2
176
     1
 90
        0
176
     1
 40
0.6
176
     1
 40
30.0
176
     1
 62
     7
420
 16777215
176
     1
 90
        2
176
     1
 90
        2
176
     1
 62
     7
176
     1
 62
   257
176
     1
 90
        2
176
     1
 90
        1
176
     1
 40
40.0
176
     1
 90
        0
176
     1
 62
   257
176
     1
 40
1.0
176
     1
 90
        1
176
     1
 90
        6
176
     1
 90
        2
176
     1
 62
     7
176
     1
 90
        3
176
     1
 90
        0
176
     1
 90
        0
176
     1
290
     0
176
     1
 90
        1
176
     1
 40
0.0
176
     1
 90
        0
176
     1
290
     0
176
     1
290
     1
176
     1
290
     1
176
     1
290
     0
176
     1
290
     0
176
     1
290
     0
176
     1
290
     0
176
     1
290
     0
176
     1
290
     0
176
     1
 90
       50
176
     1
 40
0.0
176
     1
 40
1.0
176
     1
 90
        0
176
     1
 62
    18
420
        0
176
     1
 90
       50
176
     1
 90
        3
176
     1
 62
     5
420
      255
176
     1
290
     0
176
     1
 90
       50
176
     1
 90
       50
176
     1
 90
       50
176
     1
290
     0
176
     1
 90
       50
176
     1
 62
   256
176
     0
 40
1.0
176
     0
 90
        2
176
     1
  1
strokes_ogs.tif
176
     1
290
     0
176
     1
 40
1.0
176
     1
 40
1.0
176
     1
  0
VISUALSTYLE
  5
3B
102
{ACAD_REACTORS
330
2A
102
}
330
2A
100
AcDbVisualStyle
  2
JitterOff
 70
    20
177
     3
291
     1
 70
    58
 90
        2
176
     0
 90
        2
176
     0
 90
        0
176
     0
 90
        0
176
     0
 40
0.6
176
     0
 40
30.0
176
     0
 62
     7
420
 16777215
176
     0
 90
        1
176
     0
 90
        4
176
     0
 62
     7
176
     0
 62
   257
176
     0
 90
        1
176
     0
 90
        1
176
     0
 40
1.0
176
     0
 90
       10
176
     2
 62
     7
176
     0
 40
1.0
176
     0
 90
        1
176
     0
 90
        6
176
     0
 90
        2
176
     0
 62
     7
176
     0
 90
        5
176
     0
 90
        0
176
     0
 90
        0
176
     0
290
     0
176
     0
 90
        1
176
     0
 40
0.0
176
     0
 90
        0
176
     0
290
     0
176
     0
290
     1
176
     0
290
     1
176
     0
290
     0
176
     0
290
     0
176
     0
290
     0
176
     0
290
     0
176
     0
290
     0
176
     0
290
     0
176
     0
 90
       50
176
     0
 40
0.0
176
     0
 40
1.0
176
     0
 90
        0
176
     0
 62
    18
420
        0
176
     0
 90
       50
176
     0
 90
        3
176
     0
 62
     5
420
      255
176
     0
290
     0
176
     0
 90
       50
176
     0
 90
       50
176
     0
 90
       50
176
     0
290
     0
176
     0
 90
       50
176
     0
 62
   256
176
     0
 40
1.0
176
     0
 90
        2
176
     0
  1
strokes_ogs.tif
176
     0
290
     0
176
     0
 40
1.0
176
     0
 40
1.0
176
     0
  0
VISUALSTYLE
  5
38
102
{ACAD_REACTORS
330
2A
102
}
330
2A
100
AcDbVisualStyle
  2
Linepattern
 70
    14
177
     3
291
     1
 70
    58
 90
        2
176
     1
 90
        2
176
     1
 90
        0
176
     1
 90
        0
176
     1
 40
0.6
176
     1
 40
30.0
176
     1
 62
     7
420
 16777215
176
     1
 90
        1
176
     1
 90
        4
176
     1
 62
     7
176
     1
 62
   257
176
     1
 90
        7
176
     1
 90
        7
176
     1
 40
1.0
176
     1
 90
        8
176
     1
 62
     7
176
     1
 40
1.0
176
     1
 90
        1
176
     1
 90
        6
176
     1
 90
        2
176
     1
 62
     7
176
     1
 90
        5
176
     1
 90
        0
176
     1
 90
        0
176
     1
290
     0
176
     1
 90
        1
176
     1
 40
0.0
176
     1
 90
        0
176
     1
290
     0
176
     1
290
     1
176
     1
290
     1
176
     1
290
     0
176
     1
290
     0
176
     1
290
     0
176
     1
290
     0
176
     1
290
     0
176
     1
290
     0
176
     1
 90
       50
176
     1
 40
0.0
176
     1
 40
1.0
176
     1
 90
        0
176
     1
 62
    18
420
        0
176
     1
 90
       50
176
     1
 90
        3
176
     1
 62
     5
420
      255
176
     1
290
     0
176
     1
 90
       50
176
     1
 90
       50
176
     1
 90
       50
176
     1
290
     0
176
     1
 90
       50
176
     1
 62
   256
176
     0
 40
1.0
176
     0
 90
        2
176
     1
  1
strokes_ogs.tif
176
     1
290
     0
176
     1
 40
1.0
176
     1
 40
1.0
176
     1
  0
VISUALSTYLE
  5
3C
102
{ACAD_REACTORS
330
2A
102
}
330
2A
100
AcDbVisualStyle
  2
OverhangOff
 70
    21
177
     3
291
     1
 70
    58
 90
        2
176
     0
 90
        2
176
     0
 90
        0
176
     0
 90
        0
176
     0
 40
0.6
176
     0
 40
30.0
176
     0
 62
     7
420
 16777215
176
     0
 90
        1
176
     0
 90
        4
176
     0
 62
     7
176
     0
 62
   257
176
     0
 90
        1
176
     0
 90
        1
176
     0
 40
1.0
176
     0
 90
        9
176
     2
 62
     7
176
     0
 40
1.0
176
     0
 90
        1
176
     0
 90
        6
176
     0
 90
        2
176
     0
 62
     7
176
     0
 90
        5
176
     0
 90
        0
176
     0
 90
        0
176
     0
290
     0
176
     0
 90
        1
176
     0
 40
0.0
176
     0
 90
        0
176
     0
290
     0
176
     0
290
     1
176
     0
290
     1
176
     0
290
     0
176
     0
290
     0
176
     0
290
     0
176
     0
290
     0
176
     0
290
     0
176
     0
290
     0
176
     0
 90
       50
176
     0
 40
0.0
176
     0
 40
1.0
176
     0
 90
        0
176
     0
 62
    18
420
        0
176
     0
 90
       50
176
     0
 90
        3
176
     0
 62
     5
420
      255
176
     0
290
     0
176
     0
 90
       50
176
     0
 90
       50
176
     0
 90
       50
176
     0
290
     0
176
     0
 90
       50
176
     0
 62
   256
176
     0
 40
1.0
176
     0
 90
        2
176
     0
  1
strokes_ogs.tif
176
     0
290
     0
176
     0
 40
1.0
176
     0
 40
1.0
176
     0
  0
VISUALSTYLE
  5
33
102
{ACAD_REACTORS
330
2A
102
}
330
2A
100
AcDbVisualStyle
  2
Realistic
 70
     8
177
     3
291
     0
 70
    58
 90
        2
176
     1
 90
        3
176
     1
 90
        0
176
     1
 90
        2
176
     1
 40
0.6
176
     1
 40
30.0
176
     1
 62
     7
420
 16777215
176
     1
 90
        0
176
     1
 90
        0
176
     1
 62
     7
176
     1
 62
   257
176
     1
 90
        1
176
     1
 90
        1
176
     1
 40
1.0
176
     1
 90
        8
176
     1
 62
   257
176
     1
 40
1.0
176
     1
 90
        1
176
     1
 90
        6
176
     1
 90
        2
176
     1
 62
     7
176
     1
 90
        3
176
     1
 90
        0
176
     1
 90
        0
176
     1
290
     0
176
     1
 90
       13
176
     1
 40
0.0
176
     1
 90
        0
176
     1
290
     0
176
     1
290
     1
176
     1
290
     1
176
     1
290
     0
176
     1
290
     0
176
     1
290
     0
176
     1
290
     0
176
     1
290
     0
176
     1
290
     0
176
     1
 90
       50
176
     1
 40
0.0
176
     1
 40
1.0
176
     1
 90
        0
176
     1
 62
    18
420
        0
176
     1
 90
       50
176
     1
 90
        3
176
     1
 62
     5
420
      255
176
     1
290
     0
176
     1
 90
       50
176
     1
 90
       50
176
     1
 90
       50
176
     1
290
     0
176
     1
 90
       50
176
     1
 62
   256
176
     0
 40
1.0
176
     0
 90
        2
176
     1
  1
strokes_ogs.tif
176
     1
290
     0
176
     1
 40
1.0
176
     1
 40
1.0
176
     1
  0
VISUALSTYLE
  5
42
102
{ACAD_REACTORS
330
2A
102
}
330
2A
100
AcDbVisualStyle
  2
Shaded
 70
    27
177
     3
291
     0
 70
    58
 90
        2
176
     1
 90
        2
176
     1
 90
        1
176
     1
 90
        2
176
     1
 40
0.6
176
     1
 40
30.0
176
     1
 62
     7
420
 16777215
176
     1
 90
        0
176
     1
 90
        4
176
     1
 62
     7
176
     1
 62
   257
176
     1
 90
        1
176
     1
 90
        1
176
     1
 40
1.0
176
     1
 90
        8
176
     1
 62
   257
176
     1
 40
1.0
176
     1
 90
        1
176
     1
 90
        6
176
     1
 90
        2
176
     1
 62
     8
420
  7895160
176
     1
 90
        3
176
     1
 90
        0
176
     1
 90
        0
176
     1
290
     0
176
     1
 90
        5
176
     1
 40
0.0
176
     1
 90
        0
176
     1
290
     0
176
     1
290
     1
176
     1
290
     1
176
     1
290
     0
176
     1
290
     0
176
     1
290
     0
176
     1
290
     0
176
     1
290
     0
176
     1
290
     0
176
     1
 90
       50
176
     1
 40
0.0
176
     1
 40
1.0
176
     1
 90
        0
176
     1
 62
    18
420
        0
176
     1
 90
       50
176
     1
 90
        3
176
     1
 62
     5
420
      255
176
     1
290
     0
176
     1
 90
       50
176
     1
 90
       50
176
     1
 90
       50
176
     1
290
     0
176
     1
 90
       50
176
     1
 62
   256
176
     0
 40
1.0
176
     0
 90
        2
176
     1
  1
strokes_ogs.tif
176
     1
290
     0
176
     1
 40
1.0
176
     1
 40
1.0
176
     1
  0
VISUALSTYLE
  5
41
102
{ACAD_REACTORS
330
2A
102
}
330
2A
100
AcDbVisualStyle
  2
Shaded with edges
 70
    26
177
     3
291
     0
 70
    58
 90
        2
176
     1
 90
        2
176
     1
 90
        1
176
     1
 90
        2
176
     1
 40
0.6
176
     1
 40
30.0
176
     1
 62
     7
420
 16777215
176
     1
 90
        1
176
     1
 90
       10
176
     1
 62
     7
176
     1
 62
   257
176
     1
 90
        2
176
     1
 90
        1
176
     1
 40
1.0
176
     1
 90
        8
176
     1
 62
   257
176
     1
 40
1.0
176
     1
 90
        1
176
     1
 90
        6
176
     1
 90
        2
176
     1
 62
     7
176
     1
 90
        3
176
     1
 90
        0
176
     1
 90
        0
176
     1
290
     0
176
     1
 90
        5
176
     1
 40
0.0
176
     1
 90
        0
176
     1
290
     0
176
     1
290
     1
176
     1
290
     1
176
     1
290
     0
176
     1
290
     0
176
     1
290
     0
176
     1
290
     0
176
     1
290
     0
176
     1
290
     0
176
     1
 90
       50
176
     1
 40
0.0
176
     1
 40
1.0
176
     1
 90
        0
176
     1
 62
    18
420
        0
176
     1
 90
       50
176
     1
 90
        3
176
     1
 62
     5
420
      255
176
     1
290
     0
176
     1
 90
       50
176
     1
 90
       50
176
     1
 90
       50
176
     1
290
     0
176
     1
 90
       50
176
     1
 62
   256
176
     0
 40
1.0
176
     0
 90
        2
176
     1
  1
strokes_ogs.tif
176
     1
290
     0
176
     1
 40
1.0
176
     1
 40
1.0
176
     1
  0
VISUALSTYLE
  5
3E
102
{ACAD_REACTORS
330
2A
102
}
330
2A
100
AcDbVisualStyle
  2
Shades of Gray
 70
    23
177
     3
291
     0
 70
    58
 90
        2
176
     1
 90
        2
176
     1
 90
        3
176
     1
 90
        0
176
     1
 40
0.6
176
     1
 40
30.0
176
     1
 62
     7
420
 16777215
176
     1
 90
        2
176
     1
 90
        2
176
     1
 62
     7
176
     1
 62
     7
176
     1
 90
        1
176
     1
 90
        1
176
     1
 40
40.0
176
     1
 90
        8
176
     1
 62
     7
176
     1
 40
1.0
176
     1
 90
        1
176
     1
 90
        6
176
     1
 90
        2
176
     1
 62
     7
176
     1
 90
        3
176
     1
 90
        0
176
     1
 90
        0
176
     1
290
     0
176
     1
 90
        1
176
     1
 40
0.0
176
     1
 90
        0
176
     1
290
     0
176
     1
290
     1
176
     1
290
     1
176
     1
290
     0
176
     1
290
     0
176
     1
290
     0
176
     1
290
     0
176
     1
290
     0
176
     1
290
     0
176
     1
 90
       50
176
     1
 40
0.0
176
     1
 40
1.0
176
     1
 90
        0
176
     1
 62
    18
420
        0
176
     1
 90
       50
176
     1
 90
        3
176
     1
 62
     5
420
      255
176
     1
290
     0
176
     1
 90
       50
176
     1
 90
       50
176
     1
 90
       50
176
     1
290
     0
176
     1
 90
       50
176
     1
 62
   256
176
     0
 40
1.0
176
     0
 90
        2
176
     1
  1
strokes_ogs.tif
176
     1
290
     0
176
     1
 40
1.0
176
     1
 40
1.0
176
     1
  0
VISUALSTYLE
  5
3F
102
{ACAD_REACTORS
330
2A
102
}
330
2A
100
AcDbVisualStyle
  2
Sketchy
 70
    24
177
     3
291
     0
 70
    58
 90
        1
176
     1
 90
        2
176
     1
 90
        2
176
     1
 90
        0
176
     1
 40
0.6
176
     1
 40
30.0
176
     1
 62
     7
420
 16777215
176
     1
 90
        2
176
     1
 90
        2
176
     1
 62
     7
176
     1
 62
     7
176
     1
 90
        1
176
     1
 90
        1
176
     1
 40
40.0
176
     1
 90
       11
176
     1
 62
     7
176
     1
 40
1.0
176
     1
 90
        1
176
     1
 90
        6
176
     1
 90
        2
176
     1
 62
     7
176
     1
 90
        6
176
     1
 90
        0
176
     1
 90
        0
176
     1
290
     0
176
     1
 90
        1
176
     1
 40
0.0
176
     1
 90
        0
176
     1
290
     0
176
     1
290
     1
176
     1
290
     1
176
     1
290
     0
176
     1
290
     0
176
     1
290
     0
176
     1
290
     0
176
     1
290
     0
176
     1
290
     0
176
     1
 90
       50
176
     1
 40
0.0
176
     1
 40
1.0
176
     1
 90
        0
176
     1
 62
    18
420
        0
176
     1
 90
       50
176
     1
 90
        3
176
     1
 62
     5
420
      255
176
     1
290
     0
176
     1
 90
       50
176
     1
 90
       50
176
     1
 90
       50
176
     1
290
     0
176
     1
 90
       50
176
     1
 62
   256
176
     0
 40
1.0
176
     0
 90
        2
176
     1
  1
strokes_ogs.tif
176
     1
290
     0
176
     1
 40
1.0
176
     1
 40
1.0
176
     1
  0
VISUALSTYLE
  5
37
102
{ACAD_REACTORS
330
2A
102
}
330
2A
100
AcDbVisualStyle
  2
Thicken
 70
    13
177
     3
291
     1
 70
    58
 90
        2
176
     1
 90
        2
176
     1
 90
        0
176
     1
 90
        0
176
     1
 40
0.6
176
     1
 40
30.0
176
     1
 62
     7
420
 16777215
176
     1
 90
        1
176
     1
 90
        4
176
     1
 62
     7
176
     1
 62
   257
176
     1
 90
        1
176
     1
 90
        1
176
     1
 40
1.0
176
     1
 90
       12
176
     1
 62
     7
176
     1
 40
1.0
176
     1
 90
        1
176
     1
 90
        6
176
     1
 90
        2
176
     1
 62
     7
176
     1
 90
        5
176
     1
 90
        0
176
     1
 90
        0
176
     1
290
     0
176
     1
 90
        1
176
     1
 40
0.0
176
     1
 90
        0
176
     1
290
     0
176
     1
290
     1
176
     1
290
     1
176
     1
290
     0
176
     1
290
     0
176
     1
290
     0
176
     1
290
     0
176
     1
290
     0
176
     1
290
     0
176
     1
 90
       50
176
     1
 40
0.0
176
     1
 40
1.0
176
     1
 90
        0
176
     1
 62
    18
420
        0
176
     1
 90
       50
176
     1
 90
        3
176
     1
 62
     5
420
      255
176
     1
290
     0
176
     1
 90
       50
176
     1
 90
       50
176
     1
 90
       50
176
     1
290
     0
176
     1
 90
       50
176
     1
 62
   256
176
     0
 40
1.0
176
     0
 90
        2
176
     1
  1
strokes_ogs.tif
176
     1
290
     0
176
     1
 40
1.0
176
     1
 40
1.0
176
     1
  0
VISUALSTYLE
  5
30
102
{ACAD_REACTORS
330
2A
102
}
330
2A
100
AcDbVisualStyle
  2
Wireframe
 70
     5
177
     3
291
     0
 70
    58
 90
        0
176
     1
 90
        2
176
     1
 90
        0
176
     1
 90
        0
176
     1
 40
0.6
176
     1
 40
30.0
176
     1
 62
     7
420
 16777215
176
     1
 90
        1
176
     1
 90
        4
176
     1
 62
     7
176
     1
 62
   257
176
     1
 90
        1
176
     1
 90
        1
176
     1
 40
1.0
176
     1
 90
        0
176
     1
 62
   257
176
     1
 40
1.0
176
     1
 90
        1
176
     1
 90
        6
176
     1
 90
        2
176
     1
 62
     7
176
     1
 90
        3
176
     1
 90
        0
176
     1
 90
        0
176
     1
290
     0
176
     1
 90
        1
176
     1
 40
0.0
176
     1
 90
        0
176
     1
290
     0
176
     1
290
     1
176
     1
290
     1
176
     1
290
     0
176
     1
290
     0
176
     1
290
     0
176
     1
290
     0
176
     1
290
     0
176
     1
290
     0
176
     1
 90
       50
176
     1
 40
0.0
176
     1
 40
1.0
176
     1
 90
        0
176
     1
 62
    18
420
        0
176
     1
 90
       50
176
     1
 90
        3
176
     1
 62
     5
420
      255
176
     1
290
     0
176
     1
 90
       50
176
     1
 90
       50
176
     1
 90
       50
176
     1
290
     0
176
     1
 90
       50
176
     1
 62
   256
176
     0
 40
1.0
176
     0
 90
        2
176
     1
  1
strokes_ogs.tif
176
     1
290
     0
176
     1
 40
1.0
176
     1
 40
1.0
176
     1
  0
VISUALSTYLE
  5
40
102
{ACAD_REACTORS
330
2A
102
}
330
2A
100
AcDbVisualStyle
  2
X-Ray
 70
    25
177
     3
291
     0
 70
    58
 90
        2
176
     1
 90
        2
176
     1
 90
        1
176
     1
 90
        1
176
     1
 40
0.5
176
     1
 40
30.0
176
     1
 62
     7
420
 16777215
176
     1
 90
        1
176
     1
 90
        0
176
     1
 62
     7
176
     1
 62
   257
176
     1
 90
        1
176
     1
 90
        1
176
     1
 40
1.0
176
     1
 90
        8
176
     1
 62
     7
176
     1
 40
1.0
176
     1
 90
        1
176
     1
 90
        6
176
     1
 90
        2
176
     1
 62
     7
176
     1
 90
        3
176
     1
 90
        0
176
     1
 90
        0
176
     1
290
     0
176
     1
 90
       13
176
     1
 40
0.0
176
     1
 90
        0
176
     1
290
     0
176
     1
290
     1
176
     1
290
     1
176
     1
290
     0
176
     1
290
     0
176
     1
290
     0
176
     1
290
     0
176
     1
290
     0
176
     1
290
     0
176
     1
 90
       50
176
     1
 40
0.0
176
     1
 40
1.0
176
     1
 90
        0
176
     1
 62
    18
420
        0
176
     1
 90
       50
176
     1
 90
        3
176
     1
 62
     5
420
      255
176
     1
290
     0
176
     1
 90
       50
176
     1
 90
       50
176
     1
 90
       50
176
     1
290
     0
176
     1
 90
       50
176
     1
 62
   256
176
     0
 40
1.0
176
     0
 90
        2
176
     1
  1
strokes_ogs.tif
176
     1
290
     0
176
     1
 40
1.0
176
     1
 40
1.0
176
     1
  0
DICTIONARYVAR
  5
298
102
{ACAD_REACTORS
330
297
102
}
330
297
100
DictionaryVariables
280
     0
  1
1:1
  0
DICTIONARYVAR
  5
29D
102
{ACAD_REACTORS
330
297
102
}
330
297
100
DictionaryVariables
280
     0
  1
Standard
  0
DICTIONARYVAR
  5
29C
102
{ACAD_REACTORS
330
297
102
}
330
297
100
DictionaryVariables
280
     0
  1
Standard
  0
DICTIONARY
  5
299
330
6A
100
AcDbDictionary
280
     1
281
     1
  3
ACAD_ROUNDTRIP_2008_TABLESTYLE_CELLSTYLEMAP
360
29A
  0
CELLSTYLEMAP
  5
29A
102
{ACAD_REACTORS
330
299
102
}
330
299
100
AcDbCellStyleMap
 90
        3
300
CELLSTYLE
  1
TABLEFORMAT_BEGIN
 90
        5
170
     1
 91
        0
 92
    32768
 62
   257
 93
        1
300
CONTENTFORMAT
  1
CONTENTFORMAT_BEGIN
 90
        0
 91
        0
 92
        4
 93
        0
300

 40
0.0
140
1.0
 94
        5
 62
     0
340
11
144
0.25
309
CONTENTFORMAT_END
171
     1
301
MARGIN
  1
CELLMARGIN_BEGIN
 40
0.06
 40
0.06
 40
0.06
 40
0.06
 40
0.06
 40
0.06
309
CELLMARGIN_END
 94
        6
 95
        1
302
GRIDFORMAT
  1
GRIDFORMAT_BEGIN
 90
        0
 91
        1
 62
     0
 92
       -2
340
14
 93
        0
 40
0.045
309
GRIDFORMAT_END
 95
        2
302
GRIDFORMAT
  1
GRIDFORMAT_BEGIN
 90
        0
 91
        1
 62
     0
 92
       -2
340
14
 93
        0
 40
0.045
309
GRIDFORMAT_END
 95
        4
302
GRIDFORMAT
  1
GRIDFORMAT_BEGIN
 90
        0
 91
        1
 62
     0
 92
       -2
340
14
 93
        0
 40
0.045
309
GRIDFORMAT_END
 95
        8
302
GRIDFORMAT
  1
GRIDFORMAT_BEGIN
 90
        0
 91
        1
 62
     0
 92
       -2
340
14
 93
        0
 40
0.045
309
GRIDFORMAT_END
 95
       16
302
GRIDFORMAT
  1
GRIDFORMAT_BEGIN
 90
        0
 91
        1
 62
     0
 92
       -2
340
14
 93
        0
 40
0.045
309
GRIDFORMAT_END
 95
       32
302
GRIDFORMAT
  1
GRIDFORMAT_BEGIN
 90
        0
 91
        1
 62
     0
 92
       -2
340
14
 93
        0
 40
0.045
309
GRIDFORMAT_END
309
TABLEFORMAT_END
  1
CELLSTYLE_BEGIN
 90
        1
 91
        1
300
_TITLE
309
CELLSTYLE_END
300
CELLSTYLE
  1
TABLEFORMAT_BEGIN
 90
        5
170
     1
 91
        0
 92
        0
 62
   257
 93
        1
300
CONTENTFORMAT
  1
CONTENTFORMAT_BEGIN
 90
        0
 91
        0
 92
        4
 93
        0
300

 40
0.0
140
1.0
 94
        5
 62
     0
340
11
144
0.18
309
CONTENTFORMAT_END
171
     1
301
MARGIN
  1
CELLMARGIN_BEGIN
 40
0.06
 40
0.06
 40
0.06
 40
0.06
 40
0.06
 40
0.06
309
CELLMARGIN_END
 94
        6
 95
        1
302
GRIDFORMAT
  1
GRIDFORMAT_BEGIN
 90
        0
 91
        1
 62
     0
 92
       -2
340
14
 93
        0
 40
0.045
309
GRIDFORMAT_END
 95
        2
302
GRIDFORMAT
  1
GRIDFORMAT_BEGIN
 90
        0
 91
        1
 62
     0
 92
       -2
340
14
 93
        0
 40
0.045
309
GRIDFORMAT_END
 95
        4
302
GRIDFORMAT
  1
GRIDFORMAT_BEGIN
 90
        0
 91
        1
 62
     0
 92
       -2
340
14
 93
        0
 40
0.045
309
GRIDFORMAT_END
 95
        8
302
GRIDFORMAT
  1
GRIDFORMAT_BEGIN
 90
        0
 91
        1
 62
     0
 92
       -2
340
14
 93
        0
 40
0.045
309
GRIDFORMAT_END
 95
       16
302
GRIDFORMAT
  1
GRIDFORMAT_BEGIN
 90
        0
 91
        1
 62
     0
 92
       -2
340
14
 93
        0
 40
0.045
309
GRIDFORMAT_END
 95
       32
302
GRIDFORMAT
  1
GRIDFORMAT_BEGIN
 90
        0
 91
        1
 62
     0
 92
       -2
340
14
 93
        0
 40
0.045
309
GRIDFORMAT_END
309
TABLEFORMAT_END
  1
CELLSTYLE_BEGIN
 90
        2
 91
        1
300
_HEADER
309
CELLSTYLE_END
300
CELLSTYLE
  1
TABLEFORMAT_BEGIN
 90
        5
170
     1
 91
        0
 92
        0
 62
   257
 93
        1
300
CONTENTFORMAT
  1
CONTENTFORMAT_BEGIN
 90
        0
 91
        0
 92
        4
 93
        0
300

 40
0.0
140
1.0
 94
        2
 62
     0
340
11
144
0.18
309
CONTENTFORMAT_END
171
     1
301
MARGIN
  1
CELLMARGIN_BEGIN
 40
0.06
 40
0.06
 40
0.06
 40
0.06
 40
0.06
 40
0.06
309
CELLMARGIN_END
 94
        6
 95
        1
302
GRIDFORMAT
  1
GRIDFORMAT_BEGIN
 90
        0
 91
        1
 62
     0
 92
       -2
340
14
 93
        0
 40
0.045
309
GRIDFORMAT_END
 95
        2
302
GRIDFORMAT
  1
GRIDFORMAT_BEGIN
 90
        0
 91
        1
 62
     0
 92
       -2
340
14
 93
        0
 40
0.045
309
GRIDFORMAT_END
 95
        4
302
GRIDFORMAT
  1
GRIDFORMAT_BEGIN
 90
        0
 91
        1
 62
     0
 92
       -2
340
14
 93
        0
 40
0.045
309
GRIDFORMAT_END
 95
        8
302
GRIDFORMAT
  1
GRIDFORMAT_BEGIN
 90
        0
 91
        1
 62
     0
 92
       -2
340
14
 93
        0
 40
0.045
309
GRIDFORMAT_END
 95
       16
302
GRIDFORMAT
  1
GRIDFORMAT_BEGIN
 90
        0
 91
        1
 62
     0
 92
       -2
340
14
 93
        0
 40
0.045
309
GRIDFORMAT_END
 95
       32
302
GRIDFORMAT
  1
GRIDFORMAT_BEGIN
 90
        0
 91
        1
 62
     0
 92
       -2
340
14
 93
        0
 40
0.045
309
GRIDFORMAT_END
309
TABLEFORMAT_END
  1
CELLSTYLE_BEGIN
 90
        3
 91
        2
300
_DATA
309
CELLSTYLE_END
  0
ENDSEC
  0
EOF