0
SECTION
  2
HEADER
  9
$ACADVER
  1
AC1027
  9
$ACADMAINTVER
 70
     8
  9
$DWGCODEPAGE
  3
ANSI_1252
  9
$REQUIREDVERSIONS
160
                 0
  9
$COMMENTS
  1
File was created by Cadenas
  9
$CUSTOMPROPERTYTAG
  1
NN
  9
$CUSTOMPROPERTY
  1
Imperial - IP Pillow Block with Type E Dimensions 2-1/4 thru 7 inch 4-Bolt Labyrinth Seal Expansion
  9
$CUSTOMPROPERTYTAG
  1
NT
  9
$CUSTOMPROPERTY
  1
Imperial/E 4 Bolt Piliow Block Bearings
  9
$CUSTOMPROPERTYTAG
  1
NB
  9
$CUSTOMPROPERTY
  1
071262
  9
$CUSTOMPROPERTYTAG
  1
NBSYN
  9
$CUSTOMPROPERTY
  1
$PN.
  9
$CUSTOMPROPERTYTAG
  1
LINA
  9
$CUSTOMPROPERTY
  1
071262
  9
$CUSTOMPROPERTYTAG
  1
SS
  9
$CUSTOMPROPERTY
  1
3-3/16
  9
$CUSTOMPROPERTYTAG
  1
TYPE
  9
$CUSTOMPROPERTY
  1
Expansion
  9
$CUSTOMPROPERTYTAG
  1
PN
  9
$CUSTOMPROPERTY
  1
071262
  9
$CUSTOMPROPERTYTAG
  1
DESCRIPTION
  9
$CUSTOMPROPERTY
  1
EP4B-IP-303LE
  9
$CUSTOMPROPERTYTAG
  1
ST
  9
$CUSTOMPROPERTY
  1
Labyrinth Seal
  9
$CUSTOMPROPERTYTAG
  1
A
  9
$CUSTOMPROPERTY
  1
4.17
  9
$CUSTOMPROPERTYTAG
  1
B
  9
$CUSTOMPROPERTY
  1
13.5
  9
$CUSTOMPROPERTYTAG
  1
C
  9
$CUSTOMPROPERTY
  1
4.49
  9
$CUSTOMPROPERTYTAG
  1
DMIN
  9
$CUSTOMPROPERTY
  1
10.75
  9
$CUSTOMPROPERTYTAG
  1
DMAX
  9
$CUSTOMPROPERTY
  1
11.25
  9
$CUSTOMPROPERTYTAG
  1
E
  9
$CUSTOMPROPERTY
  1
2.37
  9
$CUSTOMPROPERTYTAG
  1
F
  9
$CUSTOMPROPERTY
  1
3/4
  9
$CUSTOMPROPERTYTAG
  1
G
  9
$CUSTOMPROPERTY
  1
1.13
  9
$CUSTOMPROPERTYTAG
  1
H
  9
$CUSTOMPROPERTY
  1
2.25
  9
$CUSTOMPROPERTYTAG
  1
J
  9
$CUSTOMPROPERTY
  1
7.69
  9
$CUSTOMPROPERTYTAG
  1
L
  9
$CUSTOMPROPERTY
  1
5
  9
$CUSTOMPROPERTYTAG
  1
M
  9
$CUSTOMPROPERTY
  1
3.75
  9
$CUSTOMPROPERTYTAG
  1
R
  9
$CUSTOMPROPERTY
  1
1.54
  9
$CUSTOMPROPERTYTAG
  1
S
  9
$CUSTOMPROPERTY
  1
2.63
  9
$CUSTOMPROPERTYTAG
  1
X
  9
$CUSTOMPROPERTY
  1
0.25
  9
$CUSTOMPROPERTYTAG
  1
Y
  9
$CUSTOMPROPERTY
  1
0.025
  9
$CUSTOMPROPERTYTAG
  1
Z
  9
$CUSTOMPROPERTY
  1
4.05
  9
$CUSTOMPROPERTYTAG
  1
COMPANY
  9
$CUSTOMPROPERTY
  1
baldor
  9
$INSBASE
 10
0.0
 20
0.0
 30
0.0
  9
$EXTMIN
 10
1.000000000000000E+20
 20
1.000000000000000E+20
 30
1.000000000000000E+20
  9
$EXTMAX
 10
-1.000000000000000E+20
 20
-1.000000000000000E+20
 30
-1.000000000000000E+20
  9
$LIMMIN
 10
0.0
 20
0.0
  9
$LIMMAX
 10
12.0
 20
9.0
  9
$ORTHOMODE
 70
     0
  9
$REGENMODE
 70
     1
  9
$FILLMODE
 70
     1
  9
$QTEXTMODE
 70
     0
  9
$MIRRTEXT
 70
     1
  9
$LTSCALE
 40
1.0
  9
$ATTMODE
 70
     1
  9
$TEXTSIZE
 40
0.2
  9
$TRACEWID
 40
0.05
  9
$TEXTSTYLE
  7
Standard
  9
$CLAYER
  8
0
  9
$CELTYPE
  6
ByLayer
  9
$CECOLOR
 62
   256
  9
$CELTSCALE
 40
1.0
  9
$DISPSILH
 70
     0
  9
$DIMSCALE
 40
1.0
  9
$DIMASZ
 40
0.18
  9
$DIMEXO
 40
0.0625
  9
$DIMDLI
 40
0.38
  9
$DIMRND
 40
0.0
  9
$DIMDLE
 40
0.0
  9
$DIMEXE
 40
0.18
  9
$DIMTP
 40
0.0
  9
$DIMTM
 40
0.0
  9
$DIMTXT
 40
0.18
  9
$DIMCEN
 40
0.09
  9
$DIMTSZ
 40
0.0
  9
$DIMTOL
 70
     0
  9
$DIMLIM
 70
     0
  9
$DIMTIH
 70
     1
  9
$DIMTOH
 70
     1
  9
$DIMSE1
 70
     0
  9
$DIMSE2
 70
     0
  9
$DIMTAD
 70
     0
  9
$DIMZIN
 70
     0
  9
$DIMBLK
  1

  9
$DIMASO
 70
     1
  9
$DIMSHO
 70
     1
  9
$DIMPOST
  1

  9
$DIMAPOST
  1

  9
$DIMALT
 70
     0
  9
$DIMALTD
 70
     2
  9
$DIMALTF
 40
25.4
  9
$DIMLFAC
 40
1.0
  9
$DIMTOFL
 70
     0
  9
$DIMTVP
 40
0.0
  9
$DIMTIX
 70
     0
  9
$DIMSOXD
 70
     0
  9
$DIMSAH
 70
     0
  9
$DIMBLK1
  1

  9
$DIMBLK2
  1

  9
$DIMSTYLE
  2
Standard
  9
$DIMCLRD
 70
     0
  9
$DIMCLRE
 70
     0
  9
$DIMCLRT
 70
     0
  9
$DIMTFAC
 40
1.0
  9
$DIMGAP
 40
0.09
  9
$DIMJUST
 70
     0
  9
$DIMSD1
 70
     0
  9
$DIMSD2
 70
     0
  9
$DIMTOLJ
 70
     1
  9
$DIMTZIN
 70
     0
  9
$DIMALTZ
 70
     0
  9
$DIMALTTZ
 70
     0
  9
$DIMUPT
 70
     0
  9
$DIMDEC
 70
     4
  9
$DIMTDEC
 70
     4
  9
$DIMALTU
 70
     2
  9
$DIMALTTD
 70
     2
  9
$DIMTXSTY
  7
Standard
  9
$DIMAUNIT
 70
     0
  9
$DIMADEC
 70
     0
  9
$DIMALTRND
 40
0.0
  9
$DIMAZIN
 70
     0
  9
$DIMDSEP
 70
    46
  9
$DIMATFIT
 70
     3
  9
$DIMFRAC
 70
     0
  9
$DIMLDRBLK
  1

  9
$DIMLUNIT
 70
     2
  9
$DIMLWD
 70
    -2
  9
$DIMLWE
 70
    -2
  9
$DIMTMOVE
 70
     0
  9
$DIMFXL
 40
1.0
  9
$DIMFXLON
 70
     0
  9
$DIMJOGANG
 40
0.7853981633974483
  9
$DIMTFILL
 70
     0
  9
$DIMTFILLCLR
 70
     0
  9
$DIMARCSYM
 70
     0
  9
$DIMLTYPE
  6

  9
$DIMLTEX1
  6

  9
$DIMLTEX2
  6

  9
$DIMTXTDIRECTION
 70
     0
  9
$LUNITS
 70
     2
  9
$LUPREC
 70
     4
  9
$SKETCHINC
 40
0.1
  9
$FILLETRAD
 40
0.5
  9
$AUNITS
 70
     0
  9
$AUPREC
 70
     0
  9
$MENU
  1
.
  9
$ELEVATION
 40
0.0
  9
$PELEVATION
 40
0.0
  9
$THICKNESS
 40
0.0
  9
$LIMCHECK
 70
     0
  9
$CHAMFERA
 40
0.0
  9
$CHAMFERB
 40
0.0
  9
$CHAMFERC
 40
0.0
  9
$CHAMFERD
 40
0.0
  9
$SKPOLY
 70
     0
  9
$TDCREATE
 40
2458168.982438009
  9
$TDUCREATE
 40
2458168.940771343
  9
$TDUPDATE
 40
2458168.982438183
  9
$TDUUPDATE
 40
2458168.940771516
  9
$TDINDWG
 40
0.0000000116
  9
$TDUSRTIMER
 40
0.0000000116
  9
$USRTIMER
 70
     1
  9
$ANGBASE
 50
0.0
  9
$ANGDIR
 70
     0
  9
$PDMODE
 70
     0
  9
$PDSIZE
 40
0.0
  9
$PLINEWID
 40
0.0
  9
$SPLFRAME
 70
     0
  9
$SPLINETYPE
 70
     6
  9
$SPLINESEGS
 70
     8
  9
$HANDSEED
  5
282
  9
$SURFTAB1
 70
     6
  9
$SURFTAB2
 70
     6
  9
$SURFTYPE
 70
     6
  9
$SURFU
 70
     6
  9
$SURFV
 70
     6
  9
$UCSBASE
  2

  9
$UCSNAME
  2

  9
$UCSORG
 10
0.0
 20
0.0
 30
0.0
  9
$UCSXDIR
 10
1.0
 20
0.0
 30
0.0
  9
$UCSYDIR
 10
0.0
 20
1.0
 30
0.0
  9
$UCSORTHOREF
  2

  9
$UCSORTHOVIEW
 70
     0
  9
$UCSORGTOP
 10
0.0
 20
0.0
 30
0.0
  9
$UCSORGBOTTOM
 10
0.0
 20
0.0
 30
0.0
  9
$UCSORGLEFT
 10
0.0
 20
0.0
 30
0.0
  9
$UCSORGRIGHT
 10
0.0
 20
0.0
 30
0.0
  9
$UCSORGFRONT
 10
0.0
 20
0.0
 30
0.0
  9
$UCSORGBACK
 10
0.0
 20
0.0
 30
0.0
  9
$PUCSBASE
  2

  9
$PUCSNAME
  2

  9
$PUCSORG
 10
0.0
 20
0.0
 30
0.0
  9
$PUCSXDIR
 10
1.0
 20
0.0
 30
0.0
  9
$PUCSYDIR
 10
0.0
 20
1.0
 30
0.0
  9
$PUCSORTHOREF
  2

  9
$PUCSORTHOVIEW
 70
     0
  9
$PUCSORGTOP
 10
0.0
 20
0.0
 30
0.0
  9
$PUCSORGBOTTOM
 10
0.0
 20
0.0
 30
0.0
  9
$PUCSORGLEFT
 10
0.0
 20
0.0
 30
0.0
  9
$PUCSORGRIGHT
 10
0.0
 20
0.0
 30
0.0
  9
$PUCSORGFRONT
 10
0.0
 20
0.0
 30
0.0
  9
$PUCSORGBACK
 10
0.0
 20
0.0
 30
0.0
  9
$USERI1
 70
     0
  9
$USERI2
 70
     0
  9
$USERI3
 70
     0
  9
$USERI4
 70
     0
  9
$USERI5
 70
     0
  9
$USERR1
 40
0.0
  9
$USERR2
 40
0.0
  9
$USERR3
 40
0.0
  9
$USERR4
 40
0.0
  9
$USERR5
 40
0.0
  9
$WORLDVIEW
 70
     1
  9
$SHADEDGE
 70
     3
  9
$SHADEDIF
 70
    70
  9
$TILEMODE
 70
     1
  9
$MAXACTVP
 70
    64
  9
$PINSBASE
 10
0.0
 20
0.0
 30
0.0
  9
$PLIMCHECK
 70
     0
  9
$PEXTMIN
 10
1.000000000000000E+20
 20
1.000000000000000E+20
 30
1.000000000000000E+20
  9
$PEXTMAX
 10
-1.000000000000000E+20
 20
-1.000000000000000E+20
 30
-1.000000000000000E+20
  9
$PLIMMIN
 10
0.0
 20
0.0
  9
$PLIMMAX
 10
12.0
 20
9.0
  9
$UNITMODE
 70
     0
  9
$VISRETAIN
 70
     1
  9
$PLINEGEN
 70
     0
  9
$PSLTSCALE
 70
     1
  9
$TREEDEPTH
 70
  3020
  9
$CMLSTYLE
  2
Standard
  9
$CMLJUST
 70
     0
  9
$CMLSCALE
 40
1.0
  9
$PROXYGRAPHICS
 70
     1
  9
$MEASUREMENT
 70
     0
  9
$CELWEIGHT
370
    -1
  9
$ENDCAPS
280
     0
  9
$JOINSTYLE
280
     0
  9
$LWDISPLAY
290
     0
  9
$INSUNITS
 70
     1
  9
$HYPERLINKBASE
  1

  9
$STYLESHEET
  1

  9
$XEDIT
290
     1
  9
$CEPSNTYPE
380
     0
  9
$PSTYLEMODE
290
     1
  9
$FINGERPRINTGUID
  2
{C55070EF-1E19-4DE2-AB23-188AD8BF4B8D}
  9
$VERSIONGUID
  2
{FAEB1C32-E019-11D5-929B-00C0DF256EC4}
  9
$EXTNAMES
290
     1
  9
$PSVPSCALE
 40
0.0
  9
$OLESTARTUP
290
     0
  9
$SORTENTS
280
   127
  9
$INDEXCTL
280
     0
  9
$HIDETEXT
280
     1
  9
$XCLIPFRAME
280
     2
  9
$HALOGAP
280
     0
  9
$OBSCOLOR
 70
   257
  9
$OBSLTYPE
280
     0
  9
$INTERSECTIONDISPLAY
280
     0
  9
$INTERSECTIONCOLOR
 70
   257
  9
$DIMASSOC
280
     2
  9
$PROJECTNAME
  1

  9
$CAMERADISPLAY
290
     0
  9
$LENSLENGTH
 40
50.0
  9
$CAMERAHEIGHT
 40
0.0
  9
$STEPSPERSEC
 40
2.0
  9
$STEPSIZE
 40
6.0
  9
$3DDWFPREC
 40
2.0
  9
$PSOLWIDTH
 40
0.25
  9
$PSOLHEIGHT
 40
4.0
  9
$LOFTANG1
 40
1.570796326794897
  9
$LOFTANG2
 40
1.570796326794897
  9
$LOFTMAG1
 40
0.0
  9
$LOFTMAG2
 40
0.0
  9
$LOFTPARAM
 70
     7
  9
$LOFTNORMALS
280
     1
  9
$LATITUDE
 40
37.795
  9
$LONGITUDE
 40
-122.394
  9
$NORTHDIRECTION
 40
0.0
  9
$TIMEZONE
 70
 -8000
  9
$LIGHTGLYPHDISPLAY
280
     1
  9
$TILEMODELIGHTSYNCH
280
     1
  9
$CMATERIAL
347
44
  9
$SOLIDHIST
280
     0
  9
$SHOWHIST
280
     1
  9
$DWFFRAME
280
     2
  9
$DGNFRAME
280
     2
  9
$REALWORLDSCALE
290
     1
  9
$INTERFERECOLOR
 62
   256
  9
$CSHADOW
280
     0
  9
$SHADOWPLANELOCATION
 40
0.0
  0
ENDSEC
  0
SECTION
  2
CLASSES
  0
CLASS
  1
ACDBDICTIONARYWDFLT
  2
AcDbDictionaryWithDefault
  3
ObjectDBX Classes
 90
        0
 91
        4
280
     0
281
     0
  0
CLASS
  1
VISUALSTYLE
  2
AcDbVisualStyle
  3
ObjectDBX Classes
 90
     4095
 91
        4
280
     0
281
     0
  0
CLASS
  1
MATERIAL
  2
AcDbMaterial
  3
ObjectDBX Classes
 90
     1153
 91
        4
280
     0
281
     0
  0
CLASS
  1
SCALE
  2
AcDbScale
  3
ObjectDBX Classes
 90
     1153
 91
        4
280
     0
281
     0
  0
CLASS
  1
TABLESTYLE
  2
AcDbTableStyle
  3
ObjectDBX Classes
 90
     4095
 91
        4
280
     0
281
     0
  0
CLASS
  1
MLEADERSTYLE
  2
AcDbMLeaderStyle
  3
ACDB_MLEADERSTYLE_CLASS
 90
     4095
 91
        4
280
     0
281
     0
  0
CLASS
  1
SUN
  2
AcDbSun
  3
SCENEOE
 90
     1153
 91
        4
280
     0
281
     0
  0
CLASS
  1
DICTIONARYVAR
  2
AcDbDictionaryVar
  3
ObjectDBX Classes
 90
        0
 91
        4
280
     0
281
     0
  0
CLASS
  1
CELLSTYLEMAP
  2
AcDbCellStyleMap
  3
ObjectDBX Classes
 90
     1152
 91
        4
280
     0
281
     0
  0
ENDSEC
  0
SECTION
  2
TABLES
  0
TABLE
  2
VPORT
  5
8
330
0
100
AcDbSymbolTable
 70
     1
  0
VPORT
  5
29
330
8
100
AcDbSymbolTableRecord
100
AcDbViewportTableRecord
  2
*Active
 70
     0
 10
0.0
 20
0.0
 11
1.0
 21
1.0
 12
0.0
 22
-0.0802499999999995
 13
0.0
 23
0.0
 14
0.5
 24
0.5
 15
0.5
 25
0.5
 16
0.0
 26
0.0
 36
1.0
 17
0.0
 27
0.0
 37
0.0
 40
5.201489999999999
 41
2.647318364545544
 42
50.0
 43
0.0
 44
0.0
 50
0.0
 51
0.0
 71
     0
 72
   100
 73
     1
 74
     3
 75
     0
 76
     0
 77
     0
 78
     0
281
     0
 65
     1
110
0.0
120
0.0
130
0.0
111
1.0
121
0.0
131
0.0
112
0.0
122
1.0
132
0.0
 79
     0
146
0.0
348
2F
 60
     3
 61
     5
292
     1
282
     1
141
0.0
142
0.0
 63
   250
361
6D
  0
ENDTAB
  0
TABLE
  2
LTYPE
  5
5
330
0
100
AcDbSymbolTable
 70
     3
  0
LTYPE
  5
14
330
5
100
AcDbSymbolTableRecord
100
AcDbLinetypeTableRecord
  2
ByBlock
 70
     0
  3

 72
    65
 73
     0
 40
0.0
  0
LTYPE
  5
15
330
5
100
AcDbSymbolTableRecord
100
AcDbLinetypeTableRecord
  2
ByLayer
 70
     0
  3

 72
    65
 73
     0
 40
0.0
  0
LTYPE
  5
16
330
5
100
AcDbSymbolTableRecord
100
AcDbLinetypeTableRecord
  2
Continuous
 70
     0
  3
Solid line
 72
    65
 73
     0
 40
0.0
  0
LTYPE
  5
9B
330
5
100
AcDbSymbolTableRecord
100
AcDbLinetypeTableRecord
  2
Dashed
 70
     0
  3

 72
    65
 73
     2
 40
2.0
 49
1.0
 74
     0
 49
-1.0
 74
     0
  0
LTYPE
  5
219
330
5
100
AcDbSymbolTableRecord
100
AcDbLinetypeTableRecord
  2
Center
 70
     0
  3

 72
    65
 73
     4
 40
1.5
 49
0.45
 74
     0
 49
-0.5
 74
     0
 49
0.05
 74
     0
 49
-0.5
 74
     0
  0
ENDTAB
  0
TABLE
  2
LAYER
  5
2
330
0
100
AcDbSymbolTable
 70
     7
  0
LAYER
  5
10
330
2
100
AcDbSymbolTableRecord
100
AcDbLayerTableRecord
  2
0
 70
     0
 62
     7
  6
Continuous
370
    -3
390
F
347
46
348
0
  0
LAYER
  5
72
330
2
100
AcDbSymbolTableRecord
100
AcDbLayerTableRecord
  2
AM_6
 70
     0
 62
    -2
  6
Continuous
370
    35
390
F
347
46
348
0
  0
LAYER
  5
9C
330
2
100
AcDbSymbolTableRecord
100
AcDbLayerTableRecord
  2
AM_9
 70
     0
 62
     6
  6
Dashed
370
    25
390
F
347
46
348
0
  0
LAYER
  5
BA
330
2
100
AcDbSymbolTableRecord
100
AcDbLayerTableRecord
  2
AM_4
 70
     0
 62
     7
  6
Continuous
370
    50
390
F
347
46
348
0
  0
LAYER
  5
ED
330
2
100
AcDbSymbolTableRecord
100
AcDbLayerTableRecord
  2
AM_5
 70
     0
 62
     3
  6
Continuous
370
    25
390
F
347
46
348
0
  0
LAYER
  5
21A
330
2
100
AcDbSymbolTableRecord
100
AcDbLayerTableRecord
  2
AM_7
 70
     0
 62
     7
  6
Center
370
    25
390
F
347
46
348
0
  0
LAYER
  5
26D
330
2
100
AcDbSymbolTableRecord
100
AcDbLayerTableRecord
  2
ConnectionPoints
 70
     0
 62
     7
  6
Continuous
370
    50
390
F
347
46
348
0
  0
ENDTAB
  0
TABLE
  2
STYLE
  5
3
330
0
100
AcDbSymbolTable
 70
     1
  0
STYLE
  5
11
330
3
100
AcDbSymbolTableRecord
100
AcDbTextStyleTableRecord
  2
Standard
 70
     0
 40
0.0
 41
1.0
 50
0.0
 71
     0
 42
0.2
  3
txt
  4

  0
ENDTAB
  0
TABLE
  2
VIEW
  5
6
330
0
100
AcDbSymbolTable
 70
     0
  0
ENDTAB
  0
TABLE
  2
UCS
  5
7
330
0
100
AcDbSymbolTable
 70
     0
  0
ENDTAB
  0
TABLE
  2
APPID
  5
9
330
0
100
AcDbSymbolTable
 70
     1
  0
APPID
  5
12
330
9
100
AcDbSymbolTableRecord
100
AcDbRegAppTableRecord
  2
ACAD
 70
     0
  0
ENDTAB
  0
TABLE
  2
DIMSTYLE
  5
A
330
0
100
AcDbSymbolTable
 70
     1
100
AcDbDimStyleTable
  0
DIMSTYLE
105
27
330
A
100
AcDbSymbolTableRecord
100
AcDbDimStyleTableRecord
  2
Standard
 70
     0
178
     0
340
11
  0
ENDTAB
  0
TABLE
  2
BLOCK_RECORD
  5
1
330
0
100
AcDbSymbolTable
 70
     8
  0
BLOCK_RECORD
  5
1F
330
1
100
AcDbSymbolTableRecord
100
AcDbBlockTableRecord
  2
*Model_Space
340
22
 70
     0
280
     1
281
     0
  0
BLOCK_RECORD
  5
1B
330
1
100
AcDbSymbolTableRecord
100
AcDbBlockTableRecord
  2
*Paper_Space
340
1E
 70
     0
280
     1
281
     0
  0
BLOCK_RECORD
  5
23
330
1
100
AcDbSymbolTableRecord
100
AcDbBlockTableRecord
  2
*Paper_Space0
340
26
 70
     0
280
     1
281
     0
  0
BLOCK_RECORD
  5
6E
330
1
100
AcDbSymbolTableRecord
100
AcDbBlockTableRecord
  2
1_071262_4
340
0
102
{BLKREFS
331
6F
102
}
 70
     0
280
     1
281
     0
  0
BLOCK_RECORD
  5
8F
330
1
100
AcDbSymbolTableRecord
100
AcDbBlockTableRecord
  2
2_405015E_Inch_0_in_071262_4
340
0
102
{BLKREFS
331
90
102
}
 70
     0
280
     1
281
     0
  0
BLOCK_RECORD
  5
DD
330
1
100
AcDbSymbolTableRecord
100
AcDbBlockTableRecord
  2
3_ASME_B18_3_1_4_1_0_in_071262_4
340
0
102
{BLKREFS
331
DE
102
}
 70
     0
280
     1
281
     0
  0
BLOCK_RECORD
  5
F0
330
1
100
AcDbSymbolTableRecord
100
AcDbBlockTableRecord
  2
4_ASME_B18_3_1_4_2_0_in_071262_4
340
0
102
{BLKREFS
331
F1
102
}
 70
     0
280
     1
281
     0
  0
BLOCK_RECORD
  5
112
330
1
100
AcDbSymbolTableRecord
100
AcDbBlockTableRecord
  2
5_070901LWE_0_in_071262_4
340
0
102
{BLKREFS
331
113
102
}
 70
     0
280
     1
281
     0
  0
BLOCK_RECORD
  5
14B
330
1
100
AcDbSymbolTableRecord
100
AcDbBlockTableRecord
  2
6_070933EL_0_in_071262_4
340
0
102
{BLKREFS
331
14C
102
}
 70
     0
280
     1
281
     0
  0
BLOCK_RECORD
  5
1CF
330
1
100
AcDbSymbolTableRecord
100
AcDbBlockTableRecord
  2
7_071262H_0_in_071262_4
340
0
102
{BLKREFS
331
1D0
102
}
 70
     0
280
     1
281
     0
  0
ENDTAB
  0
ENDSEC
  0
SECTION
  2
BLOCKS
  0
BLOCK
  5
20
330
1F
100
AcDbEntity
  8
0
100
AcDbBlockBegin
  2
*Model_Space
 70
     0
 10
0.0
 20
0.0
 30
0.0
  3
*Model_Space
  1

  0
ENDBLK
  5
21
330
1F
100
AcDbEntity
  8
0
100
AcDbBlockEnd
  0
BLOCK
  5
1C
330
1B
100
AcDbEntity
 67
     1
  8
0
100
AcDbBlockBegin
  2
*Paper_Space
 70
     0
 10
0.0
 20
0.0
 30
0.0
  3
*Paper_Space
  1

  0
ENDBLK
  5
1D
330
1B
100
AcDbEntity
 67
     1
  8
0
100
AcDbBlockEnd
  0
BLOCK
  5
24
330
23
100
AcDbEntity
  8
0
100
AcDbBlockBegin
  2
*Paper_Space0
 70
     0
 10
0.0
 20
0.0
 30
0.0
  3
*Paper_Space0
  1

  0
ENDBLK
  5
25
330
23
100
AcDbEntity
  8
0
100
AcDbBlockEnd
  0
BLOCK
  5
70
330
6E
100
AcDbEntity
  8
0
100
AcDbBlockBegin
  2
1_071262_4
 70
     2
 10
0.0
 20
0.0
 30
0.0
  3
1_071262_4
  1

  0
ATTDEF
  5
73
330
6E
100
AcDbEntity
  8
AM_6
100
AcDbText
 10
11.75
 20
2.4695
 30
0.0
 40
0.5
  1
Imperial - IP Pillow Block with Type E Dimensions 2-1/4 thru 7 inch 4-Bolt Labyrinth Seal Expansion
100
AcDbAttributeDefinition
  3

  2
NN
 70
     8
280
     0
  0
ATTDEF
  5
74
330
6E
100
AcDbEntity
  8
AM_6
100
AcDbText
 10
11.75
 20
1.9695
 30
0.0
 40
0.5
  1
Imperial/E 4 Bolt Piliow Block Bearings
100
AcDbAttributeDefinition
  3

  2
NT
 70
     8
280
     0
  0
ATTDEF
  5
75
330
6E
100
AcDbEntity
  8
AM_6
100
AcDbText
 10
11.75
 20
1.4695
 30
0.0
 40
0.5
  1
071262
100
AcDbAttributeDefinition
  3

  2
NB
 70
     8
280
     0
  0
ATTDEF
  5
76
330
6E
100
AcDbEntity
  8
AM_6
100
AcDbText
 10
11.75
 20
0.9695
 30
0.0
 40
0.5
  1
$PN.
100
AcDbAttributeDefinition
  3

  2
NBSYN
 70
     8
280
     0
  0
ATTDEF
  5
77
330
6E
100
AcDbEntity
  8
AM_6
100
AcDbText
 10
11.75
 20
0.4695
 30
0.0
 40
0.5
  1
071262
100
AcDbAttributeDefinition
  3

  2
LINA
 70
     8
280
     0
  0
ATTDEF
  5
78
330
6E
100
AcDbEntity
  8
AM_6
100
AcDbText
 10
11.75
 20
-0.0305
 30
0.0
 40
0.5
  1
3-3/16
100
AcDbAttributeDefinition
  3

  2
SS
 70
     8
280
     0
  0
ATTDEF
  5
79
330
6E
100
AcDbEntity
  8
AM_6
100
AcDbText
 10
11.75
 20
-0.5305
 30
0.0
 40
0.5
  1
Expansion
100
AcDbAttributeDefinition
  3

  2
TYPE
 70
     8
280
     0
  0
ATTDEF
  5
7A
330
6E
100
AcDbEntity
  8
AM_6
100
AcDbText
 10
11.75
 20
-1.0305
 30
0.0
 40
0.5
  1
071262
100
AcDbAttributeDefinition
  3

  2
PN
 70
     8
280
     0
  0
ATTDEF
  5
7B
330
6E
100
AcDbEntity
  8
AM_6
100
AcDbText
 10
11.75
 20
-1.5305
 30
0.0
 40
0.5
  1
EP4B-IP-303LE
100
AcDbAttributeDefinition
  3

  2
DESCRIPTION
 70
     8
280
     0
  0
ATTDEF
  5
7C
330
6E
100
AcDbEntity
  8
AM_6
100
AcDbText
 10
11.75
 20
-2.0305
 30
0.0
 40
0.5
  1
Labyrinth Seal
100
AcDbAttributeDefinition
  3

  2
ST
 70
     8
280
     0
  0
ATTDEF
  5
7D
330
6E
100
AcDbEntity
  8
AM_6
100
AcDbText
 10
11.75
 20
-2.5305
 30
0.0
 40
0.5
  1
4.17
100
AcDbAttributeDefinition
  3

  2
A
 70
     8
280
     0
  0
ATTDEF
  5
7E
330
6E
100
AcDbEntity
  8
AM_6
100
AcDbText
 10
11.75
 20
-3.0305
 30
0.0
 40
0.5
  1
13.5
100
AcDbAttributeDefinition
  3

  2
B
 70
     8
280
     0
  0
ATTDEF
  5
7F
330
6E
100
AcDbEntity
  8
AM_6
100
AcDbText
 10
11.75
 20
-3.5305
 30
0.0
 40
0.5
  1
4.49
100
AcDbAttributeDefinition
  3

  2
C
 70
     8
280
     0
  0
ATTDEF
  5
80
330
6E
100
AcDbEntity
  8
AM_6
100
AcDbText
 10
11.75
 20
-4.0305
 30
0.0
 40
0.5
  1
10.75
100
AcDbAttributeDefinition
  3

  2
DMIN
 70
     8
280
     0
  0
ATTDEF
  5
81
330
6E
100
AcDbEntity
  8
AM_6
100
AcDbText
 10
11.75
 20
-4.5305
 30
0.0
 40
0.5
  1
11.25
100
AcDbAttributeDefinition
  3

  2
DMAX
 70
     8
280
     0
  0
ATTDEF
  5
82
330
6E
100
AcDbEntity
  8
AM_6
100
AcDbText
 10
11.75
 20
-5.0305
 30
0.0
 40
0.5
  1
2.37
100
AcDbAttributeDefinition
  3

  2
E
 70
     8
280
     0
  0
ATTDEF
  5
83
330
6E
100
AcDbEntity
  8
AM_6
100
AcDbText
 10
11.75
 20
-5.5305
 30
0.0
 40
0.5
  1
3/4
100
AcDbAttributeDefinition
  3

  2
F
 70
     8
280
     0
  0
ATTDEF
  5
84
330
6E
100
AcDbEntity
  8
AM_6
100
AcDbText
 10
11.75
 20
-6.0305
 30
0.0
 40
0.5
  1
1.13
100
AcDbAttributeDefinition
  3

  2
G
 70
     8
280
     0
  0
ATTDEF
  5
85
330
6E
100
AcDbEntity
  8
AM_6
100
AcDbText
 10
11.75
 20
-6.5305
 30
0.0
 40
0.5
  1
2.25
100
AcDbAttributeDefinition
  3

  2
H
 70
     8
280
     0
  0
ATTDEF
  5
86
330
6E
100
AcDbEntity
  8
AM_6
100
AcDbText
 10
11.75
 20
-7.0305
 30
0.0
 40
0.5
  1
7.69
100
AcDbAttributeDefinition
  3

  2
J
 70
     8
280
     0
  0
ATTDEF
  5
87
330
6E
100
AcDbEntity
  8
AM_6
100
AcDbText
 10
11.75
 20
-7.5305
 30
0.0
 40
0.5
  1
5
100
AcDbAttributeDefinition
  3

  2
L
 70
     8
280
     0
  0
ATTDEF
  5
88
330
6E
100
AcDbEntity
  8
AM_6
100
AcDbText
 10
11.75
 20
-8.0305
 30
0.0
 40
0.5
  1
3.75
100
AcDbAttributeDefinition
  3

  2
M
 70
     8
280
     0
  0
ATTDEF
  5
89
330
6E
100
AcDbEntity
  8
AM_6
100
AcDbText
 10
11.75
 20
-8.5305
 30
0.0
 40
0.5
  1
1.54
100
AcDbAttributeDefinition
  3

  2
R
 70
     8
280
     0
  0
ATTDEF
  5
8A
330
6E
100
AcDbEntity
  8
AM_6
100
AcDbText
 10
11.75
 20
-9.0305
 30
0.0
 40
0.5
  1
2.63
100
AcDbAttributeDefinition
  3

  2
S
 70
     8
280
     0
  0
ATTDEF
  5
8B
330
6E
100
AcDbEntity
  8
AM_6
100
AcDbText
 10
11.75
 20
-9.5305
 30
0.0
 40
0.5
  1
0.25
100
AcDbAttributeDefinition
  3

  2
X
 70
     8
280
     0
  0
ATTDEF
  5
8C
330
6E
100
AcDbEntity
  8
AM_6
100
AcDbText
 10
11.75
 20
-10.0305
 30
0.0
 40
0.5
  1
0.025
100
AcDbAttributeDefinition
  3

  2
Y
 70
     8
280
     0
  0
ATTDEF
  5
8D
330
6E
100
AcDbEntity
  8
AM_6
100
AcDbText
 10
11.75
 20
-10.5305
 30
0.0
 40
0.5
  1
4.05
100
AcDbAttributeDefinition
  3

  2
Z
 70
     8
280
     0
  0
ATTDEF
  5
8E
330
6E
100
AcDbEntity
  8
AM_6
100
AcDbText
 10
11.75
 20
-11.0305
 30
0.0
 40
0.5
  1
baldor
100
AcDbAttributeDefinition
  3

  2
COMPANY
 70
     8
280
     0
  0
INSERT
  5
90
330
6E
100
AcDbEntity
  8
0
100
AcDbBlockReference
  2
2_405015E_Inch_0_in_071262_4
 10
0.0
 20
0.0
 30
0.0
  0
INSERT
  5
DE
330
6E
100
AcDbEntity
  8
0
100
AcDbBlockReference
  2
3_ASME_B18_3_1_4_1_0_in_071262_4
 10
0.0
 20
0.0
 30
0.0
  0
INSERT
  5
F1
330
6E
100
AcDbEntity
  8
0
100
AcDbBlockReference
  2
4_ASME_B18_3_1_4_2_0_in_071262_4
 10
0.0
 20
0.0
 30
0.0
  0
INSERT
  5
113
330
6E
100
AcDbEntity
  8
0
100
AcDbBlockReference
  2
5_070901LWE_0_in_071262_4
 10
0.0
 20
0.0
 30
0.0
  0
INSERT
  5
14C
330
6E
100
AcDbEntity
  8
0
100
AcDbBlockReference
  2
6_070933EL_0_in_071262_4
 10
0.0
 20
0.0
 30
0.0
  0
INSERT
  5
1D0
330
6E
100
AcDbEntity
  8
0
100
AcDbBlockReference
  2
7_071262H_0_in_071262_4
 10
0.0
 20
0.0
 30
0.0
  0
ENDBLK
  5
71
330
6E
100
AcDbEntity
  8
0
100
AcDbBlockEnd
  0
BLOCK
  5
91
330
8F
100
AcDbEntity
  8
0
100
AcDbBlockBegin
  2
2_405015E_Inch_0_in_071262_4
 70
     2
 10
0.0
 20
0.0
 30
0.0
  3
2_405015E_Inch_0_in_071262_4
  1

  0
ATTDEF
  5
93
330
8F
100
AcDbEntity
  8
AM_6
100
AcDbText
 10
3.266150533277436
 20
0.2525907427704614
 30
0.0
 40
0.5
  1
405015E -Inch
100
AcDbAttributeDefinition
  3

  2
NN
 70
     8
280
     0
  0
ATTDEF
  5
94
330
8F
100
AcDbEntity
  8
AM_6
100
AcDbText
 10
3.266150533277436
 20
-0.2474092572295386
 30
0.0
 40
0.5
  1
Grease Fitting
100
AcDbAttributeDefinition
  3

  2
NT
 70
     8
280
     0
  0
ATTDEF
  5
95
330
8F
100
AcDbEntity
  8
AM_6
100
AcDbText
 10
3.266150533277436
 20
-0.7474092572295385
 30
0.0
 40
0.5
  1
405015E-Inch
100
AcDbAttributeDefinition
  3

  2
NB
 70
     8
280
     0
  0
ATTDEF
  5
96
330
8F
100
AcDbEntity
  8
AM_6
100
AcDbText
 10
3.266150533277436
 20
-1.247409257229539
 30
0.0
 40
0.5
  1
$MN.-Inch
100
AcDbAttributeDefinition
  3

  2
NBSYN
 70
     8
280
     0
  0
ATTDEF
  5
97
330
8F
100
AcDbEntity
  8
AM_6
100
AcDbText
 10
3.266150533277436
 20
-1.747409257229539
 30
0.0
 40
0.5
  1
405015E
100
AcDbAttributeDefinition
  3

  2
LINA
 70
     8
280
     0
  0
ATTDEF
  5
98
330
8F
100
AcDbEntity
  8
AM_6
100
AcDbText
 10
3.266150533277436
 20
-2.247409257229538
 30
0.0
 40
0.5
  1
405015E
100
AcDbAttributeDefinition
  3

  2
MN
 70
     8
280
     0
  0
ATTDEF
  5
99
330
8F
100
AcDbEntity
  8
AM_6
100
AcDbText
 10
3.266150533277436
 20
-2.747409257229538
 30
0.0
 40
0.5
  1
1/8 x 27PTF
100
AcDbAttributeDefinition
  3

  2
T
 70
     8
280
     0
  0
ATTDEF
  5
9A
330
8F
100
AcDbEntity
  8
AM_6
100
AcDbText
 10
3.266150533277436
 20
-3.247409257229538
 30
0.0
 40
0.5
  1
baldor
100
AcDbAttributeDefinition
  3

  2
COMPANY
 70
     8
280
     0
  0
ELLIPSE
  5
9D
330
8F
100
AcDbEntity
  8
AM_9
100
AcDbEllipse
 10
-1.8875
 20
0.0000000000000002
 30
0.0
 11
-2.974107518188895E-17
 21
-0.161902872472269
 31
0.0
210
0.0
220
0.0
230
1.0
 40
0.8660254037844383
 41
0.0
 42
6.283185307179586
  0
LWPOLYLINE
  5
9E
330
8F
100
AcDbEntity
  8
AM_9
100
AcDbPolyline
 90
        4
 70
     0
 43
0.0
 10
-2.213976856926152
 20
0.1262953713852309
 10
-2.17596551840181
 20
0.1498542014388651
 10
-2.138848837232497
 20
0.173563038553539
 10
-2.114721528538922
 20
0.1894430570778462
  0
LWPOLYLINE
  5
9F
330
8F
100
AcDbEntity
  8
AM_9
100
AcDbPolyline
 90
        5
 70
     0
 43
0.0
 10
-2.20960220089367
 20
0.0228276637062923
 10
-2.209746764079845
 20
0.0315738428463079
 10
-2.210639747470363
 20
0.0631476856926155
 10
-2.212074465325427
 20
0.0947562840569833
 10
-2.213976856926152
 20
0.1262953713852309
  0
LINE
  5
A0
330
8F
100
AcDbEntity
  8
AM_9
100
AcDbLine
 10
-2.209443057077845
 20
0.0000000000000002
 30
0.0
 11
-2.20960220089367
 21
0.0228276637062923
 31
0.0
  0
LWPOLYLINE
  5
A1
330
8F
100
AcDbEntity
  8
AM_9
100
AcDbPolyline
 90
        4
 70
     0
 43
0.0
 10
-2.114721528538922
 20
-0.1894430570778458
 10
-2.138705617675653
 20
-0.1736561356546919
 10
-2.16330890060751
 20
-0.1578502110457924
 10
-2.213976856926152
 20
-0.1262953713852304
  0
LINE
  5
A2
330
8F
100
AcDbEntity
  8
AM_9
100
AcDbLine
 10
-2.209639600419341
 20
-0.0253766263605013
 30
0.0
 11
-2.209443057077845
 21
0.0000000000000002
 31
0.0
  0
LWPOLYLINE
  5
A3
330
8F
100
AcDbEntity
  8
AM_9
100
AcDbPolyline
 90
        4
 70
     0
 43
0.0
 10
-2.213976856926152
 20
-0.1262953713852304
 10
-2.212184263336767
 20
-0.0967996321117976
 10
-2.210155971199381
 20
-0.0485424412477541
 10
-2.209639600419341
 20
-0.0253766263605013
  0
LINE
  5
A4
330
8F
100
AcDbEntity
  8
AM_9
100
AcDbLine
 10
-2.254909257229538
 20
0.1262953713852309
 30
0.0
 11
-2.213976856926152
 21
0.1262953713852309
 31
0.0
  0
LINE
  5
A5
330
8F
100
AcDbEntity
  8
AM_9
100
AcDbLine
 10
-2.254909257229538
 20
-0.1262953713852304
 30
0.0
 11
-2.213976856926152
 21
-0.1262953713852304
 31
0.0
  0
LWPOLYLINE
  5
A6
330
8F
100
AcDbEntity
  8
AM_9
100
AcDbPolyline
 90
        3
 70
     0
 43
0.0
 10
-2.259443057077845
 20
0.0000000000000002
 10
-2.258734276719277
 20
-0.0483998160558987
 10
-2.257177270281705
 20
-0.0876643906215057
  0
LWPOLYLINE
  5
A7
330
8F
100
AcDbEntity
  8
AM_9
100
AcDbPolyline
 90
        4
 70
     0
 43
0.0
 10
-2.257180568555147
 20
0.0875981884876053
 10
-2.258235794603035
 20
0.0634316146914369
 10
-2.259135776170731
 20
0.0317600370486145
 10
-2.259443057077845
 20
0.0000000000000002
  0
LWPOLYLINE
  5
A8
330
8F
100
AcDbEntity
  8
AM_9
100
AcDbPolyline
 90
        4
 70
     0
 43
0.0
 10
-2.024533799848307
 20
-0.252590742770461
 10
-2.057198951484867
 20
-0.2290319127168268
 10
-2.091208781659575
 20
-0.2053230756021528
 10
-2.114721528538922
 20
-0.1894430570778458
  0
LWPOLYLINE
  5
A9
330
8F
100
AcDbEntity
  8
AM_9
100
AcDbPolyline
 90
        4
 70
     0
 43
0.0
 10
-2.114721528538922
 20
0.1894430570778462
 10
-2.091344853406191
 20
0.205229978501
 10
-2.06853036251135
 20
0.2210359031098995
 10
-2.024533799848307
 20
0.2525907427704614
  0
LINE
  5
AA
330
8F
100
AcDbEntity
  8
AM_9
100
AcDbLine
 10
-1.896546710626154
 20
0.1983264404626882
 30
0.0
 11
-2.01035489783229
 21
0.2054502516015137
 31
0.0
  0
LINE
  5
AB
330
8F
100
AcDbEntity
  8
AM_9
100
AcDbLine
 10
-2.01035489783229
 20
-0.2054502516015133
 30
0.0
 11
-1.896546710626154
 21
-0.1983264404626877
 31
0.0
  0
ELLIPSE
  5
AC
330
8F
100
AcDbEntity
  8
AM_9
100
AcDbEllipse
 10
-2.07
 20
0.0000000000000021
 30
0.0
 11
1.339457436567388E-17
 21
0.2187499999999951
 31
0.0
210
0.0
220
0.0
230
1.0
 40
0.8660254037844534
 41
1.032970329614948
 42
2.108622323974861
  0
ELLIPSE
  5
AD
330
8F
100
AcDbEntity
  8
AM_9
100
AcDbEllipse
 10
-2.07
 20
0.0000000000000002
 30
0.0
 11
1.308841266588731E-17
 21
0.2137499999999995
 31
0.0
210
0.0
220
0.0
230
1.0
 40
0.8660254037844387
 41
0.9862868522353239
 42
2.155305801354469
  0
ELLIPSE
  5
AE
330
8F
100
AcDbEntity
  8
AM_9
100
AcDbEllipse
 10
-2.079159099270441
 20
0.0000000000000002
 30
0.0
 11
1.056466380484819E-17
 21
0.1725340532830154
 31
0.0
210
0.0
220
0.0
230
1.0
 40
0.8660254037844377
 41
0.6732704101476168
 42
2.468322243442177
  0
LINE
  5
AF
330
8F
100
AcDbEntity
  8
AM_9
100
AcDbLine
 10
-2.19
 20
-0.0703562363973514
 30
0.0
 11
-2.182760904853148
 21
-0.0796165180238019
 31
0.0
  0
LINE
  5
B0
330
8F
100
AcDbEntity
  8
AM_9
100
AcDbLine
 10
-2.182760904853148
 20
0.0796165180238023
 30
0.0
 11
-2.19
 21
0.0703562363973519
 31
0.0
  0
ELLIPSE
  5
B1
330
8F
100
AcDbEntity
  8
AM_9
100
AcDbEllipse
 10
-2.106376560809284
 20
0.0000000000000003
 30
0.0
 11
7.275632189644520E-18
 21
0.1188200907348976
 31
0.0
210
0.0
220
0.0
230
1.0
 40
0.866025403784447
 41
0.0521714424105904
 42
3.089421211179201
  0
LINE
  5
B2
330
8F
100
AcDbEntity
  8
AM_9
100
AcDbLine
 10
-2.1225
 20
0.1050000000000002
 30
0.0
 11
-2.1375
 21
0.1050000000000002
 31
0.0
  0
LINE
  5
B3
330
8F
100
AcDbEntity
  8
AM_9
100
AcDbLine
 10
-2.1375
 20
-0.1049999999999998
 30
0.0
 11
-2.1225
 21
-0.1049999999999998
 31
0.0
  0
ELLIPSE
  5
B4
330
8F
100
AcDbEntity
  8
AM_9
100
AcDbEllipse
 10
-2.1375
 20
-0.000000000000001
 30
0.0
 11
6.429395695523527E-18
 21
0.1049999999999987
 31
0.0
210
0.0
220
0.0
230
1.0
 40
0.8660254037844427
 41
5.235987755983002
 42
10.47197551196598
  0
ELLIPSE
  5
B5
330
8F
100
AcDbEntity
  8
AM_9
100
AcDbEllipse
 10
-2.122499999999995
 20
0.000000000000001
 30
0.0
 11
6.429395695523559E-18
 21
0.1049999999999993
 31
0.0
210
0.0
220
0.0
230
1.0
 40
0.8660254037844299
 41
5.8581059812716
 42
9.84985728667736
  0
ELLIPSE
  5
B6
330
8F
100
AcDbEntity
  8
AM_9
100
AcDbEllipse
 10
-2.1675
 20
0.0000000000000003
 30
0.0
 11
8.266365894244653E-18
 21
0.1350000000000003
 31
0.0
210
0.0
220
0.0
230
1.0
 40
0.8660254037844358
 41
0.7751090107151226
 42
2.36648364287467
  0
ELLIPSE
  5
B7
330
8F
100
AcDbEntity
  8
AM_9
100
AcDbEllipse
 10
-2.02
 20
-0.0000000000000002
 30
0.0
 11
1.339457436567419E-17
 21
0.2187500000000002
 31
0.0
210
0.0
220
0.0
230
1.0
 40
0.866025403784439
 41
0.0
 42
6.283185307179586
  0
ELLIPSE
  5
B8
330
8F
100
AcDbEntity
  8
AM_9
100
AcDbEllipse
 10
-2.02
 20
0.0000000000000002
 30
0.0
 11
1.259867011763634E-17
 21
0.2057518972230691
 31
0.0
210
0.0
220
0.0
230
1.0
 40
0.8660254037844312
 41
0.0
 42
6.283185307179586
  0
ELLIPSE
  5
B9
330
8F
100
AcDbEntity
  8
AM_9
100
AcDbEllipse
 10
-1.905857377154473
 20
0.0000000000000002
 30
0.0
 11
1.216182204459295E-17
 21
0.1986176267812154
 31
0.0
210
0.0
220
0.0
230
1.0
 40
0.8660254037844375
 41
0.0
 42
6.283185307179586
  0
LWPOLYLINE
  5
BB
330
8F
100
AcDbEntity
  8
AM_4
100
AcDbPolyline
 90
        4
 70
     0
 43
0.0
 10
-2.254909257229538
 20
-0.1262953713852304
 10
-2.222244105592978
 20
-0.1498542014388646
 10
-2.188234275418269
 20
-0.1735630385535386
 10
-2.164721528538923
 20
-0.1894430570778458
  0
LINE
  5
BC
330
8F
100
AcDbEntity
  8
AM_4
100
AcDbLine
 10
-2.257177270281705
 20
-0.0876643906215057
 30
0.0
 11
-2.254909257229538
 21
-0.1262953713852304
 31
0.0
  0
LWPOLYLINE
  5
BD
330
8F
100
AcDbEntity
  8
AM_4
100
AcDbPolyline
 90
        4
 70
     0
 43
0.0
 10
-2.164721528538923
 20
0.1894430570778462
 10
-2.188098203671654
 20
0.1736561356546924
 10
-2.210912694566495
 20
0.1578502110457929
 10
-2.254909257229538
 20
0.1262953713852309
  0
LINE
  5
BE
330
8F
100
AcDbEntity
  8
AM_4
100
AcDbLine
 10
-2.254909257229538
 20
0.1262953713852309
 30
0.0
 11
-2.257180568555147
 21
0.0875981884876053
 31
0.0
  0
LWPOLYLINE
  5
BF
330
8F
100
AcDbEntity
  8
AM_4
100
AcDbPolyline
 90
        4
 70
     0
 43
0.0
 10
-2.065466200151692
 20
0.2525907427704614
 10
-2.103477538676035
 20
0.2290319127168273
 10
-2.140594219845348
 20
0.2053230756021533
 10
-2.164721528538923
 20
0.1894430570778462
  0
LWPOLYLINE
  5
C0
330
8F
100
AcDbEntity
  8
AM_4
100
AcDbPolyline
 90
        4
 70
     0
 43
0.0
 10
-2.164721528538923
 20
-0.1894430570778458
 10
-2.140737439402192
 20
-0.2052299785009996
 10
-2.091022907248603
 20
-0.2368211991063372
 10
-2.065466200151692
 20
-0.252590742770461
  0
ELLIPSE
  5
C1
330
8F
100
AcDbEntity
  8
AM_4
100
AcDbEllipse
 10
-2.069999999999999
 20
0.0
 30
0.0
 11
1.339457436567419E-17
 21
0.2187500000000002
 31
0.0
210
0.0
220
0.0
230
1.0
 40
0.8660254037844374
 41
2.108622323974841
 42
7.316155636794536
  0
LINE
  5
C2
330
8F
100
AcDbEntity
  8
AM_4
100
AcDbLine
 10
-2.065466200151692
 20
0.2525907427704614
 30
0.0
 11
-2.024533799848307
 21
0.2525907427704614
 31
0.0
  0
LWPOLYLINE
  5
C3
330
8F
100
AcDbEntity
  8
AM_4
100
AcDbPolyline
 90
        4
 70
     0
 43
0.0
 10
-1.975278471461077
 20
0.1894430570778462
 10
-1.998655146593808
 20
0.2052299785009999
 10
-2.021469637488649
 20
0.2210359031098994
 10
-2.065466200151692
 20
0.2525907427704614
  0
LWPOLYLINE
  5
C4
330
8F
100
AcDbEntity
  8
AM_4
100
AcDbPolyline
 90
        4
 70
     0
 43
0.0
 10
-1.925278471461077
 20
0.1894430570778462
 10
-1.901901796328346
 20
0.1736561356546923
 10
-1.879114397584132
 20
0.1578692142315385
 10
-1.835090742770461
 20
0.1262953713852309
  0
LWPOLYLINE
  5
C5
330
8F
100
AcDbEntity
  8
AM_4
100
AcDbPolyline
 90
        4
 70
     0
 43
0.0
 10
-2.024533799848307
 20
0.2525907427704614
 10
-1.986522461323964
 20
0.2290319127168272
 10
-1.949405780154651
 20
0.2053230756021533
 10
-1.925278471461077
 20
0.1894430570778462
  0
LINE
  5
C6
330
8F
100
AcDbEntity
  8
AM_4
100
AcDbLine
 10
-1.876023143073846
 20
0.1262953713852309
 30
0.0
 11
-1.835090742770461
 21
0.1262953713852309
 31
0.0
  0
LWPOLYLINE
  5
C7
330
8F
100
AcDbEntity
  8
AM_4
100
AcDbPolyline
 90
        4
 70
     0
 43
0.0
 10
-1.876023143073846
 20
-0.1262953713852304
 10
-1.877815736663232
 20
-0.0967996321117976
 10
-1.879844028800618
 20
-0.0485424412477541
 10
-1.880556942922154
 20
0.0000000000000002
  0
LWPOLYLINE
  5
C8
330
8F
100
AcDbEntity
  8
AM_4
100
AcDbPolyline
 90
        4
 70
     0
 43
0.0
 10
-1.830556942922154
 20
0.0000000000000002
 10
-1.831265723280722
 20
-0.0483998160558987
 10
-1.833298149181076
 20
-0.0967996321117976
 10
-1.835090742770461
 20
-0.1262953713852304
  0
LWPOLYLINE
  5
C9
330
8F
100
AcDbEntity
  8
AM_4
100
AcDbPolyline
 90
        5
 70
     0
 43
0.0
 10
-1.835090742770461
 20
0.1262953713852309
 10
-1.833197350692958
 20
0.0949251544150461
 10
-1.831764205396964
 20
0.0634316146914369
 10
-1.830864223829267
 20
0.0317600370486145
 10
-1.830556942922154
 20
0.0000000000000002
  0
LWPOLYLINE
  5
CA
330
8F
100
AcDbEntity
  8
AM_4
100
AcDbPolyline
 90
        5
 70
     0
 43
0.0
 10
-1.880556942922154
 20
0.0000000000000002
 10
-1.880253235920154
 20
0.0315738428463079
 10
-1.879360252529636
 20
0.0631476856926155
 10
-1.877925534674572
 20
0.0947562840569833
 10
-1.876023143073846
 20
0.1262953713852309
  0
LWPOLYLINE
  5
CB
330
8F
100
AcDbEntity
  8
AM_4
100
AcDbPolyline
 90
        4
 70
     0
 43
0.0
 10
-1.876023143073846
 20
0.1262953713852309
 10
-1.914034481598189
 20
0.1498542014388651
 10
-1.951151162767502
 20
0.173563038553539
 10
-1.975278471461077
 20
0.1894430570778462
  0
LINE
  5
CC
330
8F
100
AcDbEntity
  8
AM_4
100
AcDbLine
 10
-1.876023143073846
 20
-0.1262953713852304
 30
0.0
 11
-1.835090742770461
 21
-0.1262953713852304
 31
0.0
  0
LWPOLYLINE
  5
CD
330
8F
100
AcDbEntity
  8
AM_4
100
AcDbPolyline
 90
        4
 70
     0
 43
0.0
 10
-1.975278471461077
 20
-0.1894430570778458
 10
-1.951294382324346
 20
-0.1736561356546919
 10
-1.926691099392489
 20
-0.1578502110457925
 10
-1.876023143073846
 20
-0.1262953713852304
  0
LWPOLYLINE
  5
CE
330
8F
100
AcDbEntity
  8
AM_4
100
AcDbPolyline
 90
        4
 70
     0
 43
0.0
 10
-2.065466200151692
 20
-0.252590742770461
 10
-2.032801048515132
 20
-0.2290319127168268
 10
-1.998791218340424
 20
-0.2053230756021529
 10
-1.975278471461077
 20
-0.1894430570778458
  0
LINE
  5
CF
330
8F
100
AcDbEntity
  8
AM_4
100
AcDbLine
 10
-2.065466200151692
 20
-0.252590742770461
 30
0.0
 11
-2.024533799848307
 21
-0.252590742770461
 31
0.0
  0
LWPOLYLINE
  5
D0
330
8F
100
AcDbEntity
  8
AM_4
100
AcDbPolyline
 90
        4
 70
     0
 43
0.0
 10
-1.925278471461077
 20
-0.1894430570778458
 10
-1.949262560597807
 20
-0.2052299785009996
 10
-1.998977092751396
 20
-0.2368211991063373
 10
-2.024533799848307
 20
-0.252590742770461
  0
LWPOLYLINE
  5
D1
330
8F
100
AcDbEntity
  8
AM_4
100
AcDbPolyline
 90
        4
 70
     0
 43
0.0
 10
-1.835090742770461
 20
-0.1262953713852304
 10
-1.867755894407021
 20
-0.1498542014388646
 10
-1.90176572458173
 20
-0.1735630385535386
 10
-1.925278471461077
 20
-0.1894430570778458
  0
ELLIPSE
  5
D2
330
8F
100
AcDbEntity
  8
AM_4
100
AcDbEllipse
 10
-2.069999999999999
 20
0.0000000000000002
 30
0.0
 11
1.308841266588732E-17
 21
0.2137499999999997
 31
0.0
210
0.0
220
0.0
230
1.0
 40
0.8660254037844379
 41
2.155305801354466
 42
7.269472159414914
  0
ELLIPSE
  5
D3
330
8F
100
AcDbEntity
  8
AM_4
100
AcDbEllipse
 10
-2.079159099270441
 20
0.0000000000000003
 30
0.0
 11
1.056466380484819E-17
 21
0.1725340532830155
 31
0.0
210
0.0
220
0.0
230
1.0
 40
0.866025403784437
 41
2.468322243442177
 42
6.956455717327204
  0
ELLIPSE
  5
D4
330
8F
100
AcDbEntity
  8
AM_4
100
AcDbEllipse
 10
-2.106376560808993
 20
0.0000000000000328
 30
0.0
 11
7.275632189642523E-18
 21
0.118820090734865
 31
0.0
210
0.0
220
0.0
230
1.0
 40
0.8660254037844868
 41
3.089421211176399
 42
6.335356749593005
  0
ELLIPSE
  5
D5
330
8F
100
AcDbEntity
  8
AM_4
100
AcDbEllipse
 10
-2.1225
 20
0.0000000000000002
 30
0.0
 11
6.429395695523613E-18
 21
0.1050000000000001
 31
0.0
210
0.0
220
0.0
230
1.0
 40
0.8660254037844352
 41
3.566671979497823
 42
5.858105981271556
  0
LINE
  5
D6
330
8F
100
AcDbEntity
  8
AM_4
100
AcDbLine
 10
-2.05875
 20
0.0525000000000004
 30
0.0
 11
-2.06625
 21
0.0675000000000005
 31
0.0
  0
LINE
  5
D7
330
8F
100
AcDbEntity
  8
AM_4
100
AcDbLine
 10
-2.06625
 20
-0.0675
 30
0.0
 11
-2.05875
 21
-0.0525
 31
0.0
  0
ELLIPSE
  5
D8
330
8F
100
AcDbEntity
  8
AM_4
100
AcDbEllipse
 10
-2.137500000000001
 20
0.0000000000000002
 30
0.0
 11
6.429395695523598E-18
 21
0.1049999999999999
 31
0.0
210
0.0
220
0.0
230
1.0
 40
0.8660254037844541
 41
4.188790204786388
 42
5.235987755982991
  0
ELLIPSE
  5
D9
330
8F
100
AcDbEntity
  8
AM_4
100
AcDbEllipse
 10
-2.167499999999999
 20
-0.0000000000000007
 30
0.0
 11
8.266365894244693E-18
 21
0.135000000000001
 31
0.0
210
0.0
220
0.0
230
1.0
 40
0.8660254037844417
 41
2.366483642874663
 42
7.058294317894705
  0
LINE
  5
DA
330
8F
100
AcDbEntity
  8
AM_4
100
AcDbLine
 10
-2.269726847792107
 20
-0.0733474205218685
 30
0.0
 11
-2.249315310731619
 21
-0.0964365416902989
 31
0.0
  0
LINE
  5
DB
330
8F
100
AcDbEntity
  8
AM_4
100
AcDbLine
 10
-2.249315310731619
 20
0.0964365416902994
 30
0.0
 11
-2.269726847792107
 21
0.073347420521869
 31
0.0
  0
ELLIPSE
  5
DC
330
8F
100
AcDbEntity
  8
AM_4
100
AcDbEllipse
 10
-2.2075
 20
0.0000000000000009
 30
0.0
 11
6.287208197282155E-18
 21
0.1026779019331868
 31
0.0
210
0.0
220
0.0
230
1.0
 40
0.8660254037844368
 41
0.0
 42
6.283185307179586
  0
ENDBLK
  5
92
330
8F
100
AcDbEntity
  8
0
100
AcDbBlockEnd
  0
BLOCK
  5
DF
330
DD
100
AcDbEntity
  8
0
100
AcDbBlockBegin
  2
3_ASME_B18_3_1_4_1_0_in_071262_4
 70
     2
 10
0.0
 20
0.0
 30
0.0
  3
3_ASME_B18_3_1_4_1_0_in_071262_4
  1

  0
ATTDEF
  5
E1
330
DD
100
AcDbEntity
  8
AM_6
100
AcDbText
 10
5.125
 20
-2.052833333333333
 30
0.0
 40
0.5
  1
ANSI/ASME B18.3-1998
100
AcDbAttributeDefinition
  3

  2
NN
 70
     8
280
     0
  0
ATTDEF
  5
E2
330
DD
100
AcDbEntity
  8
AM_6
100
AcDbText
 10
5.125
 20
-2.552833333333333
 30
0.0
 40
0.5
  1
Socket Button Head Cap Screws
100
AcDbAttributeDefinition
  3

  2
NT
 70
     8
280
     0
  0
ATTDEF
  5
E3
330
DD
100
AcDbEntity
  8
AM_6
100
AcDbText
 10
5.125
 20
-3.052833333333333
 30
0.0
 40
0.5
  1
ASME B18.3-1/4
100
AcDbAttributeDefinition
  3

  2
NB
 70
     8
280
     0
  0
ATTDEF
  5
E4
330
DD
100
AcDbEntity
  8
AM_6
100
AcDbText
 10
5.125
 20
-3.552833333333333
 30
0.0
 40
0.5
  1
ASME B18.3-$NS.
100
AcDbAttributeDefinition
  3

  2
NBSYN
 70
     8
280
     0
  0
ATTDEF
  5
E5
330
DD
100
AcDbEntity
  8
AM_6
100
AcDbText
 10
5.125
 20
-4.052833333333332
 30
0.0
 40
0.5
  1
ASME B18.3-1/4
100
AcDbAttributeDefinition
  3

  2
LINA
 70
     8
280
     0
  0
ATTDEF
  5
E6
330
DD
100
AcDbEntity
  8
AM_6
100
AcDbText
 10
5.125
 20
-4.552833333333332
 30
0.0
 40
0.5
  1
1/4
100
AcDbAttributeDefinition
  3

  2
NS
 70
     8
280
     0
  0
ATTDEF
  5
E7
330
DD
100
AcDbEntity
  8
AM_6
100
AcDbText
 10
5.125
 20
-5.052833333333332
 30
0.0
 40
0.5
  1
0.437
100
AcDbAttributeDefinition
  3

  2
A
 70
     8
280
     0
  0
ATTDEF
  5
E8
330
DD
100
AcDbEntity
  8
AM_6
100
AcDbText
 10
5.125
 20
-5.552833333333332
 30
0.0
 40
0.5
  1
0.132
100
AcDbAttributeDefinition
  3

  2
H
 70
     8
280
     0
  0
ATTDEF
  5
E9
330
DD
100
AcDbEntity
  8
AM_6
100
AcDbText
 10
5.125
 20
-6.052833333333332
 30
0.0
 40
0.5
  1
0.800
100
AcDbAttributeDefinition
  3

  2
L
 70
     8
280
     0
  0
ATTDEF
  5
EA
330
DD
100
AcDbEntity
  8
AM_6
100
AcDbText
 10
5.125
 20
-6.552833333333332
 30
0.0
 40
0.5
  1
0.031
100
AcDbAttributeDefinition
  3

  2
S
 70
     8
280
     0
  0
ATTDEF
  5
EB
330
DD
100
AcDbEntity
  8
AM_6
100
AcDbText
 10
5.125
 20
-7.052833333333332
 30
0.0
 40
0.5
  1
0.156250
100
AcDbAttributeDefinition
  3

  2
J
 70
     8
280
     0
  0
ATTDEF
  5
EC
330
DD
100
AcDbEntity
  8
AM_6
100
AcDbText
 10
5.125
 20
-7.552833333333332
 30
0.0
 40
0.5
  1
baldor
100
AcDbAttributeDefinition
  3

  2
COMPANY
 70
     8
280
     0
  0
LINE
  5
EE
330
DD
100
AcDbEntity
  8
AM_5
100
AcDbLine
 10
0.125
 20
-2.052833333333333
 30
0.0
 11
-0.125
 21
-2.052833333333333
 31
0.0
  0
LINE
  5
EF
330
DD
100
AcDbEntity
  8
AM_5
100
AcDbLine
 10
0.1064
 20
-2.052833333333333
 30
0.0
 11
0.1250000000000001
 21
-2.085049478354114
 31
0.0
  0
ENDBLK
  5
E0
330
DD
100
AcDbEntity
  8
0
100
AcDbBlockEnd
  0
BLOCK
  5
F2
330
F0
100
AcDbEntity
  8
0
100
AcDbBlockBegin
  2
4_ASME_B18_3_1_4_2_0_in_071262_4
 70
     2
 10
0.0
 20
0.0
 30
0.0
  3
4_ASME_B18_3_1_4_2_0_in_071262_4
  1

  0
ATTDEF
  5
F4
330
F0
100
AcDbEntity
  8
AM_6
100
AcDbText
 10
5.2185
 20
-1.332833333333333
 30
0.0
 40
0.5
  1
ANSI/ASME B18.3-1998
100
AcDbAttributeDefinition
  3

  2
NN
 70
     8
280
     0
  0
ATTDEF
  5
F5
330
F0
100
AcDbEntity
  8
AM_6
100
AcDbText
 10
5.2185
 20
-1.832833333333333
 30
0.0
 40
0.5
  1
Socket Button Head Cap Screws
100
AcDbAttributeDefinition
  3

  2
NT
 70
     8
280
     0
  0
ATTDEF
  5
F6
330
F0
100
AcDbEntity
  8
AM_6
100
AcDbText
 10
5.2185
 20
-2.332833333333333
 30
0.0
 40
0.5
  1
ASME B18.3-1/4
100
AcDbAttributeDefinition
  3

  2
NB
 70
     8
280
     0
  0
ATTDEF
  5
F7
330
F0
100
AcDbEntity
  8
AM_6
100
AcDbText
 10
5.2185
 20
-2.832833333333333
 30
0.0
 40
0.5
  1
ASME B18.3-$NS.
100
AcDbAttributeDefinition
  3

  2
NBSYN
 70
     8
280
     0
  0
ATTDEF
  5
F8
330
F0
100
AcDbEntity
  8
AM_6
100
AcDbText
 10
5.2185
 20
-3.332833333333333
 30
0.0
 40
0.5
  1
ASME B18.3-1/4
100
AcDbAttributeDefinition
  3

  2
LINA
 70
     8
280
     0
  0
ATTDEF
  5
F9
330
F0
100
AcDbEntity
  8
AM_6
100
AcDbText
 10
5.2185
 20
-3.832833333333333
 30
0.0
 40
0.5
  1
1/4
100
AcDbAttributeDefinition
  3

  2
NS
 70
     8
280
     0
  0
ATTDEF
  5
FA
330
F0
100
AcDbEntity
  8
AM_6
100
AcDbText
 10
5.2185
 20
-4.332833333333333
 30
0.0
 40
0.5
  1
0.437
100
AcDbAttributeDefinition
  3

  2
A
 70
     8
280
     0
  0
ATTDEF
  5
FB
330
F0
100
AcDbEntity
  8
AM_6
100
AcDbText
 10
5.2185
 20
-4.832833333333333
 30
0.0
 40
0.5
  1
0.132
100
AcDbAttributeDefinition
  3

  2
H
 70
     8
280
     0
  0
ATTDEF
  5
FC
330
F0
100
AcDbEntity
  8
AM_6
100
AcDbText
 10
5.2185
 20
-5.332833333333333
 30
0.0
 40
0.5
  1
0.800
100
AcDbAttributeDefinition
  3

  2
L
 70
     8
280
     0
  0
ATTDEF
  5
FD
330
F0
100
AcDbEntity
  8
AM_6
100
AcDbText
 10
5.2185
 20
-5.832833333333333
 30
0.0
 40
0.5
  1
0.031
100
AcDbAttributeDefinition
  3

  2
S
 70
     8
280
     0
  0
ATTDEF
  5
FE
330
F0
100
AcDbEntity
  8
AM_6
100
AcDbText
 10
5.2185
 20
-6.332833333333333
 30
0.0
 40
0.5
  1
0.156250
100
AcDbAttributeDefinition
  3

  2
J
 70
     8
280
     0
  0
ATTDEF
  5
FF
330
F0
100
AcDbEntity
  8
AM_6
100
AcDbText
 10
5.2185
 20
-6.832833333333333
 30
0.0
 40
0.5
  1
baldor
100
AcDbAttributeDefinition
  3

  2
COMPANY
 70
     8
280
     0
  0
LINE
  5
100
330
F0
100
AcDbEntity
  8
AM_9
100
AcDbLine
 10
0.078125
 20
-2.194833333333333
 30
0.0
 11
0.078125
 21
-2.264833333333333
 31
0.0
  0
LINE
  5
101
330
F0
100
AcDbEntity
  8
AM_9
100
AcDbLine
 10
-0.078125
 20
-2.194833333333333
 30
0.0
 11
-0.078125
 21
-2.264833333333333
 31
0.0
  0
LINE
  5
102
330
F0
100
AcDbEntity
  8
AM_9
100
AcDbLine
 10
-0.078125
 20
-2.194833333333333
 30
0.0
 11
0.078125
 21
-2.194833333333333
 31
0.0
  0
LINE
  5
103
330
F0
100
AcDbEntity
  8
AM_9
100
AcDbLine
 10
0.0
 20
-2.194833333333333
 30
0.0
 11
0.0
 21
-2.264833333333333
 31
0.0
  0
LINE
  5
104
330
F0
100
AcDbEntity
  8
AM_9
100
AcDbLine
 10
-0.1064
 20
-1.332833333333333
 30
0.0
 11
-0.125
 21
-1.351433333333333
 31
0.0
  0
LINE
  5
105
330
F0
100
AcDbEntity
  8
AM_9
100
AcDbLine
 10
0.125
 20
-1.351433333333333
 30
0.0
 11
0.1064
 21
-1.332833333333333
 31
0.0
  0
LINE
  5
106
330
F0
100
AcDbEntity
  8
AM_9
100
AcDbLine
 10
-0.1064
 20
-1.332833333333333
 30
0.0
 11
0.1064
 21
-1.332833333333333
 31
0.0
  0
LINE
  5
107
330
F0
100
AcDbEntity
  8
AM_9
100
AcDbLine
 10
0.125
 20
-2.132833333333333
 30
0.0
 11
0.125
 21
-1.351433333333333
 31
0.0
  0
LINE
  5
108
330
F0
100
AcDbEntity
  8
AM_9
100
AcDbLine
 10
-0.125
 20
-1.351433333333333
 30
0.0
 11
-0.125
 21
-2.132833333333333
 31
0.0
  0
LINE
  5
109
330
F0
100
AcDbEntity
  8
AM_9
100
AcDbLine
 10
-0.125
 20
-1.351433333333333
 30
0.0
 11
0.125
 21
-1.351433333333333
 31
0.0
  0
LINE
  5
10A
330
F0
100
AcDbEntity
  8
AM_5
100
AcDbLine
 10
0.1064
 20
-2.052833333333333
 30
0.0
 11
0.12500001149548
 21
-2.08504949826487
 31
0.0
  0
LINE
  5
10B
330
F0
100
AcDbEntity
  8
AM_5
100
AcDbLine
 10
-0.1250000000000002
 20
-2.052833333333333
 30
0.0
 11
0.1249999999999999
 21
-2.052833333333333
 31
0.0
  0
LINE
  5
10C
330
F0
100
AcDbEntity
  8
AM_4
100
AcDbLine
 10
0.2185
 20
-2.163833333333333
 30
0.0
 11
0.2185
 21
-2.132833333333333
 31
0.0
  0
LINE
  5
10D
330
F0
100
AcDbEntity
  8
AM_4
100
AcDbLine
 10
-0.2185
 20
-2.132833333333333
 30
0.0
 11
-0.2185
 21
-2.163833333333333
 31
0.0
  0
LINE
  5
10E
330
F0
100
AcDbEntity
  8
AM_4
100
AcDbLine
 10
-0.1174999931039854
 20
-2.264833333333333
 30
0.0
 11
0.1175
 21
-2.264833333333333
 31
0.0
  0
ARC
  5
10F
330
F0
100
AcDbEntity
  8
AM_4
100
AcDbCircle
 10
0.1174999999999995
 20
-2.163833333333333
 30
0.0
 40
0.1010000000000004
100
AcDbArc
 50
270.0
 51
0.0
  0
ARC
  5
110
330
F0
100
AcDbEntity
  8
AM_4
100
AcDbCircle
 10
-0.1174999999999995
 20
-2.163833333333333
 30
0.0
 40
0.1010000000000006
100
AcDbArc
 50
180.0
 51
270.0
  0
LINE
  5
111
330
F0
100
AcDbEntity
  8
AM_4
100
AcDbLine
 10
-0.2185
 20
-2.163833333333333
 30
0.0
 11
0.2185
 21
-2.163833333333333
 31
0.0
  0
ENDBLK
  5
F3
330
F0
100
AcDbEntity
  8
0
100
AcDbBlockEnd
  0
BLOCK
  5
114
330
112
100
AcDbEntity
  8
0
100
AcDbBlockBegin
  2
5_070901LWE_0_in_071262_4
 70
     2
 10
0.0
 20
0.0
 30
0.0
  3
5_070901LWE_0_in_071262_4
  1

  0
ATTDEF
  5
116
330
112
100
AcDbEntity
  8
AM_6
100
AcDbText
 10
7.5
 20
-1.692833333333333
 30
0.0
 40
0.5
  1
Imperial/E Insert Lockwasher -Inch
100
AcDbAttributeDefinition
  3

  2
NN
 70
     8
280
     0
  0
ATTDEF
  5
117
330
112
100
AcDbEntity
  8
AM_6
100
AcDbText
 10
7.5
 20
-2.192833333333333
 30
0.0
 40
0.5
  1
Imperial/E Bearings
100
AcDbAttributeDefinition
  3

  2
NT
 70
     8
280
     0
  0
ATTDEF
  5
118
330
112
100
AcDbEntity
  8
AM_6
100
AcDbText
 10
7.5
 20
-2.692833333333333
 30
0.0
 40
0.5
  1
070901LWE
100
AcDbAttributeDefinition
  3

  2
NB
 70
     8
280
     0
  0
ATTDEF
  5
119
330
112
100
AcDbEntity
  8
AM_6
100
AcDbText
 10
7.5
 20
-3.192833333333333
 30
0.0
 40
0.5
  1
$PN.LWE
100
AcDbAttributeDefinition
  3

  2
NBSYN
 70
     8
280
     0
  0
ATTDEF
  5
11A
330
112
100
AcDbEntity
  8
AM_6
100
AcDbText
 10
7.5
 20
-3.692833333333333
 30
0.0
 40
0.5
  1
070901
100
AcDbAttributeDefinition
  3

  2
LINA
 70
     8
280
     0
  0
ATTDEF
  5
11B
330
112
100
AcDbEntity
  8
AM_6
100
AcDbText
 10
7.5
 20
-4.192833333333333
 30
0.0
 40
0.5
  1
3-3/16
100
AcDbAttributeDefinition
  3

  2
SS
 70
     8
280
     0
  0
ATTDEF
  5
11C
330
112
100
AcDbEntity
  8
AM_6
100
AcDbText
 10
7.5
 20
-4.692833333333333
 30
0.0
 40
0.5
  1
5.000000
100
AcDbAttributeDefinition
  3

  2
E1
 70
     8
280
     0
  0
ATTDEF
  5
11D
330
112
100
AcDbEntity
  8
AM_6
100
AcDbText
 10
7.5
 20
-5.192833333333333
 30
0.0
 40
0.5
  1
3.187500
100
AcDbAttributeDefinition
  3

  2
SS1
 70
     8
280
     0
  0
ATTDEF
  5
11E
330
112
100
AcDbEntity
  8
AM_6
100
AcDbText
 10
7.5
 20
-5.692833333333333
 30
0.0
 40
0.5
  1
070901
100
AcDbAttributeDefinition
  3

  2
PN
 70
     8
280
     0
  0
ATTDEF
  5
11F
330
112
100
AcDbEntity
  8
AM_6
100
AcDbText
 10
7.5
 20
-6.192833333333333
 30
0.0
 40
0.5
  1
INS-IP-303R
100
AcDbAttributeDefinition
  3

  2
DESCRIPTION
 70
     8
280
     0
  0
ATTDEF
  5
120
330
112
100
AcDbEntity
  8
AM_6
100
AcDbText
 10
7.5
 20
-6.692833333333333
 30
0.0
 40
0.5
  1
6.2992
100
AcDbAttributeDefinition
  3

  2
A
 70
     8
280
     0
  0
ATTDEF
  5
121
330
112
100
AcDbEntity
  8
AM_6
100
AcDbText
 10
7.5
 20
-7.192833333333333
 30
0.0
 40
0.5
  1
1-5/8
100
AcDbAttributeDefinition
  3

  2
B
 70
     8
280
     0
  0
ATTDEF
  5
122
330
112
100
AcDbEntity
  8
AM_6
100
AcDbText
 10
7.5
 20
-7.692833333333333
 30
0.0
 40
0.5
  1
1.625000
100
AcDbAttributeDefinition
  3

  2
B1
 70
     8
280
     0
  0
ATTDEF
  5
123
330
112
100
AcDbEntity
  8
AM_6
100
AcDbText
 10
7.5
 20
-8.192833333333333
 30
0.0
 40
0.5
  1
4-11/64
100
AcDbAttributeDefinition
  3

  2
C
 70
     8
280
     0
  0
ATTDEF
  5
124
330
112
100
AcDbEntity
  8
AM_6
100
AcDbText
 10
7.5
 20
-8.692833333333333
 30
0.0
 40
0.5
  1
4.171875
100
AcDbAttributeDefinition
  3

  2
C1
 70
     8
280
     0
  0
ATTDEF
  5
125
330
112
100
AcDbEntity
  8
AM_6
100
AcDbText
 10
7.5
 20
-9.192833333333333
 30
0.0
 40
0.5
  1
1.483
100
AcDbAttributeDefinition
  3

  2
D
 70
     8
280
     0
  0
ATTDEF
  5
126
330
112
100
AcDbEntity
  8
AM_6
100
AcDbText
 10
7.5
 20
-9.692833333333333
 30
0.0
 40
0.5
  1
5
100
AcDbAttributeDefinition
  3

  2
E
 70
     8
280
     0
  0
ATTDEF
  5
127
330
112
100
AcDbEntity
  8
AM_6
100
AcDbText
 10
7.5
 20
-10.19283333333333
 30
0.0
 40
0.5
  1
0.2500
100
AcDbAttributeDefinition
  3

  2
NDM
 70
     8
280
     0
  0
ATTDEF
  5
128
330
112
100
AcDbEntity
  8
AM_6
100
AcDbText
 10
7.5
 20
-10.69283333333333
 30
0.0
 40
0.5
  1
0.1960
100
AcDbAttributeDefinition
  3

  2
KDM
 70
     8
280
     0
  0
ATTDEF
  5
129
330
112
100
AcDbEntity
  8
AM_6
100
AcDbText
 10
7.5
 20
-11.19283333333333
 30
0.0
 40
0.5
  1
4.28
100
AcDbAttributeDefinition
  3

  2
AL
 70
     8
280
     0
  0
ATTDEF
  5
12A
330
112
100
AcDbEntity
  8
AM_6
100
AcDbText
 10
7.5
 20
-11.69283333333333
 30
0.0
 40
0.5
  1
0.50
100
AcDbAttributeDefinition
  3

  2
BL
 70
     8
280
     0
  0
ATTDEF
  5
12B
330
112
100
AcDbEntity
  8
AM_6
100
AcDbText
 10
7.5
 20
-12.19283333333333
 30
0.0
 40
0.5
  1
0.07
100
AcDbAttributeDefinition
  3

  2
CL
 70
     8
280
     0
  0
ATTDEF
  5
12C
330
112
100
AcDbEntity
  8
AM_6
100
AcDbText
 10
7.5
 20
-12.69283333333333
 30
0.0
 40
0.5
  1
0.44
100
AcDbAttributeDefinition
  3

  2
DL
 70
     8
280
     0
  0
ATTDEF
  5
12D
330
112
100
AcDbEntity
  8
AM_6
100
AcDbText
 10
7.5
 20
-13.19283333333333
 30
0.0
 40
0.5
  1
baldor
100
AcDbAttributeDefinition
  3

  2
COMPANY
 70
     8
280
     0
  0
LINE
  5
12E
330
112
100
AcDbEntity
  8
AM_9
100
AcDbLine
 10
-2.135416666666667
 20
-2.062833333333333
 30
0.0
 11
-2.135416666666667
 21
-2.132833333333333
 31
0.0
  0
LINE
  5
12F
330
112
100
AcDbEntity
  8
AM_9
100
AcDbLine
 10
-2.260470286650459
 20
-2.062833333333333
 30
0.0
 11
-2.260470286650459
 21
-2.132833333333333
 31
0.0
  0
LINE
  5
130
330
112
100
AcDbEntity
  8
AM_9
100
AcDbLine
 10
2.135416666666667
 20
-2.062833333333333
 30
0.0
 11
2.135416666666667
 21
-2.132833333333333
 31
0.0
  0
LINE
  5
131
330
112
100
AcDbEntity
  8
AM_9
100
AcDbLine
 10
2.260470286650459
 20
-2.132833333333333
 30
0.0
 11
2.260470286650459
 21
-2.062833333333333
 31
0.0
  0
LINE
  5
132
330
112
100
AcDbEntity
  8
AM_9
100
AcDbLine
 10
-1.718432677062248
 20
-2.062833333333333
 30
0.0
 11
-1.718432677062248
 21
-2.132833333333333
 31
0.0
  0
LINE
  5
133
330
112
100
AcDbEntity
  8
AM_9
100
AcDbLine
 10
1.718432677062248
 20
-2.062833333333333
 30
0.0
 11
1.718432677062248
 21
-2.132833333333333
 31
0.0
  0
LINE
  5
134
330
112
100
AcDbEntity
  8
AM_9
100
AcDbLine
 10
1.303503746611586
 20
-2.062833333333333
 30
0.0
 11
1.303503746611586
 21
-2.132833333333333
 31
0.0
  0
LINE
  5
135
330
112
100
AcDbEntity
  8
AM_9
100
AcDbLine
 10
-1.303503746611587
 20
-2.062833333333333
 30
0.0
 11
-1.303503746611587
 21
-2.132833333333333
 31
0.0
  0
LINE
  5
136
330
112
100
AcDbEntity
  8
AM_9
100
AcDbLine
 10
-0.7731006567104219
 20
-2.062833333333333
 30
0.0
 11
-0.7731006567104219
 21
-2.132833333333333
 31
0.0
  0
LINE
  5
137
330
112
100
AcDbEntity
  8
AM_9
100
AcDbLine
 10
-0.7235078689209181
 20
-1.692833333333333
 30
0.0
 11
-0.7235078689209181
 21
-2.132833333333333
 31
0.0
  0
LINE
  5
138
330
112
100
AcDbEntity
  8
AM_9
100
AcDbLine
 10
1.12672705131495
 20
-2.062833333333333
 30
0.0
 11
1.126727051314947
 21
-2.132833333333333
 31
0.0
  0
LINE
  5
139
330
112
100
AcDbEntity
  8
AM_9
100
AcDbLine
 10
-1.126727051314949
 20
-2.062833333333333
 30
0.0
 11
-1.126727051314949
 21
-2.132833333333333
 31
0.0
  0
LINE
  5
13A
330
112
100
AcDbEntity
  8
AM_9
100
AcDbLine
 10
-0.5421307735826001
 20
-2.062833333333333
 30
0.0
 11
-0.5421307735826001
 21
-2.132833333333333
 31
0.0
  0
LINE
  5
13B
330
112
100
AcDbEntity
  8
AM_9
100
AcDbLine
 10
-0.4925379857930966
 20
-1.692833333333333
 30
0.0
 11
-0.7557021678985562
 21
-1.692833333333333
 31
0.0
  0
LINE
  5
13C
330
112
100
AcDbEntity
  8
AM_9
100
AcDbLine
 10
-0.4925379857930966
 20
-1.692833333333333
 30
0.0
 11
-0.4925379857930966
 21
-2.132833333333333
 31
0.0
  0
LINE
  5
13D
330
112
100
AcDbEntity
  8
AM_9
100
AcDbLine
 10
-0.5247322847707343
 20
-2.062833333333333
 30
0.0
 11
-0.5247322847707342
 21
-1.692833333333333
 31
0.0
  0
LINE
  5
13E
330
112
100
AcDbEntity
  8
AM_9
100
AcDbLine
 10
-0.7557021678985562
 20
-1.692833333333333
 30
0.0
 11
-0.7557021678985563
 21
-2.062833333333333
 31
0.0
  0
LINE
  5
13F
330
112
100
AcDbEntity
  8
AM_9
100
AcDbLine
 10
-1.598355953307091
 20
-2.062833333333333
 30
0.0
 11
-1.598355953307091
 21
-2.132833333333333
 31
0.0
  0
LINE
  5
140
330
112
100
AcDbEntity
  8
AM_9
100
AcDbLine
 10
-1.421579258010486
 20
-2.062833333333333
 30
0.0
 11
-1.421579258010486
 21
-2.132833333333333
 31
0.0
  0
LINE
  5
141
330
112
100
AcDbEntity
  8
AM_9
100
AcDbLine
 10
-1.635005524079868
 20
-2.062833333333333
 30
0.0
 11
-1.635005524079868
 21
-2.132833333333333
 31
0.0
  0
LINE
  5
142
330
112
100
AcDbEntity
  8
AM_9
100
AcDbLine
 10
1.421579258010455
 20
-2.062833333333333
 30
0.0
 11
1.421579258010455
 21
-2.132833333333333
 31
0.0
  0
LINE
  5
143
330
112
100
AcDbEntity
  8
AM_9
100
AcDbLine
 10
1.598355953307092
 20
-2.062833333333333
 30
0.0
 11
1.598355953307092
 21
-2.132833333333333
 31
0.0
  0
LINE
  5
144
330
112
100
AcDbEntity
  8
AM_9
100
AcDbLine
 10
1.635005524079868
 20
-2.132833333333333
 30
0.0
 11
1.635005524079868
 21
-2.062833333333333
 31
0.0
  0
LINE
  5
145
330
112
100
AcDbEntity
  8
AM_9
100
AcDbLine
 10
-0.1249999999999998
 20
-2.062833333333333
 30
0.0
 11
-0.1249999999999998
 21
-2.132833333333333
 31
0.0
  0
LINE
  5
146
330
112
100
AcDbEntity
  8
AM_9
100
AcDbLine
 10
0.1250000000000003
 20
-2.062833333333333
 30
0.0
 11
0.1250000000000003
 21
-2.132833333333333
 31
0.0
  0
LINE
  5
147
330
112
100
AcDbEntity
  8
AM_4
100
AcDbLine
 10
-2.5
 20
-2.062833333333333
 30
0.0
 11
-2.5
 21
-2.132833333333333
 31
0.0
  0
LINE
  5
148
330
112
100
AcDbEntity
  8
AM_4
100
AcDbLine
 10
2.5
 20
-2.132833333333333
 30
0.0
 11
2.5
 21
-2.062833333333333
 31
0.0
  0
LINE
  5
149
330
112
100
AcDbEntity
  8
AM_4
100
AcDbLine
 10
-2.5
 20
-2.132833333333333
 30
0.0
 11
2.5
 21
-2.132833333333333
 31
0.0
  0
LINE
  5
14A
330
112
100
AcDbEntity
  8
AM_4
100
AcDbLine
 10
-2.5
 20
-2.062833333333333
 30
0.0
 11
2.5
 21
-2.062833333333333
 31
0.0
  0
ENDBLK
  5
115
330
112
100
AcDbEntity
  8
0
100
AcDbBlockEnd
  0
BLOCK
  5
14D
330
14B
100
AcDbEntity
  8
0
100
AcDbBlockBegin
  2
6_070933EL_0_in_071262_4
 70
     2
 10
0.0
 20
0.0
 30
0.0
  3
6_070933EL_0_in_071262_4
  1

  0
ATTDEF
  5
14F
330
14B
100
AcDbEntity
  8
AM_6
100
AcDbText
 10
8.1496
 20
1.816874999999999
 30
0.0
 40
0.5
  1
Imperial/E Insert -Inch
100
AcDbAttributeDefinition
  3

  2
NN
 70
     8
280
     0
  0
ATTDEF
  5
150
330
14B
100
AcDbEntity
  8
AM_6
100
AcDbText
 10
8.1496
 20
1.316874999999999
 30
0.0
 40
0.5
  1
Imperial Bearings
100
AcDbAttributeDefinition
  3

  2
NT
 70
     8
280
     0
  0
ATTDEF
  5
151
330
14B
100
AcDbEntity
  8
AM_6
100
AcDbText
 10
8.1496
 20
0.8168749999999994
 30
0.0
 40
0.5
  1
070933EL
100
AcDbAttributeDefinition
  3

  2
NB
 70
     8
280
     0
  0
ATTDEF
  5
152
330
14B
100
AcDbEntity
  8
AM_6
100
AcDbText
 10
8.1496
 20
0.3168749999999994
 30
0.0
 40
0.5
  1
$PN.
100
AcDbAttributeDefinition
  3

  2
NBSYN
 70
     8
280
     0
  0
ATTDEF
  5
153
330
14B
100
AcDbEntity
  8
AM_6
100
AcDbText
 10
8.1496
 20
-0.1831250000000006
 30
0.0
 40
0.5
  1
070933EL
100
AcDbAttributeDefinition
  3

  2
LINA
 70
     8
280
     0
  0
ATTDEF
  5
154
330
14B
100
AcDbEntity
  8
AM_6
100
AcDbText
 10
8.1496
 20
-0.6831250000000006
 30
0.0
 40
0.5
  1
3-3/16
100
AcDbAttributeDefinition
  3

  2
SS
 70
     8
280
     0
  0
ATTDEF
  5
155
330
14B
100
AcDbEntity
  8
AM_6
100
AcDbText
 10
8.1496
 20
-1.183125000000001
 30
0.0
 40
0.5
  1
3.187500
100
AcDbAttributeDefinition
  3

  2
SS1
 70
     8
280
     0
  0
ATTDEF
  5
156
330
14B
100
AcDbEntity
  8
AM_6
100
AcDbText
 10
8.1496
 20
-1.683125000000001
 30
0.0
 40
0.5
  1
070933EL
100
AcDbAttributeDefinition
  3

  2
PN
 70
     8
280
     0
  0
ATTDEF
  5
157
330
14B
100
AcDbEntity
  8
AM_6
100
AcDbText
 10
8.1496
 20
-2.183125
 30
0.0
 40
0.5
  1
INS-IP-303L
100
AcDbAttributeDefinition
  3

  2
DESCRIPTION
 70
     8
280
     0
  0
ATTDEF
  5
158
330
14B
100
AcDbEntity
  8
AM_6
100
AcDbText
 10
8.1496
 20
-2.683125
 30
0.0
 40
0.5
  1
Labyrinth Seal
100
AcDbAttributeDefinition
  3

  2
ST
 70
     8
280
     0
  0
ATTDEF
  5
159
330
14B
100
AcDbEntity
  8
AM_6
100
AcDbText
 10
8.1496
 20
-3.183125
 30
0.0
 40
0.5
  1
2
100
AcDbAttributeDefinition
  3

  2
ST1
 70
     8
280
     0
  0
ATTDEF
  5
15A
330
14B
100
AcDbEntity
  8
AM_6
100
AcDbText
 10
8.1496
 20
-3.683125
 30
0.0
 40
0.5
  1
6.2992
100
AcDbAttributeDefinition
  3

  2
A
 70
     8
280
     0
  0
ATTDEF
  5
15B
330
14B
100
AcDbEntity
  8
AM_6
100
AcDbText
 10
8.1496
 20
-4.183125
 30
0.0
 40
0.5
  1
1-5/8
100
AcDbAttributeDefinition
  3

  2
B
 70
     8
280
     0
  0
ATTDEF
  5
15C
330
14B
100
AcDbEntity
  8
AM_6
100
AcDbText
 10
8.1496
 20
-4.683125
 30
0.0
 40
0.5
  1
1.625000
100
AcDbAttributeDefinition
  3

  2
B1
 70
     8
280
     0
  0
ATTDEF
  5
15D
330
14B
100
AcDbEntity
  8
AM_6
100
AcDbText
 10
8.1496
 20
-5.183125
 30
0.0
 40
0.5
  1
4-11/64
100
AcDbAttributeDefinition
  3

  2
C
 70
     8
280
     0
  0
ATTDEF
  5
15E
330
14B
100
AcDbEntity
  8
AM_6
100
AcDbText
 10
8.1496
 20
-5.683125
 30
0.0
 40
0.5
  1
4.171875
100
AcDbAttributeDefinition
  3

  2
C1
 70
     8
280
     0
  0
ATTDEF
  5
15F
330
14B
100
AcDbEntity
  8
AM_6
100
AcDbText
 10
8.1496
 20
-6.183125
 30
0.0
 40
0.5
  1
4.59000
100
AcDbAttributeDefinition
  3

  2
CR
 70
     8
280
     0
  0
ATTDEF
  5
160
330
14B
100
AcDbEntity
  8
AM_6
100
AcDbText
 10
8.1496
 20
-6.683125
 30
0.0
 40
0.5
  1
1.483
100
AcDbAttributeDefinition
  3

  2
D
 70
     8
280
     0
  0
ATTDEF
  5
161
330
14B
100
AcDbEntity
  8
AM_6
100
AcDbText
 10
8.1496
 20
-7.183125
 30
0.0
 40
0.5
  1
5
100
AcDbAttributeDefinition
  3

  2
E
 70
     8
280
     0
  0
ATTDEF
  5
162
330
14B
100
AcDbEntity
  8
AM_6
100
AcDbText
 10
8.1496
 20
-7.683125
 30
0.0
 40
0.5
  1
5.000000
100
AcDbAttributeDefinition
  3

  2
E1
 70
     8
280
     0
  0
ATTDEF
  5
163
330
14B
100
AcDbEntity
  8
AM_6
100
AcDbText
 10
8.1496
 20
-8.183125
 30
0.0
 40
0.5
  1
0.2500
100
AcDbAttributeDefinition
  3

  2
NDM
 70
     8
280
     0
  0
ATTDEF
  5
164
330
14B
100
AcDbEntity
  8
AM_6
100
AcDbText
 10
8.1496
 20
-8.683125
 30
0.0
 40
0.5
  1
0.1960
100
AcDbAttributeDefinition
  3

  2
KDM
 70
     8
280
     0
  0
ATTDEF
  5
165
330
14B
100
AcDbEntity
  8
AM_6
100
AcDbText
 10
8.1496
 20
-9.183125
 30
0.0
 40
0.5
  1
4.28
100
AcDbAttributeDefinition
  3

  2
AL
 70
     8
280
     0
  0
ATTDEF
  5
166
330
14B
100
AcDbEntity
  8
AM_6
100
AcDbText
 10
8.1496
 20
-9.683125
 30
0.0
 40
0.5
  1
0.50
100
AcDbAttributeDefinition
  3

  2
BL
 70
     8
280
     0
  0
ATTDEF
  5
167
330
14B
100
AcDbEntity
  8
AM_6
100
AcDbText
 10
8.1496
 20
-10.183125
 30
0.0
 40
0.5
  1
0.07
100
AcDbAttributeDefinition
  3

  2
CL
 70
     8
280
     0
  0
ATTDEF
  5
168
330
14B
100
AcDbEntity
  8
AM_6
100
AcDbText
 10
8.1496
 20
-10.683125
 30
0.0
 40
0.5
  1
0.44
100
AcDbAttributeDefinition
  3

  2
DL
 70
     8
280
     0
  0
ATTDEF
  5
169
330
14B
100
AcDbEntity
  8
AM_6
100
AcDbText
 10
8.1496
 20
-11.183125
 30
0.0
 40
0.5
  1
0.8000
100
AcDbAttributeDefinition
  3

  2
LL
 70
     8
280
     0
  0
ATTDEF
  5
16A
330
14B
100
AcDbEntity
  8
AM_6
100
AcDbText
 10
8.1496
 20
-11.683125
 30
0.0
 40
0.5
  1
0.025
100
AcDbAttributeDefinition
  3

  2
Y
 70
     8
280
     0
  0
ATTDEF
  5
16B
330
14B
100
AcDbEntity
  8
AM_6
100
AcDbText
 10
8.1496
 20
-12.183125
 30
0.0
 40
0.5
  1
0.025000
100
AcDbAttributeDefinition
  3

  2
Y1
 70
     8
280
     0
  0
ATTDEF
  5
16C
330
14B
100
AcDbEntity
  8
AM_6
100
AcDbText
 10
8.1496
 20
-12.683125
 30
0.0
 40
0.5
  1
4-3/64
100
AcDbAttributeDefinition
  3

  2
Z
 70
     8
280
     0
  0
ATTDEF
  5
16D
330
14B
100
AcDbEntity
  8
AM_6
100
AcDbText
 10
8.1496
 20
-13.183125
 30
0.0
 40
0.5
  1
4.046875
100
AcDbAttributeDefinition
  3

  2
Z1
 70
     8
280
     0
  0
ATTDEF
  5
16E
330
14B
100
AcDbEntity
  8
AM_6
100
AcDbText
 10
8.1496
 20
-13.683125
 30
0.0
 40
0.5
  1
1.10000
100
AcDbAttributeDefinition
  3

  2
P1
 70
     8
280
     0
  0
ATTDEF
  5
16F
330
14B
100
AcDbEntity
  8
AM_6
100
AcDbText
 10
8.1496
 20
-14.183125
 30
0.0
 40
0.5
  1
1.61000
100
AcDbAttributeDefinition
  3

  2
H1
 70
     8
280
     0
  0
ATTDEF
  5
170
330
14B
100
AcDbEntity
  8
AM_6
100
AcDbText
 10
8.1496
 20
-14.683125
 30
0.0
 40
0.5
  1
0.79000
100
AcDbAttributeDefinition
  3

  2
G1
 70
     8
280
     0
  0
ATTDEF
  5
171
330
14B
100
AcDbEntity
  8
AM_6
100
AcDbText
 10
8.1496
 20
-15.183125
 30
0.0
 40
0.5
  1
0.13200
100
AcDbAttributeDefinition
  3

  2
CW
 70
     8
280
     0
  0
ATTDEF
  5
172
330
14B
100
AcDbEntity
  8
AM_6
100
AcDbText
 10
8.1496
 20
-15.683125
 30
0.0
 40
0.5
  1
5.00000
100
AcDbAttributeDefinition
  3

  2
L1
 70
     8
280
     0
  0
ATTDEF
  5
173
330
14B
100
AcDbEntity
  8
AM_6
100
AcDbText
 10
8.1496
 20
-16.183125
 30
0.0
 40
0.5
  1
baldor
100
AcDbAttributeDefinition
  3

  2
COMPANY
 70
     8
280
     0
  0
LINE
  5
174
330
14B
100
AcDbEntity
  8
AM_9
100
AcDbLine
 10
-0.7574008133890099
 20
1.121375
 30
0.0
 11
-0.7574008133890099
 21
-2.062833333333332
 31
0.0
  0
LINE
  5
175
330
14B
100
AcDbEntity
  8
AM_9
100
AcDbLine
 10
-0.4925379857930963
 20
1.121375
 30
0.0
 11
-0.4925379857930965
 21
-2.38
 31
0.0
  0
LINE
  5
176
330
14B
100
AcDbEntity
  8
AM_9
100
AcDbLine
 10
-0.7235078689209178
 20
-2.132833333333333
 30
0.0
 11
-0.7235078689209177
 21
1.121375
 31
0.0
  0
LINE
  5
177
330
14B
100
AcDbEntity
  8
AM_9
100
AcDbLine
 10
-1.593749999999999
 20
1.121375
 30
0.0
 11
-1.593749999999999
 21
-2.379999999999999
 31
0.0
  0
LINE
  5
178
330
14B
100
AcDbEntity
  8
AM_9
100
AcDbLine
 10
1.593749999999999
 20
-2.379999999999999
 30
0.0
 11
1.593749999999999
 21
1.121375
 31
0.0
  0
LINE
  5
179
330
14B
100
AcDbEntity
  8
AM_9
100
AcDbLine
 10
-0.5264309302611883
 20
1.121375
 30
0.0
 11
-0.5264309302611883
 21
-2.062833333333332
 31
0.0
  0
LINE
  5
17A
330
14B
100
AcDbEntity
  8
AM_9
100
AcDbLine
 10
-1.677631578947369
 20
1.791875
 30
0.0
 11
-1.677631578947369
 21
1.121375
 31
0.0
  0
LINE
  5
17B
330
14B
100
AcDbEntity
  8
AM_9
100
AcDbLine
 10
1.677631578947369
 20
1.121375
 30
0.0
 11
1.677631578947369
 21
1.791875
 31
0.0
  0
LINE
  5
17C
330
14B
100
AcDbEntity
  8
AM_9
100
AcDbLine
 10
-0.5247322847707344
 20
-2.132833333333333
 30
0.0
 11
-0.5247322847707344
 21
-2.062833333333333
 31
0.0
  0
LINE
  5
17D
330
14B
100
AcDbEntity
  8
AM_9
100
AcDbLine
 10
-0.7557021678985563
 20
-2.062833333333333
 30
0.0
 11
-0.7557021678985559
 21
-2.132833333333333
 31
0.0
  0
LINE
  5
17E
330
14B
100
AcDbEntity
  8
AM_9
100
AcDbLine
 10
-1.677631578947369
 20
-2.062833333333333
 30
0.0
 11
-1.677631578947369
 21
-2.132833333333333
 31
0.0
  0
LINE
  5
17F
330
14B
100
AcDbEntity
  8
AM_9
100
AcDbLine
 10
1.677631578947369
 20
-2.132833333333333
 30
0.0
 11
1.677631578947369
 21
-2.062833333333333
 31
0.0
  0
LINE
  5
180
330
14B
100
AcDbEntity
  8
AM_9
100
AcDbLine
 10
1.336431816442575
 20
-1.622833333333333
 30
0.0
 11
1.336431816442575
 21
-2.062833333333333
 31
0.0
  0
LINE
  5
181
330
14B
100
AcDbEntity
  8
AM_9
100
AcDbLine
 10
1.689985207035849
 20
-1.622833333333333
 30
0.0
 11
1.689985207035849
 21
-2.0205
 31
0.0
  0
LINE
  5
182
330
14B
100
AcDbEntity
  8
AM_9
100
AcDbLine
 10
-1.336431816442575
 20
-1.622833333333333
 30
0.0
 11
-1.336431816442575
 21
-2.062833333333333
 31
0.0
  0
LINE
  5
183
330
14B
100
AcDbEntity
  8
AM_9
100
AcDbLine
 10
-1.689985207035848
 20
-1.622833333333333
 30
0.0
 11
-1.689985207035848
 21
-2.0205
 31
0.0
  0
LINE
  5
184
330
14B
100
AcDbEntity
  8
AM_9
100
AcDbLine
 10
1.336431816442575
 20
-1.622833333333333
 30
0.0
 11
1.941140621581821
 21
-1.622833333333333
 31
0.0
  0
LINE
  5
185
330
14B
100
AcDbEntity
  8
AM_9
100
AcDbLine
 10
-1.94114062158182
 20
-1.622833333333333
 30
0.0
 11
-1.336431816442575
 21
-1.622833333333333
 31
0.0
  0
LINE
  5
186
330
14B
100
AcDbEntity
  8
AM_9
100
AcDbLine
 10
2.0234375
 20
1.791875
 30
0.0
 11
-2.0234375
 21
1.791875
 31
0.0
  0
LINE
  5
187
330
14B
100
AcDbEntity
  8
AM_9
100
AcDbLine
 10
-2.0234375
 20
1.816874999999999
 30
0.0
 11
-2.0234375
 21
1.791875
 31
0.0
  0
LINE
  5
188
330
14B
100
AcDbEntity
  8
AM_9
100
AcDbLine
 10
2.0234375
 20
1.791875
 30
0.0
 11
2.0234375
 21
1.816874999999999
 31
0.0
  0
LINE
  5
189
330
14B
100
AcDbEntity
  8
AM_9
100
AcDbLine
 10
0.0
 20
-1.222833333333333
 30
0.0
 11
-0.09795
 21
-1.279384792200457
 31
0.0
  0
LINE
  5
18A
330
14B
100
AcDbEntity
  8
AM_9
100
AcDbLine
 10
0.09795
 20
-1.279384792200457
 30
0.0
 11
0.0
 21
-1.222833333333333
 31
0.0
  0
LINE
  5
18B
330
14B
100
AcDbEntity
  8
AM_9
100
AcDbLine
 10
0.09795
 20
-1.279384792200457
 30
0.0
 11
-0.09795
 21
-1.279384792200457
 31
0.0
  0
LINE
  5
18C
330
14B
100
AcDbEntity
  8
AM_9
100
AcDbLine
 10
-0.09795
 20
-1.279384792200457
 30
0.0
 11
-0.09795
 21
-2.035783333333333
 31
0.0
  0
LINE
  5
18D
330
14B
100
AcDbEntity
  8
AM_9
100
AcDbLine
 10
0.09795
 20
-2.035783333333333
 30
0.0
 11
0.09795
 21
-1.279384792200457
 31
0.0
  0
LINE
  5
18E
330
14B
100
AcDbEntity
  8
AM_9
100
AcDbLine
 10
0.09795
 20
-2.035783333333333
 30
0.0
 11
-0.09795
 21
-2.035783333333333
 31
0.0
  0
LINE
  5
18F
330
14B
100
AcDbEntity
  8
AM_9
100
AcDbLine
 10
-0.09795
 20
-2.035783333333333
 30
0.0
 11
-0.1249999999999999
 21
-2.062833333333333
 31
0.0
  0
LINE
  5
190
330
14B
100
AcDbEntity
  8
AM_9
100
AcDbLine
 10
0.1249999999999999
 20
-2.062833333333333
 30
0.0
 11
0.09795
 21
-2.035783333333333
 31
0.0
  0
LINE
  5
191
330
14B
100
AcDbEntity
  8
AM_9
100
AcDbLine
 10
-1.936207739897853
 20
-2.020500000182018
 30
0.0
 11
-1.94114062158182
 21
-1.622833333333333
 31
0.0
  0
LINE
  5
192
330
14B
100
AcDbEntity
  8
AM_9
100
AcDbLine
 10
-1.587587230988546
 20
-1.622833333333333
 30
0.0
 11
-1.582654349304579
 21
-2.020500000182019
 31
0.0
  0
LINE
  5
193
330
14B
100
AcDbEntity
  8
AM_9
100
AcDbLine
 10
1.58265434930458
 20
-2.020500000182018
 30
0.0
 11
1.587587230988547
 21
-1.622833333333333
 31
0.0
  0
LINE
  5
194
330
14B
100
AcDbEntity
  8
AM_9
100
AcDbLine
 10
1.941140621581821
 20
-1.622833333333333
 30
0.0
 11
1.936207739897854
 21
-2.020500000182019
 31
0.0
  0
LINE
  5
195
330
14B
100
AcDbEntity
  8
AM_9
100
AcDbLine
 10
2.500738931081961
 20
-2.0205
 30
0.0
 11
2.526358561092915
 21
-0.5527523796781361
 31
0.0
  0
LINE
  5
196
330
14B
100
AcDbEntity
  8
AM_9
100
AcDbLine
 10
-2.526358561092915
 20
-0.5527523796781361
 30
0.0
 11
-2.500738931081961
 21
-2.0205
 31
0.0
  0
LINE
  5
197
330
14B
100
AcDbEntity
  8
AM_9
100
AcDbLine
 10
2.526358561092915
 20
-0.5527523796781361
 30
0.0
 11
-2.526358561092915
 21
-0.5527523796781361
 31
0.0
  0
ARC
  5
198
330
14B
100
AcDbEntity
  8
AM_9
100
AcDbCircle
 10
-2.576350945850737
 20
-0.5536250000000016
 30
0.0
 40
0.0500000000000017
100
AcDbArc
 50
1.000000000001358
 51
90.0
  0
ARC
  5
199
330
14B
100
AcDbEntity
  8
AM_9
100
AcDbCircle
 10
2.576350945850736
 20
-0.5536250000000014
 30
0.0
 40
0.0500000000000013
100
AcDbArc
 50
90.0
 51
178.9999999999986
  0
LINE
  5
19A
330
14B
100
AcDbEntity
  8
AM_9
100
AcDbLine
 10
2.697916666666666
 20
1.816874999999999
 30
0.0
 11
-2.697916666666666
 21
1.816874999999999
 31
0.0
  0
LINE
  5
19B
330
14B
100
AcDbEntity
  8
AM_9
100
AcDbLine
 10
-2.697916666666666
 20
1.816874999999999
 30
0.0
 11
-2.697916666666666
 21
1.446375
 31
0.0
  0
LINE
  5
19C
330
14B
100
AcDbEntity
  8
AM_9
100
AcDbLine
 10
2.697916666666666
 20
1.446375
 30
0.0
 11
2.697916666666666
 21
1.816874999999999
 31
0.0
  0
LINE
  5
19D
330
14B
100
AcDbEntity
  8
AM_9
100
AcDbLine
 10
2.704226135594408
 20
1.446375
 30
0.0
 11
-2.7042261355939
 21
1.446375
 31
0.0
  0
ARC
  5
19E
330
14B
100
AcDbEntity
  8
AM_9
100
AcDbCircle
 10
-2.704226135594408
 20
1.346374999999998
 30
0.0
 40
0.1000000000000019
100
AcDbArc
 50
90.0
 51
149.9999999999995
  0
ARC
  5
19F
330
14B
100
AcDbEntity
  8
AM_9
100
AcDbCircle
 10
2.704226135594408
 20
1.346374999999998
 30
0.0
 40
0.1000000000000015
100
AcDbArc
 50
30.00000000000055
 51
90.0
  0
LINE
  5
1A0
330
14B
100
AcDbEntity
  8
AM_9
100
AcDbLine
 10
2.790828675972853
 20
1.396375
 30
0.0
 11
-2.790828675972853
 21
1.396375
 31
0.0
  0
LINE
  5
1A1
330
14B
100
AcDbEntity
  8
AM_9
100
AcDbLine
 10
-2.790828675972853
 20
1.396375
 30
0.0
 11
-2.9496
 21
1.121375
 31
0.0
  0
LINE
  5
1A2
330
14B
100
AcDbEntity
  8
AM_9
100
AcDbLine
 10
2.9496
 20
1.121375
 30
0.0
 11
2.790828675972853
 21
1.396375
 31
0.0
  0
LINE
  5
1A3
330
14B
100
AcDbEntity
  8
AM_9
100
AcDbLine
 10
-3.06835
 20
0.3357847093716572
 30
0.0
 11
-3.06835
 21
0.2419652906283427
 31
0.0
  0
LINE
  5
1A4
330
14B
100
AcDbEntity
  8
AM_9
100
AcDbLine
 10
3.06835
 20
0.2419652906283427
 30
0.0
 11
3.06835
 21
0.3357847093716572
 31
0.0
  0
LINE
  5
1A5
330
14B
100
AcDbEntity
  8
AM_9
100
AcDbLine
 10
3.06835
 20
0.3357847093716572
 30
0.0
 11
-3.06835
 21
0.3357847093716572
 31
0.0
  0
LINE
  5
1A6
330
14B
100
AcDbEntity
  8
AM_9
100
AcDbLine
 10
3.06835
 20
0.3357847093716572
 30
0.0
 11
3.1496
 21
0.3826944187433141
 31
0.0
  0
LINE
  5
1A7
330
14B
100
AcDbEntity
  8
AM_9
100
AcDbLine
 10
-3.1496
 20
0.3826944187433141
 30
0.0
 11
-3.06835
 21
0.3357847093716572
 31
0.0
  0
LINE
  5
1A8
330
14B
100
AcDbEntity
  8
AM_9
100
AcDbLine
 10
3.06835
 20
0.2419652906283427
 30
0.0
 11
-3.06835
 21
0.2419652906283427
 31
0.0
  0
LINE
  5
1A9
330
14B
100
AcDbEntity
  8
AM_9
100
AcDbLine
 10
-3.06835
 20
0.2419652906283427
 30
0.0
 11
-3.1496
 21
0.1950555812566858
 31
0.0
  0
LINE
  5
1AA
330
14B
100
AcDbEntity
  8
AM_9
100
AcDbLine
 10
3.1496
 20
0.1950555812566858
 30
0.0
 11
3.06835
 21
0.2419652906283427
 31
0.0
  0
LINE
  5
1AB
330
14B
100
AcDbEntity
  8
AM_9
100
AcDbLine
 10
3.139599999999999
 20
-0.5036250000000001
 30
0.0
 11
-3.13959999998984
 21
-0.5036250000000001
 31
0.0
  0
ARC
  5
1AC
330
14B
100
AcDbEntity
  8
AM_9
100
AcDbCircle
 10
-3.139600000000001
 20
-0.493625000000001
 30
0.0
 40
0.0099999999999989
100
AcDbArc
 50
180.0
 51
270.0
  0
ARC
  5
1AD
330
14B
100
AcDbEntity
  8
AM_9
100
AcDbCircle
 10
3.139600000000001
 20
-0.493625000000001
 30
0.0
 40
0.0099999999999991
100
AcDbArc
 50
270.0
 51
0.0
  0
LINE
  5
1AE
330
14B
100
AcDbEntity
  8
AM_9
100
AcDbLine
 10
3.1496
 20
0.3826944187433141
 30
0.0
 11
-3.1496
 21
0.3826944187433141
 31
0.0
  0
LINE
  5
1AF
330
14B
100
AcDbEntity
  8
AM_9
100
AcDbLine
 10
-3.1496
 20
1.071375
 30
0.0
 11
-3.1496
 21
0.3826944187433141
 31
0.0
  0
LINE
  5
1B0
330
14B
100
AcDbEntity
  8
AM_9
100
AcDbLine
 10
3.1496
 20
0.3826944187433141
 30
0.0
 11
3.1496
 21
1.071375
 31
0.0
  0
LINE
  5
1B1
330
14B
100
AcDbEntity
  8
AM_9
100
AcDbLine
 10
3.1496
 20
0.1950555812566858
 30
0.0
 11
-3.1496
 21
0.1950555812566858
 31
0.0
  0
LINE
  5
1B2
330
14B
100
AcDbEntity
  8
AM_9
100
AcDbLine
 10
-2.039605996622722
 20
-0.4936250000000015
 30
0.0
 11
-3.1496
 21
-0.4936250000000016
 31
0.0
  0
LINE
  5
1B3
330
14B
100
AcDbEntity
  8
AM_9
100
AcDbLine
 10
3.1496
 20
-0.4936250000000016
 30
0.0
 11
-2.035177242978278
 21
-0.4936250000000015
 31
0.0
  0
LINE
  5
1B4
330
14B
100
AcDbEntity
  8
AM_9
100
AcDbLine
 10
-3.1496
 20
0.1950555812566858
 30
0.0
 11
-3.1496
 21
-0.4936250000000016
 31
0.0
  0
LINE
  5
1B5
330
14B
100
AcDbEntity
  8
AM_9
100
AcDbLine
 10
3.1496
 20
-0.4936250000000016
 30
0.0
 11
3.1496
 21
0.1950555812566858
 31
0.0
  0
LINE
  5
1B6
330
14B
100
AcDbEntity
  8
AM_9
100
AcDbLine
 10
3.0996
 20
1.121375
 30
0.0
 11
-3.099599999999585
 21
1.121375
 31
0.0
  0
LINE
  5
1B7
330
14B
100
AcDbEntity
  8
AM_9
100
AcDbLine
 10
3.1496
 20
1.071375
 30
0.0
 11
-3.1496
 21
1.071375
 31
0.0
  0
ARC
  5
1B8
330
14B
100
AcDbEntity
  8
AM_9
100
AcDbCircle
 10
-3.0996
 20
1.071375000000001
 30
0.0
 40
0.0499999999999994
100
AcDbArc
 50
90.0
 51
180.0
  0
ARC
  5
1B9
330
14B
100
AcDbEntity
  8
AM_9
100
AcDbCircle
 10
3.099600000000001
 20
1.071375000000001
 30
0.0
 40
0.0499999999999989
100
AcDbArc
 50
0.0
 51
90.0
  0
LINE
  5
1BA
330
14B
100
AcDbEntity
  8
AM_5
100
AcDbLine
 10
0.125
 20
-1.362833333333334
 30
0.0
 11
0.1094273103968569
 21
-1.33586064373019
 31
0.0
  0
LINE
  5
1BB
330
14B
100
AcDbEntity
  8
AM_5
100
AcDbLine
 10
0.1249999999999999
 20
-2.062833333333333
 30
0.0
 11
0.1249999999999999
 21
-1.362833333333336
 31
0.0
  0
LINE
  5
1BC
330
14B
100
AcDbEntity
  8
AM_5
100
AcDbLine
 10
-0.1249999999999999
 20
-2.062833333333333
 30
0.0
 11
-0.1249999999999999
 21
-1.362833333333336
 31
0.0
  0
LINE
  5
1BD
330
14B
100
AcDbEntity
  8
AM_5
100
AcDbLine
 10
-0.1250000000000001
 20
-1.362833333333337
 30
0.0
 11
-0.1094273103968666
 21
-1.335860643730199
 31
0.0
  0
LINE
  5
1BE
330
14B
100
AcDbEntity
  8
AM_4
100
AcDbLine
 10
-0.7235078689209181
 20
-2.38
 30
0.0
 11
-0.7235078689209178
 21
-2.132833333333333
 31
0.0
  0
LINE
  5
1BF
330
14B
100
AcDbEntity
  8
AM_4
100
AcDbLine
 10
-0.5247322847707345
 20
-2.38
 30
0.0
 11
-0.5247322847707344
 21
-2.132833333333333
 31
0.0
  0
LINE
  5
1C0
330
14B
100
AcDbEntity
  8
AM_4
100
AcDbLine
 10
-0.7557021678985559
 20
-2.132833333333333
 30
0.0
 11
-0.7557021678985558
 21
-2.38
 31
0.0
  0
LINE
  5
1C1
330
14B
100
AcDbEntity
  8
AM_4
100
AcDbLine
 10
-1.677631578947369
 20
-2.132833333333333
 30
0.0
 11
-1.677631578947369
 21
-2.38
 31
0.0
  0
LINE
  5
1C2
330
14B
100
AcDbEntity
  8
AM_4
100
AcDbLine
 10
1.677631578947369
 20
-2.38
 30
0.0
 11
1.677631578947369
 21
-2.132833333333333
 31
0.0
  0
LINE
  5
1C3
330
14B
100
AcDbEntity
  8
AM_4
100
AcDbLine
 10
1.677631578947369
 20
-2.38
 30
0.0
 11
-1.677631578947369
 21
-2.38
 31
0.0
  0
LINE
  5
1C4
330
14B
100
AcDbEntity
  8
AM_4
100
AcDbLine
 10
1.689985207035849
 20
-2.0205
 30
0.0
 11
1.689985207035849
 21
-2.062833333333333
 31
0.0
  0
LINE
  5
1C5
330
14B
100
AcDbEntity
  8
AM_4
100
AcDbLine
 10
-1.689985207035848
 20
-2.0205
 30
0.0
 11
-1.689985207035848
 21
-2.062833333333333
 31
0.0
  0
LINE
  5
1C6
330
14B
100
AcDbEntity
  8
AM_4
100
AcDbLine
 10
-1.935682605230422
 20
-2.062833333333333
 30
0.0
 11
-2.499999999999999
 21
-2.062833333333333
 31
0.0
  0
LINE
  5
1C7
330
14B
100
AcDbEntity
  8
AM_4
100
AcDbLine
 10
-1.935682605230422
 20
-2.062833333333333
 30
0.0
 11
-1.936207739897853
 21
-2.020500000182018
 31
0.0
  0
LINE
  5
1C8
330
14B
100
AcDbEntity
  8
AM_4
100
AcDbLine
 10
-1.582654349304579
 20
-2.020500000182019
 30
0.0
 11
-1.582129214637148
 21
-2.062833333333333
 31
0.0
  0
LINE
  5
1C9
330
14B
100
AcDbEntity
  8
AM_4
100
AcDbLine
 10
1.582129214637148
 20
-2.062833333333333
 30
0.0
 11
-1.582129214637148
 21
-2.062833333333333
 31
0.0
  0
LINE
  5
1CA
330
14B
100
AcDbEntity
  8
AM_4
100
AcDbLine
 10
1.582129214637148
 20
-2.062833333333333
 30
0.0
 11
1.58265434930458
 21
-2.020500000182018
 31
0.0
  0
LINE
  5
1CB
330
14B
100
AcDbEntity
  8
AM_4
100
AcDbLine
 10
1.936207739897854
 20
-2.020500000182019
 30
0.0
 11
1.935682605230423
 21
-2.062833333333333
 31
0.0
  0
LINE
  5
1CC
330
14B
100
AcDbEntity
  8
AM_4
100
AcDbLine
 10
2.499999999999999
 20
-2.062833333333333
 30
0.0
 11
2.500738931081961
 21
-2.0205
 31
0.0
  0
LINE
  5
1CD
330
14B
100
AcDbEntity
  8
AM_4
100
AcDbLine
 10
-2.500738931081961
 20
-2.0205
 30
0.0
 11
-2.499999999999999
 21
-2.062833333333333
 31
0.0
  0
LINE
  5
1CE
330
14B
100
AcDbEntity
  8
AM_4
100
AcDbLine
 10
2.499999999999999
 20
-2.062833333333333
 30
0.0
 11
1.935682605230423
 21
-2.062833333333333
 31
0.0
  0
ENDBLK
  5
14E
330
14B
100
AcDbEntity
  8
0
100
AcDbBlockEnd
  0
BLOCK
  5
1D1
330
1CF
100
AcDbEntity
  8
0
100
AcDbBlockBegin
  2
7_071262H_0_in_071262_4
 70
     2
 10
0.0
 20
0.0
 30
0.0
  3
7_071262H_0_in_071262_4
  1

  0
ATTDEF
  5
1D3
330
1CF
100
AcDbEntity
  8
AM_6
100
AcDbText
 10
11.75
 20
2.4695
 30
0.0
 40
0.5
  1
EP4B-IP -(Labyrinth Seal)-Housing -Inch
100
AcDbAttributeDefinition
  3

  2
NN
 70
     8
280
     0
  0
ATTDEF
  5
1D4
330
1CF
100
AcDbEntity
  8
AM_6
100
AcDbText
 10
11.75
 20
1.9695
 30
0.0
 40
0.5
  1
Imperial/E 4 Bolt Piliow Block Bearings
100
AcDbAttributeDefinition
  3

  2
NT
 70
     8
280
     0
  0
ATTDEF
  5
1D5
330
1CF
100
AcDbEntity
  8
AM_6
100
AcDbText
 10
11.75
 20
1.4695
 30
0.0
 40
0.5
  1
071262H
100
AcDbAttributeDefinition
  3

  2
NB
 70
     8
280
     0
  0
ATTDEF
  5
1D6
330
1CF
100
AcDbEntity
  8
AM_6
100
AcDbText
 10
11.75
 20
0.9695
 30
0.0
 40
0.5
  1
$PN.H
100
AcDbAttributeDefinition
  3

  2
NBSYN
 70
     8
280
     0
  0
ATTDEF
  5
1D7
330
1CF
100
AcDbEntity
  8
AM_6
100
AcDbText
 10
11.75
 20
0.4695
 30
0.0
 40
0.5
  1
071262
100
AcDbAttributeDefinition
  3

  2
LINA
 70
     8
280
     0
  0
ATTDEF
  5
1D8
330
1CF
100
AcDbEntity
  8
AM_6
100
AcDbText
 10
11.75
 20
-0.0305
 30
0.0
 40
0.5
  1
3-3/16
100
AcDbAttributeDefinition
  3

  2
SS
 70
     8
280
     0
  0
ATTDEF
  5
1D9
330
1CF
100
AcDbEntity
  8
AM_6
100
AcDbText
 10
11.75
 20
-0.5305
 30
0.0
 40
0.5
  1
3.187500
100
AcDbAttributeDefinition
  3

  2
SS1
 70
     8
280
     0
  0
ATTDEF
  5
1DA
330
1CF
100
AcDbEntity
  8
AM_6
100
AcDbText
 10
11.75
 20
-1.0305
 30
0.0
 40
0.5
  1
Expansion
100
AcDbAttributeDefinition
  3

  2
TYPE
 70
     8
280
     0
  0
ATTDEF
  5
1DB
330
1CF
100
AcDbEntity
  8
AM_6
100
AcDbText
 10
11.75
 20
-1.5305
 30
0.0
 40
0.5
  1
071245
100
AcDbAttributeDefinition
  3

  2
PN1
 70
     8
280
     0
  0
ATTDEF
  5
1DC
330
1CF
100
AcDbEntity
  8
AM_6
100
AcDbText
 10
11.75
 20
-2.0305
 30
0.0
 40
0.5
  1
071262
100
AcDbAttributeDefinition
  3

  2
PN2
 70
     8
280
     0
  0
ATTDEF
  5
1DD
330
1CF
100
AcDbEntity
  8
AM_6
100
AcDbText
 10
11.75
 20
-2.5305
 30
0.0
 40
0.5
  1
EP4B-IP-303L
100
AcDbAttributeDefinition
  3

  2
DESCRIPTION
 70
     8
280
     0
  0
ATTDEF
  5
1DE
330
1CF
100
AcDbEntity
  8
AM_6
100
AcDbText
 10
11.75
 20
-3.0305
 30
0.0
 40
0.5
  1
Non-Expansion Type
100
AcDbAttributeDefinition
  3

  2
EF
 70
     8
280
     0
  0
ATTDEF
  5
1DF
330
1CF
100
AcDbEntity
  8
AM_6
100
AcDbText
 10
11.75
 20
-3.5305
 30
0.0
 40
0.5
  1
1
100
AcDbAttributeDefinition
  3

  2
EF1
 70
     8
280
     0
  0
ATTDEF
  5
1E0
330
1CF
100
AcDbEntity
  8
AM_6
100
AcDbText
 10
11.75
 20
-4.0305
 30
0.0
 40
0.5
  1
Labyrinth Seal
100
AcDbAttributeDefinition
  3

  2
ST
 70
     8
280
     0
  0
ATTDEF
  5
1E1
330
1CF
100
AcDbEntity
  8
AM_6
100
AcDbText
 10
11.75
 20
-4.5305
 30
0.0
 40
0.5
  1
1
100
AcDbAttributeDefinition
  3

  2
ST1
 70
     8
280
     0
  0
ATTDEF
  5
1E2
330
1CF
100
AcDbEntity
  8
AM_6
100
AcDbText
 10
11.75
 20
-5.0305
 30
0.0
 40
0.5
  1
4.17
100
AcDbAttributeDefinition
  3

  2
A
 70
     8
280
     0
  0
ATTDEF
  5
1E3
330
1CF
100
AcDbEntity
  8
AM_6
100
AcDbText
 10
11.75
 20
-5.5305
 30
0.0
 40
0.5
  1
4.1700000
100
AcDbAttributeDefinition
  3

  2
A1
 70
     8
280
     0
  0
ATTDEF
  5
1E4
330
1CF
100
AcDbEntity
  8
AM_6
100
AcDbText
 10
11.75
 20
-6.0305
 30
0.0
 40
0.5
  1
13.5
100
AcDbAttributeDefinition
  3

  2
B
 70
     8
280
     0
  0
ATTDEF
  5
1E5
330
1CF
100
AcDbEntity
  8
AM_6
100
AcDbText
 10
11.75
 20
-6.5305
 30
0.0
 40
0.5
  1
13.5000000
100
AcDbAttributeDefinition
  3

  2
B1
 70
     8
280
     0
  0
ATTDEF
  5
1E6
330
1CF
100
AcDbEntity
  8
AM_6
100
AcDbText
 10
11.75
 20
-7.0305
 30
0.0
 40
0.5
  1
4.49
100
AcDbAttributeDefinition
  3

  2
C
 70
     8
280
     0
  0
ATTDEF
  5
1E7
330
1CF
100
AcDbEntity
  8
AM_6
100
AcDbText
 10
11.75
 20
-7.5305
 30
0.0
 40
0.5
  1
4.4900000
100
AcDbAttributeDefinition
  3

  2
C1
 70
     8
280
     0
  0
ATTDEF
  5
1E8
330
1CF
100
AcDbEntity
  8
AM_6
100
AcDbText
 10
11.75
 20
-8.0305
 30
0.0
 40
0.5
  1
10.75
100
AcDbAttributeDefinition
  3

  2
DMIN
 70
     8
280
     0
  0
ATTDEF
  5
1E9
330
1CF
100
AcDbEntity
  8
AM_6
100
AcDbText
 10
11.75
 20
-8.5305
 30
0.0
 40
0.5
  1
10.7500000
100
AcDbAttributeDefinition
  3

  2
DMIN1
 70
     8
280
     0
  0
ATTDEF
  5
1EA
330
1CF
100
AcDbEntity
  8
AM_6
100
AcDbText
 10
11.75
 20
-9.0305
 30
0.0
 40
0.5
  1
11.25
100
AcDbAttributeDefinition
  3

  2
DMAX
 70
     8
280
     0
  0
ATTDEF
  5
1EB
330
1CF
100
AcDbEntity
  8
AM_6
100
AcDbText
 10
11.75
 20
-9.5305
 30
0.0
 40
0.5
  1
11.2500000
100
AcDbAttributeDefinition
  3

  2
DMAX1
 70
     8
280
     0
  0
ATTDEF
  5
1EC
330
1CF
100
AcDbEntity
  8
AM_6
100
AcDbText
 10
11.75
 20
-10.0305
 30
0.0
 40
0.5
  1
2.37
100
AcDbAttributeDefinition
  3

  2
E
 70
     8
280
     0
  0
ATTDEF
  5
1ED
330
1CF
100
AcDbEntity
  8
AM_6
100
AcDbText
 10
11.75
 20
-10.5305
 30
0.0
 40
0.5
  1
2.370000
100
AcDbAttributeDefinition
  3

  2
E1
 70
     8
280
     0
  0
ATTDEF
  5
1EE
330
1CF
100
AcDbEntity
  8
AM_6
100
AcDbText
 10
11.75
 20
-11.0305
 30
0.0
 40
0.5
  1
3/4
100
AcDbAttributeDefinition
  3

  2
F
 70
     8
280
     0
  0
ATTDEF
  5
1EF
330
1CF
100
AcDbEntity
  8
AM_6
100
AcDbText
 10
11.75
 20
-11.5305
 30
0.0
 40
0.5
  1
0.7500000
100
AcDbAttributeDefinition
  3

  2
F1
 70
     8
280
     0
  0
ATTDEF
  5
1F0
330
1CF
100
AcDbEntity
  8
AM_6
100
AcDbText
 10
11.75
 20
-12.0305
 30
0.0
 40
0.5
  1
1.13
100
AcDbAttributeDefinition
  3

  2
G
 70
     8
280
     0
  0
ATTDEF
  5
1F1
330
1CF
100
AcDbEntity
  8
AM_6
100
AcDbText
 10
11.75
 20
-12.5305
 30
0.0
 40
0.5
  1
1.130000
100
AcDbAttributeDefinition
  3

  2
G1
 70
     8
280
     0
  0
ATTDEF
  5
1F2
330
1CF
100
AcDbEntity
  8
AM_6
100
AcDbText
 10
11.75
 20
-13.0305
 30
0.0
 40
0.5
  1
2.25
100
AcDbAttributeDefinition
  3

  2
H
 70
     8
280
     0
  0
ATTDEF
  5
1F3
330
1CF
100
AcDbEntity
  8
AM_6
100
AcDbText
 10
11.75
 20
-13.5305
 30
0.0
 40
0.5
  1
2.2500000
100
AcDbAttributeDefinition
  3

  2
H1
 70
     8
280
     0
  0
ATTDEF
  5
1F4
330
1CF
100
AcDbEntity
  8
AM_6
100
AcDbText
 10
11.75
 20
-14.0305
 30
0.0
 40
0.5
  1
7.69
100
AcDbAttributeDefinition
  3

  2
J
 70
     8
280
     0
  0
ATTDEF
  5
1F5
330
1CF
100
AcDbEntity
  8
AM_6
100
AcDbText
 10
11.75
 20
-14.5305
 30
0.0
 40
0.5
  1
7.690000
100
AcDbAttributeDefinition
  3

  2
J1
 70
     8
280
     0
  0
ATTDEF
  5
1F6
330
1CF
100
AcDbEntity
  8
AM_6
100
AcDbText
 10
11.75
 20
-15.0305
 30
0.0
 40
0.5
  1
5
100
AcDbAttributeDefinition
  3

  2
L
 70
     8
280
     0
  0
ATTDEF
  5
1F7
330
1CF
100
AcDbEntity
  8
AM_6
100
AcDbText
 10
11.75
 20
-15.5305
 30
0.0
 40
0.5
  1
5.0000000
100
AcDbAttributeDefinition
  3

  2
L1
 70
     8
280
     0
  0
ATTDEF
  5
1F8
330
1CF
100
AcDbEntity
  8
AM_6
100
AcDbText
 10
11.75
 20
-16.0305
 30
0.0
 40
0.5
  1
3.75
100
AcDbAttributeDefinition
  3

  2
M
 70
     8
280
     0
  0
ATTDEF
  5
1F9
330
1CF
100
AcDbEntity
  8
AM_6
100
AcDbText
 10
11.75
 20
-16.5305
 30
0.0
 40
0.5
  1
3.750000
100
AcDbAttributeDefinition
  3

  2
M1
 70
     8
280
     0
  0
ATTDEF
  5
1FA
330
1CF
100
AcDbEntity
  8
AM_6
100
AcDbText
 10
11.75
 20
-17.0305
 30
0.0
 40
0.5
  1
1.54
100
AcDbAttributeDefinition
  3

  2
R
 70
     8
280
     0
  0
ATTDEF
  5
1FB
330
1CF
100
AcDbEntity
  8
AM_6
100
AcDbText
 10
11.75
 20
-17.5305
 30
0.0
 40
0.5
  1
1.540000
100
AcDbAttributeDefinition
  3

  2
R1
 70
     8
280
     0
  0
ATTDEF
  5
1FC
330
1CF
100
AcDbEntity
  8
AM_6
100
AcDbText
 10
11.75
 20
-18.0305
 30
0.0
 40
0.5
  1
2.63
100
AcDbAttributeDefinition
  3

  2
S
 70
     8
280
     0
  0
ATTDEF
  5
1FD
330
1CF
100
AcDbEntity
  8
AM_6
100
AcDbText
 10
11.75
 20
-18.5305
 30
0.0
 40
0.5
  1
2.630000
100
AcDbAttributeDefinition
  3

  2
S1
 70
     8
280
     0
  0
ATTDEF
  5
1FE
330
1CF
100
AcDbEntity
  8
AM_6
100
AcDbText
 10
11.75
 20
-19.0305
 30
0.0
 40
0.5
  1
0.25
100
AcDbAttributeDefinition
  3

  2
X
 70
     8
280
     0
  0
ATTDEF
  5
1FF
330
1CF
100
AcDbEntity
  8
AM_6
100
AcDbText
 10
11.75
 20
-19.5305
 30
0.0
 40
0.5
  1
0.250000
100
AcDbAttributeDefinition
  3

  2
X1
 70
     8
280
     0
  0
ATTDEF
  5
200
330
1CF
100
AcDbEntity
  8
AM_6
100
AcDbText
 10
11.75
 20
-20.0305
 30
0.0
 40
0.5
  1
0.025
100
AcDbAttributeDefinition
  3

  2
Y
 70
     8
280
     0
  0
ATTDEF
  5
201
330
1CF
100
AcDbEntity
  8
AM_6
100
AcDbText
 10
11.75
 20
-20.5305
 30
0.0
 40
0.5
  1
4.05
100
AcDbAttributeDefinition
  3

  2
Z
 70
     8
280
     0
  0
ATTDEF
  5
202
330
1CF
100
AcDbEntity
  8
AM_6
100
AcDbText
 10
11.75
 20
-21.0305
 30
0.0
 40
0.5
  1
4.050000
100
AcDbAttributeDefinition
  3

  2
Z1
 70
     8
280
     0
  0
ATTDEF
  5
203
330
1CF
100
AcDbEntity
  8
AM_6
100
AcDbText
 10
11.75
 20
-21.5305
 30
0.0
 40
0.5
  1
6.2992
100
AcDbAttributeDefinition
  3

  2
BORE
 70
     8
280
     0
  0
ATTDEF
  5
204
330
1CF
100
AcDbEntity
  8
AM_6
100
AcDbText
 10
11.75
 20
-22.0305
 30
0.0
 40
0.5
  1
0.07000
100
AcDbAttributeDefinition
  3

  2
CR
 70
     8
280
     0
  0
ATTDEF
  5
205
330
1CF
100
AcDbEntity
  8
AM_6
100
AcDbText
 10
11.75
 20
-22.5305
 30
0.0
 40
0.5
  1
baldor
100
AcDbAttributeDefinition
  3

  2
COMPANY
 70
     8
280
     0
  0
LINE
  5
206
330
1CF
100
AcDbEntity
  8
AM_9
100
AcDbLine
 10
1.124999999999998
 20
-1.625
 30
0.0
 11
1.124999999999998
 21
1.625
 31
0.0
  0
LINE
  5
207
330
1CF
100
AcDbEntity
  8
AM_9
100
AcDbLine
 10
-1.125
 20
-1.625
 30
0.0
 11
-1.125
 21
1.625
 31
0.0
  0
LINE
  5
208
330
1CF
100
AcDbEntity
  8
AM_9
100
AcDbLine
 10
2.754504080518276
 20
-1.625
 30
0.0
 11
2.754504080518276
 21
1.625
 31
0.0
  0
LINE
  5
209
330
1CF
100
AcDbEntity
  8
AM_9
100
AcDbLine
 10
-2.754504080518278
 20
-1.625
 30
0.0
 11
-2.754504080518278
 21
1.625
 31
0.0
  0
LINE
  5
20A
330
1CF
100
AcDbEntity
  8
AM_9
100
AcDbLine
 10
3.085044570180469
 20
-1.625
 30
0.0
 11
3.085044570180469
 21
1.625
 31
0.0
  0
LINE
  5
20B
330
1CF
100
AcDbEntity
  8
AM_9
100
AcDbLine
 10
-3.085044570180469
 20
-1.625
 30
0.0
 11
-3.085044570180469
 21
1.625
 31
0.0
  0
LINE
  5
20C
330
1CF
100
AcDbEntity
  8
AM_9
100
AcDbLine
 10
6.065
 20
-1.184999999999998
 30
0.0
 11
6.065
 21
1.185
 31
0.0
  0
LINE
  5
20D
330
1CF
100
AcDbEntity
  8
AM_9
100
AcDbLine
 10
-1.125
 20
1.625
 30
0.0
 11
-5.375000000000002
 21
1.625
 31
0.0
  0
LINE
  5
20E
330
1CF
100
AcDbEntity
  8
AM_9
100
AcDbLine
 10
-1.125
 20
-1.625
 30
0.0
 11
-5.375000000000001
 21
-1.625
 31
0.0
  0
LINE
  5
20F
330
1CF
100
AcDbEntity
  8
AM_9
100
AcDbLine
 10
-6.065
 20
1.185
 30
0.0
 11
-6.065
 21
-1.185
 31
0.0
  0
LINE
  5
210
330
1CF
100
AcDbEntity
  8
AM_9
100
AcDbLine
 10
5.375000000000002
 20
-1.625
 30
0.0
 11
1.124999999999998
 21
-1.625
 31
0.0
  0
LINE
  5
211
330
1CF
100
AcDbEntity
  8
AM_9
100
AcDbLine
 10
5.375000000000002
 20
1.625
 30
0.0
 11
1.124999999999998
 21
1.625
 31
0.0
  0
LINE
  5
212
330
1CF
100
AcDbEntity
  8
AM_9
100
AcDbLine
 10
3.1496
 20
-2.0205
 30
0.0
 11
3.1496
 21
2.0205
 31
0.0
  0
LINE
  5
213
330
1CF
100
AcDbEntity
  8
AM_9
100
AcDbLine
 10
-3.1496
 20
2.0205
 30
0.0
 11
-3.1496
 21
-2.0205
 31
0.0
  0
ELLIPSE
  5
214
330
1CF
100
AcDbEntity
  8
AM_9
100
AcDbEllipse
 10
-1.970000000000473
 20
-0.0000000000004599
 30
0.0
 11
3.061616997865568E-17
 21
0.4999999999995403
 31
0.0
210
0.0
220
0.0
230
1.0
 40
0.8660254037843811
 41
3.106133311433596
 42
3.141592653589793
  0
ELLIPSE
  5
215
330
1CF
100
AcDbEntity
  8
AM_9
100
AcDbEllipse
 10
-1.969999999999999
 20
0.0000000000000003
 30
0.0
 11
3.061616997868385E-17
 21
0.5000000000000004
 31
0.0
210
0.0
220
0.0
230
1.0
 40
0.8660254037844412
 41
0.0
 42
3.096517731429395
  0
LINE
  5
216
330
1CF
100
AcDbEntity
  8
AM_9
100
AcDbLine
 10
-1.976228885957011
 20
-0.4999482106955312
 30
0.0
 11
-1.970000000000007
 21
-0.5000000000000002
 31
0.0
  0
LWPOLYLINE
  5
217
330
1CF
100
AcDbEntity
  8
AM_9
100
AcDbPolyline
 90
       21
 70
     0
 43
0.0
 10
-1.973000769869859
 20
0.499987987596019
 10
-2.041387705791642
 20
0.4930227252499896
 10
-2.109959134993555
 20
0.4724872236504642
 10
-2.174167125124784
 20
0.438589996463114
 10
-2.2321037324001
 20
0.3925463582334497
 10
-2.28259069949725
 20
0.3350601306358399
 10
-2.324140467753872
 20
0.2681520397533509
 10
-2.355768060641659
 20
0.1932859052811141
 10
-2.376718629077007
 20
0.1128936826106224
 10
-2.384478836310961
 20
0.0568191383963516
 10
-2.387085371984097
 20
0.0000000000000002
 10
-2.381404576574391
 20
-0.0835553044051076
 10
-2.364640599033709
 20
-0.1647462246669788
 10
-2.337041761005457
 20
-0.2412058914371696
 10
-2.299365916750328
 20
-0.3109082606822842
 10
-2.252075296592984
 20
-0.3721062982224874
 10
-2.196552460508009
 20
-0.4228543010646045
 10
-2.133791765368791
 20
-0.461680149463099
 10
-2.065654420095381
 20
-0.4874409978143705
 10
-2.018329471044879
 20
-0.4968395940516616
 10
-1.976228885957011
 20
-0.4999482106955312
  0
LINE
  5
218
330
1CF
100
AcDbEntity
  8
AM_9
100
AcDbLine
 10
-1.97
 20
0.5000000000000007
 30
0.0
 11
-1.973000769869859
 21
0.499987987596019
 31
0.0
  0
LINE
  5
21B
330
1CF
100
AcDbEntity
  8
AM_7
100
AcDbLine
 10
0.0
 20
2.4695
 30
0.0
 11
0.0
 21
-2.58984375
 31
0.0
  0
LINE
  5
21C
330
1CF
100
AcDbEntity
  8
AM_7
100
AcDbLine
 10
-6.087
 20
-1.185
 30
0.0
 11
-4.913000000000002
 21
-1.185
 31
0.0
  0
LINE
  5
21D
330
1CF
100
AcDbEntity
  8
AM_7
100
AcDbLine
 10
-5.625
 20
-1.647
 30
0.0
 11
-5.625
 21
-0.7230000000000008
 31
0.0
  0
LINE
  5
21E
330
1CF
100
AcDbEntity
  8
AM_7
100
AcDbLine
 10
4.913000000000002
 20
1.185
 30
0.0
 11
6.087
 21
1.185
 31
0.0
  0
LINE
  5
21F
330
1CF
100
AcDbEntity
  8
AM_7
100
AcDbLine
 10
5.625
 20
0.7230000000000003
 30
0.0
 11
5.625
 21
1.646999999999999
 31
0.0
  0
LINE
  5
220
330
1CF
100
AcDbEntity
  8
AM_7
100
AcDbLine
 10
4.913000000000002
 20
-1.185
 30
0.0
 11
6.087
 21
-1.185
 31
0.0
  0
LINE
  5
221
330
1CF
100
AcDbEntity
  8
AM_7
100
AcDbLine
 10
5.375000000000002
 20
-1.647
 30
0.0
 11
5.375000000000002
 21
-0.7230000000000008
 31
0.0
  0
LINE
  5
222
330
1CF
100
AcDbEntity
  8
AM_7
100
AcDbLine
 10
-6.087
 20
1.185
 30
0.0
 11
-4.913000000000002
 21
1.185
 31
0.0
  0
LINE
  5
223
330
1CF
100
AcDbEntity
  8
AM_7
100
AcDbLine
 10
-5.625
 20
0.7230000000000003
 30
0.0
 11
-5.625
 21
1.646999999999999
 31
0.0
  0
LINE
  5
224
330
1CF
100
AcDbEntity
  8
AM_7
100
AcDbLine
 10
-5.375000000000002
 20
0.7230000000000008
 30
0.0
 11
-5.375000000000002
 21
1.647
 31
0.0
  0
LINE
  5
225
330
1CF
100
AcDbEntity
  8
AM_7
100
AcDbLine
 10
5.375000000000002
 20
0.7230000000000003
 30
0.0
 11
5.375000000000002
 21
1.646999999999999
 31
0.0
  0
LINE
  5
226
330
1CF
100
AcDbEntity
  8
AM_7
100
AcDbLine
 10
5.625
 20
-1.647
 30
0.0
 11
5.625
 21
-0.7230000000000008
 31
0.0
  0
LINE
  5
227
330
1CF
100
AcDbEntity
  8
AM_7
100
AcDbLine
 10
-5.375000000000002
 20
-1.647
 30
0.0
 11
-5.375000000000002
 21
-0.7230000000000005
 31
0.0
  0
LINE
  5
228
330
1CF
100
AcDbEntity
  8
AM_4
100
AcDbLine
 10
-6.75
 20
-1.796
 30
0.0
 11
-6.301
 21
-2.245
 31
0.0
  0
LINE
  5
229
330
1CF
100
AcDbEntity
  8
AM_4
100
AcDbLine
 10
-6.301
 20
2.245
 30
0.0
 11
-6.75
 21
1.796
 31
0.0
  0
LINE
  5
22A
330
1CF
100
AcDbEntity
  8
AM_4
100
AcDbLine
 10
-6.75
 20
1.796
 30
0.0
 11
-6.75
 21
-1.796
 31
0.0
  0
LINE
  5
22B
330
1CF
100
AcDbEntity
  8
AM_4
100
AcDbLine
 10
6.75
 20
1.795999999999999
 30
0.0
 11
6.301
 21
2.245
 31
0.0
  0
LINE
  5
22C
330
1CF
100
AcDbEntity
  8
AM_4
100
AcDbLine
 10
6.301
 20
-2.245
 30
0.0
 11
6.75
 21
-1.796
 31
0.0
  0
LINE
  5
22D
330
1CF
100
AcDbEntity
  8
AM_4
100
AcDbLine
 10
6.75
 20
-1.796
 30
0.0
 11
6.75
 21
1.795999999999999
 31
0.0
  0
LWPOLYLINE
  5
22E
330
1CF
100
AcDbEntity
  8
AM_4
100
AcDbPolyline
 90
       13
 70
     0
 43
0.0
 10
-6.525
 20
-1.872669848401229
 10
-6.553128545158294
 20
-1.649382041368407
 10
-6.57768420223481
 20
-1.425706719587649
 10
-6.606511051686068
 20
-1.106166704280492
 10
-6.628057086403917
 20
-0.7860307411398991
 10
-6.642308770039193
 20
-0.4654898210525227
 10
-6.649270924421979
 20
-0.1430046729251671
 10
-6.648851427865573
 20
0.1796413641982549
 10
-6.641050925909203
 20
0.5021016479543451
 10
-6.624622279314869
 20
0.8452772565050486
 10
-6.599835008491032
 20
1.187914096940314
 10
-6.566605962668717
 20
1.530711458531305
 10
-6.524999999999999
 20
1.872669848401243
  0
LWPOLYLINE
  5
22F
330
1CF
100
AcDbEntity
  8
AM_4
100
AcDbPolyline
 90
       13
 70
     0
 43
0.0
 10
6.524999999999999
 20
1.872669848401237
 10
6.553128545158295
 20
1.649382041368415
 10
6.577684202234811
 20
1.425706719587657
 10
6.606511051686071
 20
1.106166704280499
 10
6.628057086403917
 20
0.7860307411399057
 10
6.642308770039194
 20
0.4654898210525293
 10
6.649270924421979
 20
0.1430046729251733
 10
6.648851427865572
 20
-0.1796413641982489
 10
6.641050925909203
 20
-0.5021016479543394
 10
6.62462227931487
 20
-0.8452772565050479
 10
6.599835008491034
 20
-1.187914096940318
 10
6.566605962668718
 20
-1.530711458531315
 10
6.524999999999998
 20
-1.872669848401257
  0
LINE
  5
230
330
1CF
100
AcDbEntity
  8
AM_4
100
AcDbLine
 10
-4.389499999999998
 20
-2.245
 30
0.0
 11
-4.164999999999999
 21
-2.0205
 31
0.0
  0
LINE
  5
231
330
1CF
100
AcDbEntity
  8
AM_4
100
AcDbLine
 10
-4.165000000000001
 20
2.0205
 30
0.0
 11
-4.3895
 21
2.245
 31
0.0
  0
LINE
  5
232
330
1CF
100
AcDbEntity
  8
AM_4
100
AcDbLine
 10
-5.375000000000002
 20
-0.7450000000000002
 30
0.0
 11
-5.625
 21
-0.7450000000000002
 31
0.0
  0
ARC
  5
233
330
1CF
100
AcDbEntity
  8
AM_4
100
AcDbCircle
 10
-5.375000000000002
 20
-1.185
 30
0.0
 40
0.4400000000000002
100
AcDbArc
 50
270.0
 51
90.0
  0
LINE
  5
234
330
1CF
100
AcDbEntity
  8
AM_4
100
AcDbLine
 10
-5.625
 20
-1.625
 30
0.0
 11
-5.375000000000001
 21
-1.625
 31
0.0
  0
ARC
  5
235
330
1CF
100
AcDbEntity
  8
AM_4
100
AcDbCircle
 10
-5.625
 20
-1.185
 30
0.0
 40
0.4399999999999998
100
AcDbArc
 50
90.0
 51
270.0
  0
LINE
  5
236
330
1CF
100
AcDbEntity
  8
AM_4
100
AcDbLine
 10
-5.375000000000002
 20
1.625
 30
0.0
 11
-5.625
 21
1.625
 31
0.0
  0
ARC
  5
237
330
1CF
100
AcDbEntity
  8
AM_4
100
AcDbCircle
 10
-5.375000000000002
 20
1.185
 30
0.0
 40
0.4400000000000001
100
AcDbArc
 50
270.0
 51
90.0
  0
LINE
  5
238
330
1CF
100
AcDbEntity
  8
AM_4
100
AcDbLine
 10
-5.625
 20
0.745
 30
0.0
 11
-5.375000000000001
 21
0.745
 31
0.0
  0
ARC
  5
239
330
1CF
100
AcDbEntity
  8
AM_4
100
AcDbCircle
 10
-5.625
 20
1.185
 30
0.0
 40
0.4399999999999999
100
AcDbArc
 50
90.0
 51
270.0
  0
ARC
  5
23A
330
1CF
100
AcDbEntity
  8
AM_4
100
AcDbCircle
 10
7.440069444407724
 20
-0.0000000000052627
 30
0.0
 40
14.09006944440735
100
AcDbArc
 50
187.6376132607184
 51
188.3461823417656
  0
LINE
  5
23B
330
1CF
100
AcDbEntity
  8
AM_4
100
AcDbLine
 10
-4.389499999999998
 20
-2.245
 30
0.0
 11
-6.301
 21
-2.245
 31
0.0
  0
LINE
  5
23C
330
1CF
100
AcDbEntity
  8
AM_4
100
AcDbLine
 10
-4.3895
 20
2.245
 30
0.0
 11
-6.301
 21
2.245
 31
0.0
  0
ARC
  5
23D
330
1CF
100
AcDbEntity
  8
AM_4
100
AcDbCircle
 10
7.440069444399243
 20
0.0000000000063594
 30
0.0
 40
14.0900694443988
100
AcDbArc
 50
171.6538176582338
 51
172.3623867392814
  0
LINE
  5
23E
330
1CF
100
AcDbEntity
  8
AM_4
100
AcDbLine
 10
-6.524999999999998
 20
-1.872669848401241
 30
0.0
 11
-6.524999999999998
 21
1.872669848401254
 31
0.0
  0
LINE
  5
23F
330
1CF
100
AcDbEntity
  8
AM_4
100
AcDbLine
 10
4.165000000000001
 20
-2.0205
 30
0.0
 11
4.3895
 21
-2.245
 31
0.0
  0
LINE
  5
240
330
1CF
100
AcDbEntity
  8
AM_4
100
AcDbLine
 10
4.389500000000001
 20
2.245
 30
0.0
 11
4.165000000000001
 21
2.0205
 31
0.0
  0
LINE
  5
241
330
1CF
100
AcDbEntity
  8
AM_4
100
AcDbLine
 10
5.625
 20
-0.7450000000000002
 30
0.0
 11
5.375000000000002
 21
-0.7450000000000002
 31
0.0
  0
ARC
  5
242
330
1CF
100
AcDbEntity
  8
AM_4
100
AcDbCircle
 10
5.625
 20
-1.185
 30
0.0
 40
0.4399999999999999
100
AcDbArc
 50
270.0
 51
90.0
  0
LINE
  5
243
330
1CF
100
AcDbEntity
  8
AM_4
100
AcDbLine
 10
5.375000000000002
 20
-1.625
 30
0.0
 11
5.625
 21
-1.625
 31
0.0
  0
ARC
  5
244
330
1CF
100
AcDbEntity
  8
AM_4
100
AcDbCircle
 10
5.375000000000002
 20
-1.185
 30
0.0
 40
0.4399999999999998
100
AcDbArc
 50
90.0
 51
270.0
  0
LINE
  5
245
330
1CF
100
AcDbEntity
  8
AM_4
100
AcDbLine
 10
5.625
 20
1.625
 30
0.0
 11
5.375000000000002
 21
1.625
 31
0.0
  0
ARC
  5
246
330
1CF
100
AcDbEntity
  8
AM_4
100
AcDbCircle
 10
5.625
 20
1.185
 30
0.0
 40
0.4400000000000001
100
AcDbArc
 50
270.0
 51
90.0
  0
LINE
  5
247
330
1CF
100
AcDbEntity
  8
AM_4
100
AcDbLine
 10
5.375000000000002
 20
0.745
 30
0.0
 11
5.625
 21
0.745
 31
0.0
  0
ARC
  5
248
330
1CF
100
AcDbEntity
  8
AM_4
100
AcDbCircle
 10
5.375000000000002
 20
1.185
 30
0.0
 40
0.4399999999999999
100
AcDbArc
 50
90.0
 51
270.0
  0
ARC
  5
249
330
1CF
100
AcDbEntity
  8
AM_4
100
AcDbCircle
 10
-7.440069444382363
 20
0.0000000000088403
 30
0.0
 40
14.09006944438174
100
AcDbArc
 50
7.637613260717663
 51
8.346182341766186
  0
LINE
  5
24A
330
1CF
100
AcDbEntity
  8
AM_4
100
AcDbLine
 10
6.301
 20
2.245
 30
0.0
 11
4.389500000000001
 21
2.245
 31
0.0
  0
LINE
  5
24B
330
1CF
100
AcDbEntity
  8
AM_4
100
AcDbLine
 10
6.301
 20
-2.245
 30
0.0
 11
4.3895
 21
-2.245
 31
0.0
  0
ARC
  5
24C
330
1CF
100
AcDbEntity
  8
AM_4
100
AcDbCircle
 10
-7.440069444382333
 20
-0.0000000000088067
 30
0.0
 40
14.09006944438171
100
AcDbArc
 50
351.6538176582336
 51
352.3623867392821
  0
LINE
  5
24D
330
1CF
100
AcDbEntity
  8
AM_4
100
AcDbLine
 10
6.524999999999998
 20
-1.872669848401258
 30
0.0
 11
6.524999999999998
 21
1.872669848401237
 31
0.0
  0
LINE
  5
24E
330
1CF
100
AcDbEntity
  8
AM_4
100
AcDbLine
 10
-4.0075
 20
-1.347
 30
0.0
 11
-4.0075
 21
1.347
 31
0.0
  0
LINE
  5
24F
330
1CF
100
AcDbEntity
  8
AM_4
100
AcDbLine
 10
4.0075
 20
-1.347
 30
0.0
 11
4.0075
 21
1.347
 31
0.0
  0
LINE
  5
250
330
1CF
100
AcDbEntity
  8
AM_4
100
AcDbLine
 10
4.362951834958301
 20
1.347
 30
0.0
 11
4.362951834958301
 21
2.218451834958301
 31
0.0
  0
LINE
  5
251
330
1CF
100
AcDbEntity
  8
AM_4
100
AcDbLine
 10
-4.362951834958301
 20
1.347
 30
0.0
 11
-4.362951834958301
 21
2.218451834958301
 31
0.0
  0
LINE
  5
252
330
1CF
100
AcDbEntity
  8
AM_4
100
AcDbLine
 10
4.362951834958301
 20
-2.2184518349583
 30
0.0
 11
4.362951834958301
 21
-1.347
 31
0.0
  0
LINE
  5
253
330
1CF
100
AcDbEntity
  8
AM_4
100
AcDbLine
 10
-4.362951834958301
 20
-2.218451834958302
 30
0.0
 11
-4.362951834958301
 21
-1.347
 31
0.0
  0
LINE
  5
254
330
1CF
100
AcDbEntity
  8
AM_4
100
AcDbLine
 10
-4.139784713896384
 20
1.347
 30
0.0
 11
-4.139784713896384
 21
2.0205
 31
0.0
  0
LINE
  5
255
330
1CF
100
AcDbEntity
  8
AM_4
100
AcDbLine
 10
-4.139784713896384
 20
-2.0205
 30
0.0
 11
-4.139784713896384
 21
-1.347
 31
0.0
  0
LINE
  5
256
330
1CF
100
AcDbEntity
  8
AM_4
100
AcDbLine
 10
4.139784713896383
 20
1.347
 30
0.0
 11
4.139784713896383
 21
2.0205
 31
0.0
  0
LINE
  5
257
330
1CF
100
AcDbEntity
  8
AM_4
100
AcDbLine
 10
4.139784713896383
 20
-2.0205
 30
0.0
 11
4.139784713896383
 21
-1.347
 31
0.0
  0
ELLIPSE
  5
258
330
1CF
100
AcDbEntity
  8
AM_4
100
AcDbEllipse
 10
-1.97
 20
0.0000000000000001
 30
0.0
 11
3.061616997868385E-17
 21
0.5000000000000003
 31
0.0
210
0.0
220
0.0
230
1.0
 40
0.8660254037844405
 41
3.141592653589793
 42
6.283185307179586
  0
ELLIPSE
  5
259
330
1CF
100
AcDbEntity
  8
AM_4
100
AcDbEllipse
 10
-2.019999999999999
 20
0.0000000000000002
 30
0.0
 11
-7.347880794884129E-17
 21
-0.4000000000000005
 31
0.0
210
0.0
220
0.0
230
1.0
 40
0.8660254037844384
 41
0.0
 42
6.283185307179586
  0
LWPOLYLINE
  5
25A
330
1CF
100
AcDbEntity
  8
AM_4
100
AcDbPolyline
 90
       21
 70
     0
 43
0.0
 10
-2.416410161513775
 20
0.0000000000000002
 10
-2.415924088751339
 20
-0.0233651093367538
 10
-2.412706035136853
 20
-0.0643822337259135
 10
-2.406488812491475
 20
-0.1049944901707118
 10
-2.397307923391888
 20
-0.1449194968600799
 10
-2.385217968308224
 20
-0.183885500083592
 10
-2.370293324925833
 20
-0.2216248746451351
 10
-2.352628561202569
 20
-0.2578757509466927
 10
-2.332338813278944
 20
-0.2923839542824154
 10
-2.309559991438121
 20
-0.3249053008212199
 10
-2.284448641374468
 20
-0.3552082467821891
 10
-2.257181276676144
 20
-0.3830768075900606
 10
-2.22795302792805
 20
-0.408313569329893
 10
-2.196975533685697
 20
-0.4307425297549646
 10
-2.164474121625826
 20
-0.4502114624613615
 10
-2.130684466963635
 20
-0.4665935226191369
 10
-2.095849028953691
 20
-0.4797879126205722
 10
-2.060213617659054
 20
-0.4897195800149898
 10
-2.024024415749178
 20
-0.4963380857800705
 10
-1.987525685021479
 20
-0.4996159131299681
 10
-1.968414894058646
 20
-0.4999968592889254
  0
LWPOLYLINE
  5
25B
330
1CF
100
AcDbEntity
  8
AM_4
100
AcDbPolyline
 90
       21
 70
     0
 43
0.0
 10
-1.971372019306558
 20
0.4999976469481553
 10
-1.980765303294374
 20
0.4998551139863809
 10
-2.017223339098602
 20
0.4972045092290859
 10
-2.053325499955621
 20
0.4912432214046766
 10
-2.08884179515548
 20
0.4820175739353905
 10
-2.123549193843651
 20
0.4695900969654973
 10
-2.157229060931828
 20
0.454039651919335
 10
-2.189667014460498
 20
0.4354620746488797
 10
-2.22065330371045
 20
0.4139711558328941
 10
-2.249983821273679
 20
0.3896996482627851
 10
-2.277461732312879
 20
0.3627999792849519
 10
-2.302899576729107
 20
0.3334444038490624
 10
-2.32612160695243
 20
0.3018244480119525
 10
-2.346966089910727
 20
0.2681496340035071
 10
-2.365287332299391
 20
0.2326456066761047
 10
-2.3809572682091
 20
0.1955518644982288
 10
-2.393866548384556
 20
0.1571193222422646
 10
-2.403925161192559
 20
0.117607904364424
 10
-2.411062677468227
 20
0.0772843086974304
 10
-2.415228239676031
 20
0.036420012746543
 10
-2.416410161513775
 20
0.0000000000000002
  0
LINE
  5
25C
330
1CF
100
AcDbEntity
  8
AM_4
100
AcDbLine
 10
-3.895
 20
-1.347
 30
0.0
 11
-3.895
 21
1.347
 31
0.0
  0
LINE
  5
25D
330
1CF
100
AcDbEntity
  8
AM_4
100
AcDbLine
 10
-3.895
 20
-1.347
 30
0.0
 11
-4.362951834958301
 21
-1.347
 31
0.0
  0
LINE
  5
25E
330
1CF
100
AcDbEntity
  8
AM_4
100
AcDbLine
 10
-3.907904253262011
 20
-2.0205
 30
0.0
 11
-3.907904253262011
 21
-1.347
 31
0.0
  0
LINE
  5
25F
330
1CF
100
AcDbEntity
  8
AM_4
100
AcDbLine
 10
-3.907904253262011
 20
1.347
 30
0.0
 11
-3.907904253262011
 21
2.0205
 31
0.0
  0
LINE
  5
260
330
1CF
100
AcDbEntity
  8
AM_4
100
AcDbLine
 10
-3.895
 20
1.347
 30
0.0
 11
-4.362951834958301
 21
1.347
 31
0.0
  0
LWPOLYLINE
  5
261
330
1CF
100
AcDbEntity
  8
AM_4
100
AcDbPolyline
 90
       21
 70
     0
 43
0.0
 10
-1.970000000000007
 20
-0.5000000000000002
 10
-1.921335325507302
 20
-0.4968581995648903
 10
-1.849326645847253
 20
-0.4805442958119304
 10
-1.77993307149268
 20
-0.4509138500774272
 10
-1.715106308796838
 20
-0.4085054622787964
 10
-1.656955628145434
 20
-0.3547451361800848
 10
-1.60708660562732
 20
-0.2904965988129842
 10
-1.567432288213005
 20
-0.218022919875423
 10
-1.539475022313024
 20
-0.1392171771810036
 10
-1.524029718931729
 20
-0.0564252701769752
 10
-1.5218104776795
 20
0.0274227382610364
 10
-1.532546225685522
 20
0.1104932555595934
 10
-1.555945942501356
 20
0.1901202376455644
 10
-1.5910403515151
 20
0.2644329372793622
 10
-1.637092621322781
 20
0.3316315656147286
 10
-1.692299101897329
 20
0.3895488479113658
 10
-1.755410789235459
 20
0.4366792653584883
 10
-1.824058937138218
 20
0.4714681814252335
 10
-1.895983091228415
 20
0.4926813108462552
 10
-1.969178360708208
 20
0.4999991000028072
 10
-1.97
 20
0.5000000000000007
  0
LINE
  5
262
330
1CF
100
AcDbEntity
  8
AM_4
100
AcDbLine
 10
3.90790425326201
 20
-2.0205
 30
0.0
 11
3.90790425326201
 21
-1.347
 31
0.0
  0
LINE
  5
263
330
1CF
100
AcDbEntity
  8
AM_4
100
AcDbLine
 10
4.362951834958301
 20
-1.347
 30
0.0
 11
3.895
 21
-1.347
 31
0.0
  0
LINE
  5
264
330
1CF
100
AcDbEntity
  8
AM_4
100
AcDbLine
 10
3.895
 20
1.347
 30
0.0
 11
3.895
 21
-1.347
 31
0.0
  0
LINE
  5
265
330
1CF
100
AcDbEntity
  8
AM_4
100
AcDbLine
 10
4.362951834958301
 20
1.347
 30
0.0
 11
3.895
 21
1.347
 31
0.0
  0
LINE
  5
266
330
1CF
100
AcDbEntity
  8
AM_4
100
AcDbLine
 10
3.90790425326201
 20
1.347
 30
0.0
 11
3.90790425326201
 21
2.0205
 31
0.0
  0
LINE
  5
267
330
1CF
100
AcDbEntity
  8
AM_4
100
AcDbLine
 10
-1.049866666666667
 20
-2.0205
 30
0.0
 11
-1.049866666666667
 21
2.020500000000001
 31
0.0
  0
LINE
  5
268
330
1CF
100
AcDbEntity
  8
AM_4
100
AcDbLine
 10
-4.164999999999999
 20
-2.0205
 30
0.0
 11
4.165
 21
-2.0205
 31
0.0
  0
LINE
  5
269
330
1CF
100
AcDbEntity
  8
AM_4
100
AcDbLine
 10
4.165000000000001
 20
2.0205
 30
0.0
 11
-4.165000000000001
 21
2.0205
 31
0.0
  0
LINE
  5
26A
330
1CF
100
AcDbEntity
  8
AM_4
100
AcDbLine
 10
1.049866666666667
 20
-2.0205
 30
0.0
 11
1.049866666666667
 21
2.020500000000001
 31
0.0
  0
LINE
  5
26B
330
1CF
100
AcDbEntity
  8
AM_4
100
AcDbLine
 10
0.9373666666666666
 20
-2.0205
 30
0.0
 11
0.9373666666666666
 21
2.020500000000001
 31
0.0
  0
LINE
  5
26C
330
1CF
100
AcDbEntity
  8
AM_4
100
AcDbLine
 10
-0.9373666666666661
 20
-2.0205
 30
0.0
 11
-0.9373666666666661
 21
2.020500000000001
 31
0.0
  0
ENDBLK
  5
1D2
330
1CF
100
AcDbEntity
  8
0
100
AcDbBlockEnd
  0
ENDSEC
  0
SECTION
  2
ENTITIES
  0
INSERT
  5
6F
330
1F
100
AcDbEntity
  8
0
100
AcDbBlockReference
  2
1_071262_4
 10
0.0
 20
0.0
 30
0.0
  0
POINT
  5
26E
330
1F
100
AcDbEntity
  8
ConnectionPoints
100
AcDbPoint
 10
0.0
 20
-2.132833333333333
 30
-2.135416666666667
  0
POINT
  5
26F
330
1F
100
AcDbEntity
  8
ConnectionPoints
100
AcDbPoint
 10
0.0
 20
-2.132833333333333
 30
2.135416666666667
  0
POINT
  5
270
330
1F
100
AcDbEntity
  8
ConnectionPoints
100
AcDbPoint
 10
0.0
 20
-2.062833333333333
 30
0.0000000000000001
  0
POINT
  5
271
330
1F
100
AcDbEntity
  8
ConnectionPoints
100
AcDbPoint
 10
0.0
 20
-2.38
 30
0.0000000000000001
  0
POINT
  5
272
330
1F
100
AcDbEntity
  8
ConnectionPoints
100
AcDbPoint
 10
0.0
 20
-2.261833333333333
 30
0.0000000000000001
  0
POINT
  5
273
330
1F
100
AcDbEntity
  8
ConnectionPoints
100
AcDbPoint
 10
0.0
 20
-2.062833333333333
 30
2.135416666666667
  0
POINT
  5
274
330
1F
100
AcDbEntity
  8
ConnectionPoints
100
AcDbPoint
 10
0.0
 20
-2.062833333333333
 30
-2.135416666666667
  0
POINT
  5
275
330
1F
100
AcDbEntity
  8
ConnectionPoints
100
AcDbPoint
 10
0.0
 20
-2.062833333333333
 30
0.0000000000000001
  0
POINT
  5
276
330
1F
100
AcDbEntity
  8
ConnectionPoints
100
AcDbPoint
 10
-2.02
 20
0.0000000000000002
 30
3.498742631289133
  0
POINT
  5
277
330
1F
100
AcDbEntity
  8
ConnectionPoints
100
AcDbPoint
 10
0.0
 20
-2.38
 30
0.0000000000000001
  0
POINT
  5
278
330
1F
100
AcDbEntity
  8
ConnectionPoints
100
AcDbPoint
 10
0.0
 20
-2.63
 30
0.0000000000000002
  0
ENDSEC
  0
SECTION
  2
OBJECTS
  0
DICTIONARY
  5
C
330
0
100
AcDbDictionary
281
     1
  3
ACAD_DETAILVIEWSTYLE
350
280
  3
ACAD_GROUP
350
D
  3
ACAD_LAYOUT
350
1A
  3
ACAD_MATERIAL
350
43
  3
ACAD_MLEADERSTYLE
350
6B
  3
ACAD_MLINESTYLE
350
17
  3
ACAD_PLOTSETTINGS
350
19
  3
ACAD_PLOTSTYLENAME
350
E
  3
ACAD_SCALELIST
350
47
  3
ACAD_SECTIONVIEWSTYLE
350
281
  3
ACAD_TABLESTYLE
350
69
  3
ACAD_VISUALSTYLE
350
2A
  3
ACDB_RECOMPOSE_DATA
350
27D
  3
AcDbVariableDictionary
350
279
  0
SUN
  5
6D
330
29
100
AcDbSun
 90
        1
290
     0
 63
     7
421
 16777215
 40
1.0
291
     1
 91
  2455826
 92
 54000000
292
     0
 70
     2
 71
   256
280
     1
  0
DICTIONARY
  5
280
102
{ACAD_REACTORS
330
C
102
}
330
C
100
AcDbDictionary
281
     1
  0
DICTIONARY
  5
D
102
{ACAD_REACTORS
330
C
102
}
330
C
100
AcDbDictionary
281
     1
  0
DICTIONARY
  5
1A
102
{ACAD_REACTORS
330
C
102
}
330
C
100
AcDbDictionary
281
     1
  3
Layout1
350
1E
  3
Layout2
350
26
  3
Model
350
22
  0
DICTIONARY
  5
43
102
{ACAD_REACTORS
330
C
102
}
330
C
100
AcDbDictionary
281
     1
  3
ByBlock
350
45
  3
ByLayer
350
44
  3
Global
350
46
  0
DICTIONARY
  5
6B
102
{ACAD_REACTORS
330
C
102
}
330
C
100
AcDbDictionary
281
     1
  3
Standard
350
6C
  0
DICTIONARY
  5
17
102
{ACAD_REACTORS
330
C
102
}
330
C
100
AcDbDictionary
281
     1
  3
Standard
350
18
  0
DICTIONARY
  5
19
102
{ACAD_REACTORS
330
C
102
}
330
C
100
AcDbDictionary
281
     1
  0
ACDBDICTIONARYWDFLT
  5
E
102
{ACAD_REACTORS
330
C
102
}
330
C
100
AcDbDictionary
281
     1
  3
Normal
350
F
100
AcDbDictionaryWithDefault
340
F
  0
DICTIONARY
  5
47
102
{ACAD_REACTORS
330
C
102
}
330
C
100
AcDbDictionary
281
     1
  3
A0
350
48
  3
A1
350
49
  3
A2
350
4A
  3
A3
350
4B
  3
A4
350
4C
  3
A5
350
4D
  3
A6
350
4E
  3
A7
350
4F
  3
A8
350
50
  3
A9
350
51
  3
B0
350
52
  3
B1
350
53
  3
B2
350
54
  3
B3
350
55
  3
B4
350
56
  3
B5
350
57
  3
B6
350
58
  3
B7
350
59
  3
B8
350
5A
  3
B9
350
5B
  3
C0
350
5C
  3
C1
350
5D
  3
C2
350
5E
  3
C3
350
5F
  3
C4
350
60
  3
C5
350
61
  3
C6
350
62
  3
C7
350
63
  3
C8
350
64
  3
C9
350
65
  3
D0
350
66
  3
D1
350
67
  3
D2
350
68
  0
DICTIONARY
  5
281
102
{ACAD_REACTORS
330
C
102
}
330
C
100
AcDbDictionary
281
     1
  0
DICTIONARY
  5
69
102
{ACAD_REACTORS
330
C
102
}
330
C
100
AcDbDictionary
281
     1
  3
Standard
350
6A
  0
DICTIONARY
  5
2A
102
{ACAD_REACTORS
330
C
102
}
330
C
100
AcDbDictionary
281
     1
  3
2dWireframe
350
2F
  3
Basic
350
32
  3
Brighten
350
36
  3
ColorChange
350
3A
  3
Conceptual
350
34
  3
Dim
350
35
  3
EdgeColorOff
350
3D
  3
Facepattern
350
39
  3
Flat
350
2B
  3
FlatWithEdges
350
2C
  3
Gouraud
350
2D
  3
GouraudWithEdges
350
2E
  3
Hidden
350
31
  3
JitterOff
350
3B
  3
Linepattern
350
38
  3
OverhangOff
350
3C
  3
Realistic
350
33
  3
Shaded
350
42
  3
Shaded with edges
350
41
  3
Shades of Gray
350
3E
  3
Sketchy
350
3F
  3
Thicken
350
37
  3
Wireframe
350
30
  3
X-Ray
350
40
  0
XRECORD
  5
27D
102
{ACAD_REACTORS
330
C
102
}
330
C
100
AcDbXrecord
280
     1
 90
        1
330
6A
  0
DICTIONARY
  5
279
102
{ACAD_REACTORS
330
C
102
}
330
C
100
AcDbDictionary
281
     1
  3
CANNOSCALE
350
27A
  3
CMLEADERSTYLE
350
27F
  3
CTABLESTYLE
350
27E
  0
LAYOUT
  5
1E
102
{ACAD_REACTORS
330
1A
102
}
330
1A
100
AcDbPlotSettings
  1

  2
none_device
  4

  6

 40
0.0
 41
0.0
 42
0.0
 43
0.0
 44
0.0
 45
0.0
 46
0.0
 47
0.0
 48
0.0
 49
0.0
140
0.0
141
0.0
142
1.0
143
1.0
 70
   688
 72
     0
 73
     0
 74
     5
  7

 75
    16
 76
     0
 77
     2
 78
   300
147
1.0
148
0.0
149
0.0
100
AcDbLayout
  1
Layout1
 70
     1
 71
     1
 10
0.0
 20
0.0
 11
12.0
 21
9.0
 12
0.0
 22
0.0
 32
0.0
 14
1.000000000000000E+20
 24
1.000000000000000E+20
 34
1.000000000000000E+20
 15
-1.000000000000000E+20
 25
-1.000000000000000E+20
 35
-1.000000000000000E+20
146
0.0
 13
0.0
 23
0.0
 33
0.0
 16
1.0
 26
0.0
 36
0.0
 17
0.0
 27
1.0
 37
0.0
 76
     0
330
1B
  0
LAYOUT
  5
26
102
{ACAD_REACTORS
330
1A
102
}
330
1A
100
AcDbPlotSettings
  1

  2
none_device
  4

  6

 40
0.0
 41
0.0
 42
0.0
 43
0.0
 44
0.0
 45
0.0
 46
0.0
 47
0.0
 48
0.0
 49
0.0
140
0.0
141
0.0
142
1.0
143
1.0
 70
   688
 72
     0
 73
     0
 74
     5
  7

 75
    16
 76
     0
 77
     2
 78
   300
147
1.0
148
0.0
149
0.0
100
AcDbLayout
  1
Layout2
 70
     1
 71
     2
 10
0.0
 20
0.0
 11
0.0
 21
0.0
 12
0.0
 22
0.0
 32
0.0
 14
0.0
 24
0.0
 34
0.0
 15
0.0
 25
0.0
 35
0.0
146
0.0
 13
0.0
 23
0.0
 33
0.0
 16
1.0
 26
0.0
 36
0.0
 17
0.0
 27
1.0
 37
0.0
 76
     0
330
23
  0
LAYOUT
  5
22
102
{ACAD_REACTORS
330
1A
102
}
330
1A
100
AcDbPlotSettings
  1

  2
none_device
  4
Letter_(8.50_x_11.00_Inches)
  6

 40
6.35
 41
6.35
 42
6.35000508
 43
6.35000508
 44
215.9
 45
279.4
 46
0.0
 47
0.0
 48
0.0
 49
0.0
140
0.0
141
0.0
142
1.0
143
1.0
 70
  1712
 72
     0
 73
     0
 74
     0
  7

 75
     0
 76
     0
 77
     2
 78
   300
147
1.0
148
0.0
149
0.0
100
AcDbLayout
  1
Model
 70
     1
 71
     0
 10
0.0
 20
0.0
 11
12.0
 21
9.0
 12
0.0
 22
0.0
 32
0.0
 14
1.000000000000000E+20
 24
1.000000000000000E+20
 34
1.000000000000000E+20
 15
-1.000000000000000E+20
 25
-1.000000000000000E+20
 35
-1.000000000000000E+20
146
0.0
 13
0.0
 23
0.0
 33
0.0
 16
1.0
 26
0.0
 36
0.0
 17
0.0
 27
1.0
 37
0.0
 76
     0
330
1F
331
29
  0
MATERIAL
  5
45
102
{ACAD_REACTORS
330
43
102
}
330
43
100
AcDbMaterial
  1
ByBlock
 72
     1
 94
      127
  0
MATERIAL
  5
44
102
{ACAD_REACTORS
330
43
102
}
330
43
100
AcDbMaterial
  1
ByLayer
 72
     1
 94
      127
  0
MATERIAL
  5
46
102
{ACAD_REACTORS
330
43
102
}
330
43
100
AcDbMaterial
  1
Global
 72
     1
 94
      127
  0
MLEADERSTYLE
  5
6C
102
{ACAD_REACTORS
330
6B
102
}
330
6B
100
AcDbMLeaderStyle
179
     2
170
     2
171
     1
172
     0
 90
        2
 40
0.0
 41
0.0
173
     1
 91
-1056964608
340
14
 92
       -2
290
     1
 42
0.09
291
     1
 43
0.36
  3
Standard
341
0
 44
0.18
300

342
11
174
     1
178
     6
175
     1
176
     0
 93
-1056964608
 45
0.18
292
     0
297
     0
 46
0.18
343
0
 94
-1056964608
 47
1.0
 49
1.0
140
1.0
293
     1
141
0.0
294
     1
177
     0
142
1.0
295
     0
296
     0
143
0.125
271
     0
272
     9
273
     9
298
     0
  0
MLINESTYLE
  5
18
102
{ACAD_REACTORS
330
17
102
}
330
17
100
AcDbMlineStyle
  2
Standard
 70
     0
  3

 62
   256
 51
90.0
 52
90.0
 71
     2
 49
0.5
 62
   256
  6
BYLAYER
 49
-0.5
 62
   256
  6
BYLAYER
  0
ACDBPLACEHOLDER
  5
F
102
{ACAD_REACTORS
330
E
102
}
330
E
  0
SCALE
  5
48
102
{ACAD_REACTORS
330
47
102
}
330
47
100
AcDbScale
 70
     0
300
1:1
140
1.0
141
1.0
290
     1
  0
SCALE
  5
49
102
{ACAD_REACTORS
330
47
102
}
330
47
100
AcDbScale
 70
     0
300
1:2
140
1.0
141
2.0
290
     0
  0
SCALE
  5
4A
102
{ACAD_REACTORS
330
47
102
}
330
47
100
AcDbScale
 70
     0
300
1:4
140
1.0
141
4.0
290
     0
  0
SCALE
  5
4B
102
{ACAD_REACTORS
330
47
102
}
330
47
100
AcDbScale
 70
     0
300
1:5
140
1.0
141
5.0
290
     0
  0
SCALE
  5
4C
102
{ACAD_REACTORS
330
47
102
}
330
47
100
AcDbScale
 70
     0
300
1:8
140
1.0
141
8.0
290
     0
  0
SCALE
  5
4D
102
{ACAD_REACTORS
330
47
102
}
330
47
100
AcDbScale
 70
     0
300
1:10
140
1.0
141
10.0
290
     0
  0
SCALE
  5
4E
102
{ACAD_REACTORS
330
47
102
}
330
47
100
AcDbScale
 70
     0
300
1:16
140
1.0
141
16.0
290
     0
  0
SCALE
  5
4F
102
{ACAD_REACTORS
330
47
102
}
330
47
100
AcDbScale
 70
     0
300
1:20
140
1.0
141
20.0
290
     0
  0
SCALE
  5
50
102
{ACAD_REACTORS
330
47
102
}
330
47
100
AcDbScale
 70
     0
300
1:30
140
1.0
141
30.0
290
     0
  0
SCALE
  5
51
102
{ACAD_REACTORS
330
47
102
}
330
47
100
AcDbScale
 70
     0
300
1:40
140
1.0
141
40.0
290
     0
  0
SCALE
  5
52
102
{ACAD_REACTORS
330
47
102
}
330
47
100
AcDbScale
 70
     0
300
1:50
140
1.0
141
50.0
290
     0
  0
SCALE
  5
53
102
{ACAD_REACTORS
330
47
102
}
330
47
100
AcDbScale
 70
     0
300
1:100
140
1.0
141
100.0
290
     0
  0
SCALE
  5
54
102
{ACAD_REACTORS
330
47
102
}
330
47
100
AcDbScale
 70
     0
300
2:1
140
2.0
141
1.0
290
     0
  0
SCALE
  5
55
102
{ACAD_REACTORS
330
47
102
}
330
47
100
AcDbScale
 70
     0
300
4:1
140
4.0
141
1.0
290
     0
  0
SCALE
  5
56
102
{ACAD_REACTORS
330
47
102
}
330
47
100
AcDbScale
 70
     0
300
8:1
140
8.0
141
1.0
290
     0
  0
SCALE
  5
57
102
{ACAD_REACTORS
330
47
102
}
330
47
100
AcDbScale
 70
     0
300
10:1
140
10.0
141
1.0
290
     0
  0
SCALE
  5
58
102
{ACAD_REACTORS
330
47
102
}
330
47
100
AcDbScale
 70
     0
300
100:1
140
100.0
141
1.0
290
     0
  0
SCALE
  5
59
102
{ACAD_REACTORS
330
47
102
}
330
47
100
AcDbScale
 70
     0
300
1/128" = 1'-0"
140
0.0078125
141
12.0
290
     0
  0
SCALE
  5
5A
102
{ACAD_REACTORS
330
47
102
}
330
47
100
AcDbScale
 70
     0
300
1/64" = 1'-0"
140
0.015625
141
12.0
290
     0
  0
SCALE
  5
5B
102
{ACAD_REACTORS
330
47
102
}
330
47
100
AcDbScale
 70
     0
300
1/32" = 1'-0"
140
0.03125
141
12.0
290
     0
  0
SCALE
  5
5C
102
{ACAD_REACTORS
330
47
102
}
330
47
100
AcDbScale
 70
     0
300
1/16" = 1'-0"
140
0.0625
141
12.0
290
     0
  0
SCALE
  5
5D
102
{ACAD_REACTORS
330
47
102
}
330
47
100
AcDbScale
 70
     0
300
3/32" = 1'-0"
140
0.09375
141
12.0
290
     0
  0
SCALE
  5
5E
102
{ACAD_REACTORS
330
47
102
}
330
47
100
AcDbScale
 70
     0
300
1/8" = 1'-0"
140
0.125
141
12.0
290
     0
  0
SCALE
  5
5F
102
{ACAD_REACTORS
330
47
102
}
330
47
100
AcDbScale
 70
     0
300
3/16" = 1'-0"
140
0.1875
141
12.0
290
     0
  0
SCALE
  5
60
102
{ACAD_REACTORS
330
47
102
}
330
47
100
AcDbScale
 70
     0
300
1/4" = 1'-0"
140
0.25
141
12.0
290
     0
  0
SCALE
  5
61
102
{ACAD_REACTORS
330
47
102
}
330
47
100
AcDbScale
 70
     0
300
3/8" = 1'-0"
140
0.375
141
12.0
290
     0
  0
SCALE
  5
62
102
{ACAD_REACTORS
330
47
102
}
330
47
100
AcDbScale
 70
     0
300
1/2" = 1'-0"
140
0.5
141
12.0
290
     0
  0
SCALE
  5
63
102
{ACAD_REACTORS
330
47
102
}
330
47
100
AcDbScale
 70
     0
300
3/4" = 1'-0"
140
0.75
141
12.0
290
     0
  0
SCALE
  5
64
102
{ACAD_REACTORS
330
47
102
}
330
47
100
AcDbScale
 70
     0
300
1" = 1'-0"
140
1.0
141
12.0
290
     0
  0
SCALE
  5
65
102
{ACAD_REACTORS
330
47
102
}
330
47
100
AcDbScale
 70
     0
300
1-1/2" = 1'-0"
140
1.5
141
12.0
290
     0
  0
SCALE
  5
66
102
{ACAD_REACTORS
330
47
102
}
330
47
100
AcDbScale
 70
     0
300
3" = 1'-0"
140
3.0
141
12.0
290
     0
  0
SCALE
  5
67
102
{ACAD_REACTORS
330
47
102
}
330
47
100
AcDbScale
 70
     0
300
6" = 1'-0"
140
6.0
141
12.0
290
     0
  0
SCALE
  5
68
102
{ACAD_REACTORS
330
47
102
}
330
47
100
AcDbScale
 70
     0
300
1'-0" = 1'-0"
140
12.0
141
12.0
290
     0
  0
TABLESTYLE
  5
6A
102
{ACAD_REACTORS
330
69
102
}
102
{ACAD_XDICTIONARY
360
27B
102
}
330
69
100
AcDbTableStyle
  3
Standard
 70
     0
 71
     0
 40
0.06
 41
0.06
280
     0
281
     0
  7
Standard
140
0.18
170
     2
 62
     0
 63
   257
283
     0
 90
        4
 91
        0
  1

274
    -2
284
     1
 64
     0
275
    -2
285
     1
 65
     0
276
    -2
286
     1
 66
     0
277
    -2
287
     1
 67
     0
278
    -2
288
     1
 68
     0
279
    -2
289
     1
 69
     0
  7
Standard
140
0.25
170
     5
 62
     0
 63
   257
283
     0
 90
        4
 91
        0
  1

274
    -2
284
     1
 64
     0
275
    -2
285
     1
 65
     0
276
    -2
286
     1
 66
     0
277
    -2
287
     1
 67
     0
278
    -2
288
     1
 68
     0
279
    -2
289
     1
 69
     0
  7
Standard
140
0.18
170
     5
 62
     0
 63
   257
283
     0
 90
        4
 91
        0
  1

274
    -2
284
     1
 64
     0
275
    -2
285
     1
 65
     0
276
    -2
286
     1
 66
     0
277
    -2
287
     1
 67
     0
278
    -2
288
     1
 68
     0
279
    -2
289
     1
 69
     0
  0
VISUALSTYLE
  5
2F
102
{ACAD_REACTORS
330
2A
102
}
330
2A
100
AcDbVisualStyle
  2
2dWireframe
 70
     4
177
     3
291
     0
 70
    58
 90
        0
176
     1
 90
        2
176
     1
 90
        0
176
     1
 90
        0
176
     1
 40
0.6
176
     1
 40
30.0
176
     1
 62
     7
420
 16777215
176
     1
 90
        1
176
     1
 90
        4
176
     1
 62
     7
176
     1
 62
   257
176
     1
 90
        1
176
     1
 90
        1
176
     1
 40
1.0
176
     1
 90
        0
176
     1
 62
   257
176
     1
 40
1.0
176
     1
 90
        1
176
     1
 90
        6
176
     1
 90
        2
176
     1
 62
     7
176
     1
 90
        5
176
     1
 90
        0
176
     1
 90
        0
176
     1
290
     0
176
     1
 90
        1
176
     1
 40
0.0
176
     1
 90
        0
176
     1
290
     1
176
     1
290
     1
176
     1
290
     0
176
     1
290
     0
176
     1
290
     0
176
     1
290
     0
176
     1
290
     0
176
     1
290
     0
176
     1
290
     0
176
     1
 90
       50
176
     1
 40
0.0
176
     1
 40
1.0
176
     1
 90
        0
176
     1
 62
    18
420
        0
176
     1
 90
       50
176
     1
 90
        3
176
     1
 62
     5
420
      255
176
     1
290
     0
176
     1
 90
       50
176
     1
 90
       50
176
     1
 90
       50
176
     1
290
     0
176
     1
 90
       50
176
     1
 62
   256
176
     0
 40
1.0
176
     0
 90
        2
176
     1
  1
strokes_ogs.tif
176
     1
290
     0
176
     1
 40
1.0
176
     1
 40
1.0
176
     1
  0
VISUALSTYLE
  5
32
102
{ACAD_REACTORS
330
2A
102
}
330
2A
100
AcDbVisualStyle
  2
Basic
 70
     7
177
     3
291
     1
 70
    58
 90
        1
176
     1
 90
        0
176
     1
 90
        1
176
     1
 90
        0
176
     1
 40
0.6
176
     1
 40
30.0
176
     1
 62
     7
420
 16777215
176
     1
 90
        0
176
     1
 90
        4
176
     1
 62
     7
176
     1
 62
   257
176
     1
 90
        1
176
     1
 90
        1
176
     1
 40
1.0
176
     1
 90
        8
176
     1
 62
     7
176
     1
 40
1.0
176
     1
 90
        1
176
     1
 90
        6
176
     1
 90
        2
176
     1
 62
     7
176
     1
 90
        5
176
     1
 90
        0
176
     1
 90
        0
176
     1
290
     0
176
     1
 90
        1
176
     1
 40
0.0
176
     1
 90
        0
176
     1
290
     0
176
     1
290
     1
176
     1
290
     1
176
     1
290
     0
176
     1
290
     0
176
     1
290
     0
176
     1
290
     0
176
     1
290
     0
176
     1
290
     0
176
     1
 90
       50
176
     1
 40
0.0
176
     1
 40
1.0
176
     1
 90
        0
176
     1
 62
    18
420
        0
176
     1
 90
       50
176
     1
 90
        3
176
     1
 62
     5
420
      255
176
     1
290
     0
176
     1
 90
       50
176
     1
 90
       50
176
     1
 90
       50
176
     1
290
     0
176
     1
 90
       50
176
     1
 62
   256
176
     0
 40
1.0
176
     0
 90
        2
176
     1
  1
strokes_ogs.tif
176
     1
290
     0
176
     1
 40
1.0
176
     1
 40
1.0
176
     1
  0
VISUALSTYLE
  5
36
102
{ACAD_REACTORS
330
2A
102
}
330
2A
100
AcDbVisualStyle
  2
Brighten
 70
    12
177
     3
291
     1
 70
    58
 90
        2
176
     1
 90
        2
176
     1
 90
        0
176
     1
 90
        0
176
     1
 40
0.6
176
     1
 40
30.0
176
     1
 62
     7
420
 16777215
176
     1
 90
        1
176
     1
 90
        4
176
     1
 62
     7
176
     1
 62
   257
176
     1
 90
        1
176
     1
 90
        1
176
     1
 40
1.0
176
     1
 90
        8
176
     1
 62
     7
176
     1
 40
1.0
176
     1
 90
        1
176
     1
 90
        6
176
     1
 90
        2
176
     1
 62
     7
176
     1
 90
        5
176
     1
 90
        0
176
     1
 90
        0
176
     1
290
     0
176
     1
 90
        1
176
     1
 40
50.0
176
     1
 90
        0
176
     1
290
     0
176
     1
290
     1
176
     1
290
     1
176
     1
290
     0
176
     1
290
     0
176
     1
290
     0
176
     1
290
     0
176
     1
290
     0
176
     1
290
     0
176
     1
 90
       50
176
     1
 40
0.0
176
     1
 40
1.0
176
     1
 90
        0
176
     1
 62
    18
420
        0
176
     1
 90
       50
176
     1
 90
        3
176
     1
 62
     5
420
      255
176
     1
290
     0
176
     1
 90
       50
176
     1
 90
       50
176
     1
 90
       50
176
     1
290
     0
176
     1
 90
       50
176
     1
 62
   256
176
     0
 40
1.0
176
     0
 90
        2
176
     1
  1
strokes_ogs.tif
176
     1
290
     0
176
     1
 40
1.0
176
     1
 40
1.0
176
     1
  0
VISUALSTYLE
  5
3A
102
{ACAD_REACTORS
330
2A
102
}
330
2A
100
AcDbVisualStyle
  2
ColorChange
 70
    16
177
     3
291
     1
 70
    58
 90
        2
176
     1
 90
        2
176
     1
 90
        3
176
     1
 90
        0
176
     1
 40
0.6
176
     1
 40
30.0
176
     1
 62
     8
420
  8421504
176
     1
 90
        1
176
     1
 90
        4
176
     1
 62
     7
176
     1
 62
   257
176
     1
 90
        1
176
     1
 90
        1
176
     1
 40
1.0
176
     1
 90
        8
176
     1
 62
     8
420
  8421504
176
     1
 40
1.0
176
     1
 90
        1
176
     1
 90
        6
176
     1
 90
        2
176
     1
 62
     7
176
     1
 90
        5
176
     1
 90
        0
176
     1
 90
        0
176
     1
290
     0
176
     1
 90
        1
176
     1
 40
0.0
176
     1
 90
        0
176
     1
290
     0
176
     1
290
     1
176
     1
290
     1
176
     1
290
     0
176
     1
290
     0
176
     1
290
     0
176
     1
290
     0
176
     1
290
     0
176
     1
290
     0
176
     1
 90
       50
176
     1
 40
0.0
176
     1
 40
1.0
176
     1
 90
        0
176
     1
 62
    18
420
        0
176
     1
 90
       50
176
     1
 90
        3
176
     1
 62
     5
420
      255
176
     1
290
     0
176
     1
 90
       50
176
     1
 90
       50
176
     1
 90
       50
176
     1
290
     0
176
     1
 90
       50
176
     1
 62
   256
176
     0
 40
1.0
176
     0
 90
        2
176
     1
  1
strokes_ogs.tif
176
     1
290
     0
176
     1
 40
1.0
176
     1
 40
1.0
176
     1
  0
VISUALSTYLE
  5
34
102
{ACAD_REACTORS
330
2A
102
}
330
2A
100
AcDbVisualStyle
  2
Conceptual
 70
     9
177
     3
291
     0
 70
    58
 90
        3
176
     1
 90
        2
176
     1
 90
        0
176
     1
 90
        0
176
     1
 40
0.6
176
     1
 40
30.0
176
     1
 62
     7
420
 16777215
176
     1
 90
        2
176
     1
 90
        2
176
     1
 62
     7
176
     1
 62
   257
176
     1
 90
        1
176
     1
 90
        1
176
     1
 40
179.0
176
     1
 90
        8
176
     1
 62
     7
176
     1
 40
1.0
176
     1
 90
        1
176
     1
 90
        6
176
     1
 90
        2
176
     1
 62
     7
176
     1
 90
        3
176
     1
 90
        0
176
     1
 90
        0
176
     1
290
     0
176
     1
 90
        1
176
     1
 40
0.0
176
     1
 90
        0
176
     1
290
     0
176
     1
290
     1
176
     1
290
     1
176
     1
290
     0
176
     1
290
     0
176
     1
290
     0
176
     1
290
     0
176
     1
290
     0
176
     1
290
     0
176
     1
 90
       50
176
     1
 40
0.0
176
     1
 40
1.0
176
     1
 90
        0
176
     1
 62
    18
420
        0
176
     1
 90
       50
176
     1
 90
        3
176
     1
 62
     5
420
      255
176
     1
290
     0
176
     1
 90
       50
176
     1
 90
       50
176
     1
 90
       50
176
     1
290
     0
176
     1
 90
       50
176
     1
 62
   256
176
     0
 40
1.0
176
     0
 90
        2
176
     1
  1
strokes_ogs.tif
176
     1
290
     0
176
     1
 40
1.0
176
     1
 40
1.0
176
     1
  0
VISUALSTYLE
  5
35
102
{ACAD_REACTORS
330
2A
102
}
330
2A
100
AcDbVisualStyle
  2
Dim
 70
    11
177
     3
291
     1
 70
    58
 90
        2
176
     1
 90
        2
176
     1
 90
        0
176
     1
 90
        0
176
     1
 40
0.6
176
     1
 40
30.0
176
     1
 62
     7
420
 16777215
176
     1
 90
        1
176
     1
 90
        4
176
     1
 62
     7
176
     1
 62
   257
176
     1
 90
        1
176
     1
 90
        1
176
     1
 40
1.0
176
     1
 90
        8
176
     1
 62
     7
176
     1
 40
1.0
176
     1
 90
        1
176
     1
 90
        6
176
     1
 90
        2
176
     1
 62
     7
176
     1
 90
        5
176
     1
 90
        0
176
     1
 90
        0
176
     1
290
     0
176
     1
 90
        1
176
     1
 40
-50.0
176
     1
 90
        0
176
     1
290
     0
176
     1
290
     1
176
     1
290
     1
176
     1
290
     0
176
     1
290
     0
176
     1
290
     0
176
     1
290
     0
176
     1
290
     0
176
     1
290
     0
176
     1
 90
       50
176
     1
 40
0.0
176
     1
 40
1.0
176
     1
 90
        0
176
     1
 62
    18
420
        0
176
     1
 90
       50
176
     1
 90
        3
176
     1
 62
     5
420
      255
176
     1
290
     0
176
     1
 90
       50
176
     1
 90
       50
176
     1
 90
       50
176
     1
290
     0
176
     1
 90
       50
176
     1
 62
   256
176
     0
 40
1.0
176
     0
 90
        2
176
     1
  1
strokes_ogs.tif
176
     1
290
     0
176
     1
 40
1.0
176
     1
 40
1.0
176
     1
  0
VISUALSTYLE
  5
3D
102
{ACAD_REACTORS
330
2A
102
}
330
2A
100
AcDbVisualStyle
  2
EdgeColorOff
 70
    22
177
     3
291
     1
 70
    58
 90
        2
176
     0
 90
        2
176
     0
 90
        0
176
     0
 90
        0
176
     0
 40
0.6
176
     0
 40
30.0
176
     0
 62
     7
420
 16777215
176
     0
 90
        1
176
     0
 90
        4
176
     0
 62
     7
176
     0
 62
   257
176
     0
 90
        1
176
     0
 90
        1
176
     0
 40
1.0
176
     0
 90
        8
176
     2
 62
     7
176
     0
 40
1.0
176
     0
 90
        1
176
     0
 90
        6
176
     0
 90
        2
176
     0
 62
     7
176
     0
 90
        5
176
     0
 90
        0
176
     0
 90
        0
176
     0
290
     0
176
     0
 90
        1
176
     0
 40
0.0
176
     0
 90
        0
176
     0
290
     0
176
     0
290
     1
176
     0
290
     1
176
     0
290
     0
176
     0
290
     0
176
     0
290
     0
176
     0
290
     0
176
     0
290
     0
176
     0
290
     0
176
     0
 90
       50
176
     0
 40
0.0
176
     0
 40
1.0
176
     0
 90
        0
176
     0
 62
    18
420
        0
176
     0
 90
       50
176
     0
 90
        3
176
     0
 62
     5
420
      255
176
     0
290
     0
176
     0
 90
       50
176
     0
 90
       50
176
     0
 90
       50
176
     0
290
     0
176
     0
 90
       50
176
     0
 62
   256
176
     0
 40
1.0
176
     0
 90
        2
176
     0
  1
strokes_ogs.tif
176
     0
290
     0
176
     0
 40
1.0
176
     0
 40
1.0
176
     0
  0
VISUALSTYLE
  5
39
102
{ACAD_REACTORS
330
2A
102
}
330
2A
100
AcDbVisualStyle
  2
Facepattern
 70
    15
177
     3
291
     1
 70
    58
 90
        2
176
     1
 90
        2
176
     1
 90
        0
176
     1
 90
        0
176
     1
 40
0.6
176
     1
 40
30.0
176
     1
 62
     7
420
 16777215
176
     1
 90
        1
176
     1
 90
        4
176
     1
 62
     7
176
     1
 62
   257
176
     1
 90
        1
176
     1
 90
        1
176
     1
 40
1.0
176
     1
 90
        8
176
     1
 62
     7
176
     1
 40
1.0
176
     1
 90
        1
176
     1
 90
        6
176
     1
 90
        2
176
     1
 62
     7
176
     1
 90
        5
176
     1
 90
        0
176
     1
 90
        0
176
     1
290
     0
176
     1
 90
        1
176
     1
 40
0.0
176
     1
 90
        0
176
     1
290
     0
176
     1
290
     1
176
     1
290
     1
176
     1
290
     0
176
     1
290
     0
176
     1
290
     0
176
     1
290
     0
176
     1
290
     0
176
     1
290
     0
176
     1
 90
       50
176
     1
 40
0.0
176
     1
 40
1.0
176
     1
 90
        0
176
     1
 62
    18
420
        0
176
     1
 90
       50
176
     1
 90
        3
176
     1
 62
     5
420
      255
176
     1
290
     0
176
     1
 90
       50
176
     1
 90
       50
176
     1
 90
       50
176
     1
290
     0
176
     1
 90
       50
176
     1
 62
   256
176
     0
 40
1.0
176
     0
 90
        2
176
     1
  1
strokes_ogs.tif
176
     1
290
     0
176
     1
 40
1.0
176
     1
 40
1.0
176
     1
  0
VISUALSTYLE
  5
2B
102
{ACAD_REACTORS
330
2A
102
}
330
2A
100
AcDbVisualStyle
  2
Flat
 70
     0
177
     3
291
     1
 70
    58
 90
        2
176
     1
 90
        1
176
     1
 90
        1
176
     1
 90
        2
176
     1
 40
0.6
176
     1
 40
30.0
176
     1
 62
     7
420
 16777215
176
     1
 90
        0
176
     1
 90
        0
176
     1
 62
     7
176
     1
 62
   257
176
     1
 90
        1
176
     1
 90
        1
176
     1
 40
1.0
176
     1
 90
        8
176
     1
 62
     7
176
     1
 40
1.0
176
     1
 90
        1
176
     1
 90
        6
176
     1
 90
        2
176
     1
 62
     7
176
     1
 90
        5
176
     1
 90
        0
176
     1
 90
        0
176
     1
290
     0
176
     1
 90
       13
176
     1
 40
0.0
176
     1
 90
        0
176
     1
290
     0
176
     1
290
     1
176
     1
290
     1
176
     1
290
     0
176
     1
290
     0
176
     1
290
     0
176
     1
290
     0
176
     1
290
     0
176
     1
290
     0
176
     1
 90
       50
176
     1
 40
0.0
176
     1
 40
1.0
176
     1
 90
        0
176
     1
 62
    18
420
        0
176
     1
 90
       50
176
     1
 90
        3
176
     1
 62
     5
420
      255
176
     1
290
     0
176
     1
 90
       50
176
     1
 90
       50
176
     1
 90
       50
176
     1
290
     0
176
     1
 90
       50
176
     1
 62
   256
176
     0
 40
1.0
176
     0
 90
        2
176
     1
  1
strokes_ogs.tif
176
     1
290
     0
176
     1
 40
1.0
176
     1
 40
1.0
176
     1
  0
VISUALSTYLE
  5
2C
102
{ACAD_REACTORS
330
2A
102
}
330
2A
100
AcDbVisualStyle
  2
FlatWithEdges
 70
     1
177
     3
291
     1
 70
    58
 90
        2
176
     1
 90
        1
176
     1
 90
        1
176
     1
 90
        2
176
     1
 40
0.6
176
     1
 40
30.0
176
     1
 62
     7
420
 16777215
176
     1
 90
        1
176
     1
 90
        0
176
     1
 62
     7
176
     1
 62
   257
176
     1
 90
        1
176
     1
 90
        1
176
     1
 40
1.0
176
     1
 90
        0
176
     1
 62
   257
176
     1
 40
1.0
176
     1
 90
        1
176
     1
 90
        6
176
     1
 90
        2
176
     1
 62
     7
176
     1
 90
        5
176
     1
 90
        0
176
     1
 90
        0
176
     1
290
     0
176
     1
 90
       13
176
     1
 40
0.0
176
     1
 90
        0
176
     1
290
     0
176
     1
290
     1
176
     1
290
     1
176
     1
290
     0
176
     1
290
     0
176
     1
290
     0
176
     1
290
     0
176
     1
290
     0
176
     1
290
     0
176
     1
 90
       50
176
     1
 40
0.0
176
     1
 40
1.0
176
     1
 90
        0
176
     1
 62
    18
420
        0
176
     1
 90
       50
176
     1
 90
        3
176
     1
 62
     5
420
      255
176
     1
290
     0
176
     1
 90
       50
176
     1
 90
       50
176
     1
 90
       50
176
     1
290
     0
176
     1
 90
       50
176
     1
 62
   256
176
     0
 40
1.0
176
     0
 90
        2
176
     1
  1
strokes_ogs.tif
176
     1
290
     0
176
     1
 40
1.0
176
     1
 40
1.0
176
     1
  0
VISUALSTYLE
  5
2D
102
{ACAD_REACTORS
330
2A
102
}
330
2A
100
AcDbVisualStyle
  2
Gouraud
 70
     2
177
     3
291
     1
 70
    58
 90
        2
176
     1
 90
        2
176
     1
 90
        1
176
     1
 90
        2
176
     1
 40
0.6
176
     1
 40
30.0
176
     1
 62
     7
420
 16777215
176
     1
 90
        0
176
     1
 90
        0
176
     1
 62
     7
176
     1
 62
   257
176
     1
 90
        1
176
     1
 90
        1
176
     1
 40
1.0
176
     1
 90
        0
176
     1
 62
     7
176
     1
 40
1.0
176
     1
 90
        1
176
     1
 90
        6
176
     1
 90
        2
176
     1
 62
     7
176
     1
 90
        5
176
     1
 90
        0
176
     1
 90
        0
176
     1
290
     0
176
     1
 90
       13
176
     1
 40
0.0
176
     1
 90
        0
176
     1
290
     0
176
     1
290
     1
176
     1
290
     1
176
     1
290
     0
176
     1
290
     0
176
     1
290
     0
176
     1
290
     0
176
     1
290
     0
176
     1
290
     0
176
     1
 90
       50
176
     1
 40
0.0
176
     1
 40
1.0
176
     1
 90
        0
176
     1
 62
    18
420
        0
176
     1
 90
       50
176
     1
 90
        3
176
     1
 62
     5
420
      255
176
     1
290
     0
176
     1
 90
       50
176
     1
 90
       50
176
     1
 90
       50
176
     1
290
     0
176
     1
 90
       50
176
     1
 62
   256
176
     0
 40
1.0
176
     0
 90
        2
176
     1
  1
strokes_ogs.tif
176
     1
290
     0
176
     1
 40
1.0
176
     1
 40
1.0
176
     1
  0
VISUALSTYLE
  5
2E
102
{ACAD_REACTORS
330
2A
102
}
330
2A
100
AcDbVisualStyle
  2
GouraudWithEdges
 70
     3
177
     3
291
     1
 70
    58
 90
        2
176
     1
 90
        2
176
     1
 90
        1
176
     1
 90
        2
176
     1
 40
0.6
176
     1
 40
30.0
176
     1
 62
     7
420
 16777215
176
     1
 90
        1
176
     1
 90
        0
176
     1
 62
     7
176
     1
 62
   257
176
     1
 90
        1
176
     1
 90
        1
176
     1
 40
1.0
176
     1
 90
        0
176
     1
 62
   257
176
     1
 40
1.0
176
     1
 90
        1
176
     1
 90
        6
176
     1
 90
        2
176
     1
 62
     7
176
     1
 90
        5
176
     1
 90
        0
176
     1
 90
        0
176
     1
290
     0
176
     1
 90
       13
176
     1
 40
0.0
176
     1
 90
        0
176
     1
290
     0
176
     1
290
     1
176
     1
290
     1
176
     1
290
     0
176
     1
290
     0
176
     1
290
     0
176
     1
290
     0
176
     1
290
     0
176
     1
290
     0
176
     1
 90
       50
176
     1
 40
0.0
176
     1
 40
1.0
176
     1
 90
        0
176
     1
 62
    18
420
        0
176
     1
 90
       50
176
     1
 90
        3
176
     1
 62
     5
420
      255
176
     1
290
     0
176
     1
 90
       50
176
     1
 90
       50
176
     1
 90
       50
176
     1
290
     0
176
     1
 90
       50
176
     1
 62
   256
176
     0
 40
1.0
176
     0
 90
        2
176
     1
  1
strokes_ogs.tif
176
     1
290
     0
176
     1
 40
1.0
176
     1
 40
1.0
176
     1
  0
VISUALSTYLE
  5
31
102
{ACAD_REACTORS
330
2A
102
}
330
2A
100
AcDbVisualStyle
  2
Hidden
 70
     6
177
     3
291
     0
 70
    58
 90
        1
176
     1
 90
        2
176
     1
 90
        2
176
     1
 90
        0
176
     1
 40
0.6
176
     1
 40
30.0
176
     1
 62
     7
420
 16777215
176
     1
 90
        2
176
     1
 90
        2
176
     1
 62
     7
176
     1
 62
   257
176
     1
 90
        2
176
     1
 90
        1
176
     1
 40
40.0
176
     1
 90
        0
176
     1
 62
   257
176
     1
 40
1.0
176
     1
 90
        1
176
     1
 90
        6
176
     1
 90
        2
176
     1
 62
     7
176
     1
 90
        3
176
     1
 90
        0
176
     1
 90
        0
176
     1
290
     0
176
     1
 90
        1
176
     1
 40
0.0
176
     1
 90
        0
176
     1
290
     0
176
     1
290
     1
176
     1
290
     1
176
     1
290
     0
176
     1
290
     0
176
     1
290
     0
176
     1
290
     0
176
     1
290
     0
176
     1
290
     0
176
     1
 90
       50
176
     1
 40
0.0
176
     1
 40
1.0
176
     1
 90
        0
176
     1
 62
    18
420
        0
176
     1
 90
       50
176
     1
 90
        3
176
     1
 62
     5
420
      255
176
     1
290
     0
176
     1
 90
       50
176
     1
 90
       50
176
     1
 90
       50
176
     1
290
     0
176
     1
 90
       50
176
     1
 62
   256
176
     0
 40
1.0
176
     0
 90
        2
176
     1
  1
strokes_ogs.tif
176
     1
290
     0
176
     1
 40
1.0
176
     1
 40
1.0
176
     1
  0
VISUALSTYLE
  5
3B
102
{ACAD_REACTORS
330
2A
102
}
330
2A
100
AcDbVisualStyle
  2
JitterOff
 70
    20
177
     3
291
     1
 70
    58
 90
        2
176
     0
 90
        2
176
     0
 90
        0
176
     0
 90
        0
176
     0
 40
0.6
176
     0
 40
30.0
176
     0
 62
     7
420
 16777215
176
     0
 90
        1
176
     0
 90
        4
176
     0
 62
     7
176
     0
 62
   257
176
     0
 90
        1
176
     0
 90
        1
176
     0
 40
1.0
176
     0
 90
       10
176
     2
 62
     7
176
     0
 40
1.0
176
     0
 90
        1
176
     0
 90
        6
176
     0
 90
        2
176
     0
 62
     7
176
     0
 90
        5
176
     0
 90
        0
176
     0
 90
        0
176
     0
290
     0
176
     0
 90
        1
176
     0
 40
0.0
176
     0
 90
        0
176
     0
290
     0
176
     0
290
     1
176
     0
290
     1
176
     0
290
     0
176
     0
290
     0
176
     0
290
     0
176
     0
290
     0
176
     0
290
     0
176
     0
290
     0
176
     0
 90
       50
176
     0
 40
0.0
176
     0
 40
1.0
176
     0
 90
        0
176
     0
 62
    18
420
        0
176
     0
 90
       50
176
     0
 90
        3
176
     0
 62
     5
420
      255
176
     0
290
     0
176
     0
 90
       50
176
     0
 90
       50
176
     0
 90
       50
176
     0
290
     0
176
     0
 90
       50
176
     0
 62
   256
176
     0
 40
1.0
176
     0
 90
        2
176
     0
  1
strokes_ogs.tif
176
     0
290
     0
176
     0
 40
1.0
176
     0
 40
1.0
176
     0
  0
VISUALSTYLE
  5
38
102
{ACAD_REACTORS
330
2A
102
}
330
2A
100
AcDbVisualStyle
  2
Linepattern
 70
    14
177
     3
291
     1
 70
    58
 90
        2
176
     1
 90
        2
176
     1
 90
        0
176
     1
 90
        0
176
     1
 40
0.6
176
     1
 40
30.0
176
     1
 62
     7
420
 16777215
176
     1
 90
        1
176
     1
 90
        4
176
     1
 62
     7
176
     1
 62
   257
176
     1
 90
        7
176
     1
 90
        7
176
     1
 40
1.0
176
     1
 90
        8
176
     1
 62
     7
176
     1
 40
1.0
176
     1
 90
        1
176
     1
 90
        6
176
     1
 90
        2
176
     1
 62
     7
176
     1
 90
        5
176
     1
 90
        0
176
     1
 90
        0
176
     1
290
     0
176
     1
 90
        1
176
     1
 40
0.0
176
     1
 90
        0
176
     1
290
     0
176
     1
290
     1
176
     1
290
     1
176
     1
290
     0
176
     1
290
     0
176
     1
290
     0
176
     1
290
     0
176
     1
290
     0
176
     1
290
     0
176
     1
 90
       50
176
     1
 40
0.0
176
     1
 40
1.0
176
     1
 90
        0
176
     1
 62
    18
420
        0
176
     1
 90
       50
176
     1
 90
        3
176
     1
 62
     5
420
      255
176
     1
290
     0
176
     1
 90
       50
176
     1
 90
       50
176
     1
 90
       50
176
     1
290
     0
176
     1
 90
       50
176
     1
 62
   256
176
     0
 40
1.0
176
     0
 90
        2
176
     1
  1
strokes_ogs.tif
176
     1
290
     0
176
     1
 40
1.0
176
     1
 40
1.0
176
     1
  0
VISUALSTYLE
  5
3C
102
{ACAD_REACTORS
330
2A
102
}
330
2A
100
AcDbVisualStyle
  2
OverhangOff
 70
    21
177
     3
291
     1
 70
    58
 90
        2
176
     0
 90
        2
176
     0
 90
        0
176
     0
 90
        0
176
     0
 40
0.6
176
     0
 40
30.0
176
     0
 62
     7
420
 16777215
176
     0
 90
        1
176
     0
 90
        4
176
     0
 62
     7
176
     0
 62
   257
176
     0
 90
        1
176
     0
 90
        1
176
     0
 40
1.0
176
     0
 90
        9
176
     2
 62
     7
176
     0
 40
1.0
176
     0
 90
        1
176
     0
 90
        6
176
     0
 90
        2
176
     0
 62
     7
176
     0
 90
        5
176
     0
 90
        0
176
     0
 90
        0
176
     0
290
     0
176
     0
 90
        1
176
     0
 40
0.0
176
     0
 90
        0
176
     0
290
     0
176
     0
290
     1
176
     0
290
     1
176
     0
290
     0
176
     0
290
     0
176
     0
290
     0
176
     0
290
     0
176
     0
290
     0
176
     0
290
     0
176
     0
 90
       50
176
     0
 40
0.0
176
     0
 40
1.0
176
     0
 90
        0
176
     0
 62
    18
420
        0
176
     0
 90
       50
176
     0
 90
        3
176
     0
 62
     5
420
      255
176
     0
290
     0
176
     0
 90
       50
176
     0
 90
       50
176
     0
 90
       50
176
     0
290
     0
176
     0
 90
       50
176
     0
 62
   256
176
     0
 40
1.0
176
     0
 90
        2
176
     0
  1
strokes_ogs.tif
176
     0
290
     0
176
     0
 40
1.0
176
     0
 40
1.0
176
     0
  0
VISUALSTYLE
  5
33
102
{ACAD_REACTORS
330
2A
102
}
330
2A
100
AcDbVisualStyle
  2
Realistic
 70
     8
177
     3
291
     0
 70
    58
 90
        2
176
     1
 90
        3
176
     1
 90
        0
176
     1
 90
        2
176
     1
 40
0.6
176
     1
 40
30.0
176
     1
 62
     7
420
 16777215
176
     1
 90
        0
176
     1
 90
        0
176
     1
 62
     7
176
     1
 62
   257
176
     1
 90
        1
176
     1
 90
        1
176
     1
 40
1.0
176
     1
 90
        8
176
     1
 62
   257
176
     1
 40
1.0
176
     1
 90
        1
176
     1
 90
        6
176
     1
 90
        2
176
     1
 62
     7
176
     1
 90
        3
176
     1
 90
        0
176
     1
 90
        0
176
     1
290
     0
176
     1
 90
       13
176
     1
 40
0.0
176
     1
 90
        0
176
     1
290
     0
176
     1
290
     1
176
     1
290
     1
176
     1
290
     0
176
     1
290
     0
176
     1
290
     0
176
     1
290
     0
176
     1
290
     0
176
     1
290
     0
176
     1
 90
       50
176
     1
 40
0.0
176
     1
 40
1.0
176
     1
 90
        0
176
     1
 62
    18
420
        0
176
     1
 90
       50
176
     1
 90
        3
176
     1
 62
     5
420
      255
176
     1
290
     0
176
     1
 90
       50
176
     1
 90
       50
176
     1
 90
       50
176
     1
290
     0
176
     1
 90
       50
176
     1
 62
   256
176
     0
 40
1.0
176
     0
 90
        2
176
     1
  1
strokes_ogs.tif
176
     1
290
     0
176
     1
 40
1.0
176
     1
 40
1.0
176
     1
  0
VISUALSTYLE
  5
42
102
{ACAD_REACTORS
330
2A
102
}
330
2A
100
AcDbVisualStyle
  2
Shaded
 70
    27
177
     3
291
     0
 70
    58
 90
        2
176
     1
 90
        2
176
     1
 90
        1
176
     1
 90
        2
176
     1
 40
0.6
176
     1
 40
30.0
176
     1
 62
     7
420
 16777215
176
     1
 90
        0
176
     1
 90
        4
176
     1
 62
     7
176
     1
 62
   257
176
     1
 90
        1
176
     1
 90
        1
176
     1
 40
1.0
176
     1
 90
        8
176
     1
 62
   257
176
     1
 40
1.0
176
     1
 90
        1
176
     1
 90
        6
176
     1
 90
        2
176
     1
 62
     8
420
  7895160
176
     1
 90
        3
176
     1
 90
        0
176
     1
 90
        0
176
     1
290
     0
176
     1
 90
        5
176
     1
 40
0.0
176
     1
 90
        0
176
     1
290
     0
176
     1
290
     1
176
     1
290
     1
176
     1
290
     0
176
     1
290
     0
176
     1
290
     0
176
     1
290
     0
176
     1
290
     0
176
     1
290
     0
176
     1
 90
       50
176
     1
 40
0.0
176
     1
 40
1.0
176
     1
 90
        0
176
     1
 62
    18
420
        0
176
     1
 90
       50
176
     1
 90
        3
176
     1
 62
     5
420
      255
176
     1
290
     0
176
     1
 90
       50
176
     1
 90
       50
176
     1
 90
       50
176
     1
290
     0
176
     1
 90
       50
176
     1
 62
   256
176
     0
 40
1.0
176
     0
 90
        2
176
     1
  1
strokes_ogs.tif
176
     1
290
     0
176
     1
 40
1.0
176
     1
 40
1.0
176
     1
  0
VISUALSTYLE
  5
41
102
{ACAD_REACTORS
330
2A
102
}
330
2A
100
AcDbVisualStyle
  2
Shaded with edges
 70
    26
177
     3
291
     0
 70
    58
 90
        2
176
     1
 90
        2
176
     1
 90
        1
176
     1
 90
        2
176
     1
 40
0.6
176
     1
 40
30.0
176
     1
 62
     7
420
 16777215
176
     1
 90
        1
176
     1
 90
       10
176
     1
 62
     7
176
     1
 62
   257
176
     1
 90
        2
176
     1
 90
        1
176
     1
 40
1.0
176
     1
 90
        8
176
     1
 62
   257
176
     1
 40
1.0
176
     1
 90
        1
176
     1
 90
        6
176
     1
 90
        2
176
     1
 62
     7
176
     1
 90
        3
176
     1
 90
        0
176
     1
 90
        0
176
     1
290
     0
176
     1
 90
        5
176
     1
 40
0.0
176
     1
 90
        0
176
     1
290
     0
176
     1
290
     1
176
     1
290
     1
176
     1
290
     0
176
     1
290
     0
176
     1
290
     0
176
     1
290
     0
176
     1
290
     0
176
     1
290
     0
176
     1
 90
       50
176
     1
 40
0.0
176
     1
 40
1.0
176
     1
 90
        0
176
     1
 62
    18
420
        0
176
     1
 90
       50
176
     1
 90
        3
176
     1
 62
     5
420
      255
176
     1
290
     0
176
     1
 90
       50
176
     1
 90
       50
176
     1
 90
       50
176
     1
290
     0
176
     1
 90
       50
176
     1
 62
   256
176
     0
 40
1.0
176
     0
 90
        2
176
     1
  1
strokes_ogs.tif
176
     1
290
     0
176
     1
 40
1.0
176
     1
 40
1.0
176
     1
  0
VISUALSTYLE
  5
3E
102
{ACAD_REACTORS
330
2A
102
}
330
2A
100
AcDbVisualStyle
  2
Shades of Gray
 70
    23
177
     3
291
     0
 70
    58
 90
        2
176
     1
 90
        2
176
     1
 90
        3
176
     1
 90
        0
176
     1
 40
0.6
176
     1
 40
30.0
176
     1
 62
     7
420
 16777215
176
     1
 90
        2
176
     1
 90
        2
176
     1
 62
     7
176
     1
 62
     7
176
     1
 90
        1
176
     1
 90
        1
176
     1
 40
40.0
176
     1
 90
        8
176
     1
 62
     7
176
     1
 40
1.0
176
     1
 90
        1
176
     1
 90
        6
176
     1
 90
        2
176
     1
 62
     7
176
     1
 90
        3
176
     1
 90
        0
176
     1
 90
        0
176
     1
290
     0
176
     1
 90
        1
176
     1
 40
0.0
176
     1
 90
        0
176
     1
290
     0
176
     1
290
     1
176
     1
290
     1
176
     1
290
     0
176
     1
290
     0
176
     1
290
     0
176
     1
290
     0
176
     1
290
     0
176
     1
290
     0
176
     1
 90
       50
176
     1
 40
0.0
176
     1
 40
1.0
176
     1
 90
        0
176
     1
 62
    18
420
        0
176
     1
 90
       50
176
     1
 90
        3
176
     1
 62
     5
420
      255
176
     1
290
     0
176
     1
 90
       50
176
     1
 90
       50
176
     1
 90
       50
176
     1
290
     0
176
     1
 90
       50
176
     1
 62
   256
176
     0
 40
1.0
176
     0
 90
        2
176
     1
  1
strokes_ogs.tif
176
     1
290
     0
176
     1
 40
1.0
176
     1
 40
1.0
176
     1
  0
VISUALSTYLE
  5
3F
102
{ACAD_REACTORS
330
2A
102
}
330
2A
100
AcDbVisualStyle
  2
Sketchy
 70
    24
177
     3
291
     0
 70
    58
 90
        1
176
     1
 90
        2
176
     1
 90
        2
176
     1
 90
        0
176
     1
 40
0.6
176
     1
 40
30.0
176
     1
 62
     7
420
 16777215
176
     1
 90
        2
176
     1
 90
        2
176
     1
 62
     7
176
     1
 62
     7
176
     1
 90
        1
176
     1
 90
        1
176
     1
 40
40.0
176
     1
 90
       11
176
     1
 62
     7
176
     1
 40
1.0
176
     1
 90
        1
176
     1
 90
        6
176
     1
 90
        2
176
     1
 62
     7
176
     1
 90
        6
176
     1
 90
        0
176
     1
 90
        0
176
     1
290
     0
176
     1
 90
        1
176
     1
 40
0.0
176
     1
 90
        0
176
     1
290
     0
176
     1
290
     1
176
     1
290
     1
176
     1
290
     0
176
     1
290
     0
176
     1
290
     0
176
     1
290
     0
176
     1
290
     0
176
     1
290
     0
176
     1
 90
       50
176
     1
 40
0.0
176
     1
 40
1.0
176
     1
 90
        0
176
     1
 62
    18
420
        0
176
     1
 90
       50
176
     1
 90
        3
176
     1
 62
     5
420
      255
176
     1
290
     0
176
     1
 90
       50
176
     1
 90
       50
176
     1
 90
       50
176
     1
290
     0
176
     1
 90
       50
176
     1
 62
   256
176
     0
 40
1.0
176
     0
 90
        2
176
     1
  1
strokes_ogs.tif
176
     1
290
     0
176
     1
 40
1.0
176
     1
 40
1.0
176
     1
  0
VISUALSTYLE
  5
37
102
{ACAD_REACTORS
330
2A
102
}
330
2A
100
AcDbVisualStyle
  2
Thicken
 70
    13
177
     3
291
     1
 70
    58
 90
        2
176
     1
 90
        2
176
     1
 90
        0
176
     1
 90
        0
176
     1
 40
0.6
176
     1
 40
30.0
176
     1
 62
     7
420
 16777215
176
     1
 90
        1
176
     1
 90
        4
176
     1
 62
     7
176
     1
 62
   257
176
     1
 90
        1
176
     1
 90
        1
176
     1
 40
1.0
176
     1
 90
       12
176
     1
 62
     7
176
     1
 40
1.0
176
     1
 90
        1
176
     1
 90
        6
176
     1
 90
        2
176
     1
 62
     7
176
     1
 90
        5
176
     1
 90
        0
176
     1
 90
        0
176
     1
290
     0
176
     1
 90
        1
176
     1
 40
0.0
176
     1
 90
        0
176
     1
290
     0
176
     1
290
     1
176
     1
290
     1
176
     1
290
     0
176
     1
290
     0
176
     1
290
     0
176
     1
290
     0
176
     1
290
     0
176
     1
290
     0
176
     1
 90
       50
176
     1
 40
0.0
176
     1
 40
1.0
176
     1
 90
        0
176
     1
 62
    18
420
        0
176
     1
 90
       50
176
     1
 90
        3
176
     1
 62
     5
420
      255
176
     1
290
     0
176
     1
 90
       50
176
     1
 90
       50
176
     1
 90
       50
176
     1
290
     0
176
     1
 90
       50
176
     1
 62
   256
176
     0
 40
1.0
176
     0
 90
        2
176
     1
  1
strokes_ogs.tif
176
     1
290
     0
176
     1
 40
1.0
176
     1
 40
1.0
176
     1
  0
VISUALSTYLE
  5
30
102
{ACAD_REACTORS
330
2A
102
}
330
2A
100
AcDbVisualStyle
  2
Wireframe
 70
     5
177
     3
291
     0
 70
    58
 90
        0
176
     1
 90
        2
176
     1
 90
        0
176
     1
 90
        0
176
     1
 40
0.6
176
     1
 40
30.0
176
     1
 62
     7
420
 16777215
176
     1
 90
        1
176
     1
 90
        4
176
     1
 62
     7
176
     1
 62
   257
176
     1
 90
        1
176
     1
 90
        1
176
     1
 40
1.0
176
     1
 90
        0
176
     1
 62
   257
176
     1
 40
1.0
176
     1
 90
        1
176
     1
 90
        6
176
     1
 90
        2
176
     1
 62
     7
176
     1
 90
        3
176
     1
 90
        0
176
     1
 90
        0
176
     1
290
     0
176
     1
 90
        1
176
     1
 40
0.0
176
     1
 90
        0
176
     1
290
     0
176
     1
290
     1
176
     1
290
     1
176
     1
290
     0
176
     1
290
     0
176
     1
290
     0
176
     1
290
     0
176
     1
290
     0
176
     1
290
     0
176
     1
 90
       50
176
     1
 40
0.0
176
     1
 40
1.0
176
     1
 90
        0
176
     1
 62
    18
420
        0
176
     1
 90
       50
176
     1
 90
        3
176
     1
 62
     5
420
      255
176
     1
290
     0
176
     1
 90
       50
176
     1
 90
       50
176
     1
 90
       50
176
     1
290
     0
176
     1
 90
       50
176
     1
 62
   256
176
     0
 40
1.0
176
     0
 90
        2
176
     1
  1
strokes_ogs.tif
176
     1
290
     0
176
     1
 40
1.0
176
     1
 40
1.0
176
     1
  0
VISUALSTYLE
  5
40
102
{ACAD_REACTORS
330
2A
102
}
330
2A
100
AcDbVisualStyle
  2
X-Ray
 70
    25
177
     3
291
     0
 70
    58
 90
        2
176
     1
 90
        2
176
     1
 90
        1
176
     1
 90
        1
176
     1
 40
0.5
176
     1
 40
30.0
176
     1
 62
     7
420
 16777215
176
     1
 90
        1
176
     1
 90
        0
176
     1
 62
     7
176
     1
 62
   257
176
     1
 90
        1
176
     1
 90
        1
176
     1
 40
1.0
176
     1
 90
        8
176
     1
 62
     7
176
     1
 40
1.0
176
     1
 90
        1
176
     1
 90
        6
176
     1
 90
        2
176
     1
 62
     7
176
     1
 90
        3
176
     1
 90
        0
176
     1
 90
        0
176
     1
290
     0
176
     1
 90
       13
176
     1
 40
0.0
176
     1
 90
        0
176
     1
290
     0
176
     1
290
     1
176
     1
290
     1
176
     1
290
     0
176
     1
290
     0
176
     1
290
     0
176
     1
290
     0
176
     1
290
     0
176
     1
290
     0
176
     1
 90
       50
176
     1
 40
0.0
176
     1
 40
1.0
176
     1
 90
        0
176
     1
 62
    18
420
        0
176
     1
 90
       50
176
     1
 90
        3
176
     1
 62
     5
420
      255
176
     1
290
     0
176
     1
 90
       50
176
     1
 90
       50
176
     1
 90
       50
176
     1
290
     0
176
     1
 90
       50
176
     1
 62
   256
176
     0
 40
1.0
176
     0
 90
        2
176
     1
  1
strokes_ogs.tif
176
     1
290
     0
176
     1
 40
1.0
176
     1
 40
1.0
176
     1
  0
DICTIONARYVAR
  5
27A
102
{ACAD_REACTORS
330
279
102
}
330
279
100
DictionaryVariables
280
     0
  1
1:1
  0
DICTIONARYVAR
  5
27F
102
{ACAD_REACTORS
330
279
102
}
330
279
100
DictionaryVariables
280
     0
  1
Standard
  0
DICTIONARYVAR
  5
27E
102
{ACAD_REACTORS
330
279
102
}
330
279
100
DictionaryVariables
280
     0
  1
Standard
  0
DICTIONARY
  5
27B
330
6A
100
AcDbDictionary
280
     1
281
     1
  3
ACAD_ROUNDTRIP_2008_TABLESTYLE_CELLSTYLEMAP
360
27C
  0
CELLSTYLEMAP
  5
27C
102
{ACAD_REACTORS
330
27B
102
}
330
27B
100
AcDbCellStyleMap
 90
        3
300
CELLSTYLE
  1
TABLEFORMAT_BEGIN
 90
        5
170
     1
 91
        0
 92
    32768
 62
   257
 93
        1
300
CONTENTFORMAT
  1
CONTENTFORMAT_BEGIN
 90
        0
 91
        0
 92
        4
 93
        0
300

 40
0.0
140
1.0
 94
        5
 62
     0
340
11
144
0.25
309
CONTENTFORMAT_END
171
     1
301
MARGIN
  1
CELLMARGIN_BEGIN
 40
0.06
 40
0.06
 40
0.06
 40
0.06
 40
0.06
 40
0.06
309
CELLMARGIN_END
 94
        6
 95
        1
302
GRIDFORMAT
  1
GRIDFORMAT_BEGIN
 90
        0
 91
        1
 62
     0
 92
       -2
340
14
 93
        0
 40
0.045
309
GRIDFORMAT_END
 95
        2
302
GRIDFORMAT
  1
GRIDFORMAT_BEGIN
 90
        0
 91
        1
 62
     0
 92
       -2
340
14
 93
        0
 40
0.045
309
GRIDFORMAT_END
 95
        4
302
GRIDFORMAT
  1
GRIDFORMAT_BEGIN
 90
        0
 91
        1
 62
     0
 92
       -2
340
14
 93
        0
 40
0.045
309
GRIDFORMAT_END
 95
        8
302
GRIDFORMAT
  1
GRIDFORMAT_BEGIN
 90
        0
 91
        1
 62
     0
 92
       -2
340
14
 93
        0
 40
0.045
309
GRIDFORMAT_END
 95
       16
302
GRIDFORMAT
  1
GRIDFORMAT_BEGIN
 90
        0
 91
        1
 62
     0
 92
       -2
340
14
 93
        0
 40
0.045
309
GRIDFORMAT_END
 95
       32
302
GRIDFORMAT
  1
GRIDFORMAT_BEGIN
 90
        0
 91
        1
 62
     0
 92
       -2
340
14
 93
        0
 40
0.045
309
GRIDFORMAT_END
309
TABLEFORMAT_END
  1
CELLSTYLE_BEGIN
 90
        1
 91
        1
300
_TITLE
309
CELLSTYLE_END
300
CELLSTYLE
  1
TABLEFORMAT_BEGIN
 90
        5
170
     1
 91
        0
 92
        0
 62
   257
 93
        1
300
CONTENTFORMAT
  1
CONTENTFORMAT_BEGIN
 90
        0
 91
        0
 92
        4
 93
        0
300

 40
0.0
140
1.0
 94
        5
 62
     0
340
11
144
0.18
309
CONTENTFORMAT_END
171
     1
301
MARGIN
  1
CELLMARGIN_BEGIN
 40
0.06
 40
0.06
 40
0.06
 40
0.06
 40
0.06
 40
0.06
309
CELLMARGIN_END
 94
        6
 95
        1
302
GRIDFORMAT
  1
GRIDFORMAT_BEGIN
 90
        0
 91
        1
 62
     0
 92
       -2
340
14
 93
        0
 40
0.045
309
GRIDFORMAT_END
 95
        2
302
GRIDFORMAT
  1
GRIDFORMAT_BEGIN
 90
        0
 91
        1
 62
     0
 92
       -2
340
14
 93
        0
 40
0.045
309
GRIDFORMAT_END
 95
        4
302
GRIDFORMAT
  1
GRIDFORMAT_BEGIN
 90
        0
 91
        1
 62
     0
 92
       -2
340
14
 93
        0
 40
0.045
309
GRIDFORMAT_END
 95
        8
302
GRIDFORMAT
  1
GRIDFORMAT_BEGIN
 90
        0
 91
        1
 62
     0
 92
       -2
340
14
 93
        0
 40
0.045
309
GRIDFORMAT_END
 95
       16
302
GRIDFORMAT
  1
GRIDFORMAT_BEGIN
 90
        0
 91
        1
 62
     0
 92
       -2
340
14
 93
        0
 40
0.045
309
GRIDFORMAT_END
 95
       32
302
GRIDFORMAT
  1
GRIDFORMAT_BEGIN
 90
        0
 91
        1
 62
     0
 92
       -2
340
14
 93
        0
 40
0.045
309
GRIDFORMAT_END
309
TABLEFORMAT_END
  1
CELLSTYLE_BEGIN
 90
        2
 91
        1
300
_HEADER
309
CELLSTYLE_END
300
CELLSTYLE
  1
TABLEFORMAT_BEGIN
 90
        5
170
     1
 91
        0
 92
        0
 62
   257
 93
        1
300
CONTENTFORMAT
  1
CONTENTFORMAT_BEGIN
 90
        0
 91
        0
 92
        4
 93
        0
300

 40
0.0
140
1.0
 94
        2
 62
     0
340
11
144
0.18
309
CONTENTFORMAT_END
171
     1
301
MARGIN
  1
CELLMARGIN_BEGIN
 40
0.06
 40
0.06
 40
0.06
 40
0.06
 40
0.06
 40
0.06
309
CELLMARGIN_END
 94
        6
 95
        1
302
GRIDFORMAT
  1
GRIDFORMAT_BEGIN
 90
        0
 91
        1
 62
     0
 92
       -2
340
14
 93
        0
 40
0.045
309
GRIDFORMAT_END
 95
        2
302
GRIDFORMAT
  1
GRIDFORMAT_BEGIN
 90
        0
 91
        1
 62
     0
 92
       -2
340
14
 93
        0
 40
0.045
309
GRIDFORMAT_END
 95
        4
302
GRIDFORMAT
  1
GRIDFORMAT_BEGIN
 90
        0
 91
        1
 62
     0
 92
       -2
340
14
 93
        0
 40
0.045
309
GRIDFORMAT_END
 95
        8
302
GRIDFORMAT
  1
GRIDFORMAT_BEGIN
 90
        0
 91
        1
 62
     0
 92
       -2
340
14
 93
        0
 40
0.045
309
GRIDFORMAT_END
 95
       16
302
GRIDFORMAT
  1
GRIDFORMAT_BEGIN
 90
        0
 91
        1
 62
     0
 92
       -2
340
14
 93
        0
 40
0.045
309
GRIDFORMAT_END
 95
       32
302
GRIDFORMAT
  1
GRIDFORMAT_BEGIN
 90
        0
 91
        1
 62
     0
 92
       -2
340
14
 93
        0
 40
0.045
309
GRIDFORMAT_END
309
TABLEFORMAT_END
  1
CELLSTYLE_BEGIN
 90
        3
 91
        2
300
_DATA
309
CELLSTYLE_END
  0
ENDSEC
  0
EOF