0
SECTION
  2
HEADER
  9
$ACADVER
  1
AC1027
  9
$ACADMAINTVER
 70
     8
  9
$DWGCODEPAGE
  3
ANSI_1252
  9
$REQUIREDVERSIONS
160
                 0
  9
$COMMENTS
  1
File was created by Cadenas
  9
$CUSTOMPROPERTYTAG
  1
NN
  9
$CUSTOMPROPERTY
  1
Imperial - IP Pillow Block with Type E Dimensions 2-1/4 thru 7 inch 4-Bolt Labyrinth Seal Expansion
  9
$CUSTOMPROPERTYTAG
  1
NT
  9
$CUSTOMPROPERTY
  1
Imperial/E 4 Bolt Piliow Block Bearings
  9
$CUSTOMPROPERTYTAG
  1
NB
  9
$CUSTOMPROPERTY
  1
071244
  9
$CUSTOMPROPERTYTAG
  1
NBSYN
  9
$CUSTOMPROPERTY
  1
$PN.
  9
$CUSTOMPROPERTYTAG
  1
LINA
  9
$CUSTOMPROPERTY
  1
071244
  9
$CUSTOMPROPERTYTAG
  1
SS
  9
$CUSTOMPROPERTY
  1
3
  9
$CUSTOMPROPERTYTAG
  1
TYPE
  9
$CUSTOMPROPERTY
  1
Non-Expansion
  9
$CUSTOMPROPERTYTAG
  1
PN
  9
$CUSTOMPROPERTY
  1
071244
  9
$CUSTOMPROPERTYTAG
  1
DESCRIPTION
  9
$CUSTOMPROPERTY
  1
EP4B-IP-300L
  9
$CUSTOMPROPERTYTAG
  1
ST
  9
$CUSTOMPROPERTY
  1
Labyrinth Seal
  9
$CUSTOMPROPERTYTAG
  1
A
  9
$CUSTOMPROPERTY
  1
3.5
  9
$CUSTOMPROPERTYTAG
  1
B
  9
$CUSTOMPROPERTY
  1
12
  9
$CUSTOMPROPERTYTAG
  1
C
  9
$CUSTOMPROPERTY
  1
4
  9
$CUSTOMPROPERTYTAG
  1
DMIN
  9
$CUSTOMPROPERTY
  1
9.18
  9
$CUSTOMPROPERTYTAG
  1
DMAX
  9
$CUSTOMPROPERTY
  1
9.82
  9
$CUSTOMPROPERTYTAG
  1
E
  9
$CUSTOMPROPERTY
  1
2.13
  9
$CUSTOMPROPERTYTAG
  1
F
  9
$CUSTOMPROPERTY
  1
5/8
  9
$CUSTOMPROPERTYTAG
  1
G
  9
$CUSTOMPROPERTY
  1
1
  9
$CUSTOMPROPERTYTAG
  1
H
  9
$CUSTOMPROPERTY
  1
1.88
  9
$CUSTOMPROPERTYTAG
  1
J
  9
$CUSTOMPROPERTY
  1
6.33
  9
$CUSTOMPROPERTYTAG
  1
L
  9
$CUSTOMPROPERTY
  1
4.28
  9
$CUSTOMPROPERTYTAG
  1
M
  9
$CUSTOMPROPERTY
  1
3.125
  9
$CUSTOMPROPERTYTAG
  1
R
  9
$CUSTOMPROPERTY
  1
1.35
  9
$CUSTOMPROPERTYTAG
  1
S
  9
$CUSTOMPROPERTY
  1
2.15
  9
$CUSTOMPROPERTYTAG
  1
X
  9
$CUSTOMPROPERTY
  1
0.25
  9
$CUSTOMPROPERTYTAG
  1
Y
  9
$CUSTOMPROPERTY
  1
0.025
  9
$CUSTOMPROPERTYTAG
  1
Z
  9
$CUSTOMPROPERTY
  1
3.47
  9
$CUSTOMPROPERTYTAG
  1
COMPANY
  9
$CUSTOMPROPERTY
  1
baldor
  9
$INSBASE
 10
0.0
 20
0.0
 30
0.0
  9
$EXTMIN
 10
1.000000000000000E+20
 20
1.000000000000000E+20
 30
1.000000000000000E+20
  9
$EXTMAX
 10
-1.000000000000000E+20
 20
-1.000000000000000E+20
 30
-1.000000000000000E+20
  9
$LIMMIN
 10
0.0
 20
0.0
  9
$LIMMAX
 10
12.0
 20
9.0
  9
$ORTHOMODE
 70
     0
  9
$REGENMODE
 70
     1
  9
$FILLMODE
 70
     1
  9
$QTEXTMODE
 70
     0
  9
$MIRRTEXT
 70
     1
  9
$LTSCALE
 40
1.0
  9
$ATTMODE
 70
     1
  9
$TEXTSIZE
 40
0.2
  9
$TRACEWID
 40
0.05
  9
$TEXTSTYLE
  7
Standard
  9
$CLAYER
  8
0
  9
$CELTYPE
  6
ByLayer
  9
$CECOLOR
 62
   256
  9
$CELTSCALE
 40
1.0
  9
$DISPSILH
 70
     0
  9
$DIMSCALE
 40
1.0
  9
$DIMASZ
 40
0.18
  9
$DIMEXO
 40
0.0625
  9
$DIMDLI
 40
0.38
  9
$DIMRND
 40
0.0
  9
$DIMDLE
 40
0.0
  9
$DIMEXE
 40
0.18
  9
$DIMTP
 40
0.0
  9
$DIMTM
 40
0.0
  9
$DIMTXT
 40
0.18
  9
$DIMCEN
 40
0.09
  9
$DIMTSZ
 40
0.0
  9
$DIMTOL
 70
     0
  9
$DIMLIM
 70
     0
  9
$DIMTIH
 70
     1
  9
$DIMTOH
 70
     1
  9
$DIMSE1
 70
     0
  9
$DIMSE2
 70
     0
  9
$DIMTAD
 70
     0
  9
$DIMZIN
 70
     0
  9
$DIMBLK
  1

  9
$DIMASO
 70
     1
  9
$DIMSHO
 70
     1
  9
$DIMPOST
  1

  9
$DIMAPOST
  1

  9
$DIMALT
 70
     0
  9
$DIMALTD
 70
     2
  9
$DIMALTF
 40
25.4
  9
$DIMLFAC
 40
1.0
  9
$DIMTOFL
 70
     0
  9
$DIMTVP
 40
0.0
  9
$DIMTIX
 70
     0
  9
$DIMSOXD
 70
     0
  9
$DIMSAH
 70
     0
  9
$DIMBLK1
  1

  9
$DIMBLK2
  1

  9
$DIMSTYLE
  2
Standard
  9
$DIMCLRD
 70
     0
  9
$DIMCLRE
 70
     0
  9
$DIMCLRT
 70
     0
  9
$DIMTFAC
 40
1.0
  9
$DIMGAP
 40
0.09
  9
$DIMJUST
 70
     0
  9
$DIMSD1
 70
     0
  9
$DIMSD2
 70
     0
  9
$DIMTOLJ
 70
     1
  9
$DIMTZIN
 70
     0
  9
$DIMALTZ
 70
     0
  9
$DIMALTTZ
 70
     0
  9
$DIMUPT
 70
     0
  9
$DIMDEC
 70
     4
  9
$DIMTDEC
 70
     4
  9
$DIMALTU
 70
     2
  9
$DIMALTTD
 70
     2
  9
$DIMTXSTY
  7
Standard
  9
$DIMAUNIT
 70
     0
  9
$DIMADEC
 70
     0
  9
$DIMALTRND
 40
0.0
  9
$DIMAZIN
 70
     0
  9
$DIMDSEP
 70
    46
  9
$DIMATFIT
 70
     3
  9
$DIMFRAC
 70
     0
  9
$DIMLDRBLK
  1

  9
$DIMLUNIT
 70
     2
  9
$DIMLWD
 70
    -2
  9
$DIMLWE
 70
    -2
  9
$DIMTMOVE
 70
     0
  9
$DIMFXL
 40
1.0
  9
$DIMFXLON
 70
     0
  9
$DIMJOGANG
 40
0.7853981633974483
  9
$DIMTFILL
 70
     0
  9
$DIMTFILLCLR
 70
     0
  9
$DIMARCSYM
 70
     0
  9
$DIMLTYPE
  6

  9
$DIMLTEX1
  6

  9
$DIMLTEX2
  6

  9
$DIMTXTDIRECTION
 70
     0
  9
$LUNITS
 70
     2
  9
$LUPREC
 70
     4
  9
$SKETCHINC
 40
0.1
  9
$FILLETRAD
 40
0.5
  9
$AUNITS
 70
     0
  9
$AUPREC
 70
     0
  9
$MENU
  1
.
  9
$ELEVATION
 40
0.0
  9
$PELEVATION
 40
0.0
  9
$THICKNESS
 40
0.0
  9
$LIMCHECK
 70
     0
  9
$CHAMFERA
 40
0.0
  9
$CHAMFERB
 40
0.0
  9
$CHAMFERC
 40
0.0
  9
$CHAMFERD
 40
0.0
  9
$SKPOLY
 70
     0
  9
$TDCREATE
 40
2458168.982464595
  9
$TDUCREATE
 40
2458168.940797928
  9
$TDUPDATE
 40
2458168.982464768
  9
$TDUUPDATE
 40
2458168.940798102
  9
$TDINDWG
 40
0.0000000116
  9
$TDUSRTIMER
 40
0.0000000116
  9
$USRTIMER
 70
     1
  9
$ANGBASE
 50
0.0
  9
$ANGDIR
 70
     0
  9
$PDMODE
 70
     0
  9
$PDSIZE
 40
0.0
  9
$PLINEWID
 40
0.0
  9
$SPLFRAME
 70
     0
  9
$SPLINETYPE
 70
     6
  9
$SPLINESEGS
 70
     8
  9
$HANDSEED
  5
270
  9
$SURFTAB1
 70
     6
  9
$SURFTAB2
 70
     6
  9
$SURFTYPE
 70
     6
  9
$SURFU
 70
     6
  9
$SURFV
 70
     6
  9
$UCSBASE
  2

  9
$UCSNAME
  2

  9
$UCSORG
 10
0.0
 20
0.0
 30
0.0
  9
$UCSXDIR
 10
1.0
 20
0.0
 30
0.0
  9
$UCSYDIR
 10
0.0
 20
1.0
 30
0.0
  9
$UCSORTHOREF
  2

  9
$UCSORTHOVIEW
 70
     0
  9
$UCSORGTOP
 10
0.0
 20
0.0
 30
0.0
  9
$UCSORGBOTTOM
 10
0.0
 20
0.0
 30
0.0
  9
$UCSORGLEFT
 10
0.0
 20
0.0
 30
0.0
  9
$UCSORGRIGHT
 10
0.0
 20
0.0
 30
0.0
  9
$UCSORGFRONT
 10
0.0
 20
0.0
 30
0.0
  9
$UCSORGBACK
 10
0.0
 20
0.0
 30
0.0
  9
$PUCSBASE
  2

  9
$PUCSNAME
  2

  9
$PUCSORG
 10
0.0
 20
0.0
 30
0.0
  9
$PUCSXDIR
 10
1.0
 20
0.0
 30
0.0
  9
$PUCSYDIR
 10
0.0
 20
1.0
 30
0.0
  9
$PUCSORTHOREF
  2

  9
$PUCSORTHOVIEW
 70
     0
  9
$PUCSORGTOP
 10
0.0
 20
0.0
 30
0.0
  9
$PUCSORGBOTTOM
 10
0.0
 20
0.0
 30
0.0
  9
$PUCSORGLEFT
 10
0.0
 20
0.0
 30
0.0
  9
$PUCSORGRIGHT
 10
0.0
 20
0.0
 30
0.0
  9
$PUCSORGFRONT
 10
0.0
 20
0.0
 30
0.0
  9
$PUCSORGBACK
 10
0.0
 20
0.0
 30
0.0
  9
$USERI1
 70
     0
  9
$USERI2
 70
     0
  9
$USERI3
 70
     0
  9
$USERI4
 70
     0
  9
$USERI5
 70
     0
  9
$USERR1
 40
0.0
  9
$USERR2
 40
0.0
  9
$USERR3
 40
0.0
  9
$USERR4
 40
0.0
  9
$USERR5
 40
0.0
  9
$WORLDVIEW
 70
     1
  9
$SHADEDGE
 70
     3
  9
$SHADEDIF
 70
    70
  9
$TILEMODE
 70
     1
  9
$MAXACTVP
 70
    64
  9
$PINSBASE
 10
0.0
 20
0.0
 30
0.0
  9
$PLIMCHECK
 70
     0
  9
$PEXTMIN
 10
1.000000000000000E+20
 20
1.000000000000000E+20
 30
1.000000000000000E+20
  9
$PEXTMAX
 10
-1.000000000000000E+20
 20
-1.000000000000000E+20
 30
-1.000000000000000E+20
  9
$PLIMMIN
 10
0.0
 20
0.0
  9
$PLIMMAX
 10
12.0
 20
9.0
  9
$UNITMODE
 70
     0
  9
$VISRETAIN
 70
     1
  9
$PLINEGEN
 70
     0
  9
$PSLTSCALE
 70
     1
  9
$TREEDEPTH
 70
  3020
  9
$CMLSTYLE
  2
Standard
  9
$CMLJUST
 70
     0
  9
$CMLSCALE
 40
1.0
  9
$PROXYGRAPHICS
 70
     1
  9
$MEASUREMENT
 70
     0
  9
$CELWEIGHT
370
    -1
  9
$ENDCAPS
280
     0
  9
$JOINSTYLE
280
     0
  9
$LWDISPLAY
290
     0
  9
$INSUNITS
 70
     1
  9
$HYPERLINKBASE
  1

  9
$STYLESHEET
  1

  9
$XEDIT
290
     1
  9
$CEPSNTYPE
380
     0
  9
$PSTYLEMODE
290
     1
  9
$FINGERPRINTGUID
  2
{943F834C-D4A0-4BD9-BF46-AB56825F2AD8}
  9
$VERSIONGUID
  2
{FAEB1C32-E019-11D5-929B-00C0DF256EC4}
  9
$EXTNAMES
290
     1
  9
$PSVPSCALE
 40
0.0
  9
$OLESTARTUP
290
     0
  9
$SORTENTS
280
   127
  9
$INDEXCTL
280
     0
  9
$HIDETEXT
280
     1
  9
$XCLIPFRAME
280
     2
  9
$HALOGAP
280
     0
  9
$OBSCOLOR
 70
   257
  9
$OBSLTYPE
280
     0
  9
$INTERSECTIONDISPLAY
280
     0
  9
$INTERSECTIONCOLOR
 70
   257
  9
$DIMASSOC
280
     2
  9
$PROJECTNAME
  1

  9
$CAMERADISPLAY
290
     0
  9
$LENSLENGTH
 40
50.0
  9
$CAMERAHEIGHT
 40
0.0
  9
$STEPSPERSEC
 40
2.0
  9
$STEPSIZE
 40
6.0
  9
$3DDWFPREC
 40
2.0
  9
$PSOLWIDTH
 40
0.25
  9
$PSOLHEIGHT
 40
4.0
  9
$LOFTANG1
 40
1.570796326794897
  9
$LOFTANG2
 40
1.570796326794897
  9
$LOFTMAG1
 40
0.0
  9
$LOFTMAG2
 40
0.0
  9
$LOFTPARAM
 70
     7
  9
$LOFTNORMALS
280
     1
  9
$LATITUDE
 40
37.795
  9
$LONGITUDE
 40
-122.394
  9
$NORTHDIRECTION
 40
0.0
  9
$TIMEZONE
 70
 -8000
  9
$LIGHTGLYPHDISPLAY
280
     1
  9
$TILEMODELIGHTSYNCH
280
     1
  9
$CMATERIAL
347
44
  9
$SOLIDHIST
280
     0
  9
$SHOWHIST
280
     1
  9
$DWFFRAME
280
     2
  9
$DGNFRAME
280
     2
  9
$REALWORLDSCALE
290
     1
  9
$INTERFERECOLOR
 62
   256
  9
$CSHADOW
280
     0
  9
$SHADOWPLANELOCATION
 40
0.0
  0
ENDSEC
  0
SECTION
  2
CLASSES
  0
CLASS
  1
ACDBDICTIONARYWDFLT
  2
AcDbDictionaryWithDefault
  3
ObjectDBX Classes
 90
        0
 91
        4
280
     0
281
     0
  0
CLASS
  1
VISUALSTYLE
  2
AcDbVisualStyle
  3
ObjectDBX Classes
 90
     4095
 91
        4
280
     0
281
     0
  0
CLASS
  1
MATERIAL
  2
AcDbMaterial
  3
ObjectDBX Classes
 90
     1153
 91
        4
280
     0
281
     0
  0
CLASS
  1
SCALE
  2
AcDbScale
  3
ObjectDBX Classes
 90
     1153
 91
        4
280
     0
281
     0
  0
CLASS
  1
TABLESTYLE
  2
AcDbTableStyle
  3
ObjectDBX Classes
 90
     4095
 91
        4
280
     0
281
     0
  0
CLASS
  1
MLEADERSTYLE
  2
AcDbMLeaderStyle
  3
ACDB_MLEADERSTYLE_CLASS
 90
     4095
 91
        4
280
     0
281
     0
  0
CLASS
  1
SUN
  2
AcDbSun
  3
SCENEOE
 90
     1153
 91
        4
280
     0
281
     0
  0
CLASS
  1
DICTIONARYVAR
  2
AcDbDictionaryVar
  3
ObjectDBX Classes
 90
        0
 91
        4
280
     0
281
     0
  0
CLASS
  1
CELLSTYLEMAP
  2
AcDbCellStyleMap
  3
ObjectDBX Classes
 90
     1152
 91
        4
280
     0
281
     0
  0
ENDSEC
  0
SECTION
  2
TABLES
  0
TABLE
  2
VPORT
  5
8
330
0
100
AcDbSymbolTable
 70
     1
  0
VPORT
  5
29
330
8
100
AcDbSymbolTableRecord
100
AcDbViewportTableRecord
  2
*Active
 70
     0
 10
0.0
 20
0.0
 11
1.0
 21
1.0
 12
-0.0631249999999994
 22
0.0566562184466637
 13
0.0
 23
0.0
 14
0.5
 24
0.5
 15
0.5
 25
0.5
 16
0.0
 26
0.0
 36
1.0
 17
0.0
 27
0.0
 37
0.0
 40
6.490578685631194
 41
0.7113040644928299
 42
50.0
 43
0.0
 44
0.0
 50
0.0
 51
0.0
 71
     0
 72
   100
 73
     1
 74
     3
 75
     0
 76
     0
 77
     0
 78
     0
281
     0
 65
     1
110
0.0
120
0.0
130
0.0
111
1.0
121
0.0
131
0.0
112
0.0
122
1.0
132
0.0
 79
     0
146
0.0
348
2F
 60
     3
 61
     5
292
     1
282
     1
141
0.0
142
0.0
 63
   250
361
6D
  0
ENDTAB
  0
TABLE
  2
LTYPE
  5
5
330
0
100
AcDbSymbolTable
 70
     3
  0
LTYPE
  5
14
330
5
100
AcDbSymbolTableRecord
100
AcDbLinetypeTableRecord
  2
ByBlock
 70
     0
  3

 72
    65
 73
     0
 40
0.0
  0
LTYPE
  5
15
330
5
100
AcDbSymbolTableRecord
100
AcDbLinetypeTableRecord
  2
ByLayer
 70
     0
  3

 72
    65
 73
     0
 40
0.0
  0
LTYPE
  5
16
330
5
100
AcDbSymbolTableRecord
100
AcDbLinetypeTableRecord
  2
Continuous
 70
     0
  3
Solid line
 72
    65
 73
     0
 40
0.0
  0
LTYPE
  5
9B
330
5
100
AcDbSymbolTableRecord
100
AcDbLinetypeTableRecord
  2
Dashed
 70
     0
  3

 72
    65
 73
     2
 40
2.0
 49
1.0
 74
     0
 49
-1.0
 74
     0
  0
LTYPE
  5
1E6
330
5
100
AcDbSymbolTableRecord
100
AcDbLinetypeTableRecord
  2
Center
 70
     0
  3

 72
    65
 73
     4
 40
1.5
 49
0.45
 74
     0
 49
-0.5
 74
     0
 49
0.05
 74
     0
 49
-0.5
 74
     0
  0
ENDTAB
  0
TABLE
  2
LAYER
  5
2
330
0
100
AcDbSymbolTable
 70
     7
  0
LAYER
  5
10
330
2
100
AcDbSymbolTableRecord
100
AcDbLayerTableRecord
  2
0
 70
     0
 62
     7
  6
Continuous
370
    -3
390
F
347
46
348
0
  0
LAYER
  5
72
330
2
100
AcDbSymbolTableRecord
100
AcDbLayerTableRecord
  2
AM_6
 70
     0
 62
    -2
  6
Continuous
370
    35
390
F
347
46
348
0
  0
LAYER
  5
9C
330
2
100
AcDbSymbolTableRecord
100
AcDbLayerTableRecord
  2
AM_9
 70
     0
 62
     6
  6
Dashed
370
    25
390
F
347
46
348
0
  0
LAYER
  5
E2
330
2
100
AcDbSymbolTableRecord
100
AcDbLayerTableRecord
  2
AM_4
 70
     0
 62
     7
  6
Continuous
370
    50
390
F
347
46
348
0
  0
LAYER
  5
104
330
2
100
AcDbSymbolTableRecord
100
AcDbLayerTableRecord
  2
AM_5
 70
     0
 62
     3
  6
Continuous
370
    25
390
F
347
46
348
0
  0
LAYER
  5
1E7
330
2
100
AcDbSymbolTableRecord
100
AcDbLayerTableRecord
  2
AM_7
 70
     0
 62
     7
  6
Center
370
    25
390
F
347
46
348
0
  0
LAYER
  5
25B
330
2
100
AcDbSymbolTableRecord
100
AcDbLayerTableRecord
  2
ConnectionPoints
 70
     0
 62
     7
  6
Continuous
370
    50
390
F
347
46
348
0
  0
ENDTAB
  0
TABLE
  2
STYLE
  5
3
330
0
100
AcDbSymbolTable
 70
     1
  0
STYLE
  5
11
330
3
100
AcDbSymbolTableRecord
100
AcDbTextStyleTableRecord
  2
Standard
 70
     0
 40
0.0
 41
1.0
 50
0.0
 71
     0
 42
0.2
  3
txt
  4

  0
ENDTAB
  0
TABLE
  2
VIEW
  5
6
330
0
100
AcDbSymbolTable
 70
     0
  0
ENDTAB
  0
TABLE
  2
UCS
  5
7
330
0
100
AcDbSymbolTable
 70
     0
  0
ENDTAB
  0
TABLE
  2
APPID
  5
9
330
0
100
AcDbSymbolTable
 70
     1
  0
APPID
  5
12
330
9
100
AcDbSymbolTableRecord
100
AcDbRegAppTableRecord
  2
ACAD
 70
     0
  0
ENDTAB
  0
TABLE
  2
DIMSTYLE
  5
A
330
0
100
AcDbSymbolTable
 70
     1
100
AcDbDimStyleTable
  0
DIMSTYLE
105
27
330
A
100
AcDbSymbolTableRecord
100
AcDbDimStyleTableRecord
  2
Standard
 70
     0
178
     0
340
11
  0
ENDTAB
  0
TABLE
  2
BLOCK_RECORD
  5
1
330
0
100
AcDbSymbolTable
 70
     8
  0
BLOCK_RECORD
  5
1F
330
1
100
AcDbSymbolTableRecord
100
AcDbBlockTableRecord
  2
*Model_Space
340
22
 70
     0
280
     1
281
     0
  0
BLOCK_RECORD
  5
1B
330
1
100
AcDbSymbolTableRecord
100
AcDbBlockTableRecord
  2
*Paper_Space
340
1E
 70
     0
280
     1
281
     0
  0
BLOCK_RECORD
  5
23
330
1
100
AcDbSymbolTableRecord
100
AcDbBlockTableRecord
  2
*Paper_Space0
340
26
 70
     0
280
     1
281
     0
  0
BLOCK_RECORD
  5
6E
330
1
100
AcDbSymbolTableRecord
100
AcDbBlockTableRecord
  2
1_071244_2
340
0
102
{BLKREFS
331
6F
102
}
 70
     0
280
     1
281
     0
  0
BLOCK_RECORD
  5
8F
330
1
100
AcDbSymbolTableRecord
100
AcDbBlockTableRecord
  2
2_405015E_Inch_0_in_071244_2
340
0
102
{BLKREFS
331
90
102
}
 70
     0
280
     1
281
     0
  0
BLOCK_RECORD
  5
E4
330
1
100
AcDbSymbolTableRecord
100
AcDbBlockTableRecord
  2
3_ASME_B18_3_10_1_0_in_071244_2
340
0
102
{BLKREFS
331
E5
102
}
 70
     0
280
     1
281
     0
  0
BLOCK_RECORD
  5
10A
330
1
100
AcDbSymbolTableRecord
100
AcDbBlockTableRecord
  2
4_ASME_B18_3_10_2_0_in_071244_2
340
0
102
{BLKREFS
331
10B
102
}
 70
     0
280
     1
281
     0
  0
BLOCK_RECORD
  5
12D
330
1
100
AcDbSymbolTableRecord
100
AcDbBlockTableRecord
  2
5_070900LWE_0_in_071244_2
340
0
102
{BLKREFS
331
12E
102
}
 70
     0
280
     1
281
     0
  0
BLOCK_RECORD
  5
168
330
1
100
AcDbSymbolTableRecord
100
AcDbBlockTableRecord
  2
6_070932EL_0_in_071244_2
340
0
102
{BLKREFS
331
169
102
}
 70
     0
280
     1
281
     0
  0
BLOCK_RECORD
  5
1F3
330
1
100
AcDbSymbolTableRecord
100
AcDbBlockTableRecord
  2
7_071244H_0_in_071244_2
340
0
102
{BLKREFS
331
1F4
102
}
 70
     0
280
     1
281
     0
  0
ENDTAB
  0
ENDSEC
  0
SECTION
  2
BLOCKS
  0
BLOCK
  5
20
330
1F
100
AcDbEntity
  8
0
100
AcDbBlockBegin
  2
*Model_Space
 70
     0
 10
0.0
 20
0.0
 30
0.0
  3
*Model_Space
  1

  0
ENDBLK
  5
21
330
1F
100
AcDbEntity
  8
0
100
AcDbBlockEnd
  0
BLOCK
  5
1C
330
1B
100
AcDbEntity
 67
     1
  8
0
100
AcDbBlockBegin
  2
*Paper_Space
 70
     0
 10
0.0
 20
0.0
 30
0.0
  3
*Paper_Space
  1

  0
ENDBLK
  5
1D
330
1B
100
AcDbEntity
 67
     1
  8
0
100
AcDbBlockEnd
  0
BLOCK
  5
24
330
23
100
AcDbEntity
  8
0
100
AcDbBlockBegin
  2
*Paper_Space0
 70
     0
 10
0.0
 20
0.0
 30
0.0
  3
*Paper_Space0
  1

  0
ENDBLK
  5
25
330
23
100
AcDbEntity
  8
0
100
AcDbBlockEnd
  0
BLOCK
  5
70
330
6E
100
AcDbEntity
  8
0
100
AcDbBlockBegin
  2
1_071244_2
 70
     2
 10
0.0
 20
0.0
 30
0.0
  3
1_071244_2
  1

  0
ATTDEF
  5
73
330
6E
100
AcDbEntity
  8
AM_6
100
AcDbText
 10
7.2
 20
3.238310017146117
 30
0.0
 40
0.5
  1
Imperial - IP Pillow Block with Type E Dimensions 2-1/4 thru 7 inch 4-Bolt Labyrinth Seal Expansion
100
AcDbAttributeDefinition
  3

  2
NN
 70
     8
280
     0
  0
ATTDEF
  5
74
330
6E
100
AcDbEntity
  8
AM_6
100
AcDbText
 10
7.2
 20
2.738310017146117
 30
0.0
 40
0.5
  1
Imperial/E 4 Bolt Piliow Block Bearings
100
AcDbAttributeDefinition
  3

  2
NT
 70
     8
280
     0
  0
ATTDEF
  5
75
330
6E
100
AcDbEntity
  8
AM_6
100
AcDbText
 10
7.2
 20
2.238310017146117
 30
0.0
 40
0.5
  1
071244
100
AcDbAttributeDefinition
  3

  2
NB
 70
     8
280
     0
  0
ATTDEF
  5
76
330
6E
100
AcDbEntity
  8
AM_6
100
AcDbText
 10
7.2
 20
1.738310017146117
 30
0.0
 40
0.5
  1
$PN.
100
AcDbAttributeDefinition
  3

  2
NBSYN
 70
     8
280
     0
  0
ATTDEF
  5
77
330
6E
100
AcDbEntity
  8
AM_6
100
AcDbText
 10
7.2
 20
1.238310017146117
 30
0.0
 40
0.5
  1
071244
100
AcDbAttributeDefinition
  3

  2
LINA
 70
     8
280
     0
  0
ATTDEF
  5
78
330
6E
100
AcDbEntity
  8
AM_6
100
AcDbText
 10
7.2
 20
0.7383100171461168
 30
0.0
 40
0.5
  1
3
100
AcDbAttributeDefinition
  3

  2
SS
 70
     8
280
     0
  0
ATTDEF
  5
79
330
6E
100
AcDbEntity
  8
AM_6
100
AcDbText
 10
7.2
 20
0.2383100171461168
 30
0.0
 40
0.5
  1
Non-Expansion
100
AcDbAttributeDefinition
  3

  2
TYPE
 70
     8
280
     0
  0
ATTDEF
  5
7A
330
6E
100
AcDbEntity
  8
AM_6
100
AcDbText
 10
7.2
 20
-0.2616899828538832
 30
0.0
 40
0.5
  1
071244
100
AcDbAttributeDefinition
  3

  2
PN
 70
     8
280
     0
  0
ATTDEF
  5
7B
330
6E
100
AcDbEntity
  8
AM_6
100
AcDbText
 10
7.2
 20
-0.7616899828538832
 30
0.0
 40
0.5
  1
EP4B-IP-300L
100
AcDbAttributeDefinition
  3

  2
DESCRIPTION
 70
     8
280
     0
  0
ATTDEF
  5
7C
330
6E
100
AcDbEntity
  8
AM_6
100
AcDbText
 10
7.2
 20
-1.261689982853883
 30
0.0
 40
0.5
  1
Labyrinth Seal
100
AcDbAttributeDefinition
  3

  2
ST
 70
     8
280
     0
  0
ATTDEF
  5
7D
330
6E
100
AcDbEntity
  8
AM_6
100
AcDbText
 10
7.2
 20
-1.761689982853883
 30
0.0
 40
0.5
  1
3.5
100
AcDbAttributeDefinition
  3

  2
A
 70
     8
280
     0
  0
ATTDEF
  5
7E
330
6E
100
AcDbEntity
  8
AM_6
100
AcDbText
 10
7.2
 20
-2.261689982853883
 30
0.0
 40
0.5
  1
12
100
AcDbAttributeDefinition
  3

  2
B
 70
     8
280
     0
  0
ATTDEF
  5
7F
330
6E
100
AcDbEntity
  8
AM_6
100
AcDbText
 10
7.2
 20
-2.761689982853883
 30
0.0
 40
0.5
  1
4
100
AcDbAttributeDefinition
  3

  2
C
 70
     8
280
     0
  0
ATTDEF
  5
80
330
6E
100
AcDbEntity
  8
AM_6
100
AcDbText
 10
7.2
 20
-3.261689982853883
 30
0.0
 40
0.5
  1
9.18
100
AcDbAttributeDefinition
  3

  2
DMIN
 70
     8
280
     0
  0
ATTDEF
  5
81
330
6E
100
AcDbEntity
  8
AM_6
100
AcDbText
 10
7.2
 20
-3.761689982853883
 30
0.0
 40
0.5
  1
9.82
100
AcDbAttributeDefinition
  3

  2
DMAX
 70
     8
280
     0
  0
ATTDEF
  5
82
330
6E
100
AcDbEntity
  8
AM_6
100
AcDbText
 10
7.2
 20
-4.261689982853883
 30
0.0
 40
0.5
  1
2.13
100
AcDbAttributeDefinition
  3

  2
E
 70
     8
280
     0
  0
ATTDEF
  5
83
330
6E
100
AcDbEntity
  8
AM_6
100
AcDbText
 10
7.2
 20
-4.761689982853883
 30
0.0
 40
0.5
  1
5/8
100
AcDbAttributeDefinition
  3

  2
F
 70
     8
280
     0
  0
ATTDEF
  5
84
330
6E
100
AcDbEntity
  8
AM_6
100
AcDbText
 10
7.2
 20
-5.261689982853883
 30
0.0
 40
0.5
  1
1
100
AcDbAttributeDefinition
  3

  2
G
 70
     8
280
     0
  0
ATTDEF
  5
85
330
6E
100
AcDbEntity
  8
AM_6
100
AcDbText
 10
7.2
 20
-5.761689982853883
 30
0.0
 40
0.5
  1
1.88
100
AcDbAttributeDefinition
  3

  2
H
 70
     8
280
     0
  0
ATTDEF
  5
86
330
6E
100
AcDbEntity
  8
AM_6
100
AcDbText
 10
7.2
 20
-6.261689982853883
 30
0.0
 40
0.5
  1
6.33
100
AcDbAttributeDefinition
  3

  2
J
 70
     8
280
     0
  0
ATTDEF
  5
87
330
6E
100
AcDbEntity
  8
AM_6
100
AcDbText
 10
7.2
 20
-6.761689982853883
 30
0.0
 40
0.5
  1
4.28
100
AcDbAttributeDefinition
  3

  2
L
 70
     8
280
     0
  0
ATTDEF
  5
88
330
6E
100
AcDbEntity
  8
AM_6
100
AcDbText
 10
7.2
 20
-7.261689982853883
 30
0.0
 40
0.5
  1
3.125
100
AcDbAttributeDefinition
  3

  2
M
 70
     8
280
     0
  0
ATTDEF
  5
89
330
6E
100
AcDbEntity
  8
AM_6
100
AcDbText
 10
7.2
 20
-7.761689982853883
 30
0.0
 40
0.5
  1
1.35
100
AcDbAttributeDefinition
  3

  2
R
 70
     8
280
     0
  0
ATTDEF
  5
8A
330
6E
100
AcDbEntity
  8
AM_6
100
AcDbText
 10
7.2
 20
-8.261689982853884
 30
0.0
 40
0.5
  1
2.15
100
AcDbAttributeDefinition
  3

  2
S
 70
     8
280
     0
  0
ATTDEF
  5
8B
330
6E
100
AcDbEntity
  8
AM_6
100
AcDbText
 10
7.2
 20
-8.761689982853884
 30
0.0
 40
0.5
  1
0.25
100
AcDbAttributeDefinition
  3

  2
X
 70
     8
280
     0
  0
ATTDEF
  5
8C
330
6E
100
AcDbEntity
  8
AM_6
100
AcDbText
 10
7.2
 20
-9.261689982853884
 30
0.0
 40
0.5
  1
0.025
100
AcDbAttributeDefinition
  3

  2
Y
 70
     8
280
     0
  0
ATTDEF
  5
8D
330
6E
100
AcDbEntity
  8
AM_6
100
AcDbText
 10
7.2
 20
-9.761689982853884
 30
0.0
 40
0.5
  1
3.47
100
AcDbAttributeDefinition
  3

  2
Z
 70
     8
280
     0
  0
ATTDEF
  5
8E
330
6E
100
AcDbEntity
  8
AM_6
100
AcDbText
 10
7.2
 20
-10.26168998285388
 30
0.0
 40
0.5
  1
baldor
100
AcDbAttributeDefinition
  3

  2
COMPANY
 70
     8
280
     0
  0
INSERT
  5
90
330
6E
100
AcDbEntity
  8
0
100
AcDbBlockReference
  2
2_405015E_Inch_0_in_071244_2
 10
0.0
 20
0.0
 30
0.0
  0
INSERT
  5
E5
330
6E
100
AcDbEntity
  8
0
100
AcDbBlockReference
  2
3_ASME_B18_3_10_1_0_in_071244_2
 10
0.0
 20
0.0
 30
0.0
  0
INSERT
  5
10B
330
6E
100
AcDbEntity
  8
0
100
AcDbBlockReference
  2
4_ASME_B18_3_10_2_0_in_071244_2
 10
0.0
 20
0.0
 30
0.0
  0
INSERT
  5
12E
330
6E
100
AcDbEntity
  8
0
100
AcDbBlockReference
  2
5_070900LWE_0_in_071244_2
 10
0.0
 20
0.0
 30
0.0
  0
INSERT
  5
169
330
6E
100
AcDbEntity
  8
0
100
AcDbBlockReference
  2
6_070932EL_0_in_071244_2
 10
0.0
 20
0.0
 30
0.0
  0
INSERT
  5
1F4
330
6E
100
AcDbEntity
  8
0
100
AcDbBlockReference
  2
7_071244H_0_in_071244_2
 10
0.0
 20
0.0
 30
0.0
  0
ENDBLK
  5
71
330
6E
100
AcDbEntity
  8
0
100
AcDbBlockEnd
  0
BLOCK
  5
91
330
8F
100
AcDbEntity
  8
0
100
AcDbBlockBegin
  2
2_405015E_Inch_0_in_071244_2
 70
     2
 10
0.0
 20
0.0
 30
0.0
  3
2_405015E_Inch_0_in_071244_2
  1

  0
ATTDEF
  5
93
330
8F
100
AcDbEntity
  8
AM_6
100
AcDbText
 10
5.252590742770461
 20
3.238310017146117
 30
0.0
 40
0.5
  1
405015E -Inch
100
AcDbAttributeDefinition
  3

  2
NN
 70
     8
280
     0
  0
ATTDEF
  5
94
330
8F
100
AcDbEntity
  8
AM_6
100
AcDbText
 10
5.252590742770461
 20
2.738310017146117
 30
0.0
 40
0.5
  1
Grease Fitting
100
AcDbAttributeDefinition
  3

  2
NT
 70
     8
280
     0
  0
ATTDEF
  5
95
330
8F
100
AcDbEntity
  8
AM_6
100
AcDbText
 10
5.252590742770461
 20
2.238310017146117
 30
0.0
 40
0.5
  1
405015E-Inch
100
AcDbAttributeDefinition
  3

  2
NB
 70
     8
280
     0
  0
ATTDEF
  5
96
330
8F
100
AcDbEntity
  8
AM_6
100
AcDbText
 10
5.252590742770461
 20
1.738310017146117
 30
0.0
 40
0.5
  1
$MN.-Inch
100
AcDbAttributeDefinition
  3

  2
NBSYN
 70
     8
280
     0
  0
ATTDEF
  5
97
330
8F
100
AcDbEntity
  8
AM_6
100
AcDbText
 10
5.252590742770461
 20
1.238310017146117
 30
0.0
 40
0.5
  1
405015E
100
AcDbAttributeDefinition
  3

  2
LINA
 70
     8
280
     0
  0
ATTDEF
  5
98
330
8F
100
AcDbEntity
  8
AM_6
100
AcDbText
 10
5.252590742770461
 20
0.7383100171461168
 30
0.0
 40
0.5
  1
405015E
100
AcDbAttributeDefinition
  3

  2
MN
 70
     8
280
     0
  0
ATTDEF
  5
99
330
8F
100
AcDbEntity
  8
AM_6
100
AcDbText
 10
5.252590742770461
 20
0.2383100171461168
 30
0.0
 40
0.5
  1
1/8 x 27PTF
100
AcDbAttributeDefinition
  3

  2
T
 70
     8
280
     0
  0
ATTDEF
  5
9A
330
8F
100
AcDbEntity
  8
AM_6
100
AcDbText
 10
5.252590742770461
 20
-0.2616899828538832
 30
0.0
 40
0.5
  1
baldor
100
AcDbAttributeDefinition
  3

  2
COMPANY
 70
     8
280
     0
  0
LINE
  5
9D
330
8F
100
AcDbEntity
  8
AM_9
100
AcDbLine
 10
0.1262953713852305
 20
2.831588728197397
 30
0.0
 11
0.1262953713852305
 21
2.760691731196186
 31
0.0
  0
LINE
  5
9E
330
8F
100
AcDbEntity
  8
AM_9
100
AcDbLine
 10
-0.1262953713852308
 20
2.831588728197397
 30
0.0
 11
-0.1262953713852308
 21
2.760691731196186
 31
0.0
  0
LWPOLYLINE
  5
9F
330
8F
100
AcDbEntity
  8
AM_9
100
AcDbPolyline
 90
        4
 70
     0
 43
0.0
 10
-0.0000000000000001
 20
2.839441499886014
 10
-0.048399816055899
 20
2.838213856293566
 10
-0.0967996321117979
 20
2.834693591371535
 10
-0.1262953713852308
 20
2.831588728197397
  0
LWPOLYLINE
  5
A0
330
8F
100
AcDbEntity
  8
AM_9
100
AcDbPolyline
 90
        3
 70
     0
 43
0.0
 10
0.1262953713852305
 20
2.831588728197397
 10
0.0634316146914366
 20
2.837350459941572
 10
-0.0000000000000001
 20
2.839441499886014
  0
LWPOLYLINE
  5
A1
330
8F
100
AcDbEntity
  8
AM_9
100
AcDbPolyline
 90
        3
 70
     0
 43
0.0
 10
0.1894430570778459
 20
2.894128999886014
 10
0.1578692142315382
 20
2.864712521325244
 10
0.1262953713852305
 20
2.831588728197397
  0
ELLIPSE
  5
A2
330
8F
100
AcDbEntity
  8
AM_9
100
AcDbEllipse
 10
-0.0000000000000002
 20
2.948816499886012
 30
0.0
 11
0.2187499999999998
 21
0.0
 31
0.0
210
0.0
220
0.0
230
1.0
 40
0.4999999999999905
 41
3.665191429188082
 42
4.71238898038469
  0
LWPOLYLINE
  5
A3
330
8F
100
AcDbEntity
  8
AM_9
100
AcDbPolyline
 90
        3
 70
     0
 43
0.0
 10
-0.1262953713852308
 20
2.831588728197397
 10
-0.1577272497321277
 20
2.864571265078646
 10
-0.1894430570778461
 20
2.894128999886014
  0
LWPOLYLINE
  5
A4
330
8F
100
AcDbEntity
  8
AM_9
100
AcDbPolyline
 90
        3
 70
     0
 43
0.0
 10
0.1262953713852305
 20
2.760691731196186
 10
0.1577272497321275
 20
2.782150804589087
 10
0.1894430570778459
 20
2.80752645950757
  0
LWPOLYLINE
  5
A5
330
8F
100
AcDbEntity
  8
AM_9
100
AcDbPolyline
 90
        3
 70
     0
 43
0.0
 10
0.0172279138855066
 20
2.75299613996219
 10
0.0631476856926152
 20
2.754911688068339
 10
0.1262953713852305
 20
2.760691731196186
  0
LINE
  5
A6
330
8F
100
AcDbEntity
  8
AM_9
100
AcDbLine
 10
-0.0000000000000001
 20
2.75283895950757
 30
0.0
 11
0.0172279138855066
 21
2.75299613996219
 31
0.0
  0
LWPOLYLINE
  5
A7
330
8F
100
AcDbEntity
  8
AM_9
100
AcDbPolyline
 90
        3
 70
     0
 43
0.0
 10
-0.1894430570778461
 20
2.80752645950757
 10
-0.1578692142315384
 20
2.78225543806834
 10
-0.1262953713852308
 20
2.760691731196186
  0
LWPOLYLINE
  5
A8
330
8F
100
AcDbEntity
  8
AM_9
100
AcDbPolyline
 90
        4
 70
     0
 43
0.0
 10
-0.1262953713852308
 20
2.760691731196186
 10
-0.0967996321117979
 20
2.757586868022048
 10
-0.0485424412477545
 20
2.754073762987503
 10
-0.0000000000000001
 20
2.75283895950757
  0
LINE
  5
A9
330
8F
100
AcDbEntity
  8
AM_9
100
AcDbLine
 10
-0.0998453562378799
 20
3.198949048367933
 30
0.0
 11
-0.131275793898522
 21
3.133436817515557
 31
0.0
  0
LINE
  5
AA
330
8F
100
AcDbEntity
  8
AM_9
100
AcDbLine
 10
0.1312757938985218
 20
3.133436817515557
 30
0.0
 11
0.0998453562378796
 21
3.198949048367933
 31
0.0
  0
ELLIPSE
  5
AB
330
8F
100
AcDbEntity
  8
AM_9
100
AcDbEllipse
 10
0.0000000000000309
 20
3.186973485926655
 30
0.0
 11
0.1026779019331552
 21
1.530019967752028E-9
 31
0.0
210
0.0
220
0.0
230
1.0
 40
0.5000000000002357
 41
2.782817693283575
 42
6.641960213392888
  0
LINE
  5
AC
330
8F
100
AcDbEntity
  8
AM_9
100
AcDbLine
 10
0.1049999999999999
 20
3.040368812870269
 30
0.0
 11
0.1049999999999999
 21
3.065729929396913
 31
0.0
  0
LINE
  5
AD
330
8F
100
AcDbEntity
  8
AM_9
100
AcDbLine
 10
-0.1050000000000001
 20
3.065729929396913
 30
0.0
 11
-0.1050000000000001
 21
3.04036881287027
 31
0.0
  0
ELLIPSE
  5
AE
330
8F
100
AcDbEntity
  8
AM_9
100
AcDbEllipse
 10
-0.000000000000003
 20
3.039749167283393
 30
0.0
 11
0.1049999999999971
 21
0.0
 31
0.0
210
0.0
220
0.0
230
1.0
 40
0.4999999999999691
 41
2.891559760491224
 42
3.141592653589793
  0
LINE
  5
AF
330
8F
100
AcDbEntity
  8
AM_9
100
AcDbLine
 10
0.1005298463144154
 20
3.050574484830685
 30
0.0
 11
0.1292526595471055
 21
3.098205882038829
 31
0.0
  0
LINE
  5
B0
330
8F
100
AcDbEntity
  8
AM_9
100
AcDbLine
 10
-0.1292526595471058
 20
3.098205882038829
 30
0.0
 11
-0.1005298463144156
 21
3.050574484830685
 31
0.0
  0
ELLIPSE
  5
B1
330
8F
100
AcDbEntity
  8
AM_9
100
AcDbEllipse
 10
-0.0000000000000001
 20
3.065729929396913
 30
0.0
 11
0.1050000000000001
 21
0.0
 31
0.0
210
0.0
220
0.0
230
1.0
 40
0.5000000000000017
 41
3.43443542531837
 42
9.42477796076938
  0
ELLIPSE
  5
B2
330
8F
100
AcDbEntity
  8
AM_9
100
AcDbEllipse
 10
0.0000000000000004
 20
3.065729929396913
 30
0.0
 11
0.1050000000000005
 21
0.0
 31
0.0
210
0.0
220
0.0
230
1.0
 40
0.4999999999999953
 41
3.141592653589793
 42
3.434435425318372
  0
LWPOLYLINE
  5
B3
330
8F
100
AcDbEntity
  8
AM_9
100
AcDbPolyline
 90
        3
 70
     0
 43
0.0
 10
-0.1894430570778461
 20
2.894128999886014
 10
-0.2210168999241537
 20
2.919400021325244
 10
-0.2525907427704613
 20
2.940963728197397
  0
LWPOLYLINE
  5
B4
330
8F
100
AcDbEntity
  8
AM_9
100
AcDbPolyline
 90
        3
 70
     0
 43
0.0
 10
0.2525907427704611
 20
2.940963728197397
 10
0.2211588644235642
 20
2.919504654804497
 10
0.1894430570778459
 20
2.894128999886014
  0
ELLIPSE
  5
B5
330
8F
100
AcDbEntity
  8
AM_9
100
AcDbEllipse
 10
-0.0000000000000003
 20
3.03974916728338
 30
0.0
 11
0.1049999999999996
 21
0.0
 31
0.0
210
0.0
220
0.0
230
1.0
 40
0.5000000000000039
 41
3.141592653589793
 42
4.375117258280323
  0
LINE
  5
B6
330
8F
100
AcDbEntity
  8
AM_9
100
AcDbLine
 10
-0.1017349497468792
 20
3.052739548340146
 30
0.0
 11
-0.1151252948555659
 21
3.026522725277515
 31
0.0
  0
LINE
  5
B7
330
8F
100
AcDbEntity
  8
AM_9
100
AcDbLine
 10
0.1151252948555657
 20
3.026522725277515
 30
0.0
 11
0.101734949746879
 21
3.052739548340146
 31
0.0
  0
ELLIPSE
  5
B8
330
8F
100
AcDbEntity
  8
AM_9
100
AcDbEllipse
 10
-0.0000000000000001
 20
3.03974916728338
 30
0.0
 11
0.1050000000000002
 21
0.0
 31
0.0
210
0.0
220
0.0
230
1.0
 40
0.4999999999999925
 41
5.046785855865703
 42
9.174745067670576
  0
ELLIPSE
  5
B9
330
8F
100
AcDbEntity
  8
AM_9
100
AcDbEllipse
 10
0.0000000000000049
 20
3.011822551412318
 30
0.0
 11
0.1188200907349029
 21
0.0
 31
0.0
210
0.0
220
0.0
230
1.0
 40
0.5000000000000061
 41
2.53544751339476
 42
2.891559760491039
  0
ELLIPSE
  5
BA
330
8F
100
AcDbEntity
  8
AM_9
100
AcDbEllipse
 10
-0.0000000000000012
 20
3.011822551412308
 30
0.0
 11
0.1188200907348987
 21
0.0
 31
0.0
210
0.0
220
0.0
230
1.0
 40
0.4999999999999829
 41
2.891559760490852
 42
6.889330447374796
  0
ELLIPSE
  5
BB
330
8F
100
AcDbEntity
  8
AM_9
100
AcDbEllipse
 10
0.0000000000000004
 20
2.948816499886013
 30
0.0
 11
0.2187500000000005
 21
0.0
 31
0.0
210
0.0
220
0.0
230
1.0
 40
0.4999999999999988
 41
2.617993877991491
 42
3.665191429188088
  0
ELLIPSE
  5
BC
330
8F
100
AcDbEntity
  8
AM_9
100
AcDbEllipse
 10
0.0
 20
2.964680525173984
 30
0.0
 11
0.1725340532830155
 21
0.0
 31
0.0
210
0.0
220
0.0
230
1.0
 40
0.5000000000000014
 41
0.6061451401950881
 42
6.283185307179586
  0
LINE
  5
BD
330
8F
100
AcDbEntity
  8
AM_9
100
AcDbLine
 10
-0.0976523208201059
 20
3.045668667144762
 30
0.0
 11
-0.1417971541629019
 21
3.013827159376055
 31
0.0
  0
LINE
  5
BE
330
8F
100
AcDbEntity
  8
AM_9
100
AcDbLine
 10
0.1417971541629017
 20
3.013827159376055
 30
0.0
 11
0.0976523208201057
 21
3.045668667144762
 31
0.0
  0
ELLIPSE
  5
BF
330
8F
100
AcDbEntity
  8
AM_9
100
AcDbEllipse
 10
-0.0000000000000001
 20
3.011822551412317
 30
0.0
 11
0.1188200907348976
 21
0.0
 31
0.0
210
0.0
220
0.0
230
1.0
 40
0.499999999999995
 41
0.6061451401950881
 42
2.535447513394705
  0
ELLIPSE
  5
C0
330
8F
100
AcDbEntity
  8
AM_9
100
AcDbEllipse
 10
-0.0000000000000012
 20
2.964680525173984
 30
0.0
 11
0.1725340532830164
 21
0.0
 31
0.0
210
0.0
220
0.0
230
1.0
 40
0.5000000000000013
 41
0.0
 42
0.6061451401950835
  0
LWPOLYLINE
  5
C1
330
8F
100
AcDbEntity
  8
AM_9
100
AcDbPolyline
 90
        3
 70
     0
 43
0.0
 10
0.1894430570778459
 20
2.80752645950757
 10
0.2210168999241535
 20
2.836942938068339
 10
0.2525907427704611
 20
2.870066731196186
  0
LWPOLYLINE
  5
C2
330
8F
100
AcDbEntity
  8
AM_9
100
AcDbPolyline
 90
        3
 70
     0
 43
0.0
 10
-0.2525907427704613
 20
2.870066731196186
 10
-0.2211588644235644
 20
2.837084194314937
 10
-0.1894430570778461
 20
2.80752645950757
  0
ELLIPSE
  5
C3
330
8F
100
AcDbEntity
  8
AM_9
100
AcDbEllipse
 10
-0.0000000000000001
 20
2.948816499886013
 30
0.0
 11
-0.21375
 21
3.185123231361761E-9
 31
0.0
210
0.0
220
0.0
230
1.0
 40
0.5000000000000003
 41
0.0
 42
6.283185307179586
  0
ELLIPSE
  5
C4
330
8F
100
AcDbEntity
  8
AM_9
100
AcDbEllipse
 10
0.000000000000001
 20
2.948816499886013
 30
0.0
 11
0.218750000000002
 21
0.0
 31
0.0
210
0.0
220
0.0
230
1.0
 40
0.4999999999999974
 41
1.570796326794897
 42
2.617993877991491
  0
ELLIPSE
  5
C5
330
8F
100
AcDbEntity
  8
AM_9
100
AcDbEllipse
 10
-0.0000000000000009
 20
2.948816499886015
 30
0.0
 11
0.2187500000000012
 21
0.0
 31
0.0
210
0.0
220
0.0
230
1.0
 40
0.4999999999999932
 41
4.71238898038469
 42
7.853981633974483
  0
LINE
  5
C6
330
8F
100
AcDbEntity
  8
AM_9
100
AcDbLine
 10
0.2525907427704611
 20
2.940963728197397
 30
0.0
 11
0.2525907427704611
 21
2.870066731196186
 31
0.0
  0
LWPOLYLINE
  5
C7
330
8F
100
AcDbEntity
  8
AM_9
100
AcDbPolyline
 90
        3
 70
     0
 43
0.0
 10
0.1894430570778459
 20
3.003503999886014
 10
0.2210168999241534
 20
2.974087521325244
 10
0.2525907427704611
 20
2.940963728197397
  0
LWPOLYLINE
  5
C8
330
8F
100
AcDbEntity
  8
AM_9
100
AcDbPolyline
 90
        3
 70
     0
 43
0.0
 10
0.1262953713852306
 20
3.050338728197397
 10
0.1577272497321275
 20
3.028879654804497
 10
0.1894430570778459
 20
3.003503999886014
  0
LWPOLYLINE
  5
C9
330
8F
100
AcDbEntity
  8
AM_9
100
AcDbPolyline
 90
        3
 70
     0
 43
0.0
 10
0.2525907427704611
 20
2.870066731196186
 10
0.2211588644235642
 20
2.891525804589087
 10
0.1894430570778459
 20
2.91690145950757
  0
LWPOLYLINE
  5
CA
330
8F
100
AcDbEntity
  8
AM_9
100
AcDbPolyline
 90
        3
 70
     0
 43
0.0
 10
0.1894430570778459
 20
2.91690145950757
 10
0.1578692142315382
 20
2.94631793806834
 10
0.1262953713852306
 20
2.979441731196186
  0
LINE
  5
CB
330
8F
100
AcDbEntity
  8
AM_9
100
AcDbLine
 10
0.1262953713852306
 20
3.050338728197397
 30
0.0
 11
0.1262953713852306
 21
2.979441731196186
 31
0.0
  0
LWPOLYLINE
  5
CC
330
8F
100
AcDbEntity
  8
AM_9
100
AcDbPolyline
 90
        3
 70
     0
 43
0.0
 10
-0.0000000000000001
 20
3.058191499886014
 10
0.0631476856926152
 20
3.056118771325244
 10
0.1262953713852306
 20
3.050338728197397
  0
LWPOLYLINE
  5
CD
330
8F
100
AcDbEntity
  8
AM_9
100
AcDbPolyline
 90
        4
 70
     0
 43
0.0
 10
-0.1262953713852308
 20
3.050338728197397
 10
-0.0967996321117979
 20
3.053443591371535
 10
-0.0485424412477545
 20
3.05695669640608
 10
-0.0000000000000001
 20
3.058191499886014
  0
LWPOLYLINE
  5
CE
330
8F
100
AcDbEntity
  8
AM_9
100
AcDbPolyline
 90
        4
 70
     0
 43
0.0
 10
-0.0000000000000001
 20
2.97158895950757
 10
-0.048399816055899
 20
2.972816603100018
 10
-0.0967996321117979
 20
2.976336868022049
 10
-0.1262953713852308
 20
2.979441731196186
  0
LWPOLYLINE
  5
CF
330
8F
100
AcDbEntity
  8
AM_9
100
AcDbPolyline
 90
        3
 70
     0
 43
0.0
 10
0.1262953713852306
 20
2.979441731196186
 10
0.0634316146914366
 20
2.973679999452012
 10
-0.0000000000000001
 20
2.97158895950757
  0
ELLIPSE
  5
D0
330
8F
100
AcDbEntity
  8
AM_9
100
AcDbEllipse
 10
0.0000000000000004
 20
2.862213959507569
 30
0.0
 11
0.2187499999999988
 21
0.0
 31
0.0
210
0.0
220
0.0
230
1.0
 40
0.5000000000000089
 41
4.71238898038469
 42
7.853981633974483
  0
ELLIPSE
  5
D1
330
8F
100
AcDbEntity
  8
AM_9
100
AcDbEllipse
 10
-0.0000000000000008
 20
2.862213959507569
 30
0.0
 11
0.2187499999999988
 21
3.259629011154157E-9
 31
0.0
210
0.0
220
0.0
230
1.0
 40
0.5000000000000068
 41
1.570796326794897
 42
3.665191404973691
  0
ELLIPSE
  5
D2
330
8F
100
AcDbEntity
  8
AM_9
100
AcDbEllipse
 10
0.0000000000000004
 20
2.86221395950757
 30
0.0
 11
0.2187500000000007
 21
3.259629011154186E-9
 31
0.0
210
0.0
220
0.0
230
1.0
 40
0.4999999999999983
 41
3.665191404973706
 42
4.71238898038469
  0
LINE
  5
D3
330
8F
100
AcDbEntity
  8
AM_9
100
AcDbLine
 10
-0.1262953713852308
 20
3.050338728197397
 30
0.0
 11
-0.1262953713852308
 21
2.979441731196186
 31
0.0
  0
LWPOLYLINE
  5
D4
330
8F
100
AcDbEntity
  8
AM_9
100
AcDbPolyline
 90
        3
 70
     0
 43
0.0
 10
-0.1894430570778461
 20
3.003503999886014
 10
-0.1578692142315384
 20
3.028775021325244
 10
-0.1262953713852308
 20
3.050338728197397
  0
LWPOLYLINE
  5
D5
330
8F
100
AcDbEntity
  8
AM_9
100
AcDbPolyline
 90
        3
 70
     0
 43
0.0
 10
-0.2525907427704613
 20
2.940963728197397
 10
-0.2211588644235644
 20
2.973946265078646
 10
-0.1894430570778461
 20
3.003503999886014
  0
LINE
  5
D6
330
8F
100
AcDbEntity
  8
AM_9
100
AcDbLine
 10
-0.2525907427704613
 20
2.940963728197397
 30
0.0
 11
-0.2525907427704613
 21
2.870066731196186
 31
0.0
  0
LWPOLYLINE
  5
D7
330
8F
100
AcDbEntity
  8
AM_9
100
AcDbPolyline
 90
        3
 70
     0
 43
0.0
 10
-0.1894430570778461
 20
2.91690145950757
 10
-0.2210168999241537
 20
2.891630438068339
 10
-0.2525907427704613
 20
2.870066731196186
  0
LWPOLYLINE
  5
D8
330
8F
100
AcDbEntity
  8
AM_9
100
AcDbPolyline
 90
        3
 70
     0
 43
0.0
 10
-0.1262953713852308
 20
2.979441731196186
 10
-0.1577272497321277
 20
2.946459194314937
 10
-0.1894430570778461
 20
2.91690145950757
  0
LINE
  5
D9
330
8F
100
AcDbEntity
  8
AM_9
100
AcDbLine
 10
0.1985852938306407
 20
2.662721298821126
 30
0.0
 11
0.2057184028850726
 21
2.86035775872994
 31
0.0
  0
LINE
  5
DA
330
8F
100
AcDbEntity
  8
AM_9
100
AcDbLine
 10
-0.2057184028850728
 20
2.86035775872994
 30
0.0
 11
-0.1985852938306409
 21
2.662721298821126
 31
0.0
  0
ELLIPSE
  5
DB
330
8F
100
AcDbEntity
  8
AM_9
100
AcDbEllipse
 10
-0.0000000000000001
 20
2.664513137429946
 30
0.0
 11
0.1986176267812153
 21
0.0
 31
0.0
210
0.0
220
0.0
230
1.0
 40
0.5000000000000037
 41
3.757072362260178
 42
9.442822037473828
  0
LINE
  5
DC
330
8F
100
AcDbEntity
  8
AM_9
100
AcDbLine
 10
0.1321931418159852
 20
2.585979894002474
 30
0.0
 11
0.1621706131788414
 21
2.607177167285976
 31
0.0
  0
LINE
  5
DD
330
8F
100
AcDbEntity
  8
AM_9
100
AcDbLine
 10
-0.1621706131788417
 20
2.607177167285976
 30
0.0
 11
-0.1321931418159854
 21
2.585979894002474
 31
0.0
  0
ELLIPSE
  5
DE
330
8F
100
AcDbEntity
  8
AM_9
100
AcDbEllipse
 10
-0.0000000000000034
 20
2.664513137429951
 30
0.0
 11
0.1986176267812121
 21
0.0
 31
0.0
210
0.0
220
0.0
230
1.0
 40
0.5000000000000095
 41
3.159636730294297
 42
3.757072362260224
  0
ELLIPSE
  5
DF
330
8F
100
AcDbEntity
  8
AM_9
100
AcDbEllipse
 10
-0.0000000000000025
 20
3.117691453623965
 30
0.0
 11
0.1350000000000024
 21
0.0
 31
0.0
210
0.0
220
0.0
230
1.0
 40
0.4999999999999903
 41
0.0
 42
6.283185307179586
  0
ELLIPSE
  5
E0
330
8F
100
AcDbEntity
  8
AM_9
100
AcDbEllipse
 10
-0.0000000000008885
 20
2.862213959513047
 30
0.0
 11
0.205751897223958
 21
0.0
 31
0.0
210
0.0
220
0.0
230
1.0
 40
0.5000000000002796
 41
0.0
 42
6.283185307179586
  0
ELLIPSE
  5
E1
330
8F
100
AcDbEntity
  8
AM_9
100
AcDbEllipse
 10
0.0000000000000003
 20
2.632717227504696
 30
0.0
 11
0.1619028724722686
 21
0.0
 31
0.0
210
0.0
220
0.0
230
1.0
 40
0.5000000000000043
 41
0.0
 42
6.283185307179586
  0
ELLIPSE
  5
E3
330
8F
100
AcDbEntity
  8
AM_4
100
AcDbEllipse
 10
-0.0000000000000001
 20
3.186973485926734
 30
0.0
 11
0.1026779019331875
 21
0.0
 31
0.0
210
0.0
220
0.0
230
1.0
 40
0.5000000000000007
 41
0.3587749332584824
 42
2.78281772033131
  0
ENDBLK
  5
92
330
8F
100
AcDbEntity
  8
0
100
AcDbBlockEnd
  0
BLOCK
  5
E6
330
E4
100
AcDbEntity
  8
0
100
AcDbBlockBegin
  2
3_ASME_B18_3_10_1_0_in_071244_2
 70
     2
 10
0.0
 20
0.0
 30
0.0
  3
3_ASME_B18_3_10_1_0_in_071244_2
  1

  0
ATTDEF
  5
E8
330
E4
100
AcDbEntity
  8
AM_6
100
AcDbText
 10
3.853166666666667
 20
-1.723145833333333
 30
0.0
 40
0.5
  1
ANSI/ASME B18.3-1998
100
AcDbAttributeDefinition
  3

  2
NN
 70
     8
280
     0
  0
ATTDEF
  5
E9
330
E4
100
AcDbEntity
  8
AM_6
100
AcDbText
 10
3.853166666666667
 20
-2.223145833333333
 30
0.0
 40
0.5
  1
Socket Button Head Cap Screws
100
AcDbAttributeDefinition
  3

  2
NT
 70
     8
280
     0
  0
ATTDEF
  5
EA
330
E4
100
AcDbEntity
  8
AM_6
100
AcDbText
 10
3.853166666666667
 20
-2.723145833333333
 30
0.0
 40
0.5
  1
ASME B18.3-10
100
AcDbAttributeDefinition
  3

  2
NB
 70
     8
280
     0
  0
ATTDEF
  5
EB
330
E4
100
AcDbEntity
  8
AM_6
100
AcDbText
 10
3.853166666666667
 20
-3.223145833333333
 30
0.0
 40
0.5
  1
ASME B18.3-$NS.
100
AcDbAttributeDefinition
  3

  2
NBSYN
 70
     8
280
     0
  0
ATTDEF
  5
EC
330
E4
100
AcDbEntity
  8
AM_6
100
AcDbText
 10
3.853166666666667
 20
-3.723145833333333
 30
0.0
 40
0.5
  1
ASME B18.3-10
100
AcDbAttributeDefinition
  3

  2
LINA
 70
     8
280
     0
  0
ATTDEF
  5
ED
330
E4
100
AcDbEntity
  8
AM_6
100
AcDbText
 10
3.853166666666667
 20
-4.223145833333334
 30
0.0
 40
0.5
  1
10
100
AcDbAttributeDefinition
  3

  2
NS
 70
     8
280
     0
  0
ATTDEF
  5
EE
330
E4
100
AcDbEntity
  8
AM_6
100
AcDbText
 10
3.853166666666667
 20
-4.723145833333334
 30
0.0
 40
0.5
  1
0.361
100
AcDbAttributeDefinition
  3

  2
A
 70
     8
280
     0
  0
ATTDEF
  5
EF
330
E4
100
AcDbEntity
  8
AM_6
100
AcDbText
 10
3.853166666666667
 20
-5.223145833333334
 30
0.0
 40
0.5
  1
0.101
100
AcDbAttributeDefinition
  3

  2
H
 70
     8
280
     0
  0
ATTDEF
  5
F0
330
E4
100
AcDbEntity
  8
AM_6
100
AcDbText
 10
3.853166666666667
 20
-5.723145833333334
 30
0.0
 40
0.5
  1
0.800
100
AcDbAttributeDefinition
  3

  2
L
 70
     8
280
     0
  0
ATTDEF
  5
F1
330
E4
100
AcDbEntity
  8
AM_6
100
AcDbText
 10
3.853166666666667
 20
-6.223145833333334
 30
0.0
 40
0.5
  1
0.020
100
AcDbAttributeDefinition
  3

  2
S
 70
     8
280
     0
  0
ATTDEF
  5
F2
330
E4
100
AcDbEntity
  8
AM_6
100
AcDbText
 10
3.853166666666667
 20
-6.723145833333334
 30
0.0
 40
0.5
  1
0.125000
100
AcDbAttributeDefinition
  3

  2
J
 70
     8
280
     0
  0
ATTDEF
  5
F3
330
E4
100
AcDbEntity
  8
AM_6
100
AcDbText
 10
3.853166666666667
 20
-7.223145833333334
 30
0.0
 40
0.5
  1
baldor
100
AcDbAttributeDefinition
  3

  2
COMPANY
 70
     8
280
     0
  0
LINE
  5
F4
330
E4
100
AcDbEntity
  8
AM_9
100
AcDbLine
 10
-1.986833333333333
 20
-1.83147704968463
 30
0.0
 11
-2.047833333333334
 21
-1.83147704968463
 31
0.0
  0
LINE
  5
F5
330
E4
100
AcDbEntity
  8
AM_9
100
AcDbLine
 10
-1.986833333333333
 20
-1.975814616982036
 30
0.0
 11
-2.047833333333334
 21
-1.975814616982036
 31
0.0
  0
LINE
  5
F6
330
E4
100
AcDbEntity
  8
AM_9
100
AcDbLine
 10
-1.986833333333333
 20
-1.867561441508982
 30
0.0
 11
-2.047833333333334
 21
-1.867561441508982
 31
0.0
  0
LINE
  5
F7
330
E4
100
AcDbEntity
  8
AM_9
100
AcDbLine
 10
-1.986833333333333
 20
-1.83147704968463
 30
0.0
 11
-1.986833333333333
 21
-1.975814616982036
 31
0.0
  0
LINE
  5
F8
330
E4
100
AcDbEntity
  8
AM_9
100
AcDbLine
 10
-1.986833333333333
 20
-1.939730225157685
 30
0.0
 11
-2.047833333333334
 21
-1.939730225157685
 31
0.0
  0
LINE
  5
F9
330
E4
100
AcDbEntity
  8
AM_9
100
AcDbLine
 10
-1.146833333333333
 20
-1.827245833333333
 30
0.0
 11
-1.146833333333333
 21
-1.980045833333333
 31
0.0
  0
LINE
  5
FA
330
E4
100
AcDbEntity
  8
AM_9
100
AcDbLine
 10
-1.146833333333333
 20
-1.827245833333333
 30
0.0
 11
-1.165433333333333
 21
-1.808645833333333
 31
0.0
  0
LINE
  5
FB
330
E4
100
AcDbEntity
  8
AM_9
100
AcDbLine
 10
-1.165433333333333
 20
-1.998645833333333
 30
0.0
 11
-1.146833333333333
 21
-1.980045833333333
 31
0.0
  0
LINE
  5
FC
330
E4
100
AcDbEntity
  8
AM_9
100
AcDbLine
 10
-1.165433333333333
 20
-1.808645833333333
 30
0.0
 11
-1.165433333333333
 21
-1.998645833333333
 31
0.0
  0
LINE
  5
FD
330
E4
100
AcDbEntity
  8
AM_9
100
AcDbLine
 10
-1.946833333333333
 20
-1.998645833333333
 30
0.0
 11
-1.165433333333333
 21
-1.998645833333333
 31
0.0
  0
LINE
  5
FE
330
E4
100
AcDbEntity
  8
AM_9
100
AcDbLine
 10
-1.165433333333333
 20
-1.808645833333333
 30
0.0
 11
-1.946833333333333
 21
-1.808645833333333
 31
0.0
  0
ARC
  5
FF
330
E4
100
AcDbEntity
  8
AM_9
100
AcDbCircle
 10
-1.966833333333335
 20
-2.003145833333336
 30
0.0
 40
0.0809999999999969
100
AcDbArc
 50
245.8287673381135
 51
270.0
  0
ARC
  5
100
330
E4
100
AcDbEntity
  8
AM_9
100
AcDbCircle
 10
-1.966833333333332
 20
-1.804145833333342
 30
0.0
 40
0.0810000000000084
100
AcDbArc
 50
90.0
 51
114.1712326618846
  0
LINE
  5
101
330
E4
100
AcDbEntity
  8
AM_9
100
AcDbLine
 10
-1.966833333333333
 20
-1.723145833333333
 30
0.0
 11
-1.966833333333333
 21
-2.084145833333333
 31
0.0
  0
LINE
  5
102
330
E4
100
AcDbEntity
  8
AM_9
100
AcDbLine
 10
-1.966833333333333
 20
-2.084145833333333
 30
0.0
 11
-1.946833333333333
 21
-2.084145833333333
 31
0.0
  0
LINE
  5
103
330
E4
100
AcDbEntity
  8
AM_9
100
AcDbLine
 10
-1.946833333333333
 20
-1.723145833333333
 30
0.0
 11
-1.966833333333333
 21
-1.723145833333333
 31
0.0
  0
LINE
  5
105
330
E4
100
AcDbEntity
  8
AM_5
100
AcDbLine
 10
-1.866833333333333
 20
-1.808645833333333
 30
0.0
 11
-1.866833333333333
 21
-1.998645833333331
 31
0.0
  0
LINE
  5
106
330
E4
100
AcDbEntity
  8
AM_5
100
AcDbLine
 10
-1.866833333333333
 20
-1.827245833333333
 30
0.0
 11
-1.899049478354115
 21
-1.808645833333333
 31
0.0
  0
LINE
  5
107
330
E4
100
AcDbEntity
  8
AM_4
100
AcDbLine
 10
-2.047833333333333
 20
-1.804145833333333
 30
0.0
 11
-2.047833333333333
 21
-2.003145833333333
 31
0.0
  0
ARC
  5
108
330
E4
100
AcDbEntity
  8
AM_4
100
AcDbCircle
 10
-1.966833333333333
 20
-2.003145833333333
 30
0.0
 40
0.0810000000000002
100
AcDbArc
 50
179.9999991462263
 51
245.8287673381133
  0
ARC
  5
109
330
E4
100
AcDbEntity
  8
AM_4
100
AcDbCircle
 10
-1.966833333333333
 20
-1.804145833333333
 30
0.0
 40
0.0810000000000001
100
AcDbArc
 50
114.1712326618866
 51
179.9999991462263
  0
ENDBLK
  5
E7
330
E4
100
AcDbEntity
  8
0
100
AcDbBlockEnd
  0
BLOCK
  5
10C
330
10A
100
AcDbEntity
  8
0
100
AcDbBlockBegin
  2
4_ASME_B18_3_10_2_0_in_071244_2
 70
     2
 10
0.0
 20
0.0
 30
0.0
  3
4_ASME_B18_3_10_2_0_in_071244_2
  1

  0
ATTDEF
  5
10E
330
10A
100
AcDbEntity
  8
AM_6
100
AcDbText
 10
3.853166666666667
 20
2.084145833333333
 30
0.0
 40
0.5
  1
ANSI/ASME B18.3-1998
100
AcDbAttributeDefinition
  3

  2
NN
 70
     8
280
     0
  0
ATTDEF
  5
10F
330
10A
100
AcDbEntity
  8
AM_6
100
AcDbText
 10
3.853166666666667
 20
1.584145833333333
 30
0.0
 40
0.5
  1
Socket Button Head Cap Screws
100
AcDbAttributeDefinition
  3

  2
NT
 70
     8
280
     0
  0
ATTDEF
  5
110
330
10A
100
AcDbEntity
  8
AM_6
100
AcDbText
 10
3.853166666666667
 20
1.084145833333333
 30
0.0
 40
0.5
  1
ASME B18.3-10
100
AcDbAttributeDefinition
  3

  2
NB
 70
     8
280
     0
  0
ATTDEF
  5
111
330
10A
100
AcDbEntity
  8
AM_6
100
AcDbText
 10
3.853166666666667
 20
0.5841458333333329
 30
0.0
 40
0.5
  1
ASME B18.3-$NS.
100
AcDbAttributeDefinition
  3

  2
NBSYN
 70
     8
280
     0
  0
ATTDEF
  5
112
330
10A
100
AcDbEntity
  8
AM_6
100
AcDbText
 10
3.853166666666667
 20
0.0841458333333329
 30
0.0
 40
0.5
  1
ASME B18.3-10
100
AcDbAttributeDefinition
  3

  2
LINA
 70
     8
280
     0
  0
ATTDEF
  5
113
330
10A
100
AcDbEntity
  8
AM_6
100
AcDbText
 10
3.853166666666667
 20
-0.4158541666666671
 30
0.0
 40
0.5
  1
10
100
AcDbAttributeDefinition
  3

  2
NS
 70
     8
280
     0
  0
ATTDEF
  5
114
330
10A
100
AcDbEntity
  8
AM_6
100
AcDbText
 10
3.853166666666667
 20
-0.9158541666666671
 30
0.0
 40
0.5
  1
0.361
100
AcDbAttributeDefinition
  3

  2
A
 70
     8
280
     0
  0
ATTDEF
  5
115
330
10A
100
AcDbEntity
  8
AM_6
100
AcDbText
 10
3.853166666666667
 20
-1.415854166666667
 30
0.0
 40
0.5
  1
0.101
100
AcDbAttributeDefinition
  3

  2
H
 70
     8
280
     0
  0
ATTDEF
  5
116
330
10A
100
AcDbEntity
  8
AM_6
100
AcDbText
 10
3.853166666666667
 20
-1.915854166666667
 30
0.0
 40
0.5
  1
0.800
100
AcDbAttributeDefinition
  3

  2
L
 70
     8
280
     0
  0
ATTDEF
  5
117
330
10A
100
AcDbEntity
  8
AM_6
100
AcDbText
 10
3.853166666666667
 20
-2.415854166666667
 30
0.0
 40
0.5
  1
0.020
100
AcDbAttributeDefinition
  3

  2
S
 70
     8
280
     0
  0
ATTDEF
  5
118
330
10A
100
AcDbEntity
  8
AM_6
100
AcDbText
 10
3.853166666666667
 20
-2.915854166666667
 30
0.0
 40
0.5
  1
0.125000
100
AcDbAttributeDefinition
  3

  2
J
 70
     8
280
     0
  0
ATTDEF
  5
119
330
10A
100
AcDbEntity
  8
AM_6
100
AcDbText
 10
3.853166666666667
 20
-3.415854166666667
 30
0.0
 40
0.5
  1
baldor
100
AcDbAttributeDefinition
  3

  2
COMPANY
 70
     8
280
     0
  0
LINE
  5
11A
330
10A
100
AcDbEntity
  8
AM_9
100
AcDbLine
 10
-1.986833333333333
 20
1.975814616982036
 30
0.0
 11
-2.047833333333334
 21
1.975814616982036
 31
0.0
  0
LINE
  5
11B
330
10A
100
AcDbEntity
  8
AM_9
100
AcDbLine
 10
-1.986833333333333
 20
1.83147704968463
 30
0.0
 11
-2.047833333333334
 21
1.83147704968463
 31
0.0
  0
LINE
  5
11C
330
10A
100
AcDbEntity
  8
AM_9
100
AcDbLine
 10
-1.986833333333333
 20
1.939730225157685
 30
0.0
 11
-2.047833333333334
 21
1.939730225157685
 31
0.0
  0
LINE
  5
11D
330
10A
100
AcDbEntity
  8
AM_9
100
AcDbLine
 10
-1.986833333333333
 20
1.975814616982036
 30
0.0
 11
-1.986833333333333
 21
1.83147704968463
 31
0.0
  0
LINE
  5
11E
330
10A
100
AcDbEntity
  8
AM_9
100
AcDbLine
 10
-1.986833333333333
 20
1.867561441508982
 30
0.0
 11
-2.047833333333334
 21
1.867561441508982
 31
0.0
  0
LINE
  5
11F
330
10A
100
AcDbEntity
  8
AM_9
100
AcDbLine
 10
-1.146833333333333
 20
1.980045833333333
 30
0.0
 11
-1.146833333333333
 21
1.827245833333333
 31
0.0
  0
LINE
  5
120
330
10A
100
AcDbEntity
  8
AM_9
100
AcDbLine
 10
-1.146833333333333
 20
1.980045833333333
 30
0.0
 11
-1.165433333333333
 21
1.998645833333333
 31
0.0
  0
LINE
  5
121
330
10A
100
AcDbEntity
  8
AM_9
100
AcDbLine
 10
-1.165433333333333
 20
1.808645833333333
 30
0.0
 11
-1.146833333333333
 21
1.827245833333333
 31
0.0
  0
LINE
  5
122
330
10A
100
AcDbEntity
  8
AM_9
100
AcDbLine
 10
-1.165433333333333
 20
1.998645833333333
 30
0.0
 11
-1.165433333333333
 21
1.808645833333333
 31
0.0
  0
LINE
  5
123
330
10A
100
AcDbEntity
  8
AM_9
100
AcDbLine
 10
-1.946833333333333
 20
1.808645833333333
 30
0.0
 11
-1.165433333333333
 21
1.808645833333333
 31
0.0
  0
LINE
  5
124
330
10A
100
AcDbEntity
  8
AM_9
100
AcDbLine
 10
-1.165433333333333
 20
1.998645833333333
 30
0.0
 11
-1.946833333333333
 21
1.998645833333333
 31
0.0
  0
LINE
  5
125
330
10A
100
AcDbEntity
  8
AM_5
100
AcDbLine
 10
-1.866833333333333
 20
1.827245833333333
 30
0.0
 11
-1.899049478354115
 21
1.808645833333333
 31
0.0
  0
LINE
  5
126
330
10A
100
AcDbEntity
  8
AM_5
100
AcDbLine
 10
-1.866833333333333
 20
1.998645833333331
 30
0.0
 11
-1.866833333333333
 21
1.808645833333333
 31
0.0
  0
LINE
  5
127
330
10A
100
AcDbEntity
  8
AM_4
100
AcDbLine
 10
-2.047833333333333
 20
2.003145833333333
 30
0.0
 11
-2.047833333333333
 21
1.804145833333333
 31
0.0
  0
ARC
  5
128
330
10A
100
AcDbEntity
  8
AM_4
100
AcDbCircle
 10
-1.966833333333334
 20
1.804145833333333
 30
0.0
 40
0.0809999999999995
100
AcDbArc
 50
180.0
 51
270.0
  0
ARC
  5
129
330
10A
100
AcDbEntity
  8
AM_4
100
AcDbCircle
 10
-1.966833333333334
 20
2.003145833333333
 30
0.0
 40
0.0809999999999995
100
AcDbArc
 50
90.0
 51
180.0
  0
LINE
  5
12A
330
10A
100
AcDbEntity
  8
AM_4
100
AcDbLine
 10
-1.966833333333333
 20
2.084145833333333
 30
0.0
 11
-1.966833333333333
 21
1.723145833333333
 31
0.0
  0
LINE
  5
12B
330
10A
100
AcDbEntity
  8
AM_4
100
AcDbLine
 10
-1.966833333333333
 20
1.723145833333333
 30
0.0
 11
-1.946833333333333
 21
1.723145833333333
 31
0.0
  0
LINE
  5
12C
330
10A
100
AcDbEntity
  8
AM_4
100
AcDbLine
 10
-1.946833333333333
 20
2.084145833333333
 30
0.0
 11
-1.966833333333333
 21
2.084145833333333
 31
0.0
  0
ENDBLK
  5
10D
330
10A
100
AcDbEntity
  8
0
100
AcDbBlockEnd
  0
BLOCK
  5
12F
330
12D
100
AcDbEntity
  8
0
100
AcDbBlockBegin
  2
5_070900LWE_0_in_071244_2
 70
     2
 10
0.0
 20
0.0
 30
0.0
  3
5_070900LWE_0_in_071244_2
  1

  0
ATTDEF
  5
131
330
12D
100
AcDbEntity
  8
AM_6
100
AcDbText
 10
3.493166666666666
 20
2.140000000000001
 30
0.0
 40
0.5
  1
Imperial/E Insert Lockwasher -Inch
100
AcDbAttributeDefinition
  3

  2
NN
 70
     8
280
     0
  0
ATTDEF
  5
132
330
12D
100
AcDbEntity
  8
AM_6
100
AcDbText
 10
3.493166666666666
 20
1.640000000000001
 30
0.0
 40
0.5
  1
Imperial/E Bearings
100
AcDbAttributeDefinition
  3

  2
NT
 70
     8
280
     0
  0
ATTDEF
  5
133
330
12D
100
AcDbEntity
  8
AM_6
100
AcDbText
 10
3.493166666666666
 20
1.140000000000001
 30
0.0
 40
0.5
  1
070900LWE
100
AcDbAttributeDefinition
  3

  2
NB
 70
     8
280
     0
  0
ATTDEF
  5
134
330
12D
100
AcDbEntity
  8
AM_6
100
AcDbText
 10
3.493166666666666
 20
0.6400000000000006
 30
0.0
 40
0.5
  1
$PN.LWE
100
AcDbAttributeDefinition
  3

  2
NBSYN
 70
     8
280
     0
  0
ATTDEF
  5
135
330
12D
100
AcDbEntity
  8
AM_6
100
AcDbText
 10
3.493166666666666
 20
0.1400000000000006
 30
0.0
 40
0.5
  1
070900
100
AcDbAttributeDefinition
  3

  2
LINA
 70
     8
280
     0
  0
ATTDEF
  5
136
330
12D
100
AcDbEntity
  8
AM_6
100
AcDbText
 10
3.493166666666666
 20
-0.3599999999999994
 30
0.0
 40
0.5
  1
3
100
AcDbAttributeDefinition
  3

  2
SS
 70
     8
280
     0
  0
ATTDEF
  5
137
330
12D
100
AcDbEntity
  8
AM_6
100
AcDbText
 10
3.493166666666666
 20
-0.8599999999999994
 30
0.0
 40
0.5
  1
4.280000
100
AcDbAttributeDefinition
  3

  2
E1
 70
     8
280
     0
  0
ATTDEF
  5
138
330
12D
100
AcDbEntity
  8
AM_6
100
AcDbText
 10
3.493166666666666
 20
-1.359999999999999
 30
0.0
 40
0.5
  1
3.000000
100
AcDbAttributeDefinition
  3

  2
SS1
 70
     8
280
     0
  0
ATTDEF
  5
139
330
12D
100
AcDbEntity
  8
AM_6
100
AcDbText
 10
3.493166666666666
 20
-1.859999999999999
 30
0.0
 40
0.5
  1
070900
100
AcDbAttributeDefinition
  3

  2
PN
 70
     8
280
     0
  0
ATTDEF
  5
13A
330
12D
100
AcDbEntity
  8
AM_6
100
AcDbText
 10
3.493166666666666
 20
-2.359999999999999
 30
0.0
 40
0.5
  1
INS-IP-300R
100
AcDbAttributeDefinition
  3

  2
DESCRIPTION
 70
     8
280
     0
  0
ATTDEF
  5
13B
330
12D
100
AcDbEntity
  8
AM_6
100
AcDbText
 10
3.493166666666666
 20
-2.859999999999999
 30
0.0
 40
0.5
  1
5.1181
100
AcDbAttributeDefinition
  3

  2
A
 70
     8
280
     0
  0
ATTDEF
  5
13C
330
12D
100
AcDbEntity
  8
AM_6
100
AcDbText
 10
3.493166666666666
 20
-3.359999999999999
 30
0.0
 40
0.5
  1
1-9/32
100
AcDbAttributeDefinition
  3

  2
B
 70
     8
280
     0
  0
ATTDEF
  5
13D
330
12D
100
AcDbEntity
  8
AM_6
100
AcDbText
 10
3.493166666666666
 20
-3.859999999999999
 30
0.0
 40
0.5
  1
1.281250
100
AcDbAttributeDefinition
  3

  2
B1
 70
     8
280
     0
  0
ATTDEF
  5
13E
330
12D
100
AcDbEntity
  8
AM_6
100
AcDbText
 10
3.493166666666666
 20
-4.359999999999999
 30
0.0
 40
0.5
  1
3-1/2
100
AcDbAttributeDefinition
  3

  2
C
 70
     8
280
     0
  0
ATTDEF
  5
13F
330
12D
100
AcDbEntity
  8
AM_6
100
AcDbText
 10
3.493166666666666
 20
-4.859999999999999
 30
0.0
 40
0.5
  1
3.500000
100
AcDbAttributeDefinition
  3

  2
C1
 70
     8
280
     0
  0
ATTDEF
  5
140
330
12D
100
AcDbEntity
  8
AM_6
100
AcDbText
 10
3.493166666666666
 20
-5.359999999999999
 30
0.0
 40
0.5
  1
1.219
100
AcDbAttributeDefinition
  3

  2
D
 70
     8
280
     0
  0
ATTDEF
  5
141
330
12D
100
AcDbEntity
  8
AM_6
100
AcDbText
 10
3.493166666666666
 20
-5.859999999999999
 30
0.0
 40
0.5
  1
4-9/32
100
AcDbAttributeDefinition
  3

  2
E
 70
     8
280
     0
  0
ATTDEF
  5
142
330
12D
100
AcDbEntity
  8
AM_6
100
AcDbText
 10
3.493166666666666
 20
-6.359999999999999
 30
0.0
 40
0.5
  1
0.1900
100
AcDbAttributeDefinition
  3

  2
NDM
 70
     8
280
     0
  0
ATTDEF
  5
143
330
12D
100
AcDbEntity
  8
AM_6
100
AcDbText
 10
3.493166666666666
 20
-6.859999999999999
 30
0.0
 40
0.5
  1
0.1450
100
AcDbAttributeDefinition
  3

  2
KDM
 70
     8
280
     0
  0
ATTDEF
  5
144
330
12D
100
AcDbEntity
  8
AM_6
100
AcDbText
 10
3.493166666666666
 20
-7.359999999999999
 30
0.0
 40
0.5
  1
3.74
100
AcDbAttributeDefinition
  3

  2
AL
 70
     8
280
     0
  0
ATTDEF
  5
145
330
12D
100
AcDbEntity
  8
AM_6
100
AcDbText
 10
3.493166666666666
 20
-7.859999999999999
 30
0.0
 40
0.5
  1
0.50
100
AcDbAttributeDefinition
  3

  2
BL
 70
     8
280
     0
  0
ATTDEF
  5
146
330
12D
100
AcDbEntity
  8
AM_6
100
AcDbText
 10
3.493166666666666
 20
-8.36
 30
0.0
 40
0.5
  1
0.07
100
AcDbAttributeDefinition
  3

  2
CL
 70
     8
280
     0
  0
ATTDEF
  5
147
330
12D
100
AcDbEntity
  8
AM_6
100
AcDbText
 10
3.493166666666666
 20
-8.86
 30
0.0
 40
0.5
  1
0.44
100
AcDbAttributeDefinition
  3

  2
DL
 70
     8
280
     0
  0
ATTDEF
  5
148
330
12D
100
AcDbEntity
  8
AM_6
100
AcDbText
 10
3.493166666666666
 20
-9.36
 30
0.0
 40
0.5
  1
baldor
100
AcDbAttributeDefinition
  3

  2
COMPANY
 70
     8
280
     0
  0
LINE
  5
149
330
12D
100
AcDbEntity
  8
AM_9
100
AcDbLine
 10
-1.876833333333333
 20
1.445889983053101
 30
0.0
 11
-1.946833333333333
 21
1.445889983053101
 31
0.0
  0
LINE
  5
14A
330
12D
100
AcDbEntity
  8
AM_9
100
AcDbLine
 10
-1.506833333333333
 20
1.406343263617088
 30
0.0
 11
-1.876833333333333
 21
1.406343263617088
 31
0.0
  0
LINE
  5
14B
330
12D
100
AcDbEntity
  8
AM_9
100
AcDbLine
 10
-1.506833333333333
 20
1.333163614077438
 30
0.0
 11
-1.946833333333333
 21
1.333163614077438
 31
0.0
  0
LINE
  5
14C
330
12D
100
AcDbEntity
  8
AM_9
100
AcDbLine
 10
-1.876833333333333
 20
1.50201412170836
 30
0.0
 11
-1.506833333333333
 21
1.50201412170836
 31
0.0
  0
LINE
  5
14D
330
12D
100
AcDbEntity
  8
AM_9
100
AcDbLine
 10
-1.506833333333333
 20
1.428834472168711
 30
0.0
 11
-1.946833333333333
 21
1.428834472168711
 31
0.0
  0
LINE
  5
14E
330
12D
100
AcDbEntity
  8
AM_9
100
AcDbLine
 10
-1.506833333333333
 20
1.333163614077438
 30
0.0
 11
-1.506833333333333
 21
1.50201412170836
 31
0.0
  0
LINE
  5
14F
330
12D
100
AcDbEntity
  8
AM_9
100
AcDbLine
 10
-1.876833333333333
 20
1.541560841144374
 30
0.0
 11
-1.946833333333333
 21
1.541560841144374
 31
0.0
  0
LINE
  5
150
330
12D
100
AcDbEntity
  8
AM_9
100
AcDbLine
 10
-1.876833333333333
 20
1.903333333333333
 30
0.0
 11
-1.946833333333333
 21
1.903333333333333
 31
0.0
  0
LINE
  5
151
330
12D
100
AcDbEntity
  8
AM_9
100
AcDbLine
 10
-1.876833333333333
 20
1.9983629492314
 30
0.0
 11
-1.946833333333333
 21
1.9983629492314
 31
0.0
  0
LINE
  5
152
330
12D
100
AcDbEntity
  8
AM_9
100
AcDbLine
 10
-1.876833333333333
 20
-1.903333333333333
 30
0.0
 11
-1.946833333333333
 21
-1.903333333333333
 31
0.0
  0
LINE
  5
153
330
12D
100
AcDbEntity
  8
AM_9
100
AcDbLine
 10
-1.946833333333333
 20
-1.9983629492314
 30
0.0
 11
-1.876833333333333
 21
-1.9983629492314
 31
0.0
  0
LINE
  5
154
330
12D
100
AcDbEntity
  8
AM_9
100
AcDbLine
 10
-1.876833333333333
 20
1.618836521613821
 30
0.0
 11
-1.946833333333333
 21
1.618836521613821
 31
0.0
  0
LINE
  5
155
330
12D
100
AcDbEntity
  8
AM_9
100
AcDbLine
 10
-1.876833333333333
 20
-1.618836521613822
 30
0.0
 11
-1.946833333333333
 21
-1.618836521613822
 31
0.0
  0
LINE
  5
156
330
12D
100
AcDbEntity
  8
AM_9
100
AcDbLine
 10
-1.876833333333333
 20
1.211865426278298
 30
0.0
 11
-1.946833333333333
 21
1.211865426278298
 31
0.0
  0
LINE
  5
157
330
12D
100
AcDbEntity
  8
AM_9
100
AcDbLine
 10
-1.876833333333333
 20
-1.211865426278298
 30
0.0
 11
-1.946833333333333
 21
-1.211865426278298
 31
0.0
  0
LINE
  5
158
330
12D
100
AcDbEntity
  8
AM_9
100
AcDbLine
 10
-1.876833333333333
 20
-1.077515137852854
 30
0.0
 11
-1.946833333333333
 21
-1.077515137852854
 31
0.0
  0
LINE
  5
159
330
12D
100
AcDbEntity
  8
AM_9
100
AcDbLine
 10
-1.876833333333333
 20
1.077515137852854
 30
0.0
 11
-1.946833333333333
 21
1.077515137852854
 31
0.0
  0
LINE
  5
15A
330
12D
100
AcDbEntity
  8
AM_9
100
AcDbLine
 10
-1.876833333333333
 20
1.413035051071118
 30
0.0
 11
-1.946833333333333
 21
1.413035051071118
 31
0.0
  0
LINE
  5
15B
330
12D
100
AcDbEntity
  8
AM_9
100
AcDbLine
 10
-1.876833333333333
 20
1.278684762645674
 30
0.0
 11
-1.946833333333333
 21
1.278684762645674
 31
0.0
  0
LINE
  5
15C
330
12D
100
AcDbEntity
  8
AM_9
100
AcDbLine
 10
-1.876833333333333
 20
1.440880849812418
 30
0.0
 11
-1.946833333333333
 21
1.440880849812418
 31
0.0
  0
LINE
  5
15D
330
12D
100
AcDbEntity
  8
AM_9
100
AcDbLine
 10
-1.876833333333333
 20
-1.278684762645673
 30
0.0
 11
-1.946833333333333
 21
-1.278684762645673
 31
0.0
  0
LINE
  5
15E
330
12D
100
AcDbEntity
  8
AM_9
100
AcDbLine
 10
-1.876833333333333
 20
-1.413035051071144
 30
0.0
 11
-1.946833333333333
 21
-1.413035051071144
 31
0.0
  0
LINE
  5
15F
330
12D
100
AcDbEntity
  8
AM_9
100
AcDbLine
 10
-1.946833333333333
 20
-1.440880849812417
 30
0.0
 11
-1.876833333333333
 21
-1.440880849812417
 31
0.0
  0
LINE
  5
160
330
12D
100
AcDbEntity
  8
AM_9
100
AcDbLine
 10
-1.876833333333333
 20
0.0950000000000001
 30
0.0
 11
-1.946833333333333
 21
0.0950000000000001
 31
0.0
  0
LINE
  5
161
330
12D
100
AcDbEntity
  8
AM_9
100
AcDbLine
 10
-1.876833333333333
 20
-0.0949999999999995
 30
0.0
 11
-1.946833333333333
 21
-0.0949999999999995
 31
0.0
  0
LINE
  5
162
330
12D
100
AcDbEntity
  8
AM_9
100
AcDbLine
 10
-1.946833333333333
 20
-2.140000000000001
 30
0.0
 11
-1.876833333333333
 21
-2.140000000000001
 31
0.0
  0
LINE
  5
163
330
12D
100
AcDbEntity
  8
AM_9
100
AcDbLine
 10
-1.946833333333333
 20
-1.244098436617435
 30
0.0
 11
-1.946833333333333
 21
-2.140000000000001
 31
0.0
  0
LINE
  5
164
330
12D
100
AcDbEntity
  8
AM_9
100
AcDbLine
 10
-1.876833333333333
 20
-1.326515590093167
 30
0.0
 11
-1.876833333333333
 21
-1.680068980686441
 31
0.0
  0
LINE
  5
165
330
12D
100
AcDbEntity
  8
AM_4
100
AcDbLine
 10
-1.876833333333333
 20
2.140000000000001
 30
0.0
 11
-1.946833333333333
 21
2.140000000000001
 31
0.0
  0
LINE
  5
166
330
12D
100
AcDbEntity
  8
AM_4
100
AcDbLine
 10
-1.946833333333333
 20
2.140000000000001
 30
0.0
 11
-1.946833333333333
 21
-1.244098436617435
 31
0.0
  0
LINE
  5
167
330
12D
100
AcDbEntity
  8
AM_4
100
AcDbLine
 10
-1.876833333333333
 20
1.680068980686441
 30
0.0
 11
-1.876833333333333
 21
1.326515590093167
 31
0.0
  0
ENDBLK
  5
130
330
12D
100
AcDbEntity
  8
0
100
AcDbBlockEnd
  0
BLOCK
  5
16A
330
168
100
AcDbEntity
  8
0
100
AcDbBlockBegin
  2
6_070932EL_0_in_071244_2
 70
     2
 10
0.0
 20
0.0
 30
0.0
  3
6_070932EL_0_in_071244_2
  1

  0
ATTDEF
  5
16C
330
168
100
AcDbEntity
  8
AM_6
100
AcDbText
 10
6.375000000000002
 20
2.55905
 30
0.0
 40
0.5
  1
Imperial/E Insert -Inch
100
AcDbAttributeDefinition
  3

  2
NN
 70
     8
280
     0
  0
ATTDEF
  5
16D
330
168
100
AcDbEntity
  8
AM_6
100
AcDbText
 10
6.375000000000002
 20
2.05905
 30
0.0
 40
0.5
  1
Imperial Bearings
100
AcDbAttributeDefinition
  3

  2
NT
 70
     8
280
     0
  0
ATTDEF
  5
16E
330
168
100
AcDbEntity
  8
AM_6
100
AcDbText
 10
6.375000000000002
 20
1.55905
 30
0.0
 40
0.5
  1
070932EL
100
AcDbAttributeDefinition
  3

  2
NB
 70
     8
280
     0
  0
ATTDEF
  5
16F
330
168
100
AcDbEntity
  8
AM_6
100
AcDbText
 10
6.375000000000002
 20
1.05905
 30
0.0
 40
0.5
  1
$PN.
100
AcDbAttributeDefinition
  3

  2
NBSYN
 70
     8
280
     0
  0
ATTDEF
  5
170
330
168
100
AcDbEntity
  8
AM_6
100
AcDbText
 10
6.375000000000002
 20
0.55905
 30
0.0
 40
0.5
  1
070932EL
100
AcDbAttributeDefinition
  3

  2
LINA
 70
     8
280
     0
  0
ATTDEF
  5
171
330
168
100
AcDbEntity
  8
AM_6
100
AcDbText
 10
6.375000000000002
 20
0.05905
 30
0.0
 40
0.5
  1
3
100
AcDbAttributeDefinition
  3

  2
SS
 70
     8
280
     0
  0
ATTDEF
  5
172
330
168
100
AcDbEntity
  8
AM_6
100
AcDbText
 10
6.375000000000002
 20
-0.44095
 30
0.0
 40
0.5
  1
3.000000
100
AcDbAttributeDefinition
  3

  2
SS1
 70
     8
280
     0
  0
ATTDEF
  5
173
330
168
100
AcDbEntity
  8
AM_6
100
AcDbText
 10
6.375000000000002
 20
-0.94095
 30
0.0
 40
0.5
  1
070932EL
100
AcDbAttributeDefinition
  3

  2
PN
 70
     8
280
     0
  0
ATTDEF
  5
174
330
168
100
AcDbEntity
  8
AM_6
100
AcDbText
 10
6.375000000000002
 20
-1.44095
 30
0.0
 40
0.5
  1
INS-IP-300L
100
AcDbAttributeDefinition
  3

  2
DESCRIPTION
 70
     8
280
     0
  0
ATTDEF
  5
175
330
168
100
AcDbEntity
  8
AM_6
100
AcDbText
 10
6.375000000000002
 20
-1.94095
 30
0.0
 40
0.5
  1
Labyrinth Seal
100
AcDbAttributeDefinition
  3

  2
ST
 70
     8
280
     0
  0
ATTDEF
  5
176
330
168
100
AcDbEntity
  8
AM_6
100
AcDbText
 10
6.375000000000002
 20
-2.44095
 30
0.0
 40
0.5
  1
2
100
AcDbAttributeDefinition
  3

  2
ST1
 70
     8
280
     0
  0
ATTDEF
  5
177
330
168
100
AcDbEntity
  8
AM_6
100
AcDbText
 10
6.375000000000002
 20
-2.94095
 30
0.0
 40
0.5
  1
5.1181
100
AcDbAttributeDefinition
  3

  2
A
 70
     8
280
     0
  0
ATTDEF
  5
178
330
168
100
AcDbEntity
  8
AM_6
100
AcDbText
 10
6.375000000000002
 20
-3.44095
 30
0.0
 40
0.5
  1
1-9/32
100
AcDbAttributeDefinition
  3

  2
B
 70
     8
280
     0
  0
ATTDEF
  5
179
330
168
100
AcDbEntity
  8
AM_6
100
AcDbText
 10
6.375000000000002
 20
-3.94095
 30
0.0
 40
0.5
  1
1.281250
100
AcDbAttributeDefinition
  3

  2
B1
 70
     8
280
     0
  0
ATTDEF
  5
17A
330
168
100
AcDbEntity
  8
AM_6
100
AcDbText
 10
6.375000000000002
 20
-4.44095
 30
0.0
 40
0.5
  1
3-1/2
100
AcDbAttributeDefinition
  3

  2
C
 70
     8
280
     0
  0
ATTDEF
  5
17B
330
168
100
AcDbEntity
  8
AM_6
100
AcDbText
 10
6.375000000000002
 20
-4.94095
 30
0.0
 40
0.5
  1
3.500000
100
AcDbAttributeDefinition
  3

  2
C1
 70
     8
280
     0
  0
ATTDEF
  5
17C
330
168
100
AcDbEntity
  8
AM_6
100
AcDbText
 10
6.375000000000002
 20
-5.44095
 30
0.0
 40
0.5
  1
4.59000
100
AcDbAttributeDefinition
  3

  2
CR
 70
     8
280
     0
  0
ATTDEF
  5
17D
330
168
100
AcDbEntity
  8
AM_6
100
AcDbText
 10
6.375000000000002
 20
-5.94095
 30
0.0
 40
0.5
  1
1.219
100
AcDbAttributeDefinition
  3

  2
D
 70
     8
280
     0
  0
ATTDEF
  5
17E
330
168
100
AcDbEntity
  8
AM_6
100
AcDbText
 10
6.375000000000002
 20
-6.44095
 30
0.0
 40
0.5
  1
4-9/32
100
AcDbAttributeDefinition
  3

  2
E
 70
     8
280
     0
  0
ATTDEF
  5
17F
330
168
100
AcDbEntity
  8
AM_6
100
AcDbText
 10
6.375000000000002
 20
-6.94095
 30
0.0
 40
0.5
  1
4.281250
100
AcDbAttributeDefinition
  3

  2
E1
 70
     8
280
     0
  0
ATTDEF
  5
180
330
168
100
AcDbEntity
  8
AM_6
100
AcDbText
 10
6.375000000000002
 20
-7.44095
 30
0.0
 40
0.5
  1
0.1900
100
AcDbAttributeDefinition
  3

  2
NDM
 70
     8
280
     0
  0
ATTDEF
  5
181
330
168
100
AcDbEntity
  8
AM_6
100
AcDbText
 10
6.375000000000002
 20
-7.94095
 30
0.0
 40
0.5
  1
0.1450
100
AcDbAttributeDefinition
  3

  2
KDM
 70
     8
280
     0
  0
ATTDEF
  5
182
330
168
100
AcDbEntity
  8
AM_6
100
AcDbText
 10
6.375000000000002
 20
-8.44095
 30
0.0
 40
0.5
  1
3.74
100
AcDbAttributeDefinition
  3

  2
AL
 70
     8
280
     0
  0
ATTDEF
  5
183
330
168
100
AcDbEntity
  8
AM_6
100
AcDbText
 10
6.375000000000002
 20
-8.94095
 30
0.0
 40
0.5
  1
0.50
100
AcDbAttributeDefinition
  3

  2
BL
 70
     8
280
     0
  0
ATTDEF
  5
184
330
168
100
AcDbEntity
  8
AM_6
100
AcDbText
 10
6.375000000000002
 20
-9.44095
 30
0.0
 40
0.5
  1
0.07
100
AcDbAttributeDefinition
  3

  2
CL
 70
     8
280
     0
  0
ATTDEF
  5
185
330
168
100
AcDbEntity
  8
AM_6
100
AcDbText
 10
6.375000000000002
 20
-9.94095
 30
0.0
 40
0.5
  1
0.44
100
AcDbAttributeDefinition
  3

  2
DL
 70
     8
280
     0
  0
ATTDEF
  5
186
330
168
100
AcDbEntity
  8
AM_6
100
AcDbText
 10
6.375000000000002
 20
-10.44095
 30
0.0
 40
0.5
  1
0.8000
100
AcDbAttributeDefinition
  3

  2
LL
 70
     8
280
     0
  0
ATTDEF
  5
187
330
168
100
AcDbEntity
  8
AM_6
100
AcDbText
 10
6.375000000000002
 20
-10.94095
 30
0.0
 40
0.5
  1
0.025
100
AcDbAttributeDefinition
  3

  2
Y
 70
     8
280
     0
  0
ATTDEF
  5
188
330
168
100
AcDbEntity
  8
AM_6
100
AcDbText
 10
6.375000000000002
 20
-11.44095
 30
0.0
 40
0.5
  1
0.025000
100
AcDbAttributeDefinition
  3

  2
Y1
 70
     8
280
     0
  0
ATTDEF
  5
189
330
168
100
AcDbEntity
  8
AM_6
100
AcDbText
 10
6.375000000000002
 20
-11.94095
 30
0.0
 40
0.5
  1
3-15/32
100
AcDbAttributeDefinition
  3

  2
Z
 70
     8
280
     0
  0
ATTDEF
  5
18A
330
168
100
AcDbEntity
  8
AM_6
100
AcDbText
 10
6.375000000000002
 20
-12.44095
 30
0.0
 40
0.5
  1
3.468750
100
AcDbAttributeDefinition
  3

  2
Z1
 70
     8
280
     0
  0
ATTDEF
  5
18B
330
168
100
AcDbEntity
  8
AM_6
100
AcDbText
 10
6.375000000000002
 20
-12.94095
 30
0.0
 40
0.5
  1
1.10000
100
AcDbAttributeDefinition
  3

  2
P1
 70
     8
280
     0
  0
ATTDEF
  5
18C
330
168
100
AcDbEntity
  8
AM_6
100
AcDbText
 10
6.375000000000002
 20
-13.44095
 30
0.0
 40
0.5
  1
1.61000
100
AcDbAttributeDefinition
  3

  2
H1
 70
     8
280
     0
  0
ATTDEF
  5
18D
330
168
100
AcDbEntity
  8
AM_6
100
AcDbText
 10
6.375000000000002
 20
-13.94095
 30
0.0
 40
0.5
  1
0.79000
100
AcDbAttributeDefinition
  3

  2
G1
 70
     8
280
     0
  0
ATTDEF
  5
18E
330
168
100
AcDbEntity
  8
AM_6
100
AcDbText
 10
6.375000000000002
 20
-14.44095
 30
0.0
 40
0.5
  1
0.10100
100
AcDbAttributeDefinition
  3

  2
CW
 70
     8
280
     0
  0
ATTDEF
  5
18F
330
168
100
AcDbEntity
  8
AM_6
100
AcDbText
 10
6.375000000000002
 20
-14.94095
 30
0.0
 40
0.5
  1
4.28000
100
AcDbAttributeDefinition
  3

  2
L1
 70
     8
280
     0
  0
ATTDEF
  5
190
330
168
100
AcDbEntity
  8
AM_6
100
AcDbText
 10
6.375000000000002
 20
-15.44095
 30
0.0
 40
0.5
  1
baldor
100
AcDbAttributeDefinition
  3

  2
COMPANY
 70
     8
280
     0
  0
LINE
  5
191
330
168
100
AcDbEntity
  8
AM_9
100
AcDbLine
 10
0.7716249999999997
 20
1.50587517155613
 30
0.0
 11
-1.876833333333334
 21
1.50587517155613
 31
0.0
  0
LINE
  5
192
330
168
100
AcDbEntity
  8
AM_9
100
AcDbLine
 10
0.7716249999999997
 20
1.410204313464857
 30
0.0
 11
-1.876833333333334
 21
1.410204313464857
 31
0.0
  0
LINE
  5
193
330
168
100
AcDbEntity
  8
AM_9
100
AcDbLine
 10
-1.036833333333333
 20
1.903645833333333
 30
0.0
 11
-1.078662360336122
 21
1.976095833333333
 31
0.0
  0
LINE
  5
194
330
168
100
AcDbEntity
  8
AM_9
100
AcDbLine
 10
-1.078662360336122
 20
1.831195833333333
 30
0.0
 11
-1.036833333333333
 21
1.903645833333333
 31
0.0
  0
LINE
  5
195
330
168
100
AcDbEntity
  8
AM_9
100
AcDbLine
 10
-1.036833333333335
 20
-1.903645833333333
 30
0.0
 11
-1.078662360336101
 21
-1.831195833333333
 31
0.0
  0
LINE
  5
196
330
168
100
AcDbEntity
  8
AM_9
100
AcDbLine
 10
-1.078662360336101
 20
-1.976095833333333
 30
0.0
 11
-1.036833333333335
 21
-1.903645833333333
 31
0.0
  0
LINE
  5
197
330
168
100
AcDbEntity
  8
AM_9
100
AcDbLine
 10
-1.078662360336122
 20
1.831195833333333
 30
0.0
 11
-1.078662360336122
 21
1.976095833333333
 31
0.0
  0
LINE
  5
198
330
168
100
AcDbEntity
  8
AM_9
100
AcDbLine
 10
-1.078662360336122
 20
1.976095833333333
 30
0.0
 11
-1.854283333333333
 21
1.976095833333333
 31
0.0
  0
LINE
  5
199
330
168
100
AcDbEntity
  8
AM_9
100
AcDbLine
 10
-1.854283333333333
 20
1.831195833333333
 30
0.0
 11
-1.078662360336122
 21
1.831195833333333
 31
0.0
  0
LINE
  5
19A
330
168
100
AcDbEntity
  8
AM_9
100
AcDbLine
 10
-1.854283333333337
 20
-1.976095833333333
 30
0.0
 11
-1.078662360336101
 21
-1.976095833333333
 31
0.0
  0
LINE
  5
19B
330
168
100
AcDbEntity
  8
AM_9
100
AcDbLine
 10
-1.078662360336101
 20
-1.831195833333333
 30
0.0
 11
-1.854283333333337
 21
-1.831195833333333
 31
0.0
  0
LINE
  5
19C
330
168
100
AcDbEntity
  8
AM_9
100
AcDbLine
 10
-1.078662360336101
 20
-1.831195833333333
 30
0.0
 11
-1.078662360336101
 21
-1.976095833333333
 31
0.0
  0
LINE
  5
19D
330
168
100
AcDbEntity
  8
AM_9
100
AcDbLine
 10
-1.854283333333333
 20
1.831195833333333
 30
0.0
 11
-1.854283333333333
 21
1.976095833333333
 31
0.0
  0
LINE
  5
19E
330
168
100
AcDbEntity
  8
AM_9
100
AcDbLine
 10
-1.854283333333333
 20
1.976095833333333
 30
0.0
 11
-1.876833333333333
 21
1.998645833333333
 31
0.0
  0
LINE
  5
19F
330
168
100
AcDbEntity
  8
AM_9
100
AcDbLine
 10
-1.876833333333333
 20
1.808645833333333
 30
0.0
 11
-1.854283333333333
 21
1.831195833333333
 31
0.0
  0
LINE
  5
1A0
330
168
100
AcDbEntity
  8
AM_9
100
AcDbLine
 10
-1.854283333333337
 20
-1.831195833333333
 30
0.0
 11
-1.876833333333314
 21
-1.808645833333333
 31
0.0
  0
LINE
  5
1A1
330
168
100
AcDbEntity
  8
AM_9
100
AcDbLine
 10
-1.876833333333314
 20
-1.998645833333333
 30
0.0
 11
-1.854283333333337
 21
-1.976095833333333
 31
0.0
  0
LINE
  5
1A2
330
168
100
AcDbEntity
  8
AM_9
100
AcDbLine
 10
-1.854283333333337
 20
-1.831195833333333
 30
0.0
 11
-1.854283333333337
 21
-1.976095833333333
 31
0.0
  0
LINE
  5
1A3
330
168
100
AcDbEntity
  8
AM_9
100
AcDbLine
 10
-1.436833333333333
 20
-1.145512985522207
 30
0.0
 11
-1.876833333333333
 21
-1.145512985522207
 31
0.0
  0
LINE
  5
1A4
330
168
100
AcDbEntity
  8
AM_9
100
AcDbLine
 10
0.7716249999999997
 20
-1.5
 30
0.0
 11
-1.876833333333333
 21
-1.499066376115481
 31
0.0
  0
LINE
  5
1A5
330
168
100
AcDbEntity
  8
AM_9
100
AcDbLine
 10
-1.436833333333333
 20
1.145512985522207
 30
0.0
 11
-1.876833333333333
 21
1.145512985522207
 31
0.0
  0
LINE
  5
1A6
330
168
100
AcDbEntity
  8
AM_9
100
AcDbLine
 10
-1.436833333333333
 20
1.499066376115481
 30
0.0
 11
-1.8
 21
1.499066376115481
 31
0.0
  0
LINE
  5
1A7
330
168
100
AcDbEntity
  8
AM_9
100
AcDbLine
 10
0.7716249999999997
 20
1.42883447216871
 30
0.0
 11
-2.15
 21
1.42883447216871
 31
0.0
  0
LINE
  5
1A8
330
168
100
AcDbEntity
  8
AM_9
100
AcDbLine
 10
-2.15
 20
1.333163614077437
 30
0.0
 11
0.7716249999999997
 21
1.333163614077438
 31
0.0
  0
LINE
  5
1A9
330
168
100
AcDbEntity
  8
AM_9
100
AcDbLine
 10
0.7716249999999997
 20
1.5
 30
0.0
 11
-2.15
 21
1.5
 31
0.0
  0
LINE
  5
1AA
330
168
100
AcDbEntity
  8
AM_9
100
AcDbLine
 10
-2.15
 20
-1.5
 30
0.0
 11
-1.436833333333333
 21
-1.5
 31
0.0
  0
LINE
  5
1AB
330
168
100
AcDbEntity
  8
AM_9
100
AcDbLine
 10
1.35
 20
1.578947368421053
 30
0.0
 11
0.7716249999999997
 21
1.578947368421053
 31
0.0
  0
LINE
  5
1AC
330
168
100
AcDbEntity
  8
AM_9
100
AcDbLine
 10
0.7716249999999997
 20
-1.578947368421053
 30
0.0
 11
1.35
 21
-1.578947368421053
 31
0.0
  0
LINE
  5
1AD
330
168
100
AcDbEntity
  8
AM_9
100
AcDbLine
 10
-2.15
 20
1.50201412170836
 30
0.0
 11
-1.876833333333333
 21
1.502014121708361
 31
0.0
  0
LINE
  5
1AE
330
168
100
AcDbEntity
  8
AM_9
100
AcDbLine
 10
-1.876833333333333
 20
1.406343263617088
 30
0.0
 11
-2.15
 21
1.406343263617088
 31
0.0
  0
LINE
  5
1AF
330
168
100
AcDbEntity
  8
AM_9
100
AcDbLine
 10
-1.876833333333333
 20
1.578947368421053
 30
0.0
 11
-1.946833333333333
 21
1.578947368421053
 31
0.0
  0
LINE
  5
1B0
330
168
100
AcDbEntity
  8
AM_9
100
AcDbLine
 10
-2.0
 20
-1.578947368421053
 30
0.0
 11
-1.876833333333333
 21
-1.578947368421053
 31
0.0
  0
LINE
  5
1B1
330
168
100
AcDbEntity
  8
AM_9
100
AcDbLine
 10
-1.436833333333333
 20
1.685537006793197
 30
0.0
 11
-1.436833333333333
 21
1.145512985522207
 31
0.0
  0
LINE
  5
1B2
330
168
100
AcDbEntity
  8
AM_9
100
AcDbLine
 10
1.35
 20
-1.734375
 30
0.0
 11
1.35
 21
1.734375
 31
0.0
  0
LINE
  5
1B3
330
168
100
AcDbEntity
  8
AM_9
100
AcDbLine
 10
1.374999999999999
 20
1.734375
 30
0.0
 11
1.35
 21
1.734375
 31
0.0
  0
LINE
  5
1B4
330
168
100
AcDbEntity
  8
AM_9
100
AcDbLine
 10
1.35
 20
-1.734375
 30
0.0
 11
1.374999999999999
 21
-1.734375
 31
0.0
  0
LINE
  5
1B5
330
168
100
AcDbEntity
  8
AM_9
100
AcDbLine
 10
-1.876833333333333
 20
-1.326515590093167
 30
0.0
 11
-1.876833333333333
 21
-1.22292555564756
 31
0.0
  0
LINE
  5
1B6
330
168
100
AcDbEntity
  8
AM_9
100
AcDbLine
 10
-1.876833333333333
 20
-1.326515590093167
 30
0.0
 11
-1.436833333333333
 21
-1.331983616199923
 31
0.0
  0
LINE
  5
1B7
330
168
100
AcDbEntity
  8
AM_9
100
AcDbLine
 10
-1.436833333333333
 20
-1.145512985522207
 30
0.0
 11
-1.436833333333333
 21
-1.685537006793197
 31
0.0
  0
LINE
  5
1B8
330
168
100
AcDbEntity
  8
AM_9
100
AcDbLine
 10
-1.436833333333333
 20
-1.685537006793197
 30
0.0
 11
-1.876833333333333
 21
-1.680068980686441
 31
0.0
  0
LINE
  5
1B9
330
168
100
AcDbEntity
  8
AM_9
100
AcDbLine
 10
-1.800000000483711
 20
1.681023833494402
 30
0.0
 11
-1.436833333333333
 21
1.685537006793197
 31
0.0
  0
LINE
  5
1BA
330
168
100
AcDbEntity
  8
AM_9
100
AcDbLine
 10
-1.436833333333333
 20
1.331983616199923
 30
0.0
 11
-1.800000000483711
 21
1.327470442901128
 31
0.0
  0
LINE
  5
1BB
330
168
100
AcDbEntity
  8
AM_9
100
AcDbLine
 10
-1.876833333333333
 20
-2.140625
 30
0.0
 11
-0.5587523796781362
 21
-2.163632188626698
 31
0.0
  0
LINE
  5
1BC
330
168
100
AcDbEntity
  8
AM_9
100
AcDbLine
 10
-0.5587523796781362
 20
2.163632188626698
 30
0.0
 11
-1.8
 21
2.141966130821985
 31
0.0
  0
LINE
  5
1BD
330
168
100
AcDbEntity
  8
AM_9
100
AcDbLine
 10
-1.876833333333333
 20
-2.140625
 30
0.0
 11
-1.876833333333333
 21
-1.680068980686441
 31
0.0
  0
ARC
  5
1BE
330
168
100
AcDbEntity
  8
AM_9
100
AcDbCircle
 10
-0.5596250000000007
 20
2.213624573384519
 30
0.0
 40
0.0500000000000008
100
AcDbArc
 50
271.0000000000004
 51
0.0
  0
ARC
  5
1BF
330
168
100
AcDbEntity
  8
AM_9
100
AcDbCircle
 10
-0.5596250000000007
 20
-2.213624573384519
 30
0.0
 40
0.0500000000000005
100
AcDbArc
 50
0.0
 51
88.99999999999963
  0
LINE
  5
1C0
330
168
100
AcDbEntity
  8
AM_9
100
AcDbLine
 10
-0.5587523796781362
 20
-2.163632188626698
 30
0.0
 11
-0.5587523796781362
 21
2.163632188626698
 31
0.0
  0
ARC
  5
1C1
330
168
100
AcDbEntity
  8
AM_9
100
AcDbCircle
 10
0.9278750000000011
 20
2.153368966601196
 30
0.0
 40
0.0999999999999983
100
AcDbArc
 50
0.0
 51
60.00000000000043
  0
ARC
  5
1C2
330
168
100
AcDbEntity
  8
AM_9
100
AcDbCircle
 10
0.9278750000000011
 20
-2.153368966601196
 30
0.0
 40
0.0999999999999985
100
AcDbArc
 50
299.9999999999995
 51
0.0
  0
LINE
  5
1C3
330
168
100
AcDbEntity
  8
AM_9
100
AcDbLine
 10
1.375000000000001
 20
2.3125
 30
0.0
 11
1.027874999999999
 21
2.3125
 31
0.0
  0
LINE
  5
1C4
330
168
100
AcDbEntity
  8
AM_9
100
AcDbLine
 10
1.027874999999999
 20
-2.3125
 30
0.0
 11
1.375000000000001
 21
-2.3125
 31
0.0
  0
LINE
  5
1C5
330
168
100
AcDbEntity
  8
AM_9
100
AcDbLine
 10
1.375000000000001
 20
-2.3125
 30
0.0
 11
1.375000000000001
 21
2.3125
 31
0.0
  0
LINE
  5
1C6
330
168
100
AcDbEntity
  8
AM_9
100
AcDbLine
 10
1.027874999999999
 20
-2.3125
 30
0.0
 11
1.027874999999999
 21
2.3125
 31
0.0
  0
LINE
  5
1C7
330
168
100
AcDbEntity
  8
AM_9
100
AcDbLine
 10
0.9778749999999997
 20
2.239971506979639
 30
0.0
 11
0.7716249999999997
 21
2.35905
 31
0.0
  0
LINE
  5
1C8
330
168
100
AcDbEntity
  8
AM_9
100
AcDbLine
 10
0.7716249999999997
 20
-2.35905
 30
0.0
 11
0.9778749999999997
 21
-2.239971506979639
 31
0.0
  0
LINE
  5
1C9
330
168
100
AcDbEntity
  8
AM_9
100
AcDbLine
 10
0.9778749999999997
 20
-2.239971506979639
 30
0.0
 11
0.9778749999999997
 21
2.239971506979639
 31
0.0
  0
LINE
  5
1CA
330
168
100
AcDbEntity
  8
AM_9
100
AcDbLine
 10
0.1479865016199599
 20
2.4949875
 30
0.0
 11
0.074013498380039
 21
2.4949875
 31
0.0
  0
LINE
  5
1CB
330
168
100
AcDbEntity
  8
AM_9
100
AcDbLine
 10
0.074013498380039
 20
-2.4949875
 30
0.0
 11
0.1479865016199599
 21
-2.4949875
 31
0.0
  0
LINE
  5
1CC
330
168
100
AcDbEntity
  8
AM_9
100
AcDbLine
 10
0.1479865016199599
 20
-2.4949875
 30
0.0
 11
0.18497300323992
 21
-2.55905
 31
0.0
  0
LINE
  5
1CD
330
168
100
AcDbEntity
  8
AM_9
100
AcDbLine
 10
0.18497300323992
 20
2.55905
 30
0.0
 11
0.1479865016199599
 21
2.4949875
 31
0.0
  0
LINE
  5
1CE
330
168
100
AcDbEntity
  8
AM_9
100
AcDbLine
 10
0.1479865016199599
 20
-2.4949875
 30
0.0
 11
0.1479865016199599
 21
2.4949875
 31
0.0
  0
LINE
  5
1CF
330
168
100
AcDbEntity
  8
AM_9
100
AcDbLine
 10
0.721625
 20
2.55905
 30
0.0
 11
0.18497300323992
 21
2.55905
 31
0.0
  0
LINE
  5
1D0
330
168
100
AcDbEntity
  8
AM_9
100
AcDbLine
 10
0.18497300323992
 20
-2.55905
 30
0.0
 11
0.721625
 21
-2.55905
 31
0.0
  0
LINE
  5
1D1
330
168
100
AcDbEntity
  8
AM_9
100
AcDbLine
 10
0.18497300323992
 20
-2.55905
 30
0.0
 11
0.18497300323992
 21
2.55905
 31
0.0
  0
LINE
  5
1D2
330
168
100
AcDbEntity
  8
AM_9
100
AcDbLine
 10
0.7716249999999997
 20
-2.50905
 30
0.0
 11
0.7716249999999997
 21
2.50905
 31
0.0
  0
ARC
  5
1D3
330
168
100
AcDbEntity
  8
AM_9
100
AcDbCircle
 10
0.7216249999999991
 20
2.50905
 30
0.0
 40
0.0500000000000005
100
AcDbArc
 50
0.0
 51
90.0
  0
ARC
  5
1D4
330
168
100
AcDbEntity
  8
AM_9
100
AcDbCircle
 10
0.7216249999999991
 20
-2.50905
 30
0.0
 40
0.0500000000000003
100
AcDbArc
 50
270.0
 51
0.0
  0
LINE
  5
1D5
330
168
100
AcDbEntity
  8
AM_9
100
AcDbLine
 10
0.721625
 20
-2.55905
 30
0.0
 11
0.721625
 21
2.55905
 31
0.0
  0
LINE
  5
1D6
330
168
100
AcDbEntity
  8
AM_9
100
AcDbLine
 10
0.0370269967600789
 20
2.55905
 30
0.0
 11
-0.4996250000000005
 21
2.55905
 31
0.0
  0
LINE
  5
1D7
330
168
100
AcDbEntity
  8
AM_9
100
AcDbLine
 10
-0.4996250000000005
 20
-2.55905
 30
0.0
 11
0.0370269967600789
 21
-2.55905
 31
0.0
  0
LINE
  5
1D8
330
168
100
AcDbEntity
  8
AM_9
100
AcDbLine
 10
0.074013498380039
 20
2.494987500000001
 30
0.0
 11
0.0370269967600789
 21
2.55905
 31
0.0
  0
LINE
  5
1D9
330
168
100
AcDbEntity
  8
AM_9
100
AcDbLine
 10
0.0370269967600789
 20
-2.55905
 30
0.0
 11
0.074013498380039
 21
-2.494987500000001
 31
0.0
  0
LINE
  5
1DA
330
168
100
AcDbEntity
  8
AM_9
100
AcDbLine
 10
0.074013498380039
 20
-2.494987500000001
 30
0.0
 11
0.074013498380039
 21
2.494987500000001
 31
0.0
  0
LINE
  5
1DB
330
168
100
AcDbEntity
  8
AM_9
100
AcDbLine
 10
0.0370269967600789
 20
-2.55905
 30
0.0
 11
0.0370269967600789
 21
2.55905
 31
0.0
  0
LINE
  5
1DC
330
168
100
AcDbEntity
  8
AM_9
100
AcDbLine
 10
-0.5096250000000002
 20
-2.549049999999999
 30
0.0
 11
-0.5096250000000002
 21
2.549049999999999
 31
0.0
  0
ARC
  5
1DD
330
168
100
AcDbEntity
  8
AM_9
100
AcDbCircle
 10
-0.4996250000000011
 20
2.549050000000001
 30
0.0
 40
0.0099999999999993
100
AcDbArc
 50
90.0
 51
180.0
  0
ARC
  5
1DE
330
168
100
AcDbEntity
  8
AM_9
100
AcDbCircle
 10
-0.4996250000000011
 20
-2.549050000000001
 30
0.0
 40
0.0099999999999991
100
AcDbArc
 50
180.0
 51
270.0
  0
LINE
  5
1DF
330
168
100
AcDbEntity
  8
AM_9
100
AcDbLine
 10
-0.4996250000000005
 20
-2.55905
 30
0.0
 11
-0.4996250000000005
 21
2.55905
 31
0.0
  0
LINE
  5
1E0
330
168
100
AcDbEntity
  8
AM_5
100
AcDbLine
 10
-1.176833333333333
 20
1.998645833333333
 30
0.0
 11
-1.149860643730191
 21
1.983073143730191
 31
0.0
  0
LINE
  5
1E1
330
168
100
AcDbEntity
  8
AM_5
100
AcDbLine
 10
-1.876833333333333
 20
1.808645833333333
 30
0.0
 11
-1.176833333333333
 21
1.808645833333333
 31
0.0
  0
LINE
  5
1E2
330
168
100
AcDbEntity
  8
AM_5
100
AcDbLine
 10
-1.176833333333333
 20
1.808645833333333
 30
0.0
 11
-1.14986064373019
 21
1.824218522936476
 31
0.0
  0
LINE
  5
1E3
330
168
100
AcDbEntity
  8
AM_5
100
AcDbLine
 10
-1.176833333333336
 20
-1.998645833333333
 30
0.0
 11
-1.149860643730187
 21
-1.983073143730187
 31
0.0
  0
LINE
  5
1E4
330
168
100
AcDbEntity
  8
AM_5
100
AcDbLine
 10
-1.876833333333333
 20
-1.808645833333333
 30
0.0
 11
-1.176833333333337
 21
-1.808645833333333
 31
0.0
  0
LINE
  5
1E5
330
168
100
AcDbEntity
  8
AM_5
100
AcDbLine
 10
-1.176833333333337
 20
-1.808645833333333
 30
0.0
 11
-1.149860643730187
 21
-1.82421852293648
 31
0.0
  0
LINE
  5
1E8
330
168
100
AcDbEntity
  8
AM_7
100
AcDbLine
 10
-0.9948333333333332
 20
1.903645833333333
 30
0.0
 11
-2.092883333333333
 21
1.903645833333333
 31
0.0
  0
LINE
  5
1E9
330
168
100
AcDbEntity
  8
AM_7
100
AcDbLine
 10
-0.9948333333333366
 20
-1.903645833333333
 30
0.0
 11
-2.092883333333333
 21
-1.903645833333333
 31
0.0
  0
LINE
  5
1EA
330
168
100
AcDbEntity
  8
AM_4
100
AcDbLine
 10
-1.8
 20
1.499066376115481
 30
0.0
 11
-1.876833333333333
 21
1.499066376115481
 31
0.0
  0
LINE
  5
1EB
330
168
100
AcDbEntity
  8
AM_4
100
AcDbLine
 10
-1.946833333333333
 20
1.578947368421053
 30
0.0
 11
-2.15
 21
1.578947368421053
 31
0.0
  0
LINE
  5
1EC
330
168
100
AcDbEntity
  8
AM_4
100
AcDbLine
 10
-2.15
 20
-1.578947368421053
 30
0.0
 11
-2.0
 21
-1.578947368421053
 31
0.0
  0
LINE
  5
1ED
330
168
100
AcDbEntity
  8
AM_4
100
AcDbLine
 10
-2.15
 20
-1.578947368421053
 30
0.0
 11
-2.15
 21
1.578947368421053
 31
0.0
  0
LINE
  5
1EE
330
168
100
AcDbEntity
  8
AM_4
100
AcDbLine
 10
-1.876833333333333
 20
-1.22292555564756
 30
0.0
 11
-1.876833333333333
 21
1.326515590093167
 31
0.0
  0
LINE
  5
1EF
330
168
100
AcDbEntity
  8
AM_4
100
AcDbLine
 10
-1.876833333333333
 20
1.680068980686441
 30
0.0
 11
-1.876833333333333
 21
2.140625
 31
0.0
  0
LINE
  5
1F0
330
168
100
AcDbEntity
  8
AM_4
100
AcDbLine
 10
-1.876833333333333
 20
1.680068980686441
 30
0.0
 11
-1.800000000483711
 21
1.681023833494402
 31
0.0
  0
LINE
  5
1F1
330
168
100
AcDbEntity
  8
AM_4
100
AcDbLine
 10
-1.800000000483711
 20
1.327470442901128
 30
0.0
 11
-1.876833333333333
 21
1.326515590093167
 31
0.0
  0
LINE
  5
1F2
330
168
100
AcDbEntity
  8
AM_4
100
AcDbLine
 10
-1.8
 20
2.141966130821985
 30
0.0
 11
-1.876833333333333
 21
2.140625
 31
0.0
  0
ENDBLK
  5
16B
330
168
100
AcDbEntity
  8
0
100
AcDbBlockEnd
  0
BLOCK
  5
1F5
330
1F3
100
AcDbEntity
  8
0
100
AcDbBlockBegin
  2
7_071244H_0_in_071244_2
 70
     2
 10
0.0
 20
0.0
 30
0.0
  3
7_071244H_0_in_071244_2
  1

  0
ATTDEF
  5
1F7
330
1F3
100
AcDbEntity
  8
AM_6
100
AcDbText
 10
7.2
 20
3.205
 30
0.0
 40
0.5
  1
EP4B-IP -(Labyrinth Seal)-Housing -Inch
100
AcDbAttributeDefinition
  3

  2
NN
 70
     8
280
     0
  0
ATTDEF
  5
1F8
330
1F3
100
AcDbEntity
  8
AM_6
100
AcDbText
 10
7.2
 20
2.705
 30
0.0
 40
0.5
  1
Imperial/E 4 Bolt Piliow Block Bearings
100
AcDbAttributeDefinition
  3

  2
NT
 70
     8
280
     0
  0
ATTDEF
  5
1F9
330
1F3
100
AcDbEntity
  8
AM_6
100
AcDbText
 10
7.2
 20
2.205
 30
0.0
 40
0.5
  1
071244H
100
AcDbAttributeDefinition
  3

  2
NB
 70
     8
280
     0
  0
ATTDEF
  5
1FA
330
1F3
100
AcDbEntity
  8
AM_6
100
AcDbText
 10
7.2
 20
1.705
 30
0.0
 40
0.5
  1
$PN.H
100
AcDbAttributeDefinition
  3

  2
NBSYN
 70
     8
280
     0
  0
ATTDEF
  5
1FB
330
1F3
100
AcDbEntity
  8
AM_6
100
AcDbText
 10
7.2
 20
1.205
 30
0.0
 40
0.5
  1
071244
100
AcDbAttributeDefinition
  3

  2
LINA
 70
     8
280
     0
  0
ATTDEF
  5
1FC
330
1F3
100
AcDbEntity
  8
AM_6
100
AcDbText
 10
7.2
 20
0.7049999999999996
 30
0.0
 40
0.5
  1
3
100
AcDbAttributeDefinition
  3

  2
SS
 70
     8
280
     0
  0
ATTDEF
  5
1FD
330
1F3
100
AcDbEntity
  8
AM_6
100
AcDbText
 10
7.2
 20
0.2049999999999996
 30
0.0
 40
0.5
  1
3.000000
100
AcDbAttributeDefinition
  3

  2
SS1
 70
     8
280
     0
  0
ATTDEF
  5
1FE
330
1F3
100
AcDbEntity
  8
AM_6
100
AcDbText
 10
7.2
 20
-0.2950000000000004
 30
0.0
 40
0.5
  1
Non-Expansion
100
AcDbAttributeDefinition
  3

  2
TYPE
 70
     8
280
     0
  0
ATTDEF
  5
1FF
330
1F3
100
AcDbEntity
  8
AM_6
100
AcDbText
 10
7.2
 20
-0.7950000000000004
 30
0.0
 40
0.5
  1
071244
100
AcDbAttributeDefinition
  3

  2
PN1
 70
     8
280
     0
  0
ATTDEF
  5
200
330
1F3
100
AcDbEntity
  8
AM_6
100
AcDbText
 10
7.2
 20
-1.295
 30
0.0
 40
0.5
  1
071261
100
AcDbAttributeDefinition
  3

  2
PN2
 70
     8
280
     0
  0
ATTDEF
  5
201
330
1F3
100
AcDbEntity
  8
AM_6
100
AcDbText
 10
7.2
 20
-1.795
 30
0.0
 40
0.5
  1
EP4B-IP-300L
100
AcDbAttributeDefinition
  3

  2
DESCRIPTION
 70
     8
280
     0
  0
ATTDEF
  5
202
330
1F3
100
AcDbEntity
  8
AM_6
100
AcDbText
 10
7.2
 20
-2.295
 30
0.0
 40
0.5
  1
Non-Expansion Type
100
AcDbAttributeDefinition
  3

  2
EF
 70
     8
280
     0
  0
ATTDEF
  5
203
330
1F3
100
AcDbEntity
  8
AM_6
100
AcDbText
 10
7.2
 20
-2.795
 30
0.0
 40
0.5
  1
1
100
AcDbAttributeDefinition
  3

  2
EF1
 70
     8
280
     0
  0
ATTDEF
  5
204
330
1F3
100
AcDbEntity
  8
AM_6
100
AcDbText
 10
7.2
 20
-3.295
 30
0.0
 40
0.5
  1
Labyrinth Seal
100
AcDbAttributeDefinition
  3

  2
ST
 70
     8
280
     0
  0
ATTDEF
  5
205
330
1F3
100
AcDbEntity
  8
AM_6
100
AcDbText
 10
7.2
 20
-3.795
 30
0.0
 40
0.5
  1
1
100
AcDbAttributeDefinition
  3

  2
ST1
 70
     8
280
     0
  0
ATTDEF
  5
206
330
1F3
100
AcDbEntity
  8
AM_6
100
AcDbText
 10
7.2
 20
-4.295
 30
0.0
 40
0.5
  1
3.5
100
AcDbAttributeDefinition
  3

  2
A
 70
     8
280
     0
  0
ATTDEF
  5
207
330
1F3
100
AcDbEntity
  8
AM_6
100
AcDbText
 10
7.2
 20
-4.795
 30
0.0
 40
0.5
  1
3.5000000
100
AcDbAttributeDefinition
  3

  2
A1
 70
     8
280
     0
  0
ATTDEF
  5
208
330
1F3
100
AcDbEntity
  8
AM_6
100
AcDbText
 10
7.2
 20
-5.295
 30
0.0
 40
0.5
  1
12
100
AcDbAttributeDefinition
  3

  2
B
 70
     8
280
     0
  0
ATTDEF
  5
209
330
1F3
100
AcDbEntity
  8
AM_6
100
AcDbText
 10
7.2
 20
-5.795
 30
0.0
 40
0.5
  1
12.0000000
100
AcDbAttributeDefinition
  3

  2
B1
 70
     8
280
     0
  0
ATTDEF
  5
20A
330
1F3
100
AcDbEntity
  8
AM_6
100
AcDbText
 10
7.2
 20
-6.295
 30
0.0
 40
0.5
  1
4
100
AcDbAttributeDefinition
  3

  2
C
 70
     8
280
     0
  0
ATTDEF
  5
20B
330
1F3
100
AcDbEntity
  8
AM_6
100
AcDbText
 10
7.2
 20
-6.795
 30
0.0
 40
0.5
  1
4.0000000
100
AcDbAttributeDefinition
  3

  2
C1
 70
     8
280
     0
  0
ATTDEF
  5
20C
330
1F3
100
AcDbEntity
  8
AM_6
100
AcDbText
 10
7.2
 20
-7.295
 30
0.0
 40
0.5
  1
9.18
100
AcDbAttributeDefinition
  3

  2
DMIN
 70
     8
280
     0
  0
ATTDEF
  5
20D
330
1F3
100
AcDbEntity
  8
AM_6
100
AcDbText
 10
7.2
 20
-7.795
 30
0.0
 40
0.5
  1
9.1800000
100
AcDbAttributeDefinition
  3

  2
DMIN1
 70
     8
280
     0
  0
ATTDEF
  5
20E
330
1F3
100
AcDbEntity
  8
AM_6
100
AcDbText
 10
7.2
 20
-8.295
 30
0.0
 40
0.5
  1
9.82
100
AcDbAttributeDefinition
  3

  2
DMAX
 70
     8
280
     0
  0
ATTDEF
  5
20F
330
1F3
100
AcDbEntity
  8
AM_6
100
AcDbText
 10
7.2
 20
-8.795
 30
0.0
 40
0.5
  1
9.8200000
100
AcDbAttributeDefinition
  3

  2
DMAX1
 70
     8
280
     0
  0
ATTDEF
  5
210
330
1F3
100
AcDbEntity
  8
AM_6
100
AcDbText
 10
7.2
 20
-9.295
 30
0.0
 40
0.5
  1
2.13
100
AcDbAttributeDefinition
  3

  2
E
 70
     8
280
     0
  0
ATTDEF
  5
211
330
1F3
100
AcDbEntity
  8
AM_6
100
AcDbText
 10
7.2
 20
-9.795
 30
0.0
 40
0.5
  1
2.130000
100
AcDbAttributeDefinition
  3

  2
E1
 70
     8
280
     0
  0
ATTDEF
  5
212
330
1F3
100
AcDbEntity
  8
AM_6
100
AcDbText
 10
7.2
 20
-10.295
 30
0.0
 40
0.5
  1
5/8
100
AcDbAttributeDefinition
  3

  2
F
 70
     8
280
     0
  0
ATTDEF
  5
213
330
1F3
100
AcDbEntity
  8
AM_6
100
AcDbText
 10
7.2
 20
-10.795
 30
0.0
 40
0.5
  1
0.6250000
100
AcDbAttributeDefinition
  3

  2
F1
 70
     8
280
     0
  0
ATTDEF
  5
214
330
1F3
100
AcDbEntity
  8
AM_6
100
AcDbText
 10
7.2
 20
-11.295
 30
0.0
 40
0.5
  1
1
100
AcDbAttributeDefinition
  3

  2
G
 70
     8
280
     0
  0
ATTDEF
  5
215
330
1F3
100
AcDbEntity
  8
AM_6
100
AcDbText
 10
7.2
 20
-11.795
 30
0.0
 40
0.5
  1
1.000000
100
AcDbAttributeDefinition
  3

  2
G1
 70
     8
280
     0
  0
ATTDEF
  5
216
330
1F3
100
AcDbEntity
  8
AM_6
100
AcDbText
 10
7.2
 20
-12.295
 30
0.0
 40
0.5
  1
1.88
100
AcDbAttributeDefinition
  3

  2
H
 70
     8
280
     0
  0
ATTDEF
  5
217
330
1F3
100
AcDbEntity
  8
AM_6
100
AcDbText
 10
7.2
 20
-12.795
 30
0.0
 40
0.5
  1
1.8800000
100
AcDbAttributeDefinition
  3

  2
H1
 70
     8
280
     0
  0
ATTDEF
  5
218
330
1F3
100
AcDbEntity
  8
AM_6
100
AcDbText
 10
7.2
 20
-13.295
 30
0.0
 40
0.5
  1
6.33
100
AcDbAttributeDefinition
  3

  2
J
 70
     8
280
     0
  0
ATTDEF
  5
219
330
1F3
100
AcDbEntity
  8
AM_6
100
AcDbText
 10
7.2
 20
-13.795
 30
0.0
 40
0.5
  1
6.330000
100
AcDbAttributeDefinition
  3

  2
J1
 70
     8
280
     0
  0
ATTDEF
  5
21A
330
1F3
100
AcDbEntity
  8
AM_6
100
AcDbText
 10
7.2
 20
-14.295
 30
0.0
 40
0.5
  1
4.28
100
AcDbAttributeDefinition
  3

  2
L
 70
     8
280
     0
  0
ATTDEF
  5
21B
330
1F3
100
AcDbEntity
  8
AM_6
100
AcDbText
 10
7.2
 20
-14.795
 30
0.0
 40
0.5
  1
4.2800000
100
AcDbAttributeDefinition
  3

  2
L1
 70
     8
280
     0
  0
ATTDEF
  5
21C
330
1F3
100
AcDbEntity
  8
AM_6
100
AcDbText
 10
7.2
 20
-15.295
 30
0.0
 40
0.5
  1
3.125
100
AcDbAttributeDefinition
  3

  2
M
 70
     8
280
     0
  0
ATTDEF
  5
21D
330
1F3
100
AcDbEntity
  8
AM_6
100
AcDbText
 10
7.2
 20
-15.795
 30
0.0
 40
0.5
  1
3.125000
100
AcDbAttributeDefinition
  3

  2
M1
 70
     8
280
     0
  0
ATTDEF
  5
21E
330
1F3
100
AcDbEntity
  8
AM_6
100
AcDbText
 10
7.2
 20
-16.295
 30
0.0
 40
0.5
  1
1.35
100
AcDbAttributeDefinition
  3

  2
R
 70
     8
280
     0
  0
ATTDEF
  5
21F
330
1F3
100
AcDbEntity
  8
AM_6
100
AcDbText
 10
7.2
 20
-16.795
 30
0.0
 40
0.5
  1
1.350000
100
AcDbAttributeDefinition
  3

  2
R1
 70
     8
280
     0
  0
ATTDEF
  5
220
330
1F3
100
AcDbEntity
  8
AM_6
100
AcDbText
 10
7.2
 20
-17.295
 30
0.0
 40
0.5
  1
2.15
100
AcDbAttributeDefinition
  3

  2
S
 70
     8
280
     0
  0
ATTDEF
  5
221
330
1F3
100
AcDbEntity
  8
AM_6
100
AcDbText
 10
7.2
 20
-17.795
 30
0.0
 40
0.5
  1
2.150000
100
AcDbAttributeDefinition
  3

  2
S1
 70
     8
280
     0
  0
ATTDEF
  5
222
330
1F3
100
AcDbEntity
  8
AM_6
100
AcDbText
 10
7.2
 20
-18.295
 30
0.0
 40
0.5
  1
0.25
100
AcDbAttributeDefinition
  3

  2
X
 70
     8
280
     0
  0
ATTDEF
  5
223
330
1F3
100
AcDbEntity
  8
AM_6
100
AcDbText
 10
7.2
 20
-18.795
 30
0.0
 40
0.5
  1
0.250000
100
AcDbAttributeDefinition
  3

  2
X1
 70
     8
280
     0
  0
ATTDEF
  5
224
330
1F3
100
AcDbEntity
  8
AM_6
100
AcDbText
 10
7.2
 20
-19.295
 30
0.0
 40
0.5
  1
0.025
100
AcDbAttributeDefinition
  3

  2
Y
 70
     8
280
     0
  0
ATTDEF
  5
225
330
1F3
100
AcDbEntity
  8
AM_6
100
AcDbText
 10
7.2
 20
-19.795
 30
0.0
 40
0.5
  1
3.47
100
AcDbAttributeDefinition
  3

  2
Z
 70
     8
280
     0
  0
ATTDEF
  5
226
330
1F3
100
AcDbEntity
  8
AM_6
100
AcDbText
 10
7.2
 20
-20.295
 30
0.0
 40
0.5
  1
3.470000
100
AcDbAttributeDefinition
  3

  2
Z1
 70
     8
280
     0
  0
ATTDEF
  5
227
330
1F3
100
AcDbEntity
  8
AM_6
100
AcDbText
 10
7.2
 20
-20.795
 30
0.0
 40
0.5
  1
5.1181
100
AcDbAttributeDefinition
  3

  2
BORE
 70
     8
280
     0
  0
ATTDEF
  5
228
330
1F3
100
AcDbEntity
  8
AM_6
100
AcDbText
 10
7.2
 20
-21.295
 30
0.0
 40
0.5
  1
0.07000
100
AcDbAttributeDefinition
  3

  2
CR
 70
     8
280
     0
  0
ATTDEF
  5
229
330
1F3
100
AcDbEntity
  8
AM_6
100
AcDbText
 10
7.2
 20
-21.795
 30
0.0
 40
0.5
  1
baldor
100
AcDbAttributeDefinition
  3

  2
COMPANY
 70
     8
280
     0
  0
LINE
  5
22A
330
1F3
100
AcDbEntity
  8
AM_9
100
AcDbLine
 10
-0.4989554075283555
 20
2.759318797570096
 30
0.0
 11
-0.5000000000000001
 21
2.775611419129113
 31
0.0
  0
LWPOLYLINE
  5
22B
330
1F3
100
AcDbEntity
  8
AM_9
100
AcDbPolyline
 90
       28
 70
     0
 43
0.0
 10
0.4928438062933347
 20
2.732505802384658
 10
0.4882011373069702
 20
2.720124897110647
 10
0.4736988040606839
 20
2.692134533319209
 10
0.4530140321157286
 20
2.663793130996525
 10
0.4267115144880178
 20
2.636149911624327
 10
0.3952811649368504
 20
2.609820482485657
 10
0.3585525065181098
 20
2.584944263250081
 10
0.317223996721026
 20
2.562143320039889
 10
0.2720540746204534
 20
2.541978193749451
 10
0.2231171474077374
 20
2.524729489147709
 10
0.17116272913376
 20
2.510765953695937
 10
0.1171728354979936
 20
2.50046596827356
 10
0.0590064776741652
 20
2.493859980569916
 10
-0.0000000000000001
 20
2.491627026055879
 10
-0.0556631504736094
 20
2.493635378762018
 10
-0.1107959392977469
 20
2.499551561952753
 10
-0.1643580541885474
 20
2.509212263236573
 10
-0.2157997622001969
 20
2.522500767267982
 10
-0.2647010563895668
 20
2.53913004961406
 10
-0.3101695661047081
 20
2.558671121723942
 10
-0.3520493054143053
 20
2.581030269945148
 10
-0.3896489978347794
 20
2.605684216611373
 10
-0.4222747837461563
 20
2.632040223324279
 10
-0.4496766483952686
 20
2.659885098448556
 10
-0.4714777470162453
 20
2.688693604011494
 10
-0.4872524103762017
 20
2.717818944393868
 10
-0.496791360774968
 20
2.746948225862567
 10
-0.4989554075283555
 20
2.759318797570096
  0
LWPOLYLINE
  5
22C
330
1F3
100
AcDbEntity
  8
AM_9
100
AcDbPolyline
 90
        3
 70
     0
 43
0.0
 10
0.5
 20
2.775611419129126
 10
0.4970229237578536
 20
2.748130828763126
 10
0.4928438062933347
 20
2.732505802384658
  0
ELLIPSE
  5
22D
330
1F3
100
AcDbEntity
  8
AM_9
100
AcDbEllipse
 10
0.0000000000000347
 20
2.775611419129055
 30
0.0
 11
0.5000000000000349
 21
0.0
 31
0.0
210
0.0
220
0.0
230
1.0
 40
0.500000000000022
 41
3.141592653589793
 42
3.207292335195201
  0
ELLIPSE
  5
22E
330
1F3
100
AcDbEntity
  8
AM_9
100
AcDbEllipse
 10
-0.0000000000000001
 20
2.775611419129126
 30
0.0
 11
0.4999999999999999
 21
0.0
 31
0.0
210
0.0
220
0.0
230
1.0
 40
0.500000000000001
 41
3.207292335195493
 42
6.10957134275289
  0
ELLIPSE
  5
22F
330
1F3
100
AcDbEntity
  8
AM_9
100
AcDbEllipse
 10
0.0000000000000071
 20
2.775611419129104
 30
0.0
 11
0.4999999999999929
 21
0.0
 31
0.0
210
0.0
220
0.0
230
1.0
 40
0.5000000000000027
 41
6.109571342752973
 42
9.42477796076938
  0
ELLIPSE
  5
230
330
1F3
100
AcDbEntity
  8
AM_9
100
AcDbEllipse
 10
-0.0000000000000001
 20
2.86221395950757
 30
0.0
 11
-0.4000000000000001
 21
4.898587196589414E-17
 31
0.0
210
0.0
220
0.0
230
1.0
 40
0.5000000000000003
 41
0.0
 42
6.283185307179586
  0
LINE
  5
231
330
1F3
100
AcDbEntity
  8
AM_9
100
AcDbLine
 10
-0.4999920184795254
 20
2.77739819510133
 30
0.0
 11
-0.4999999987030913
 21
2.775588642748838
 31
0.0
  0
LWPOLYLINE
  5
232
330
1F3
100
AcDbEntity
  8
AM_9
100
AcDbPolyline
 90
       42
 70
     0
 43
0.0
 10
0.4996698153218047
 20
2.787100794999082
 10
0.4992718412954313
 20
2.792668158814613
 10
0.4957305799672797
 20
2.816799160973646
 10
0.4893529847626185
 20
2.840332342495126
 10
0.4802236983788388
 20
2.863198104605968
 10
0.46838149169016
 20
2.885357317254373
 10
0.4538160698467578
 20
2.906785722800916
 10
0.4364804087057185
 20
2.927449874877666
 10
0.4163259976077305
 20
2.947279262420325
 10
0.3933588154466196
 20
2.966146660447861
 10
0.3676927817988442
 20
2.983873578577588
 10
0.3395624044809314
 20
3.000266900861231
 10
0.3092797372442104
 20
3.015166044191858
 10
0.2772134597624946
 20
3.028451912731386
 10
0.2436427301305918
 20
3.040088810626525
 10
0.2088017296020254
 20
3.050071118244031
 10
0.1728991989558766
 20
3.058403263661395
 10
0.1361305640231405
 20
3.065091335063305
 10
0.0986861727412935
 20
3.070139994655225
 10
0.0607557191066305
 20
3.073552086615848
 10
0.0225299622193985
 20
3.075329257408047
 10
-0.0157992387643454
 20
3.075472704409089
 10
-0.0540398506784204
 20
3.073983632063176
 10
-0.0919883390648171
 20
3.070864548031074
 10
-0.1294558964400855
 20
3.066117843985971
 10
-0.1662593854819861
 20
3.059744049503703
 10
-0.2022210224724158
 20
3.051739967735245
 10
-0.2371683314904073
 20
3.04209617726189
 10
-0.2709323228029458
 20
3.030794204512005
 10
-0.3033426632704794
 20
3.017804182943427
 10
-0.334218124677198
 20
3.003084944310524
 10
-0.3633506411974946
 20
2.986590508435016
 10
-0.390483633159898
 20
2.968289426023819
 10
-0.4152334520570323
 20
2.948256182427665
 10
-0.4372143012903696
 20
2.926653324357132
 10
-0.4560741414466248
 20
2.90375797531683
 10
-0.4701120909940014
 20
2.882453018538588
 10
-0.4825222864760522
 20
2.858096959141692
 10
-0.4915638550907567
 20
2.833321009866754
 10
-0.4972979223272254
 20
2.808418150848783
 10
-0.4998406268453222
 20
2.783594738604165
 10
-0.4999920184795254
 20
2.77739819510133
  0
LINE
  5
233
330
1F3
100
AcDbEntity
  8
AM_9
100
AcDbLine
 10
0.4999291889128243
 20
2.780933195264832
 30
0.0
 11
0.4996698153218047
 21
2.787100794999082
 31
0.0
  0
LINE
  5
234
330
1F3
100
AcDbEntity
  8
AM_9
100
AcDbLine
 10
0.4999999990788344
 20
2.775630614603668
 30
0.0
 11
0.4999291889128243
 21
2.780933195264832
 31
0.0
  0
LWPOLYLINE
  5
235
330
1F3
100
AcDbEntity
  8
AM_9
100
AcDbPolyline
 90
       30
 70
     0
 43
0.0
 10
-0.5000000000000001
 20
2.775611419129113
 10
-0.4969676757754634
 20
2.802694443292206
 10
-0.4877764629771299
 20
2.828828589980712
 10
-0.4725666364216408
 20
2.853612431018392
 10
-0.451630638647615
 20
2.876658311977278
 10
-0.4249764062278015
 20
2.897898893104754
 10
-0.3930064162432766
 20
2.917194812923294
 10
-0.3563092774824458
 20
2.934325398582566
 10
-0.3146969379836845
 20
2.949391079501599
 10
-0.268976680207838
 20
2.962230806100009
 10
-0.2199940067006085
 20
2.97273976067434
 10
-0.1681135449407326
 20
2.980922989416971
 10
-0.1139037726078591
 20
2.986816257397016
 10
-0.0583994768769829
 20
2.990382369521399
 10
-0.0027187559760605
 20
2.991614928073349
 10
0.0531733997643465
 20
2.990586441415018
 10
0.1082152049524244
 20
2.987302837774748
 10
0.1615767399343768
 20
2.981770336749432
 10
0.2130883339211991
 20
2.973977632190026
 10
0.2618074918807443
 20
2.96397514467777
 10
0.3076090401497701
 20
2.951608223025405
 10
0.3497153630345292
 20
2.936956750414418
 10
0.387359676179329
 20
2.920150602698145
 10
0.4204081774244021
 20
2.900988302798751
 10
0.4482525150465859
 20
2.879685796837542
 10
0.4703597302620242
 20
2.856519241242424
 10
0.4863731360751204
 20
2.831668879638419
 10
0.4963135431361981
 20
2.805241274304287
 10
0.4999826156476161
 20
2.77769377967206
 10
0.5
 20
2.775611419129126
  0
LINE
  5
236
330
1F3
100
AcDbEntity
  8
AM_9
100
AcDbLine
 10
-1.405
 20
-2.980272638534939
 30
0.0
 11
1.405
 21
-2.980272638534939
 31
0.0
  0
LINE
  5
237
330
1F3
100
AcDbEntity
  8
AM_9
100
AcDbLine
 10
-1.8
 20
-2.55905
 30
0.0
 11
1.8
 21
-2.55905
 31
0.0
  0
LINE
  5
238
330
1F3
100
AcDbEntity
  8
AM_9
100
AcDbLine
 10
1.8
 20
2.55905
 30
0.0
 11
-1.8
 21
2.55905
 31
0.0
  0
LINE
  5
239
330
1F3
100
AcDbEntity
  8
AM_9
100
AcDbLine
 10
-1.405
 20
-2.118144806278804
 30
0.0
 11
1.405
 21
-2.118144806278804
 31
0.0
  0
LINE
  5
23A
330
1F3
100
AcDbEntity
  8
AM_9
100
AcDbLine
 10
1.8
 20
-1.146696173941944
 30
0.0
 11
1.8
 21
-3.125
 31
0.0
  0
LINE
  5
23B
330
1F3
100
AcDbEntity
  8
AM_9
100
AcDbLine
 10
-1.8
 20
-1.146696173941946
 30
0.0
 11
-1.8
 21
-3.125
 31
0.0
  0
LINE
  5
23C
330
1F3
100
AcDbEntity
  8
AM_9
100
AcDbLine
 10
1.405
 20
-1.997
 30
0.0
 11
-1.405
 21
-1.997
 31
0.0
  0
LINE
  5
23D
330
1F3
100
AcDbEntity
  8
AM_9
100
AcDbLine
 10
1.065
 20
-1.997
 30
0.0
 11
1.065
 21
-3.125
 31
0.0
  0
LINE
  5
23E
330
1F3
100
AcDbEntity
  8
AM_9
100
AcDbLine
 10
1.405
 20
-3.125
 30
0.0
 11
1.405
 21
-1.245
 31
0.0
  0
LINE
  5
23F
330
1F3
100
AcDbEntity
  8
AM_9
100
AcDbLine
 10
0.7250000000000003
 20
-1.245
 30
0.0
 11
0.7250000000000003
 21
-1.997
 31
0.0
  0
LINE
  5
240
330
1F3
100
AcDbEntity
  8
AM_9
100
AcDbLine
 10
-1.064999999999998
 20
-1.997
 30
0.0
 11
-1.064999999999998
 21
-3.125
 31
0.0
  0
LINE
  5
241
330
1F3
100
AcDbEntity
  8
AM_9
100
AcDbLine
 10
-1.405
 20
-3.125
 30
0.0
 11
-1.405
 21
-1.245
 31
0.0
  0
LINE
  5
242
330
1F3
100
AcDbEntity
  8
AM_9
100
AcDbLine
 10
-0.7249999999999998
 20
-1.245
 30
0.0
 11
-0.7249999999999998
 21
-1.997
 31
0.0
  0
LINE
  5
243
330
1F3
100
AcDbEntity
  8
AM_7
100
AcDbLine
 10
2.2
 20
0.0
 30
0.0
 11
-2.32625
 21
0.0
 31
0.0
  0
LINE
  5
244
330
1F3
100
AcDbEntity
  8
AM_4
100
AcDbLine
 10
-1.8
 20
3.205
 30
0.0
 11
1.8
 21
3.205
 31
0.0
  0
LINE
  5
245
330
1F3
100
AcDbEntity
  8
AM_4
100
AcDbLine
 10
-1.8
 20
3.111000000000002
 30
0.0
 11
1.8
 21
3.111
 31
0.0
  0
LINE
  5
246
330
1F3
100
AcDbEntity
  8
AM_4
100
AcDbLine
 10
1.2
 20
0.4894918181134378
 30
0.0
 11
-1.2
 21
0.4894918181134378
 31
0.0
  0
LINE
  5
247
330
1F3
100
AcDbEntity
  8
AM_4
100
AcDbLine
 10
-1.8
 20
3.089399224184031
 30
0.0
 11
1.8
 21
3.089399224184031
 31
0.0
  0
LINE
  5
248
330
1F3
100
AcDbEntity
  8
AM_4
100
AcDbLine
 10
-1.2
 20
-1.150999999999999
 30
0.0
 11
1.2
 21
-1.150999999999999
 31
0.0
  0
LINE
  5
249
330
1F3
100
AcDbEntity
  8
AM_4
100
AcDbLine
 10
-1.8
 20
0.4116291483999641
 30
0.0
 11
-1.2
 21
0.4116291483999641
 31
0.0
  0
LINE
  5
24A
330
1F3
100
AcDbEntity
  8
AM_4
100
AcDbLine
 10
1.2
 20
0.4116291483999641
 30
0.0
 11
1.8
 21
0.4116291483999641
 31
0.0
  0
LWPOLYLINE
  5
24B
330
1F3
100
AcDbEntity
  8
AM_4
100
AcDbPolyline
 90
       14
 70
     0
 43
0.0
 10
1.8
 20
-1.146696173941945
 10
1.808446259559531
 20
-1.160754974770741
 10
1.818085683779817
 20
-1.174024137592564
 10
1.828844910822099
 20
-1.186402676066201
 10
1.840642056471985
 20
-1.197796382039503
 10
1.85338733732777
 20
-1.208118542530304
 10
1.86698375410633
 20
-1.217290599664578
 10
1.881327829866238
 20
-1.225242748549295
 10
1.896310397529772
 20
-1.231914468529803
 10
1.911817430710291
 20
-1.237254983788555
 10
1.927730911521889
 20
-1.241223649779741
 10
1.943929728766767
 20
-1.243790262558823
 10
1.960290599664578
 20
-1.244935288652787
 10
1.965222868817171
 20
-1.245
  0
LINE
  5
24C
330
1F3
100
AcDbEntity
  8
AM_4
100
AcDbLine
 10
1.2
 20
0.4894918181134378
 30
0.0
 11
1.2
 21
-1.245
 31
0.0
  0
LINE
  5
24D
330
1F3
100
AcDbEntity
  8
AM_4
100
AcDbLine
 10
1.2
 20
-1.081145485147954
 30
0.0
 11
1.8
 21
-1.081145485147954
 31
0.0
  0
LINE
  5
24E
330
1F3
100
AcDbEntity
  8
AM_4
100
AcDbLine
 10
1.8
 20
3.205
 30
0.0
 11
1.8
 21
-1.146696173941944
 31
0.0
  0
LWPOLYLINE
  5
24F
330
1F3
100
AcDbEntity
  8
AM_4
100
AcDbPolyline
 90
       14
 70
     0
 43
0.0
 10
-1.965222868817171
 20
-1.245
 10
-1.948837589180611
 20
-1.244284603241248
 10
-1.932577011415788
 20
-1.242143857566295
 10
-1.916564888337897
 20
-1.238594055342345
 10
-1.900923081871945
 20
-1.233662212707751
 10
-1.885770635609919
 20
-1.22738586396289
 10
-1.871222868817171
 20
-1.219812775911475
 10
-1.857390498783174
 20
-1.211000584326331
 10
-1.844378798196101
 20
-1.201016355306368
 10
-1.832286793954099
 20
-1.189936074863071
 10
-1.821206513510803
 20
-1.17784407062107
 10
-1.81122228449084
 20
-1.164832370033997
 10
-1.802410092905696
 20
-1.151
 10
-1.799999999999999
 20
-1.146696173941947
  0
LINE
  5
250
330
1F3
100
AcDbEntity
  8
AM_4
100
AcDbLine
 10
-1.2
 20
0.4894918181134378
 30
0.0
 11
-1.2
 21
-1.245
 31
0.0
  0
LINE
  5
251
330
1F3
100
AcDbEntity
  8
AM_4
100
AcDbLine
 10
-1.8
 20
-1.081145485147954
 30
0.0
 11
-1.2
 21
-1.081145485147954
 31
0.0
  0
LINE
  5
252
330
1F3
100
AcDbEntity
  8
AM_4
100
AcDbLine
 10
-1.8
 20
-1.146696173941946
 30
0.0
 11
-1.8
 21
3.205
 31
0.0
  0
LWPOLYLINE
  5
253
330
1F3
100
AcDbEntity
  8
AM_4
100
AcDbPolyline
 90
       11
 70
     0
 43
0.0
 10
1.004157051767977
 20
-1.245
 10
0.8184901597591883
 20
-1.247358356766265
 10
0.6317564311184971
 20
-1.252722487203496
 10
0.4494202684478308
 20
-1.25869484428785
 10
0.2666068305335107
 20
-1.263748414965393
 10
0.0826677745082941
 20
-1.266523117683127
 10
-0.1013742859295108
 20
-1.266399076127376
 10
-0.3275053375038011
 20
-1.262215965807651
 10
-0.5530764419531614
 20
-1.255325109188978
 10
-0.7791915042905195
 20
-1.248277730701108
 10
-1.004157051767979
 20
-1.245
  0
LINE
  5
254
330
1F3
100
AcDbEntity
  8
AM_4
100
AcDbLine
 10
-2.0
 20
-3.125
 30
0.0
 11
-1.999999999999993
 21
-1.245
 31
0.0
  0
LINE
  5
255
330
1F3
100
AcDbEntity
  8
AM_4
100
AcDbLine
 10
2.0
 20
-3.125
 30
0.0
 11
1.999999999999995
 21
-1.245
 31
0.0
  0
LINE
  5
256
330
1F3
100
AcDbEntity
  8
AM_4
100
AcDbLine
 10
-1.999999999999993
 20
-1.245
 30
0.0
 11
1.999999999999995
 21
-1.245
 31
0.0
  0
LINE
  5
257
330
1F3
100
AcDbEntity
  8
AM_4
100
AcDbLine
 10
-2.0
 20
-2.185
 30
0.0
 11
2.0
 21
-2.185
 31
0.0
  0
LINE
  5
258
330
1F3
100
AcDbEntity
  8
AM_4
100
AcDbLine
 10
2.0
 20
-3.125
 30
0.0
 11
-2.0
 21
-3.125
 31
0.0
  0
LINE
  5
259
330
1F3
100
AcDbEntity
  8
AM_4
100
AcDbLine
 10
-1.6
 20
-2.185
 30
0.0
 11
-1.6
 21
-3.125
 31
0.0
  0
LINE
  5
25A
330
1F3
100
AcDbEntity
  8
AM_4
100
AcDbLine
 10
1.6
 20
-2.185
 30
0.0
 11
1.6
 21
-3.125
 31
0.0
  0
ENDBLK
  5
1F6
330
1F3
100
AcDbEntity
  8
0
100
AcDbBlockEnd
  0
ENDSEC
  0
SECTION
  2
ENTITIES
  0
INSERT
  5
6F
330
1F
100
AcDbEntity
  8
0
100
AcDbBlockReference
  2
1_071244_2
 10
0.0
 20
0.0
 30
0.0
  0
POINT
  5
25C
330
1F
100
AcDbEntity
  8
ConnectionPoints
100
AcDbPoint
 10
-1.946833333333333
 20
-1.903645833333333
 30
0.0000000000000001
  0
POINT
  5
25D
330
1F
100
AcDbEntity
  8
ConnectionPoints
100
AcDbPoint
 10
-1.946833333333333
 20
1.903645833333333
 30
0.0000000000000001
  0
POINT
  5
25E
330
1F
100
AcDbEntity
  8
ConnectionPoints
100
AcDbPoint
 10
-1.876833333333333
 20
0.0
 30
0.0000000000000001
  0
POINT
  5
25F
330
1F
100
AcDbEntity
  8
ConnectionPoints
100
AcDbPoint
 10
-2.15
 20
0.0
 30
0.0000000000000001
  0
POINT
  5
260
330
1F
100
AcDbEntity
  8
ConnectionPoints
100
AcDbPoint
 10
-2.075833333333333
 20
0.0
 30
0.0000000000000001
  0
POINT
  5
261
330
1F
100
AcDbEntity
  8
ConnectionPoints
100
AcDbPoint
 10
-1.876833333333333
 20
1.903645833333333
 30
0.0000000000000001
  0
POINT
  5
262
330
1F
100
AcDbEntity
  8
ConnectionPoints
100
AcDbPoint
 10
-1.876833333333333
 20
-1.903645833333333
 30
0.0000000000000001
  0
POINT
  5
263
330
1F
100
AcDbEntity
  8
ConnectionPoints
100
AcDbPoint
 10
-1.876833333333333
 20
0.0
 30
0.0000000000000001
  0
POINT
  5
264
330
1F
100
AcDbEntity
  8
ConnectionPoints
100
AcDbPoint
 10
-0.0000000000000001
 20
2.86221395950757
 30
-1.6525
  0
POINT
  5
265
330
1F
100
AcDbEntity
  8
ConnectionPoints
100
AcDbPoint
 10
-1.9
 20
0.0
 30
0.0000000000000001
  0
POINT
  5
266
330
1F
100
AcDbEntity
  8
ConnectionPoints
100
AcDbPoint
 10
-2.15
 20
0.0
 30
0.0000000000000001
  0
ENDSEC
  0
SECTION
  2
OBJECTS
  0
DICTIONARY
  5
C
330
0
100
AcDbDictionary
281
     1
  3
ACAD_DETAILVIEWSTYLE
350
26E
  3
ACAD_GROUP
350
D
  3
ACAD_LAYOUT
350
1A
  3
ACAD_MATERIAL
350
43
  3
ACAD_MLEADERSTYLE
350
6B
  3
ACAD_MLINESTYLE
350
17
  3
ACAD_PLOTSETTINGS
350
19
  3
ACAD_PLOTSTYLENAME
350
E
  3
ACAD_SCALELIST
350
47
  3
ACAD_SECTIONVIEWSTYLE
350
26F
  3
ACAD_TABLESTYLE
350
69
  3
ACAD_VISUALSTYLE
350
2A
  3
ACDB_RECOMPOSE_DATA
350
26B
  3
AcDbVariableDictionary
350
267
  0
SUN
  5
6D
330
29
100
AcDbSun
 90
        1
290
     0
 63
     7
421
 16777215
 40
1.0
291
     1
 91
  2455826
 92
 54000000
292
     0
 70
     2
 71
   256
280
     1
  0
DICTIONARY
  5
26E
102
{ACAD_REACTORS
330
C
102
}
330
C
100
AcDbDictionary
281
     1
  0
DICTIONARY
  5
D
102
{ACAD_REACTORS
330
C
102
}
330
C
100
AcDbDictionary
281
     1
  0
DICTIONARY
  5
1A
102
{ACAD_REACTORS
330
C
102
}
330
C
100
AcDbDictionary
281
     1
  3
Layout1
350
1E
  3
Layout2
350
26
  3
Model
350
22
  0
DICTIONARY
  5
43
102
{ACAD_REACTORS
330
C
102
}
330
C
100
AcDbDictionary
281
     1
  3
ByBlock
350
45
  3
ByLayer
350
44
  3
Global
350
46
  0
DICTIONARY
  5
6B
102
{ACAD_REACTORS
330
C
102
}
330
C
100
AcDbDictionary
281
     1
  3
Standard
350
6C
  0
DICTIONARY
  5
17
102
{ACAD_REACTORS
330
C
102
}
330
C
100
AcDbDictionary
281
     1
  3
Standard
350
18
  0
DICTIONARY
  5
19
102
{ACAD_REACTORS
330
C
102
}
330
C
100
AcDbDictionary
281
     1
  0
ACDBDICTIONARYWDFLT
  5
E
102
{ACAD_REACTORS
330
C
102
}
330
C
100
AcDbDictionary
281
     1
  3
Normal
350
F
100
AcDbDictionaryWithDefault
340
F
  0
DICTIONARY
  5
47
102
{ACAD_REACTORS
330
C
102
}
330
C
100
AcDbDictionary
281
     1
  3
A0
350
48
  3
A1
350
49
  3
A2
350
4A
  3
A3
350
4B
  3
A4
350
4C
  3
A5
350
4D
  3
A6
350
4E
  3
A7
350
4F
  3
A8
350
50
  3
A9
350
51
  3
B0
350
52
  3
B1
350
53
  3
B2
350
54
  3
B3
350
55
  3
B4
350
56
  3
B5
350
57
  3
B6
350
58
  3
B7
350
59
  3
B8
350
5A
  3
B9
350
5B
  3
C0
350
5C
  3
C1
350
5D
  3
C2
350
5E
  3
C3
350
5F
  3
C4
350
60
  3
C5
350
61
  3
C6
350
62
  3
C7
350
63
  3
C8
350
64
  3
C9
350
65
  3
D0
350
66
  3
D1
350
67
  3
D2
350
68
  0
DICTIONARY
  5
26F
102
{ACAD_REACTORS
330
C
102
}
330
C
100
AcDbDictionary
281
     1
  0
DICTIONARY
  5
69
102
{ACAD_REACTORS
330
C
102
}
330
C
100
AcDbDictionary
281
     1
  3
Standard
350
6A
  0
DICTIONARY
  5
2A
102
{ACAD_REACTORS
330
C
102
}
330
C
100
AcDbDictionary
281
     1
  3
2dWireframe
350
2F
  3
Basic
350
32
  3
Brighten
350
36
  3
ColorChange
350
3A
  3
Conceptual
350
34
  3
Dim
350
35
  3
EdgeColorOff
350
3D
  3
Facepattern
350
39
  3
Flat
350
2B
  3
FlatWithEdges
350
2C
  3
Gouraud
350
2D
  3
GouraudWithEdges
350
2E
  3
Hidden
350
31
  3
JitterOff
350
3B
  3
Linepattern
350
38
  3
OverhangOff
350
3C
  3
Realistic
350
33
  3
Shaded
350
42
  3
Shaded with edges
350
41
  3
Shades of Gray
350
3E
  3
Sketchy
350
3F
  3
Thicken
350
37
  3
Wireframe
350
30
  3
X-Ray
350
40
  0
XRECORD
  5
26B
102
{ACAD_REACTORS
330
C
102
}
330
C
100
AcDbXrecord
280
     1
 90
        1
330
6A
  0
DICTIONARY
  5
267
102
{ACAD_REACTORS
330
C
102
}
330
C
100
AcDbDictionary
281
     1
  3
CANNOSCALE
350
268
  3
CMLEADERSTYLE
350
26D
  3
CTABLESTYLE
350
26C
  0
LAYOUT
  5
1E
102
{ACAD_REACTORS
330
1A
102
}
330
1A
100
AcDbPlotSettings
  1

  2
none_device
  4

  6

 40
0.0
 41
0.0
 42
0.0
 43
0.0
 44
0.0
 45
0.0
 46
0.0
 47
0.0
 48
0.0
 49
0.0
140
0.0
141
0.0
142
1.0
143
1.0
 70
   688
 72
     0
 73
     0
 74
     5
  7

 75
    16
 76
     0
 77
     2
 78
   300
147
1.0
148
0.0
149
0.0
100
AcDbLayout
  1
Layout1
 70
     1
 71
     1
 10
0.0
 20
0.0
 11
12.0
 21
9.0
 12
0.0
 22
0.0
 32
0.0
 14
1.000000000000000E+20
 24
1.000000000000000E+20
 34
1.000000000000000E+20
 15
-1.000000000000000E+20
 25
-1.000000000000000E+20
 35
-1.000000000000000E+20
146
0.0
 13
0.0
 23
0.0
 33
0.0
 16
1.0
 26
0.0
 36
0.0
 17
0.0
 27
1.0
 37
0.0
 76
     0
330
1B
  0
LAYOUT
  5
26
102
{ACAD_REACTORS
330
1A
102
}
330
1A
100
AcDbPlotSettings
  1

  2
none_device
  4

  6

 40
0.0
 41
0.0
 42
0.0
 43
0.0
 44
0.0
 45
0.0
 46
0.0
 47
0.0
 48
0.0
 49
0.0
140
0.0
141
0.0
142
1.0
143
1.0
 70
   688
 72
     0
 73
     0
 74
     5
  7

 75
    16
 76
     0
 77
     2
 78
   300
147
1.0
148
0.0
149
0.0
100
AcDbLayout
  1
Layout2
 70
     1
 71
     2
 10
0.0
 20
0.0
 11
0.0
 21
0.0
 12
0.0
 22
0.0
 32
0.0
 14
0.0
 24
0.0
 34
0.0
 15
0.0
 25
0.0
 35
0.0
146
0.0
 13
0.0
 23
0.0
 33
0.0
 16
1.0
 26
0.0
 36
0.0
 17
0.0
 27
1.0
 37
0.0
 76
     0
330
23
  0
LAYOUT
  5
22
102
{ACAD_REACTORS
330
1A
102
}
330
1A
100
AcDbPlotSettings
  1

  2
none_device
  4
Letter_(8.50_x_11.00_Inches)
  6

 40
6.35
 41
6.35
 42
6.35000508
 43
6.35000508
 44
215.9
 45
279.4
 46
0.0
 47
0.0
 48
0.0
 49
0.0
140
0.0
141
0.0
142
1.0
143
1.0
 70
  1712
 72
     0
 73
     0
 74
     0
  7

 75
     0
 76
     0
 77
     2
 78
   300
147
1.0
148
0.0
149
0.0
100
AcDbLayout
  1
Model
 70
     1
 71
     0
 10
0.0
 20
0.0
 11
12.0
 21
9.0
 12
0.0
 22
0.0
 32
0.0
 14
1.000000000000000E+20
 24
1.000000000000000E+20
 34
1.000000000000000E+20
 15
-1.000000000000000E+20
 25
-1.000000000000000E+20
 35
-1.000000000000000E+20
146
0.0
 13
0.0
 23
0.0
 33
0.0
 16
1.0
 26
0.0
 36
0.0
 17
0.0
 27
1.0
 37
0.0
 76
     0
330
1F
331
29
  0
MATERIAL
  5
45
102
{ACAD_REACTORS
330
43
102
}
330
43
100
AcDbMaterial
  1
ByBlock
 72
     1
 94
      127
  0
MATERIAL
  5
44
102
{ACAD_REACTORS
330
43
102
}
330
43
100
AcDbMaterial
  1
ByLayer
 72
     1
 94
      127
  0
MATERIAL
  5
46
102
{ACAD_REACTORS
330
43
102
}
330
43
100
AcDbMaterial
  1
Global
 72
     1
 94
      127
  0
MLEADERSTYLE
  5
6C
102
{ACAD_REACTORS
330
6B
102
}
330
6B
100
AcDbMLeaderStyle
179
     2
170
     2
171
     1
172
     0
 90
        2
 40
0.0
 41
0.0
173
     1
 91
-1056964608
340
14
 92
       -2
290
     1
 42
0.09
291
     1
 43
0.36
  3
Standard
341
0
 44
0.18
300

342
11
174
     1
178
     6
175
     1
176
     0
 93
-1056964608
 45
0.18
292
     0
297
     0
 46
0.18
343
0
 94
-1056964608
 47
1.0
 49
1.0
140
1.0
293
     1
141
0.0
294
     1
177
     0
142
1.0
295
     0
296
     0
143
0.125
271
     0
272
     9
273
     9
298
     0
  0
MLINESTYLE
  5
18
102
{ACAD_REACTORS
330
17
102
}
330
17
100
AcDbMlineStyle
  2
Standard
 70
     0
  3

 62
   256
 51
90.0
 52
90.0
 71
     2
 49
0.5
 62
   256
  6
BYLAYER
 49
-0.5
 62
   256
  6
BYLAYER
  0
ACDBPLACEHOLDER
  5
F
102
{ACAD_REACTORS
330
E
102
}
330
E
  0
SCALE
  5
48
102
{ACAD_REACTORS
330
47
102
}
330
47
100
AcDbScale
 70
     0
300
1:1
140
1.0
141
1.0
290
     1
  0
SCALE
  5
49
102
{ACAD_REACTORS
330
47
102
}
330
47
100
AcDbScale
 70
     0
300
1:2
140
1.0
141
2.0
290
     0
  0
SCALE
  5
4A
102
{ACAD_REACTORS
330
47
102
}
330
47
100
AcDbScale
 70
     0
300
1:4
140
1.0
141
4.0
290
     0
  0
SCALE
  5
4B
102
{ACAD_REACTORS
330
47
102
}
330
47
100
AcDbScale
 70
     0
300
1:5
140
1.0
141
5.0
290
     0
  0
SCALE
  5
4C
102
{ACAD_REACTORS
330
47
102
}
330
47
100
AcDbScale
 70
     0
300
1:8
140
1.0
141
8.0
290
     0
  0
SCALE
  5
4D
102
{ACAD_REACTORS
330
47
102
}
330
47
100
AcDbScale
 70
     0
300
1:10
140
1.0
141
10.0
290
     0
  0
SCALE
  5
4E
102
{ACAD_REACTORS
330
47
102
}
330
47
100
AcDbScale
 70
     0
300
1:16
140
1.0
141
16.0
290
     0
  0
SCALE
  5
4F
102
{ACAD_REACTORS
330
47
102
}
330
47
100
AcDbScale
 70
     0
300
1:20
140
1.0
141
20.0
290
     0
  0
SCALE
  5
50
102
{ACAD_REACTORS
330
47
102
}
330
47
100
AcDbScale
 70
     0
300
1:30
140
1.0
141
30.0
290
     0
  0
SCALE
  5
51
102
{ACAD_REACTORS
330
47
102
}
330
47
100
AcDbScale
 70
     0
300
1:40
140
1.0
141
40.0
290
     0
  0
SCALE
  5
52
102
{ACAD_REACTORS
330
47
102
}
330
47
100
AcDbScale
 70
     0
300
1:50
140
1.0
141
50.0
290
     0
  0
SCALE
  5
53
102
{ACAD_REACTORS
330
47
102
}
330
47
100
AcDbScale
 70
     0
300
1:100
140
1.0
141
100.0
290
     0
  0
SCALE
  5
54
102
{ACAD_REACTORS
330
47
102
}
330
47
100
AcDbScale
 70
     0
300
2:1
140
2.0
141
1.0
290
     0
  0
SCALE
  5
55
102
{ACAD_REACTORS
330
47
102
}
330
47
100
AcDbScale
 70
     0
300
4:1
140
4.0
141
1.0
290
     0
  0
SCALE
  5
56
102
{ACAD_REACTORS
330
47
102
}
330
47
100
AcDbScale
 70
     0
300
8:1
140
8.0
141
1.0
290
     0
  0
SCALE
  5
57
102
{ACAD_REACTORS
330
47
102
}
330
47
100
AcDbScale
 70
     0
300
10:1
140
10.0
141
1.0
290
     0
  0
SCALE
  5
58
102
{ACAD_REACTORS
330
47
102
}
330
47
100
AcDbScale
 70
     0
300
100:1
140
100.0
141
1.0
290
     0
  0
SCALE
  5
59
102
{ACAD_REACTORS
330
47
102
}
330
47
100
AcDbScale
 70
     0
300
1/128" = 1'-0"
140
0.0078125
141
12.0
290
     0
  0
SCALE
  5
5A
102
{ACAD_REACTORS
330
47
102
}
330
47
100
AcDbScale
 70
     0
300
1/64" = 1'-0"
140
0.015625
141
12.0
290
     0
  0
SCALE
  5
5B
102
{ACAD_REACTORS
330
47
102
}
330
47
100
AcDbScale
 70
     0
300
1/32" = 1'-0"
140
0.03125
141
12.0
290
     0
  0
SCALE
  5
5C
102
{ACAD_REACTORS
330
47
102
}
330
47
100
AcDbScale
 70
     0
300
1/16" = 1'-0"
140
0.0625
141
12.0
290
     0
  0
SCALE
  5
5D
102
{ACAD_REACTORS
330
47
102
}
330
47
100
AcDbScale
 70
     0
300
3/32" = 1'-0"
140
0.09375
141
12.0
290
     0
  0
SCALE
  5
5E
102
{ACAD_REACTORS
330
47
102
}
330
47
100
AcDbScale
 70
     0
300
1/8" = 1'-0"
140
0.125
141
12.0
290
     0
  0
SCALE
  5
5F
102
{ACAD_REACTORS
330
47
102
}
330
47
100
AcDbScale
 70
     0
300
3/16" = 1'-0"
140
0.1875
141
12.0
290
     0
  0
SCALE
  5
60
102
{ACAD_REACTORS
330
47
102
}
330
47
100
AcDbScale
 70
     0
300
1/4" = 1'-0"
140
0.25
141
12.0
290
     0
  0
SCALE
  5
61
102
{ACAD_REACTORS
330
47
102
}
330
47
100
AcDbScale
 70
     0
300
3/8" = 1'-0"
140
0.375
141
12.0
290
     0
  0
SCALE
  5
62
102
{ACAD_REACTORS
330
47
102
}
330
47
100
AcDbScale
 70
     0
300
1/2" = 1'-0"
140
0.5
141
12.0
290
     0
  0
SCALE
  5
63
102
{ACAD_REACTORS
330
47
102
}
330
47
100
AcDbScale
 70
     0
300
3/4" = 1'-0"
140
0.75
141
12.0
290
     0
  0
SCALE
  5
64
102
{ACAD_REACTORS
330
47
102
}
330
47
100
AcDbScale
 70
     0
300
1" = 1'-0"
140
1.0
141
12.0
290
     0
  0
SCALE
  5
65
102
{ACAD_REACTORS
330
47
102
}
330
47
100
AcDbScale
 70
     0
300
1-1/2" = 1'-0"
140
1.5
141
12.0
290
     0
  0
SCALE
  5
66
102
{ACAD_REACTORS
330
47
102
}
330
47
100
AcDbScale
 70
     0
300
3" = 1'-0"
140
3.0
141
12.0
290
     0
  0
SCALE
  5
67
102
{ACAD_REACTORS
330
47
102
}
330
47
100
AcDbScale
 70
     0
300
6" = 1'-0"
140
6.0
141
12.0
290
     0
  0
SCALE
  5
68
102
{ACAD_REACTORS
330
47
102
}
330
47
100
AcDbScale
 70
     0
300
1'-0" = 1'-0"
140
12.0
141
12.0
290
     0
  0
TABLESTYLE
  5
6A
102
{ACAD_REACTORS
330
69
102
}
102
{ACAD_XDICTIONARY
360
269
102
}
330
69
100
AcDbTableStyle
  3
Standard
 70
     0
 71
     0
 40
0.06
 41
0.06
280
     0
281
     0
  7
Standard
140
0.18
170
     2
 62
     0
 63
   257
283
     0
 90
        4
 91
        0
  1

274
    -2
284
     1
 64
     0
275
    -2
285
     1
 65
     0
276
    -2
286
     1
 66
     0
277
    -2
287
     1
 67
     0
278
    -2
288
     1
 68
     0
279
    -2
289
     1
 69
     0
  7
Standard
140
0.25
170
     5
 62
     0
 63
   257
283
     0
 90
        4
 91
        0
  1

274
    -2
284
     1
 64
     0
275
    -2
285
     1
 65
     0
276
    -2
286
     1
 66
     0
277
    -2
287
     1
 67
     0
278
    -2
288
     1
 68
     0
279
    -2
289
     1
 69
     0
  7
Standard
140
0.18
170
     5
 62
     0
 63
   257
283
     0
 90
        4
 91
        0
  1

274
    -2
284
     1
 64
     0
275
    -2
285
     1
 65
     0
276
    -2
286
     1
 66
     0
277
    -2
287
     1
 67
     0
278
    -2
288
     1
 68
     0
279
    -2
289
     1
 69
     0
  0
VISUALSTYLE
  5
2F
102
{ACAD_REACTORS
330
2A
102
}
330
2A
100
AcDbVisualStyle
  2
2dWireframe
 70
     4
177
     3
291
     0
 70
    58
 90
        0
176
     1
 90
        2
176
     1
 90
        0
176
     1
 90
        0
176
     1
 40
0.6
176
     1
 40
30.0
176
     1
 62
     7
420
 16777215
176
     1
 90
        1
176
     1
 90
        4
176
     1
 62
     7
176
     1
 62
   257
176
     1
 90
        1
176
     1
 90
        1
176
     1
 40
1.0
176
     1
 90
        0
176
     1
 62
   257
176
     1
 40
1.0
176
     1
 90
        1
176
     1
 90
        6
176
     1
 90
        2
176
     1
 62
     7
176
     1
 90
        5
176
     1
 90
        0
176
     1
 90
        0
176
     1
290
     0
176
     1
 90
        1
176
     1
 40
0.0
176
     1
 90
        0
176
     1
290
     1
176
     1
290
     1
176
     1
290
     0
176
     1
290
     0
176
     1
290
     0
176
     1
290
     0
176
     1
290
     0
176
     1
290
     0
176
     1
290
     0
176
     1
 90
       50
176
     1
 40
0.0
176
     1
 40
1.0
176
     1
 90
        0
176
     1
 62
    18
420
        0
176
     1
 90
       50
176
     1
 90
        3
176
     1
 62
     5
420
      255
176
     1
290
     0
176
     1
 90
       50
176
     1
 90
       50
176
     1
 90
       50
176
     1
290
     0
176
     1
 90
       50
176
     1
 62
   256
176
     0
 40
1.0
176
     0
 90
        2
176
     1
  1
strokes_ogs.tif
176
     1
290
     0
176
     1
 40
1.0
176
     1
 40
1.0
176
     1
  0
VISUALSTYLE
  5
32
102
{ACAD_REACTORS
330
2A
102
}
330
2A
100
AcDbVisualStyle
  2
Basic
 70
     7
177
     3
291
     1
 70
    58
 90
        1
176
     1
 90
        0
176
     1
 90
        1
176
     1
 90
        0
176
     1
 40
0.6
176
     1
 40
30.0
176
     1
 62
     7
420
 16777215
176
     1
 90
        0
176
     1
 90
        4
176
     1
 62
     7
176
     1
 62
   257
176
     1
 90
        1
176
     1
 90
        1
176
     1
 40
1.0
176
     1
 90
        8
176
     1
 62
     7
176
     1
 40
1.0
176
     1
 90
        1
176
     1
 90
        6
176
     1
 90
        2
176
     1
 62
     7
176
     1
 90
        5
176
     1
 90
        0
176
     1
 90
        0
176
     1
290
     0
176
     1
 90
        1
176
     1
 40
0.0
176
     1
 90
        0
176
     1
290
     0
176
     1
290
     1
176
     1
290
     1
176
     1
290
     0
176
     1
290
     0
176
     1
290
     0
176
     1
290
     0
176
     1
290
     0
176
     1
290
     0
176
     1
 90
       50
176
     1
 40
0.0
176
     1
 40
1.0
176
     1
 90
        0
176
     1
 62
    18
420
        0
176
     1
 90
       50
176
     1
 90
        3
176
     1
 62
     5
420
      255
176
     1
290
     0
176
     1
 90
       50
176
     1
 90
       50
176
     1
 90
       50
176
     1
290
     0
176
     1
 90
       50
176
     1
 62
   256
176
     0
 40
1.0
176
     0
 90
        2
176
     1
  1
strokes_ogs.tif
176
     1
290
     0
176
     1
 40
1.0
176
     1
 40
1.0
176
     1
  0
VISUALSTYLE
  5
36
102
{ACAD_REACTORS
330
2A
102
}
330
2A
100
AcDbVisualStyle
  2
Brighten
 70
    12
177
     3
291
     1
 70
    58
 90
        2
176
     1
 90
        2
176
     1
 90
        0
176
     1
 90
        0
176
     1
 40
0.6
176
     1
 40
30.0
176
     1
 62
     7
420
 16777215
176
     1
 90
        1
176
     1
 90
        4
176
     1
 62
     7
176
     1
 62
   257
176
     1
 90
        1
176
     1
 90
        1
176
     1
 40
1.0
176
     1
 90
        8
176
     1
 62
     7
176
     1
 40
1.0
176
     1
 90
        1
176
     1
 90
        6
176
     1
 90
        2
176
     1
 62
     7
176
     1
 90
        5
176
     1
 90
        0
176
     1
 90
        0
176
     1
290
     0
176
     1
 90
        1
176
     1
 40
50.0
176
     1
 90
        0
176
     1
290
     0
176
     1
290
     1
176
     1
290
     1
176
     1
290
     0
176
     1
290
     0
176
     1
290
     0
176
     1
290
     0
176
     1
290
     0
176
     1
290
     0
176
     1
 90
       50
176
     1
 40
0.0
176
     1
 40
1.0
176
     1
 90
        0
176
     1
 62
    18
420
        0
176
     1
 90
       50
176
     1
 90
        3
176
     1
 62
     5
420
      255
176
     1
290
     0
176
     1
 90
       50
176
     1
 90
       50
176
     1
 90
       50
176
     1
290
     0
176
     1
 90
       50
176
     1
 62
   256
176
     0
 40
1.0
176
     0
 90
        2
176
     1
  1
strokes_ogs.tif
176
     1
290
     0
176
     1
 40
1.0
176
     1
 40
1.0
176
     1
  0
VISUALSTYLE
  5
3A
102
{ACAD_REACTORS
330
2A
102
}
330
2A
100
AcDbVisualStyle
  2
ColorChange
 70
    16
177
     3
291
     1
 70
    58
 90
        2
176
     1
 90
        2
176
     1
 90
        3
176
     1
 90
        0
176
     1
 40
0.6
176
     1
 40
30.0
176
     1
 62
     8
420
  8421504
176
     1
 90
        1
176
     1
 90
        4
176
     1
 62
     7
176
     1
 62
   257
176
     1
 90
        1
176
     1
 90
        1
176
     1
 40
1.0
176
     1
 90
        8
176
     1
 62
     8
420
  8421504
176
     1
 40
1.0
176
     1
 90
        1
176
     1
 90
        6
176
     1
 90
        2
176
     1
 62
     7
176
     1
 90
        5
176
     1
 90
        0
176
     1
 90
        0
176
     1
290
     0
176
     1
 90
        1
176
     1
 40
0.0
176
     1
 90
        0
176
     1
290
     0
176
     1
290
     1
176
     1
290
     1
176
     1
290
     0
176
     1
290
     0
176
     1
290
     0
176
     1
290
     0
176
     1
290
     0
176
     1
290
     0
176
     1
 90
       50
176
     1
 40
0.0
176
     1
 40
1.0
176
     1
 90
        0
176
     1
 62
    18
420
        0
176
     1
 90
       50
176
     1
 90
        3
176
     1
 62
     5
420
      255
176
     1
290
     0
176
     1
 90
       50
176
     1
 90
       50
176
     1
 90
       50
176
     1
290
     0
176
     1
 90
       50
176
     1
 62
   256
176
     0
 40
1.0
176
     0
 90
        2
176
     1
  1
strokes_ogs.tif
176
     1
290
     0
176
     1
 40
1.0
176
     1
 40
1.0
176
     1
  0
VISUALSTYLE
  5
34
102
{ACAD_REACTORS
330
2A
102
}
330
2A
100
AcDbVisualStyle
  2
Conceptual
 70
     9
177
     3
291
     0
 70
    58
 90
        3
176
     1
 90
        2
176
     1
 90
        0
176
     1
 90
        0
176
     1
 40
0.6
176
     1
 40
30.0
176
     1
 62
     7
420
 16777215
176
     1
 90
        2
176
     1
 90
        2
176
     1
 62
     7
176
     1
 62
   257
176
     1
 90
        1
176
     1
 90
        1
176
     1
 40
179.0
176
     1
 90
        8
176
     1
 62
     7
176
     1
 40
1.0
176
     1
 90
        1
176
     1
 90
        6
176
     1
 90
        2
176
     1
 62
     7
176
     1
 90
        3
176
     1
 90
        0
176
     1
 90
        0
176
     1
290
     0
176
     1
 90
        1
176
     1
 40
0.0
176
     1
 90
        0
176
     1
290
     0
176
     1
290
     1
176
     1
290
     1
176
     1
290
     0
176
     1
290
     0
176
     1
290
     0
176
     1
290
     0
176
     1
290
     0
176
     1
290
     0
176
     1
 90
       50
176
     1
 40
0.0
176
     1
 40
1.0
176
     1
 90
        0
176
     1
 62
    18
420
        0
176
     1
 90
       50
176
     1
 90
        3
176
     1
 62
     5
420
      255
176
     1
290
     0
176
     1
 90
       50
176
     1
 90
       50
176
     1
 90
       50
176
     1
290
     0
176
     1
 90
       50
176
     1
 62
   256
176
     0
 40
1.0
176
     0
 90
        2
176
     1
  1
strokes_ogs.tif
176
     1
290
     0
176
     1
 40
1.0
176
     1
 40
1.0
176
     1
  0
VISUALSTYLE
  5
35
102
{ACAD_REACTORS
330
2A
102
}
330
2A
100
AcDbVisualStyle
  2
Dim
 70
    11
177
     3
291
     1
 70
    58
 90
        2
176
     1
 90
        2
176
     1
 90
        0
176
     1
 90
        0
176
     1
 40
0.6
176
     1
 40
30.0
176
     1
 62
     7
420
 16777215
176
     1
 90
        1
176
     1
 90
        4
176
     1
 62
     7
176
     1
 62
   257
176
     1
 90
        1
176
     1
 90
        1
176
     1
 40
1.0
176
     1
 90
        8
176
     1
 62
     7
176
     1
 40
1.0
176
     1
 90
        1
176
     1
 90
        6
176
     1
 90
        2
176
     1
 62
     7
176
     1
 90
        5
176
     1
 90
        0
176
     1
 90
        0
176
     1
290
     0
176
     1
 90
        1
176
     1
 40
-50.0
176
     1
 90
        0
176
     1
290
     0
176
     1
290
     1
176
     1
290
     1
176
     1
290
     0
176
     1
290
     0
176
     1
290
     0
176
     1
290
     0
176
     1
290
     0
176
     1
290
     0
176
     1
 90
       50
176
     1
 40
0.0
176
     1
 40
1.0
176
     1
 90
        0
176
     1
 62
    18
420
        0
176
     1
 90
       50
176
     1
 90
        3
176
     1
 62
     5
420
      255
176
     1
290
     0
176
     1
 90
       50
176
     1
 90
       50
176
     1
 90
       50
176
     1
290
     0
176
     1
 90
       50
176
     1
 62
   256
176
     0
 40
1.0
176
     0
 90
        2
176
     1
  1
strokes_ogs.tif
176
     1
290
     0
176
     1
 40
1.0
176
     1
 40
1.0
176
     1
  0
VISUALSTYLE
  5
3D
102
{ACAD_REACTORS
330
2A
102
}
330
2A
100
AcDbVisualStyle
  2
EdgeColorOff
 70
    22
177
     3
291
     1
 70
    58
 90
        2
176
     0
 90
        2
176
     0
 90
        0
176
     0
 90
        0
176
     0
 40
0.6
176
     0
 40
30.0
176
     0
 62
     7
420
 16777215
176
     0
 90
        1
176
     0
 90
        4
176
     0
 62
     7
176
     0
 62
   257
176
     0
 90
        1
176
     0
 90
        1
176
     0
 40
1.0
176
     0
 90
        8
176
     2
 62
     7
176
     0
 40
1.0
176
     0
 90
        1
176
     0
 90
        6
176
     0
 90
        2
176
     0
 62
     7
176
     0
 90
        5
176
     0
 90
        0
176
     0
 90
        0
176
     0
290
     0
176
     0
 90
        1
176
     0
 40
0.0
176
     0
 90
        0
176
     0
290
     0
176
     0
290
     1
176
     0
290
     1
176
     0
290
     0
176
     0
290
     0
176
     0
290
     0
176
     0
290
     0
176
     0
290
     0
176
     0
290
     0
176
     0
 90
       50
176
     0
 40
0.0
176
     0
 40
1.0
176
     0
 90
        0
176
     0
 62
    18
420
        0
176
     0
 90
       50
176
     0
 90
        3
176
     0
 62
     5
420
      255
176
     0
290
     0
176
     0
 90
       50
176
     0
 90
       50
176
     0
 90
       50
176
     0
290
     0
176
     0
 90
       50
176
     0
 62
   256
176
     0
 40
1.0
176
     0
 90
        2
176
     0
  1
strokes_ogs.tif
176
     0
290
     0
176
     0
 40
1.0
176
     0
 40
1.0
176
     0
  0
VISUALSTYLE
  5
39
102
{ACAD_REACTORS
330
2A
102
}
330
2A
100
AcDbVisualStyle
  2
Facepattern
 70
    15
177
     3
291
     1
 70
    58
 90
        2
176
     1
 90
        2
176
     1
 90
        0
176
     1
 90
        0
176
     1
 40
0.6
176
     1
 40
30.0
176
     1
 62
     7
420
 16777215
176
     1
 90
        1
176
     1
 90
        4
176
     1
 62
     7
176
     1
 62
   257
176
     1
 90
        1
176
     1
 90
        1
176
     1
 40
1.0
176
     1
 90
        8
176
     1
 62
     7
176
     1
 40
1.0
176
     1
 90
        1
176
     1
 90
        6
176
     1
 90
        2
176
     1
 62
     7
176
     1
 90
        5
176
     1
 90
        0
176
     1
 90
        0
176
     1
290
     0
176
     1
 90
        1
176
     1
 40
0.0
176
     1
 90
        0
176
     1
290
     0
176
     1
290
     1
176
     1
290
     1
176
     1
290
     0
176
     1
290
     0
176
     1
290
     0
176
     1
290
     0
176
     1
290
     0
176
     1
290
     0
176
     1
 90
       50
176
     1
 40
0.0
176
     1
 40
1.0
176
     1
 90
        0
176
     1
 62
    18
420
        0
176
     1
 90
       50
176
     1
 90
        3
176
     1
 62
     5
420
      255
176
     1
290
     0
176
     1
 90
       50
176
     1
 90
       50
176
     1
 90
       50
176
     1
290
     0
176
     1
 90
       50
176
     1
 62
   256
176
     0
 40
1.0
176
     0
 90
        2
176
     1
  1
strokes_ogs.tif
176
     1
290
     0
176
     1
 40
1.0
176
     1
 40
1.0
176
     1
  0
VISUALSTYLE
  5
2B
102
{ACAD_REACTORS
330
2A
102
}
330
2A
100
AcDbVisualStyle
  2
Flat
 70
     0
177
     3
291
     1
 70
    58
 90
        2
176
     1
 90
        1
176
     1
 90
        1
176
     1
 90
        2
176
     1
 40
0.6
176
     1
 40
30.0
176
     1
 62
     7
420
 16777215
176
     1
 90
        0
176
     1
 90
        0
176
     1
 62
     7
176
     1
 62
   257
176
     1
 90
        1
176
     1
 90
        1
176
     1
 40
1.0
176
     1
 90
        8
176
     1
 62
     7
176
     1
 40
1.0
176
     1
 90
        1
176
     1
 90
        6
176
     1
 90
        2
176
     1
 62
     7
176
     1
 90
        5
176
     1
 90
        0
176
     1
 90
        0
176
     1
290
     0
176
     1
 90
       13
176
     1
 40
0.0
176
     1
 90
        0
176
     1
290
     0
176
     1
290
     1
176
     1
290
     1
176
     1
290
     0
176
     1
290
     0
176
     1
290
     0
176
     1
290
     0
176
     1
290
     0
176
     1
290
     0
176
     1
 90
       50
176
     1
 40
0.0
176
     1
 40
1.0
176
     1
 90
        0
176
     1
 62
    18
420
        0
176
     1
 90
       50
176
     1
 90
        3
176
     1
 62
     5
420
      255
176
     1
290
     0
176
     1
 90
       50
176
     1
 90
       50
176
     1
 90
       50
176
     1
290
     0
176
     1
 90
       50
176
     1
 62
   256
176
     0
 40
1.0
176
     0
 90
        2
176
     1
  1
strokes_ogs.tif
176
     1
290
     0
176
     1
 40
1.0
176
     1
 40
1.0
176
     1
  0
VISUALSTYLE
  5
2C
102
{ACAD_REACTORS
330
2A
102
}
330
2A
100
AcDbVisualStyle
  2
FlatWithEdges
 70
     1
177
     3
291
     1
 70
    58
 90
        2
176
     1
 90
        1
176
     1
 90
        1
176
     1
 90
        2
176
     1
 40
0.6
176
     1
 40
30.0
176
     1
 62
     7
420
 16777215
176
     1
 90
        1
176
     1
 90
        0
176
     1
 62
     7
176
     1
 62
   257
176
     1
 90
        1
176
     1
 90
        1
176
     1
 40
1.0
176
     1
 90
        0
176
     1
 62
   257
176
     1
 40
1.0
176
     1
 90
        1
176
     1
 90
        6
176
     1
 90
        2
176
     1
 62
     7
176
     1
 90
        5
176
     1
 90
        0
176
     1
 90
        0
176
     1
290
     0
176
     1
 90
       13
176
     1
 40
0.0
176
     1
 90
        0
176
     1
290
     0
176
     1
290
     1
176
     1
290
     1
176
     1
290
     0
176
     1
290
     0
176
     1
290
     0
176
     1
290
     0
176
     1
290
     0
176
     1
290
     0
176
     1
 90
       50
176
     1
 40
0.0
176
     1
 40
1.0
176
     1
 90
        0
176
     1
 62
    18
420
        0
176
     1
 90
       50
176
     1
 90
        3
176
     1
 62
     5
420
      255
176
     1
290
     0
176
     1
 90
       50
176
     1
 90
       50
176
     1
 90
       50
176
     1
290
     0
176
     1
 90
       50
176
     1
 62
   256
176
     0
 40
1.0
176
     0
 90
        2
176
     1
  1
strokes_ogs.tif
176
     1
290
     0
176
     1
 40
1.0
176
     1
 40
1.0
176
     1
  0
VISUALSTYLE
  5
2D
102
{ACAD_REACTORS
330
2A
102
}
330
2A
100
AcDbVisualStyle
  2
Gouraud
 70
     2
177
     3
291
     1
 70
    58
 90
        2
176
     1
 90
        2
176
     1
 90
        1
176
     1
 90
        2
176
     1
 40
0.6
176
     1
 40
30.0
176
     1
 62
     7
420
 16777215
176
     1
 90
        0
176
     1
 90
        0
176
     1
 62
     7
176
     1
 62
   257
176
     1
 90
        1
176
     1
 90
        1
176
     1
 40
1.0
176
     1
 90
        0
176
     1
 62
     7
176
     1
 40
1.0
176
     1
 90
        1
176
     1
 90
        6
176
     1
 90
        2
176
     1
 62
     7
176
     1
 90
        5
176
     1
 90
        0
176
     1
 90
        0
176
     1
290
     0
176
     1
 90
       13
176
     1
 40
0.0
176
     1
 90
        0
176
     1
290
     0
176
     1
290
     1
176
     1
290
     1
176
     1
290
     0
176
     1
290
     0
176
     1
290
     0
176
     1
290
     0
176
     1
290
     0
176
     1
290
     0
176
     1
 90
       50
176
     1
 40
0.0
176
     1
 40
1.0
176
     1
 90
        0
176
     1
 62
    18
420
        0
176
     1
 90
       50
176
     1
 90
        3
176
     1
 62
     5
420
      255
176
     1
290
     0
176
     1
 90
       50
176
     1
 90
       50
176
     1
 90
       50
176
     1
290
     0
176
     1
 90
       50
176
     1
 62
   256
176
     0
 40
1.0
176
     0
 90
        2
176
     1
  1
strokes_ogs.tif
176
     1
290
     0
176
     1
 40
1.0
176
     1
 40
1.0
176
     1
  0
VISUALSTYLE
  5
2E
102
{ACAD_REACTORS
330
2A
102
}
330
2A
100
AcDbVisualStyle
  2
GouraudWithEdges
 70
     3
177
     3
291
     1
 70
    58
 90
        2
176
     1
 90
        2
176
     1
 90
        1
176
     1
 90
        2
176
     1
 40
0.6
176
     1
 40
30.0
176
     1
 62
     7
420
 16777215
176
     1
 90
        1
176
     1
 90
        0
176
     1
 62
     7
176
     1
 62
   257
176
     1
 90
        1
176
     1
 90
        1
176
     1
 40
1.0
176
     1
 90
        0
176
     1
 62
   257
176
     1
 40
1.0
176
     1
 90
        1
176
     1
 90
        6
176
     1
 90
        2
176
     1
 62
     7
176
     1
 90
        5
176
     1
 90
        0
176
     1
 90
        0
176
     1
290
     0
176
     1
 90
       13
176
     1
 40
0.0
176
     1
 90
        0
176
     1
290
     0
176
     1
290
     1
176
     1
290
     1
176
     1
290
     0
176
     1
290
     0
176
     1
290
     0
176
     1
290
     0
176
     1
290
     0
176
     1
290
     0
176
     1
 90
       50
176
     1
 40
0.0
176
     1
 40
1.0
176
     1
 90
        0
176
     1
 62
    18
420
        0
176
     1
 90
       50
176
     1
 90
        3
176
     1
 62
     5
420
      255
176
     1
290
     0
176
     1
 90
       50
176
     1
 90
       50
176
     1
 90
       50
176
     1
290
     0
176
     1
 90
       50
176
     1
 62
   256
176
     0
 40
1.0
176
     0
 90
        2
176
     1
  1
strokes_ogs.tif
176
     1
290
     0
176
     1
 40
1.0
176
     1
 40
1.0
176
     1
  0
VISUALSTYLE
  5
31
102
{ACAD_REACTORS
330
2A
102
}
330
2A
100
AcDbVisualStyle
  2
Hidden
 70
     6
177
     3
291
     0
 70
    58
 90
        1
176
     1
 90
        2
176
     1
 90
        2
176
     1
 90
        0
176
     1
 40
0.6
176
     1
 40
30.0
176
     1
 62
     7
420
 16777215
176
     1
 90
        2
176
     1
 90
        2
176
     1
 62
     7
176
     1
 62
   257
176
     1
 90
        2
176
     1
 90
        1
176
     1
 40
40.0
176
     1
 90
        0
176
     1
 62
   257
176
     1
 40
1.0
176
     1
 90
        1
176
     1
 90
        6
176
     1
 90
        2
176
     1
 62
     7
176
     1
 90
        3
176
     1
 90
        0
176
     1
 90
        0
176
     1
290
     0
176
     1
 90
        1
176
     1
 40
0.0
176
     1
 90
        0
176
     1
290
     0
176
     1
290
     1
176
     1
290
     1
176
     1
290
     0
176
     1
290
     0
176
     1
290
     0
176
     1
290
     0
176
     1
290
     0
176
     1
290
     0
176
     1
 90
       50
176
     1
 40
0.0
176
     1
 40
1.0
176
     1
 90
        0
176
     1
 62
    18
420
        0
176
     1
 90
       50
176
     1
 90
        3
176
     1
 62
     5
420
      255
176
     1
290
     0
176
     1
 90
       50
176
     1
 90
       50
176
     1
 90
       50
176
     1
290
     0
176
     1
 90
       50
176
     1
 62
   256
176
     0
 40
1.0
176
     0
 90
        2
176
     1
  1
strokes_ogs.tif
176
     1
290
     0
176
     1
 40
1.0
176
     1
 40
1.0
176
     1
  0
VISUALSTYLE
  5
3B
102
{ACAD_REACTORS
330
2A
102
}
330
2A
100
AcDbVisualStyle
  2
JitterOff
 70
    20
177
     3
291
     1
 70
    58
 90
        2
176
     0
 90
        2
176
     0
 90
        0
176
     0
 90
        0
176
     0
 40
0.6
176
     0
 40
30.0
176
     0
 62
     7
420
 16777215
176
     0
 90
        1
176
     0
 90
        4
176
     0
 62
     7
176
     0
 62
   257
176
     0
 90
        1
176
     0
 90
        1
176
     0
 40
1.0
176
     0
 90
       10
176
     2
 62
     7
176
     0
 40
1.0
176
     0
 90
        1
176
     0
 90
        6
176
     0
 90
        2
176
     0
 62
     7
176
     0
 90
        5
176
     0
 90
        0
176
     0
 90
        0
176
     0
290
     0
176
     0
 90
        1
176
     0
 40
0.0
176
     0
 90
        0
176
     0
290
     0
176
     0
290
     1
176
     0
290
     1
176
     0
290
     0
176
     0
290
     0
176
     0
290
     0
176
     0
290
     0
176
     0
290
     0
176
     0
290
     0
176
     0
 90
       50
176
     0
 40
0.0
176
     0
 40
1.0
176
     0
 90
        0
176
     0
 62
    18
420
        0
176
     0
 90
       50
176
     0
 90
        3
176
     0
 62
     5
420
      255
176
     0
290
     0
176
     0
 90
       50
176
     0
 90
       50
176
     0
 90
       50
176
     0
290
     0
176
     0
 90
       50
176
     0
 62
   256
176
     0
 40
1.0
176
     0
 90
        2
176
     0
  1
strokes_ogs.tif
176
     0
290
     0
176
     0
 40
1.0
176
     0
 40
1.0
176
     0
  0
VISUALSTYLE
  5
38
102
{ACAD_REACTORS
330
2A
102
}
330
2A
100
AcDbVisualStyle
  2
Linepattern
 70
    14
177
     3
291
     1
 70
    58
 90
        2
176
     1
 90
        2
176
     1
 90
        0
176
     1
 90
        0
176
     1
 40
0.6
176
     1
 40
30.0
176
     1
 62
     7
420
 16777215
176
     1
 90
        1
176
     1
 90
        4
176
     1
 62
     7
176
     1
 62
   257
176
     1
 90
        7
176
     1
 90
        7
176
     1
 40
1.0
176
     1
 90
        8
176
     1
 62
     7
176
     1
 40
1.0
176
     1
 90
        1
176
     1
 90
        6
176
     1
 90
        2
176
     1
 62
     7
176
     1
 90
        5
176
     1
 90
        0
176
     1
 90
        0
176
     1
290
     0
176
     1
 90
        1
176
     1
 40
0.0
176
     1
 90
        0
176
     1
290
     0
176
     1
290
     1
176
     1
290
     1
176
     1
290
     0
176
     1
290
     0
176
     1
290
     0
176
     1
290
     0
176
     1
290
     0
176
     1
290
     0
176
     1
 90
       50
176
     1
 40
0.0
176
     1
 40
1.0
176
     1
 90
        0
176
     1
 62
    18
420
        0
176
     1
 90
       50
176
     1
 90
        3
176
     1
 62
     5
420
      255
176
     1
290
     0
176
     1
 90
       50
176
     1
 90
       50
176
     1
 90
       50
176
     1
290
     0
176
     1
 90
       50
176
     1
 62
   256
176
     0
 40
1.0
176
     0
 90
        2
176
     1
  1
strokes_ogs.tif
176
     1
290
     0
176
     1
 40
1.0
176
     1
 40
1.0
176
     1
  0
VISUALSTYLE
  5
3C
102
{ACAD_REACTORS
330
2A
102
}
330
2A
100
AcDbVisualStyle
  2
OverhangOff
 70
    21
177
     3
291
     1
 70
    58
 90
        2
176
     0
 90
        2
176
     0
 90
        0
176
     0
 90
        0
176
     0
 40
0.6
176
     0
 40
30.0
176
     0
 62
     7
420
 16777215
176
     0
 90
        1
176
     0
 90
        4
176
     0
 62
     7
176
     0
 62
   257
176
     0
 90
        1
176
     0
 90
        1
176
     0
 40
1.0
176
     0
 90
        9
176
     2
 62
     7
176
     0
 40
1.0
176
     0
 90
        1
176
     0
 90
        6
176
     0
 90
        2
176
     0
 62
     7
176
     0
 90
        5
176
     0
 90
        0
176
     0
 90
        0
176
     0
290
     0
176
     0
 90
        1
176
     0
 40
0.0
176
     0
 90
        0
176
     0
290
     0
176
     0
290
     1
176
     0
290
     1
176
     0
290
     0
176
     0
290
     0
176
     0
290
     0
176
     0
290
     0
176
     0
290
     0
176
     0
290
     0
176
     0
 90
       50
176
     0
 40
0.0
176
     0
 40
1.0
176
     0
 90
        0
176
     0
 62
    18
420
        0
176
     0
 90
       50
176
     0
 90
        3
176
     0
 62
     5
420
      255
176
     0
290
     0
176
     0
 90
       50
176
     0
 90
       50
176
     0
 90
       50
176
     0
290
     0
176
     0
 90
       50
176
     0
 62
   256
176
     0
 40
1.0
176
     0
 90
        2
176
     0
  1
strokes_ogs.tif
176
     0
290
     0
176
     0
 40
1.0
176
     0
 40
1.0
176
     0
  0
VISUALSTYLE
  5
33
102
{ACAD_REACTORS
330
2A
102
}
330
2A
100
AcDbVisualStyle
  2
Realistic
 70
     8
177
     3
291
     0
 70
    58
 90
        2
176
     1
 90
        3
176
     1
 90
        0
176
     1
 90
        2
176
     1
 40
0.6
176
     1
 40
30.0
176
     1
 62
     7
420
 16777215
176
     1
 90
        0
176
     1
 90
        0
176
     1
 62
     7
176
     1
 62
   257
176
     1
 90
        1
176
     1
 90
        1
176
     1
 40
1.0
176
     1
 90
        8
176
     1
 62
   257
176
     1
 40
1.0
176
     1
 90
        1
176
     1
 90
        6
176
     1
 90
        2
176
     1
 62
     7
176
     1
 90
        3
176
     1
 90
        0
176
     1
 90
        0
176
     1
290
     0
176
     1
 90
       13
176
     1
 40
0.0
176
     1
 90
        0
176
     1
290
     0
176
     1
290
     1
176
     1
290
     1
176
     1
290
     0
176
     1
290
     0
176
     1
290
     0
176
     1
290
     0
176
     1
290
     0
176
     1
290
     0
176
     1
 90
       50
176
     1
 40
0.0
176
     1
 40
1.0
176
     1
 90
        0
176
     1
 62
    18
420
        0
176
     1
 90
       50
176
     1
 90
        3
176
     1
 62
     5
420
      255
176
     1
290
     0
176
     1
 90
       50
176
     1
 90
       50
176
     1
 90
       50
176
     1
290
     0
176
     1
 90
       50
176
     1
 62
   256
176
     0
 40
1.0
176
     0
 90
        2
176
     1
  1
strokes_ogs.tif
176
     1
290
     0
176
     1
 40
1.0
176
     1
 40
1.0
176
     1
  0
VISUALSTYLE
  5
42
102
{ACAD_REACTORS
330
2A
102
}
330
2A
100
AcDbVisualStyle
  2
Shaded
 70
    27
177
     3
291
     0
 70
    58
 90
        2
176
     1
 90
        2
176
     1
 90
        1
176
     1
 90
        2
176
     1
 40
0.6
176
     1
 40
30.0
176
     1
 62
     7
420
 16777215
176
     1
 90
        0
176
     1
 90
        4
176
     1
 62
     7
176
     1
 62
   257
176
     1
 90
        1
176
     1
 90
        1
176
     1
 40
1.0
176
     1
 90
        8
176
     1
 62
   257
176
     1
 40
1.0
176
     1
 90
        1
176
     1
 90
        6
176
     1
 90
        2
176
     1
 62
     8
420
  7895160
176
     1
 90
        3
176
     1
 90
        0
176
     1
 90
        0
176
     1
290
     0
176
     1
 90
        5
176
     1
 40
0.0
176
     1
 90
        0
176
     1
290
     0
176
     1
290
     1
176
     1
290
     1
176
     1
290
     0
176
     1
290
     0
176
     1
290
     0
176
     1
290
     0
176
     1
290
     0
176
     1
290
     0
176
     1
 90
       50
176
     1
 40
0.0
176
     1
 40
1.0
176
     1
 90
        0
176
     1
 62
    18
420
        0
176
     1
 90
       50
176
     1
 90
        3
176
     1
 62
     5
420
      255
176
     1
290
     0
176
     1
 90
       50
176
     1
 90
       50
176
     1
 90
       50
176
     1
290
     0
176
     1
 90
       50
176
     1
 62
   256
176
     0
 40
1.0
176
     0
 90
        2
176
     1
  1
strokes_ogs.tif
176
     1
290
     0
176
     1
 40
1.0
176
     1
 40
1.0
176
     1
  0
VISUALSTYLE
  5
41
102
{ACAD_REACTORS
330
2A
102
}
330
2A
100
AcDbVisualStyle
  2
Shaded with edges
 70
    26
177
     3
291
     0
 70
    58
 90
        2
176
     1
 90
        2
176
     1
 90
        1
176
     1
 90
        2
176
     1
 40
0.6
176
     1
 40
30.0
176
     1
 62
     7
420
 16777215
176
     1
 90
        1
176
     1
 90
       10
176
     1
 62
     7
176
     1
 62
   257
176
     1
 90
        2
176
     1
 90
        1
176
     1
 40
1.0
176
     1
 90
        8
176
     1
 62
   257
176
     1
 40
1.0
176
     1
 90
        1
176
     1
 90
        6
176
     1
 90
        2
176
     1
 62
     7
176
     1
 90
        3
176
     1
 90
        0
176
     1
 90
        0
176
     1
290
     0
176
     1
 90
        5
176
     1
 40
0.0
176
     1
 90
        0
176
     1
290
     0
176
     1
290
     1
176
     1
290
     1
176
     1
290
     0
176
     1
290
     0
176
     1
290
     0
176
     1
290
     0
176
     1
290
     0
176
     1
290
     0
176
     1
 90
       50
176
     1
 40
0.0
176
     1
 40
1.0
176
     1
 90
        0
176
     1
 62
    18
420
        0
176
     1
 90
       50
176
     1
 90
        3
176
     1
 62
     5
420
      255
176
     1
290
     0
176
     1
 90
       50
176
     1
 90
       50
176
     1
 90
       50
176
     1
290
     0
176
     1
 90
       50
176
     1
 62
   256
176
     0
 40
1.0
176
     0
 90
        2
176
     1
  1
strokes_ogs.tif
176
     1
290
     0
176
     1
 40
1.0
176
     1
 40
1.0
176
     1
  0
VISUALSTYLE
  5
3E
102
{ACAD_REACTORS
330
2A
102
}
330
2A
100
AcDbVisualStyle
  2
Shades of Gray
 70
    23
177
     3
291
     0
 70
    58
 90
        2
176
     1
 90
        2
176
     1
 90
        3
176
     1
 90
        0
176
     1
 40
0.6
176
     1
 40
30.0
176
     1
 62
     7
420
 16777215
176
     1
 90
        2
176
     1
 90
        2
176
     1
 62
     7
176
     1
 62
     7
176
     1
 90
        1
176
     1
 90
        1
176
     1
 40
40.0
176
     1
 90
        8
176
     1
 62
     7
176
     1
 40
1.0
176
     1
 90
        1
176
     1
 90
        6
176
     1
 90
        2
176
     1
 62
     7
176
     1
 90
        3
176
     1
 90
        0
176
     1
 90
        0
176
     1
290
     0
176
     1
 90
        1
176
     1
 40
0.0
176
     1
 90
        0
176
     1
290
     0
176
     1
290
     1
176
     1
290
     1
176
     1
290
     0
176
     1
290
     0
176
     1
290
     0
176
     1
290
     0
176
     1
290
     0
176
     1
290
     0
176
     1
 90
       50
176
     1
 40
0.0
176
     1
 40
1.0
176
     1
 90
        0
176
     1
 62
    18
420
        0
176
     1
 90
       50
176
     1
 90
        3
176
     1
 62
     5
420
      255
176
     1
290
     0
176
     1
 90
       50
176
     1
 90
       50
176
     1
 90
       50
176
     1
290
     0
176
     1
 90
       50
176
     1
 62
   256
176
     0
 40
1.0
176
     0
 90
        2
176
     1
  1
strokes_ogs.tif
176
     1
290
     0
176
     1
 40
1.0
176
     1
 40
1.0
176
     1
  0
VISUALSTYLE
  5
3F
102
{ACAD_REACTORS
330
2A
102
}
330
2A
100
AcDbVisualStyle
  2
Sketchy
 70
    24
177
     3
291
     0
 70
    58
 90
        1
176
     1
 90
        2
176
     1
 90
        2
176
     1
 90
        0
176
     1
 40
0.6
176
     1
 40
30.0
176
     1
 62
     7
420
 16777215
176
     1
 90
        2
176
     1
 90
        2
176
     1
 62
     7
176
     1
 62
     7
176
     1
 90
        1
176
     1
 90
        1
176
     1
 40
40.0
176
     1
 90
       11
176
     1
 62
     7
176
     1
 40
1.0
176
     1
 90
        1
176
     1
 90
        6
176
     1
 90
        2
176
     1
 62
     7
176
     1
 90
        6
176
     1
 90
        0
176
     1
 90
        0
176
     1
290
     0
176
     1
 90
        1
176
     1
 40
0.0
176
     1
 90
        0
176
     1
290
     0
176
     1
290
     1
176
     1
290
     1
176
     1
290
     0
176
     1
290
     0
176
     1
290
     0
176
     1
290
     0
176
     1
290
     0
176
     1
290
     0
176
     1
 90
       50
176
     1
 40
0.0
176
     1
 40
1.0
176
     1
 90
        0
176
     1
 62
    18
420
        0
176
     1
 90
       50
176
     1
 90
        3
176
     1
 62
     5
420
      255
176
     1
290
     0
176
     1
 90
       50
176
     1
 90
       50
176
     1
 90
       50
176
     1
290
     0
176
     1
 90
       50
176
     1
 62
   256
176
     0
 40
1.0
176
     0
 90
        2
176
     1
  1
strokes_ogs.tif
176
     1
290
     0
176
     1
 40
1.0
176
     1
 40
1.0
176
     1
  0
VISUALSTYLE
  5
37
102
{ACAD_REACTORS
330
2A
102
}
330
2A
100
AcDbVisualStyle
  2
Thicken
 70
    13
177
     3
291
     1
 70
    58
 90
        2
176
     1
 90
        2
176
     1
 90
        0
176
     1
 90
        0
176
     1
 40
0.6
176
     1
 40
30.0
176
     1
 62
     7
420
 16777215
176
     1
 90
        1
176
     1
 90
        4
176
     1
 62
     7
176
     1
 62
   257
176
     1
 90
        1
176
     1
 90
        1
176
     1
 40
1.0
176
     1
 90
       12
176
     1
 62
     7
176
     1
 40
1.0
176
     1
 90
        1
176
     1
 90
        6
176
     1
 90
        2
176
     1
 62
     7
176
     1
 90
        5
176
     1
 90
        0
176
     1
 90
        0
176
     1
290
     0
176
     1
 90
        1
176
     1
 40
0.0
176
     1
 90
        0
176
     1
290
     0
176
     1
290
     1
176
     1
290
     1
176
     1
290
     0
176
     1
290
     0
176
     1
290
     0
176
     1
290
     0
176
     1
290
     0
176
     1
290
     0
176
     1
 90
       50
176
     1
 40
0.0
176
     1
 40
1.0
176
     1
 90
        0
176
     1
 62
    18
420
        0
176
     1
 90
       50
176
     1
 90
        3
176
     1
 62
     5
420
      255
176
     1
290
     0
176
     1
 90
       50
176
     1
 90
       50
176
     1
 90
       50
176
     1
290
     0
176
     1
 90
       50
176
     1
 62
   256
176
     0
 40
1.0
176
     0
 90
        2
176
     1
  1
strokes_ogs.tif
176
     1
290
     0
176
     1
 40
1.0
176
     1
 40
1.0
176
     1
  0
VISUALSTYLE
  5
30
102
{ACAD_REACTORS
330
2A
102
}
330
2A
100
AcDbVisualStyle
  2
Wireframe
 70
     5
177
     3
291
     0
 70
    58
 90
        0
176
     1
 90
        2
176
     1
 90
        0
176
     1
 90
        0
176
     1
 40
0.6
176
     1
 40
30.0
176
     1
 62
     7
420
 16777215
176
     1
 90
        1
176
     1
 90
        4
176
     1
 62
     7
176
     1
 62
   257
176
     1
 90
        1
176
     1
 90
        1
176
     1
 40
1.0
176
     1
 90
        0
176
     1
 62
   257
176
     1
 40
1.0
176
     1
 90
        1
176
     1
 90
        6
176
     1
 90
        2
176
     1
 62
     7
176
     1
 90
        3
176
     1
 90
        0
176
     1
 90
        0
176
     1
290
     0
176
     1
 90
        1
176
     1
 40
0.0
176
     1
 90
        0
176
     1
290
     0
176
     1
290
     1
176
     1
290
     1
176
     1
290
     0
176
     1
290
     0
176
     1
290
     0
176
     1
290
     0
176
     1
290
     0
176
     1
290
     0
176
     1
 90
       50
176
     1
 40
0.0
176
     1
 40
1.0
176
     1
 90
        0
176
     1
 62
    18
420
        0
176
     1
 90
       50
176
     1
 90
        3
176
     1
 62
     5
420
      255
176
     1
290
     0
176
     1
 90
       50
176
     1
 90
       50
176
     1
 90
       50
176
     1
290
     0
176
     1
 90
       50
176
     1
 62
   256
176
     0
 40
1.0
176
     0
 90
        2
176
     1
  1
strokes_ogs.tif
176
     1
290
     0
176
     1
 40
1.0
176
     1
 40
1.0
176
     1
  0
VISUALSTYLE
  5
40
102
{ACAD_REACTORS
330
2A
102
}
330
2A
100
AcDbVisualStyle
  2
X-Ray
 70
    25
177
     3
291
     0
 70
    58
 90
        2
176
     1
 90
        2
176
     1
 90
        1
176
     1
 90
        1
176
     1
 40
0.5
176
     1
 40
30.0
176
     1
 62
     7
420
 16777215
176
     1
 90
        1
176
     1
 90
        0
176
     1
 62
     7
176
     1
 62
   257
176
     1
 90
        1
176
     1
 90
        1
176
     1
 40
1.0
176
     1
 90
        8
176
     1
 62
     7
176
     1
 40
1.0
176
     1
 90
        1
176
     1
 90
        6
176
     1
 90
        2
176
     1
 62
     7
176
     1
 90
        3
176
     1
 90
        0
176
     1
 90
        0
176
     1
290
     0
176
     1
 90
       13
176
     1
 40
0.0
176
     1
 90
        0
176
     1
290
     0
176
     1
290
     1
176
     1
290
     1
176
     1
290
     0
176
     1
290
     0
176
     1
290
     0
176
     1
290
     0
176
     1
290
     0
176
     1
290
     0
176
     1
 90
       50
176
     1
 40
0.0
176
     1
 40
1.0
176
     1
 90
        0
176
     1
 62
    18
420
        0
176
     1
 90
       50
176
     1
 90
        3
176
     1
 62
     5
420
      255
176
     1
290
     0
176
     1
 90
       50
176
     1
 90
       50
176
     1
 90
       50
176
     1
290
     0
176
     1
 90
       50
176
     1
 62
   256
176
     0
 40
1.0
176
     0
 90
        2
176
     1
  1
strokes_ogs.tif
176
     1
290
     0
176
     1
 40
1.0
176
     1
 40
1.0
176
     1
  0
DICTIONARYVAR
  5
268
102
{ACAD_REACTORS
330
267
102
}
330
267
100
DictionaryVariables
280
     0
  1
1:1
  0
DICTIONARYVAR
  5
26D
102
{ACAD_REACTORS
330
267
102
}
330
267
100
DictionaryVariables
280
     0
  1
Standard
  0
DICTIONARYVAR
  5
26C
102
{ACAD_REACTORS
330
267
102
}
330
267
100
DictionaryVariables
280
     0
  1
Standard
  0
DICTIONARY
  5
269
330
6A
100
AcDbDictionary
280
     1
281
     1
  3
ACAD_ROUNDTRIP_2008_TABLESTYLE_CELLSTYLEMAP
360
26A
  0
CELLSTYLEMAP
  5
26A
102
{ACAD_REACTORS
330
269
102
}
330
269
100
AcDbCellStyleMap
 90
        3
300
CELLSTYLE
  1
TABLEFORMAT_BEGIN
 90
        5
170
     1
 91
        0
 92
    32768
 62
   257
 93
        1
300
CONTENTFORMAT
  1
CONTENTFORMAT_BEGIN
 90
        0
 91
        0
 92
        4
 93
        0
300

 40
0.0
140
1.0
 94
        5
 62
     0
340
11
144
0.25
309
CONTENTFORMAT_END
171
     1
301
MARGIN
  1
CELLMARGIN_BEGIN
 40
0.06
 40
0.06
 40
0.06
 40
0.06
 40
0.06
 40
0.06
309
CELLMARGIN_END
 94
        6
 95
        1
302
GRIDFORMAT
  1
GRIDFORMAT_BEGIN
 90
        0
 91
        1
 62
     0
 92
       -2
340
14
 93
        0
 40
0.045
309
GRIDFORMAT_END
 95
        2
302
GRIDFORMAT
  1
GRIDFORMAT_BEGIN
 90
        0
 91
        1
 62
     0
 92
       -2
340
14
 93
        0
 40
0.045
309
GRIDFORMAT_END
 95
        4
302
GRIDFORMAT
  1
GRIDFORMAT_BEGIN
 90
        0
 91
        1
 62
     0
 92
       -2
340
14
 93
        0
 40
0.045
309
GRIDFORMAT_END
 95
        8
302
GRIDFORMAT
  1
GRIDFORMAT_BEGIN
 90
        0
 91
        1
 62
     0
 92
       -2
340
14
 93
        0
 40
0.045
309
GRIDFORMAT_END
 95
       16
302
GRIDFORMAT
  1
GRIDFORMAT_BEGIN
 90
        0
 91
        1
 62
     0
 92
       -2
340
14
 93
        0
 40
0.045
309
GRIDFORMAT_END
 95
       32
302
GRIDFORMAT
  1
GRIDFORMAT_BEGIN
 90
        0
 91
        1
 62
     0
 92
       -2
340
14
 93
        0
 40
0.045
309
GRIDFORMAT_END
309
TABLEFORMAT_END
  1
CELLSTYLE_BEGIN
 90
        1
 91
        1
300
_TITLE
309
CELLSTYLE_END
300
CELLSTYLE
  1
TABLEFORMAT_BEGIN
 90
        5
170
     1
 91
        0
 92
        0
 62
   257
 93
        1
300
CONTENTFORMAT
  1
CONTENTFORMAT_BEGIN
 90
        0
 91
        0
 92
        4
 93
        0
300

 40
0.0
140
1.0
 94
        5
 62
     0
340
11
144
0.18
309
CONTENTFORMAT_END
171
     1
301
MARGIN
  1
CELLMARGIN_BEGIN
 40
0.06
 40
0.06
 40
0.06
 40
0.06
 40
0.06
 40
0.06
309
CELLMARGIN_END
 94
        6
 95
        1
302
GRIDFORMAT
  1
GRIDFORMAT_BEGIN
 90
        0
 91
        1
 62
     0
 92
       -2
340
14
 93
        0
 40
0.045
309
GRIDFORMAT_END
 95
        2
302
GRIDFORMAT
  1
GRIDFORMAT_BEGIN
 90
        0
 91
        1
 62
     0
 92
       -2
340
14
 93
        0
 40
0.045
309
GRIDFORMAT_END
 95
        4
302
GRIDFORMAT
  1
GRIDFORMAT_BEGIN
 90
        0
 91
        1
 62
     0
 92
       -2
340
14
 93
        0
 40
0.045
309
GRIDFORMAT_END
 95
        8
302
GRIDFORMAT
  1
GRIDFORMAT_BEGIN
 90
        0
 91
        1
 62
     0
 92
       -2
340
14
 93
        0
 40
0.045
309
GRIDFORMAT_END
 95
       16
302
GRIDFORMAT
  1
GRIDFORMAT_BEGIN
 90
        0
 91
        1
 62
     0
 92
       -2
340
14
 93
        0
 40
0.045
309
GRIDFORMAT_END
 95
       32
302
GRIDFORMAT
  1
GRIDFORMAT_BEGIN
 90
        0
 91
        1
 62
     0
 92
       -2
340
14
 93
        0
 40
0.045
309
GRIDFORMAT_END
309
TABLEFORMAT_END
  1
CELLSTYLE_BEGIN
 90
        2
 91
        1
300
_HEADER
309
CELLSTYLE_END
300
CELLSTYLE
  1
TABLEFORMAT_BEGIN
 90
        5
170
     1
 91
        0
 92
        0
 62
   257
 93
        1
300
CONTENTFORMAT
  1
CONTENTFORMAT_BEGIN
 90
        0
 91
        0
 92
        4
 93
        0
300

 40
0.0
140
1.0
 94
        2
 62
     0
340
11
144
0.18
309
CONTENTFORMAT_END
171
     1
301
MARGIN
  1
CELLMARGIN_BEGIN
 40
0.06
 40
0.06
 40
0.06
 40
0.06
 40
0.06
 40
0.06
309
CELLMARGIN_END
 94
        6
 95
        1
302
GRIDFORMAT
  1
GRIDFORMAT_BEGIN
 90
        0
 91
        1
 62
     0
 92
       -2
340
14
 93
        0
 40
0.045
309
GRIDFORMAT_END
 95
        2
302
GRIDFORMAT
  1
GRIDFORMAT_BEGIN
 90
        0
 91
        1
 62
     0
 92
       -2
340
14
 93
        0
 40
0.045
309
GRIDFORMAT_END
 95
        4
302
GRIDFORMAT
  1
GRIDFORMAT_BEGIN
 90
        0
 91
        1
 62
     0
 92
       -2
340
14
 93
        0
 40
0.045
309
GRIDFORMAT_END
 95
        8
302
GRIDFORMAT
  1
GRIDFORMAT_BEGIN
 90
        0
 91
        1
 62
     0
 92
       -2
340
14
 93
        0
 40
0.045
309
GRIDFORMAT_END
 95
       16
302
GRIDFORMAT
  1
GRIDFORMAT_BEGIN
 90
        0
 91
        1
 62
     0
 92
       -2
340
14
 93
        0
 40
0.045
309
GRIDFORMAT_END
 95
       32
302
GRIDFORMAT
  1
GRIDFORMAT_BEGIN
 90
        0
 91
        1
 62
     0
 92
       -2
340
14
 93
        0
 40
0.045
309
GRIDFORMAT_END
309
TABLEFORMAT_END
  1
CELLSTYLE_BEGIN
 90
        3
 91
        2
300
_DATA
309
CELLSTYLE_END
  0
ENDSEC
  0
EOF