0
SECTION
  2
HEADER
  9
$ACADVER
  1
AC1027
  9
$ACADMAINTVER
 70
     8
  9
$DWGCODEPAGE
  3
ANSI_1252
  9
$REQUIREDVERSIONS
160
                 0
  9
$COMMENTS
  1
File was created by Cadenas
  9
$CUSTOMPROPERTYTAG
  1
NN
  9
$CUSTOMPROPERTY
  1
Imperial - IP Pillow Block with Type E Dimensions 2-1/4 thru 7 inch 4-Bolt Labyrinth Seal Expansion
  9
$CUSTOMPROPERTYTAG
  1
NT
  9
$CUSTOMPROPERTY
  1
Imperial/E 4 Bolt Piliow Block Bearings
  9
$CUSTOMPROPERTYTAG
  1
NB
  9
$CUSTOMPROPERTY
  1
071241
  9
$CUSTOMPROPERTYTAG
  1
NBSYN
  9
$CUSTOMPROPERTY
  1
$PN.
  9
$CUSTOMPROPERTYTAG
  1
LINA
  9
$CUSTOMPROPERTY
  1
071241
  9
$CUSTOMPROPERTYTAG
  1
SS
  9
$CUSTOMPROPERTY
  1
2-11/16
  9
$CUSTOMPROPERTYTAG
  1
TYPE
  9
$CUSTOMPROPERTY
  1
Non-Expansion
  9
$CUSTOMPROPERTYTAG
  1
PN
  9
$CUSTOMPROPERTY
  1
071241
  9
$CUSTOMPROPERTYTAG
  1
DESCRIPTION
  9
$CUSTOMPROPERTY
  1
EP4B-IP-211L
  9
$CUSTOMPROPERTYTAG
  1
ST
  9
$CUSTOMPROPERTY
  1
Labyrinth Seal
  9
$CUSTOMPROPERTYTAG
  1
A
  9
$CUSTOMPROPERTY
  1
3.5
  9
$CUSTOMPROPERTYTAG
  1
B
  9
$CUSTOMPROPERTY
  1
12
  9
$CUSTOMPROPERTYTAG
  1
C
  9
$CUSTOMPROPERTY
  1
4
  9
$CUSTOMPROPERTYTAG
  1
DMIN
  9
$CUSTOMPROPERTY
  1
9.18
  9
$CUSTOMPROPERTYTAG
  1
DMAX
  9
$CUSTOMPROPERTY
  1
9.82
  9
$CUSTOMPROPERTYTAG
  1
E
  9
$CUSTOMPROPERTY
  1
2.13
  9
$CUSTOMPROPERTYTAG
  1
F
  9
$CUSTOMPROPERTY
  1
5/8
  9
$CUSTOMPROPERTYTAG
  1
G
  9
$CUSTOMPROPERTY
  1
1
  9
$CUSTOMPROPERTYTAG
  1
H
  9
$CUSTOMPROPERTY
  1
1.88
  9
$CUSTOMPROPERTYTAG
  1
J
  9
$CUSTOMPROPERTY
  1
6.33
  9
$CUSTOMPROPERTYTAG
  1
L
  9
$CUSTOMPROPERTY
  1
4.28
  9
$CUSTOMPROPERTYTAG
  1
M
  9
$CUSTOMPROPERTY
  1
3.125
  9
$CUSTOMPROPERTYTAG
  1
R
  9
$CUSTOMPROPERTY
  1
1.35
  9
$CUSTOMPROPERTYTAG
  1
S
  9
$CUSTOMPROPERTY
  1
2.15
  9
$CUSTOMPROPERTYTAG
  1
X
  9
$CUSTOMPROPERTY
  1
0.25
  9
$CUSTOMPROPERTYTAG
  1
Y
  9
$CUSTOMPROPERTY
  1
0.025
  9
$CUSTOMPROPERTYTAG
  1
Z
  9
$CUSTOMPROPERTY
  1
3.47
  9
$CUSTOMPROPERTYTAG
  1
COMPANY
  9
$CUSTOMPROPERTY
  1
baldor
  9
$INSBASE
 10
0.0
 20
0.0
 30
0.0
  9
$EXTMIN
 10
1.000000000000000E+20
 20
1.000000000000000E+20
 30
1.000000000000000E+20
  9
$EXTMAX
 10
-1.000000000000000E+20
 20
-1.000000000000000E+20
 30
-1.000000000000000E+20
  9
$LIMMIN
 10
0.0
 20
0.0
  9
$LIMMAX
 10
12.0
 20
9.0
  9
$ORTHOMODE
 70
     0
  9
$REGENMODE
 70
     1
  9
$FILLMODE
 70
     1
  9
$QTEXTMODE
 70
     0
  9
$MIRRTEXT
 70
     1
  9
$LTSCALE
 40
1.0
  9
$ATTMODE
 70
     1
  9
$TEXTSIZE
 40
0.2
  9
$TRACEWID
 40
0.05
  9
$TEXTSTYLE
  7
Standard
  9
$CLAYER
  8
0
  9
$CELTYPE
  6
ByLayer
  9
$CECOLOR
 62
   256
  9
$CELTSCALE
 40
1.0
  9
$DISPSILH
 70
     0
  9
$DIMSCALE
 40
1.0
  9
$DIMASZ
 40
0.18
  9
$DIMEXO
 40
0.0625
  9
$DIMDLI
 40
0.38
  9
$DIMRND
 40
0.0
  9
$DIMDLE
 40
0.0
  9
$DIMEXE
 40
0.18
  9
$DIMTP
 40
0.0
  9
$DIMTM
 40
0.0
  9
$DIMTXT
 40
0.18
  9
$DIMCEN
 40
0.09
  9
$DIMTSZ
 40
0.0
  9
$DIMTOL
 70
     0
  9
$DIMLIM
 70
     0
  9
$DIMTIH
 70
     1
  9
$DIMTOH
 70
     1
  9
$DIMSE1
 70
     0
  9
$DIMSE2
 70
     0
  9
$DIMTAD
 70
     0
  9
$DIMZIN
 70
     0
  9
$DIMBLK
  1

  9
$DIMASO
 70
     1
  9
$DIMSHO
 70
     1
  9
$DIMPOST
  1

  9
$DIMAPOST
  1

  9
$DIMALT
 70
     0
  9
$DIMALTD
 70
     2
  9
$DIMALTF
 40
25.4
  9
$DIMLFAC
 40
1.0
  9
$DIMTOFL
 70
     0
  9
$DIMTVP
 40
0.0
  9
$DIMTIX
 70
     0
  9
$DIMSOXD
 70
     0
  9
$DIMSAH
 70
     0
  9
$DIMBLK1
  1

  9
$DIMBLK2
  1

  9
$DIMSTYLE
  2
Standard
  9
$DIMCLRD
 70
     0
  9
$DIMCLRE
 70
     0
  9
$DIMCLRT
 70
     0
  9
$DIMTFAC
 40
1.0
  9
$DIMGAP
 40
0.09
  9
$DIMJUST
 70
     0
  9
$DIMSD1
 70
     0
  9
$DIMSD2
 70
     0
  9
$DIMTOLJ
 70
     1
  9
$DIMTZIN
 70
     0
  9
$DIMALTZ
 70
     0
  9
$DIMALTTZ
 70
     0
  9
$DIMUPT
 70
     0
  9
$DIMDEC
 70
     4
  9
$DIMTDEC
 70
     4
  9
$DIMALTU
 70
     2
  9
$DIMALTTD
 70
     2
  9
$DIMTXSTY
  7
Standard
  9
$DIMAUNIT
 70
     0
  9
$DIMADEC
 70
     0
  9
$DIMALTRND
 40
0.0
  9
$DIMAZIN
 70
     0
  9
$DIMDSEP
 70
    46
  9
$DIMATFIT
 70
     3
  9
$DIMFRAC
 70
     0
  9
$DIMLDRBLK
  1

  9
$DIMLUNIT
 70
     2
  9
$DIMLWD
 70
    -2
  9
$DIMLWE
 70
    -2
  9
$DIMTMOVE
 70
     0
  9
$DIMFXL
 40
1.0
  9
$DIMFXLON
 70
     0
  9
$DIMJOGANG
 40
0.7853981633974483
  9
$DIMTFILL
 70
     0
  9
$DIMTFILLCLR
 70
     0
  9
$DIMARCSYM
 70
     0
  9
$DIMLTYPE
  6

  9
$DIMLTEX1
  6

  9
$DIMLTEX2
  6

  9
$DIMTXTDIRECTION
 70
     0
  9
$LUNITS
 70
     2
  9
$LUPREC
 70
     4
  9
$SKETCHINC
 40
0.1
  9
$FILLETRAD
 40
0.5
  9
$AUNITS
 70
     0
  9
$AUPREC
 70
     0
  9
$MENU
  1
.
  9
$ELEVATION
 40
0.0
  9
$PELEVATION
 40
0.0
  9
$THICKNESS
 40
0.0
  9
$LIMCHECK
 70
     0
  9
$CHAMFERA
 40
0.0
  9
$CHAMFERB
 40
0.0
  9
$CHAMFERC
 40
0.0
  9
$CHAMFERD
 40
0.0
  9
$SKPOLY
 70
     0
  9
$TDCREATE
 40
2458168.982528785
  9
$TDUCREATE
 40
2458168.940862118
  9
$TDUPDATE
 40
2458168.98252897
  9
$TDUUPDATE
 40
2458168.940862303
  9
$TDINDWG
 40
0.0000000116
  9
$TDUSRTIMER
 40
0.0000000116
  9
$USRTIMER
 70
     1
  9
$ANGBASE
 50
0.0
  9
$ANGDIR
 70
     0
  9
$PDMODE
 70
     0
  9
$PDSIZE
 40
0.0
  9
$PLINEWID
 40
0.0
  9
$SPLFRAME
 70
     0
  9
$SPLINETYPE
 70
     6
  9
$SPLINESEGS
 70
     8
  9
$HANDSEED
  5
23E
  9
$SURFTAB1
 70
     6
  9
$SURFTAB2
 70
     6
  9
$SURFTYPE
 70
     6
  9
$SURFU
 70
     6
  9
$SURFV
 70
     6
  9
$UCSBASE
  2

  9
$UCSNAME
  2

  9
$UCSORG
 10
0.0
 20
0.0
 30
0.0
  9
$UCSXDIR
 10
1.0
 20
0.0
 30
0.0
  9
$UCSYDIR
 10
0.0
 20
1.0
 30
0.0
  9
$UCSORTHOREF
  2

  9
$UCSORTHOVIEW
 70
     0
  9
$UCSORGTOP
 10
0.0
 20
0.0
 30
0.0
  9
$UCSORGBOTTOM
 10
0.0
 20
0.0
 30
0.0
  9
$UCSORGLEFT
 10
0.0
 20
0.0
 30
0.0
  9
$UCSORGRIGHT
 10
0.0
 20
0.0
 30
0.0
  9
$UCSORGFRONT
 10
0.0
 20
0.0
 30
0.0
  9
$UCSORGBACK
 10
0.0
 20
0.0
 30
0.0
  9
$PUCSBASE
  2

  9
$PUCSNAME
  2

  9
$PUCSORG
 10
0.0
 20
0.0
 30
0.0
  9
$PUCSXDIR
 10
1.0
 20
0.0
 30
0.0
  9
$PUCSYDIR
 10
0.0
 20
1.0
 30
0.0
  9
$PUCSORTHOREF
  2

  9
$PUCSORTHOVIEW
 70
     0
  9
$PUCSORGTOP
 10
0.0
 20
0.0
 30
0.0
  9
$PUCSORGBOTTOM
 10
0.0
 20
0.0
 30
0.0
  9
$PUCSORGLEFT
 10
0.0
 20
0.0
 30
0.0
  9
$PUCSORGRIGHT
 10
0.0
 20
0.0
 30
0.0
  9
$PUCSORGFRONT
 10
0.0
 20
0.0
 30
0.0
  9
$PUCSORGBACK
 10
0.0
 20
0.0
 30
0.0
  9
$USERI1
 70
     0
  9
$USERI2
 70
     0
  9
$USERI3
 70
     0
  9
$USERI4
 70
     0
  9
$USERI5
 70
     0
  9
$USERR1
 40
0.0
  9
$USERR2
 40
0.0
  9
$USERR3
 40
0.0
  9
$USERR4
 40
0.0
  9
$USERR5
 40
0.0
  9
$WORLDVIEW
 70
     1
  9
$SHADEDGE
 70
     3
  9
$SHADEDIF
 70
    70
  9
$TILEMODE
 70
     1
  9
$MAXACTVP
 70
    64
  9
$PINSBASE
 10
0.0
 20
0.0
 30
0.0
  9
$PLIMCHECK
 70
     0
  9
$PEXTMIN
 10
1.000000000000000E+20
 20
1.000000000000000E+20
 30
1.000000000000000E+20
  9
$PEXTMAX
 10
-1.000000000000000E+20
 20
-1.000000000000000E+20
 30
-1.000000000000000E+20
  9
$PLIMMIN
 10
0.0
 20
0.0
  9
$PLIMMAX
 10
12.0
 20
9.0
  9
$UNITMODE
 70
     0
  9
$VISRETAIN
 70
     1
  9
$PLINEGEN
 70
     0
  9
$PSLTSCALE
 70
     1
  9
$TREEDEPTH
 70
  3020
  9
$CMLSTYLE
  2
Standard
  9
$CMLJUST
 70
     0
  9
$CMLSCALE
 40
1.0
  9
$PROXYGRAPHICS
 70
     1
  9
$MEASUREMENT
 70
     0
  9
$CELWEIGHT
370
    -1
  9
$ENDCAPS
280
     0
  9
$JOINSTYLE
280
     0
  9
$LWDISPLAY
290
     0
  9
$INSUNITS
 70
     1
  9
$HYPERLINKBASE
  1

  9
$STYLESHEET
  1

  9
$XEDIT
290
     1
  9
$CEPSNTYPE
380
     0
  9
$PSTYLEMODE
290
     1
  9
$FINGERPRINTGUID
  2
{6907DB4C-7092-4E73-85A8-5063B322B793}
  9
$VERSIONGUID
  2
{FAEB1C32-E019-11D5-929B-00C0DF256EC4}
  9
$EXTNAMES
290
     1
  9
$PSVPSCALE
 40
0.0
  9
$OLESTARTUP
290
     0
  9
$SORTENTS
280
   127
  9
$INDEXCTL
280
     0
  9
$HIDETEXT
280
     1
  9
$XCLIPFRAME
280
     2
  9
$HALOGAP
280
     0
  9
$OBSCOLOR
 70
   257
  9
$OBSLTYPE
280
     0
  9
$INTERSECTIONDISPLAY
280
     0
  9
$INTERSECTIONCOLOR
 70
   257
  9
$DIMASSOC
280
     2
  9
$PROJECTNAME
  1

  9
$CAMERADISPLAY
290
     0
  9
$LENSLENGTH
 40
50.0
  9
$CAMERAHEIGHT
 40
0.0
  9
$STEPSPERSEC
 40
2.0
  9
$STEPSIZE
 40
6.0
  9
$3DDWFPREC
 40
2.0
  9
$PSOLWIDTH
 40
0.25
  9
$PSOLHEIGHT
 40
4.0
  9
$LOFTANG1
 40
1.570796326794897
  9
$LOFTANG2
 40
1.570796326794897
  9
$LOFTMAG1
 40
0.0
  9
$LOFTMAG2
 40
0.0
  9
$LOFTPARAM
 70
     7
  9
$LOFTNORMALS
280
     1
  9
$LATITUDE
 40
37.795
  9
$LONGITUDE
 40
-122.394
  9
$NORTHDIRECTION
 40
0.0
  9
$TIMEZONE
 70
 -8000
  9
$LIGHTGLYPHDISPLAY
280
     1
  9
$TILEMODELIGHTSYNCH
280
     1
  9
$CMATERIAL
347
44
  9
$SOLIDHIST
280
     0
  9
$SHOWHIST
280
     1
  9
$DWFFRAME
280
     2
  9
$DGNFRAME
280
     2
  9
$REALWORLDSCALE
290
     1
  9
$INTERFERECOLOR
 62
   256
  9
$CSHADOW
280
     0
  9
$SHADOWPLANELOCATION
 40
0.0
  0
ENDSEC
  0
SECTION
  2
CLASSES
  0
CLASS
  1
ACDBDICTIONARYWDFLT
  2
AcDbDictionaryWithDefault
  3
ObjectDBX Classes
 90
        0
 91
        4
280
     0
281
     0
  0
CLASS
  1
VISUALSTYLE
  2
AcDbVisualStyle
  3
ObjectDBX Classes
 90
     4095
 91
        4
280
     0
281
     0
  0
CLASS
  1
MATERIAL
  2
AcDbMaterial
  3
ObjectDBX Classes
 90
     1153
 91
        4
280
     0
281
     0
  0
CLASS
  1
SCALE
  2
AcDbScale
  3
ObjectDBX Classes
 90
     1153
 91
        4
280
     0
281
     0
  0
CLASS
  1
TABLESTYLE
  2
AcDbTableStyle
  3
ObjectDBX Classes
 90
     4095
 91
        4
280
     0
281
     0
  0
CLASS
  1
MLEADERSTYLE
  2
AcDbMLeaderStyle
  3
ACDB_MLEADERSTYLE_CLASS
 90
     4095
 91
        4
280
     0
281
     0
  0
CLASS
  1
SUN
  2
AcDbSun
  3
SCENEOE
 90
     1153
 91
        4
280
     0
281
     0
  0
CLASS
  1
DICTIONARYVAR
  2
AcDbDictionaryVar
  3
ObjectDBX Classes
 90
        0
 91
        4
280
     0
281
     0
  0
CLASS
  1
CELLSTYLEMAP
  2
AcDbCellStyleMap
  3
ObjectDBX Classes
 90
     1152
 91
        4
280
     0
281
     0
  0
ENDSEC
  0
SECTION
  2
TABLES
  0
TABLE
  2
VPORT
  5
8
330
0
100
AcDbSymbolTable
 70
     1
  0
VPORT
  5
29
330
8
100
AcDbSymbolTableRecord
100
AcDbViewportTableRecord
  2
*Active
 70
     0
 10
0.0
 20
0.0
 11
1.0
 21
1.0
 12
0.0
 22
0.0566562184466637
 13
0.0
 23
0.0
 14
0.5
 24
0.5
 15
0.5
 25
0.5
 16
0.0
 26
0.0
 36
1.0
 17
0.0
 27
0.0
 37
0.0
 40
6.490578685631194
 41
1.885810278688531
 42
50.0
 43
0.0
 44
0.0
 50
0.0
 51
0.0
 71
     0
 72
   100
 73
     1
 74
     3
 75
     0
 76
     0
 77
     0
 78
     0
281
     0
 65
     1
110
0.0
120
0.0
130
0.0
111
1.0
121
0.0
131
0.0
112
0.0
122
1.0
132
0.0
 79
     0
146
0.0
348
2F
 60
     3
 61
     5
292
     1
282
     1
141
0.0
142
0.0
 63
   250
361
6D
  0
ENDTAB
  0
TABLE
  2
LTYPE
  5
5
330
0
100
AcDbSymbolTable
 70
     3
  0
LTYPE
  5
14
330
5
100
AcDbSymbolTableRecord
100
AcDbLinetypeTableRecord
  2
ByBlock
 70
     0
  3

 72
    65
 73
     0
 40
0.0
  0
LTYPE
  5
15
330
5
100
AcDbSymbolTableRecord
100
AcDbLinetypeTableRecord
  2
ByLayer
 70
     0
  3

 72
    65
 73
     0
 40
0.0
  0
LTYPE
  5
16
330
5
100
AcDbSymbolTableRecord
100
AcDbLinetypeTableRecord
  2
Continuous
 70
     0
  3
Solid line
 72
    65
 73
     0
 40
0.0
  0
LTYPE
  5
9B
330
5
100
AcDbSymbolTableRecord
100
AcDbLinetypeTableRecord
  2
Dashed
 70
     0
  3

 72
    65
 73
     2
 40
2.0
 49
1.0
 74
     0
 49
-1.0
 74
     0
  0
LTYPE
  5
D9
330
5
100
AcDbSymbolTableRecord
100
AcDbLinetypeTableRecord
  2
Center
 70
     0
  3

 72
    65
 73
     4
 40
1.5
 49
0.45
 74
     0
 49
-0.5
 74
     0
 49
0.05
 74
     0
 49
-0.5
 74
     0
  0
ENDTAB
  0
TABLE
  2
LAYER
  5
2
330
0
100
AcDbSymbolTable
 70
     7
  0
LAYER
  5
10
330
2
100
AcDbSymbolTableRecord
100
AcDbLayerTableRecord
  2
0
 70
     0
 62
     7
  6
Continuous
370
    -3
390
F
347
46
348
0
  0
LAYER
  5
72
330
2
100
AcDbSymbolTableRecord
100
AcDbLayerTableRecord
  2
AM_6
 70
     0
 62
    -2
  6
Continuous
370
    35
390
F
347
46
348
0
  0
LAYER
  5
9C
330
2
100
AcDbSymbolTableRecord
100
AcDbLayerTableRecord
  2
AM_9
 70
     0
 62
     6
  6
Dashed
370
    25
390
F
347
46
348
0
  0
LAYER
  5
A3
330
2
100
AcDbSymbolTableRecord
100
AcDbLayerTableRecord
  2
AM_5
 70
     0
 62
     3
  6
Continuous
370
    25
390
F
347
46
348
0
  0
LAYER
  5
A9
330
2
100
AcDbSymbolTableRecord
100
AcDbLayerTableRecord
  2
AM_4
 70
     0
 62
     7
  6
Continuous
370
    50
390
F
347
46
348
0
  0
LAYER
  5
DA
330
2
100
AcDbSymbolTableRecord
100
AcDbLayerTableRecord
  2
AM_7
 70
     0
 62
     7
  6
Center
370
    25
390
F
347
46
348
0
  0
LAYER
  5
229
330
2
100
AcDbSymbolTableRecord
100
AcDbLayerTableRecord
  2
ConnectionPoints
 70
     0
 62
     7
  6
Continuous
370
    50
390
F
347
46
348
0
  0
ENDTAB
  0
TABLE
  2
STYLE
  5
3
330
0
100
AcDbSymbolTable
 70
     1
  0
STYLE
  5
11
330
3
100
AcDbSymbolTableRecord
100
AcDbTextStyleTableRecord
  2
Standard
 70
     0
 40
0.0
 41
1.0
 50
0.0
 71
     0
 42
0.2
  3
txt
  4

  0
ENDTAB
  0
TABLE
  2
VIEW
  5
6
330
0
100
AcDbSymbolTable
 70
     0
  0
ENDTAB
  0
TABLE
  2
UCS
  5
7
330
0
100
AcDbSymbolTable
 70
     0
  0
ENDTAB
  0
TABLE
  2
APPID
  5
9
330
0
100
AcDbSymbolTable
 70
     1
  0
APPID
  5
12
330
9
100
AcDbSymbolTableRecord
100
AcDbRegAppTableRecord
  2
ACAD
 70
     0
  0
ENDTAB
  0
TABLE
  2
DIMSTYLE
  5
A
330
0
100
AcDbSymbolTable
 70
     1
100
AcDbDimStyleTable
  0
DIMSTYLE
105
27
330
A
100
AcDbSymbolTableRecord
100
AcDbDimStyleTableRecord
  2
Standard
 70
     0
178
     0
340
11
  0
ENDTAB
  0
TABLE
  2
BLOCK_RECORD
  5
1
330
0
100
AcDbSymbolTable
 70
     8
  0
BLOCK_RECORD
  5
1F
330
1
100
AcDbSymbolTableRecord
100
AcDbBlockTableRecord
  2
*Model_Space
340
22
 70
     0
280
     1
281
     0
  0
BLOCK_RECORD
  5
1B
330
1
100
AcDbSymbolTableRecord
100
AcDbBlockTableRecord
  2
*Paper_Space
340
1E
 70
     0
280
     1
281
     0
  0
BLOCK_RECORD
  5
23
330
1
100
AcDbSymbolTableRecord
100
AcDbBlockTableRecord
  2
*Paper_Space0
340
26
 70
     0
280
     1
281
     0
  0
BLOCK_RECORD
  5
6E
330
1
100
AcDbSymbolTableRecord
100
AcDbBlockTableRecord
  2
1_071241_0
340
0
102
{BLKREFS
331
6F
102
}
 70
     0
280
     1
281
     0
  0
BLOCK_RECORD
  5
8F
330
1
100
AcDbSymbolTableRecord
100
AcDbBlockTableRecord
  2
2_405015E_Inch_0_in_071241_0
340
0
102
{BLKREFS
331
90
102
}
 70
     0
280
     1
281
     0
  0
BLOCK_RECORD
  5
C8
330
1
100
AcDbSymbolTableRecord
100
AcDbBlockTableRecord
  2
3_ASME_B18_3_10_1_0_in_071241_0
340
0
102
{BLKREFS
331
C9
102
}
 70
     0
280
     1
281
     0
  0
BLOCK_RECORD
  5
E6
330
1
100
AcDbSymbolTableRecord
100
AcDbBlockTableRecord
  2
4_ASME_B18_3_10_2_0_in_071241_0
340
0
102
{BLKREFS
331
E7
102
}
 70
     0
280
     1
281
     0
  0
BLOCK_RECORD
  5
102
330
1
100
AcDbSymbolTableRecord
100
AcDbBlockTableRecord
  2
5_070897LWE_0_in_071241_0
340
0
102
{BLKREFS
331
103
102
}
 70
     0
280
     1
281
     0
  0
BLOCK_RECORD
  5
152
330
1
100
AcDbSymbolTableRecord
100
AcDbBlockTableRecord
  2
6_070929EL_0_in_071241_0
340
0
102
{BLKREFS
331
153
102
}
 70
     0
280
     1
281
     0
  0
BLOCK_RECORD
  5
1B2
330
1
100
AcDbSymbolTableRecord
100
AcDbBlockTableRecord
  2
7_071241H_0_in_071241_0
340
0
102
{BLKREFS
331
1B3
102
}
 70
     0
280
     1
281
     0
  0
ENDTAB
  0
ENDSEC
  0
SECTION
  2
BLOCKS
  0
BLOCK
  5
20
330
1F
100
AcDbEntity
  8
0
100
AcDbBlockBegin
  2
*Model_Space
 70
     0
 10
0.0
 20
0.0
 30
0.0
  3
*Model_Space
  1

  0
ENDBLK
  5
21
330
1F
100
AcDbEntity
  8
0
100
AcDbBlockEnd
  0
BLOCK
  5
1C
330
1B
100
AcDbEntity
 67
     1
  8
0
100
AcDbBlockBegin
  2
*Paper_Space
 70
     0
 10
0.0
 20
0.0
 30
0.0
  3
*Paper_Space
  1

  0
ENDBLK
  5
1D
330
1B
100
AcDbEntity
 67
     1
  8
0
100
AcDbBlockEnd
  0
BLOCK
  5
24
330
23
100
AcDbEntity
  8
0
100
AcDbBlockBegin
  2
*Paper_Space0
 70
     0
 10
0.0
 20
0.0
 30
0.0
  3
*Paper_Space0
  1

  0
ENDBLK
  5
25
330
23
100
AcDbEntity
  8
0
100
AcDbBlockEnd
  0
BLOCK
  5
70
330
6E
100
AcDbEntity
  8
0
100
AcDbBlockBegin
  2
1_071241_0
 70
     2
 10
0.0
 20
0.0
 30
0.0
  3
1_071241_0
  1

  0
ATTDEF
  5
73
330
6E
100
AcDbEntity
  8
AM_6
100
AcDbText
 10
11.0
 20
3.238312436893328
 30
0.0
 40
0.5
  1
Imperial - IP Pillow Block with Type E Dimensions 2-1/4 thru 7 inch 4-Bolt Labyrinth Seal Expansion
100
AcDbAttributeDefinition
  3

  2
NN
 70
     8
280
     0
  0
ATTDEF
  5
74
330
6E
100
AcDbEntity
  8
AM_6
100
AcDbText
 10
11.0
 20
2.738312436893328
 30
0.0
 40
0.5
  1
Imperial/E 4 Bolt Piliow Block Bearings
100
AcDbAttributeDefinition
  3

  2
NT
 70
     8
280
     0
  0
ATTDEF
  5
75
330
6E
100
AcDbEntity
  8
AM_6
100
AcDbText
 10
11.0
 20
2.238312436893328
 30
0.0
 40
0.5
  1
071241
100
AcDbAttributeDefinition
  3

  2
NB
 70
     8
280
     0
  0
ATTDEF
  5
76
330
6E
100
AcDbEntity
  8
AM_6
100
AcDbText
 10
11.0
 20
1.738312436893328
 30
0.0
 40
0.5
  1
$PN.
100
AcDbAttributeDefinition
  3

  2
NBSYN
 70
     8
280
     0
  0
ATTDEF
  5
77
330
6E
100
AcDbEntity
  8
AM_6
100
AcDbText
 10
11.0
 20
1.238312436893328
 30
0.0
 40
0.5
  1
071241
100
AcDbAttributeDefinition
  3

  2
LINA
 70
     8
280
     0
  0
ATTDEF
  5
78
330
6E
100
AcDbEntity
  8
AM_6
100
AcDbText
 10
11.0
 20
0.7383124368933283
 30
0.0
 40
0.5
  1
2-11/16
100
AcDbAttributeDefinition
  3

  2
SS
 70
     8
280
     0
  0
ATTDEF
  5
79
330
6E
100
AcDbEntity
  8
AM_6
100
AcDbText
 10
11.0
 20
0.2383124368933283
 30
0.0
 40
0.5
  1
Non-Expansion
100
AcDbAttributeDefinition
  3

  2
TYPE
 70
     8
280
     0
  0
ATTDEF
  5
7A
330
6E
100
AcDbEntity
  8
AM_6
100
AcDbText
 10
11.0
 20
-0.2616875631066717
 30
0.0
 40
0.5
  1
071241
100
AcDbAttributeDefinition
  3

  2
PN
 70
     8
280
     0
  0
ATTDEF
  5
7B
330
6E
100
AcDbEntity
  8
AM_6
100
AcDbText
 10
11.0
 20
-0.7616875631066717
 30
0.0
 40
0.5
  1
EP4B-IP-211L
100
AcDbAttributeDefinition
  3

  2
DESCRIPTION
 70
     8
280
     0
  0
ATTDEF
  5
7C
330
6E
100
AcDbEntity
  8
AM_6
100
AcDbText
 10
11.0
 20
-1.261687563106672
 30
0.0
 40
0.5
  1
Labyrinth Seal
100
AcDbAttributeDefinition
  3

  2
ST
 70
     8
280
     0
  0
ATTDEF
  5
7D
330
6E
100
AcDbEntity
  8
AM_6
100
AcDbText
 10
11.0
 20
-1.761687563106672
 30
0.0
 40
0.5
  1
3.5
100
AcDbAttributeDefinition
  3

  2
A
 70
     8
280
     0
  0
ATTDEF
  5
7E
330
6E
100
AcDbEntity
  8
AM_6
100
AcDbText
 10
11.0
 20
-2.261687563106672
 30
0.0
 40
0.5
  1
12
100
AcDbAttributeDefinition
  3

  2
B
 70
     8
280
     0
  0
ATTDEF
  5
7F
330
6E
100
AcDbEntity
  8
AM_6
100
AcDbText
 10
11.0
 20
-2.761687563106672
 30
0.0
 40
0.5
  1
4
100
AcDbAttributeDefinition
  3

  2
C
 70
     8
280
     0
  0
ATTDEF
  5
80
330
6E
100
AcDbEntity
  8
AM_6
100
AcDbText
 10
11.0
 20
-3.261687563106672
 30
0.0
 40
0.5
  1
9.18
100
AcDbAttributeDefinition
  3

  2
DMIN
 70
     8
280
     0
  0
ATTDEF
  5
81
330
6E
100
AcDbEntity
  8
AM_6
100
AcDbText
 10
11.0
 20
-3.761687563106672
 30
0.0
 40
0.5
  1
9.82
100
AcDbAttributeDefinition
  3

  2
DMAX
 70
     8
280
     0
  0
ATTDEF
  5
82
330
6E
100
AcDbEntity
  8
AM_6
100
AcDbText
 10
11.0
 20
-4.261687563106672
 30
0.0
 40
0.5
  1
2.13
100
AcDbAttributeDefinition
  3

  2
E
 70
     8
280
     0
  0
ATTDEF
  5
83
330
6E
100
AcDbEntity
  8
AM_6
100
AcDbText
 10
11.0
 20
-4.761687563106672
 30
0.0
 40
0.5
  1
5/8
100
AcDbAttributeDefinition
  3

  2
F
 70
     8
280
     0
  0
ATTDEF
  5
84
330
6E
100
AcDbEntity
  8
AM_6
100
AcDbText
 10
11.0
 20
-5.261687563106672
 30
0.0
 40
0.5
  1
1
100
AcDbAttributeDefinition
  3

  2
G
 70
     8
280
     0
  0
ATTDEF
  5
85
330
6E
100
AcDbEntity
  8
AM_6
100
AcDbText
 10
11.0
 20
-5.761687563106672
 30
0.0
 40
0.5
  1
1.88
100
AcDbAttributeDefinition
  3

  2
H
 70
     8
280
     0
  0
ATTDEF
  5
86
330
6E
100
AcDbEntity
  8
AM_6
100
AcDbText
 10
11.0
 20
-6.261687563106672
 30
0.0
 40
0.5
  1
6.33
100
AcDbAttributeDefinition
  3

  2
J
 70
     8
280
     0
  0
ATTDEF
  5
87
330
6E
100
AcDbEntity
  8
AM_6
100
AcDbText
 10
11.0
 20
-6.761687563106672
 30
0.0
 40
0.5
  1
4.28
100
AcDbAttributeDefinition
  3

  2
L
 70
     8
280
     0
  0
ATTDEF
  5
88
330
6E
100
AcDbEntity
  8
AM_6
100
AcDbText
 10
11.0
 20
-7.261687563106672
 30
0.0
 40
0.5
  1
3.125
100
AcDbAttributeDefinition
  3

  2
M
 70
     8
280
     0
  0
ATTDEF
  5
89
330
6E
100
AcDbEntity
  8
AM_6
100
AcDbText
 10
11.0
 20
-7.761687563106672
 30
0.0
 40
0.5
  1
1.35
100
AcDbAttributeDefinition
  3

  2
R
 70
     8
280
     0
  0
ATTDEF
  5
8A
330
6E
100
AcDbEntity
  8
AM_6
100
AcDbText
 10
11.0
 20
-8.261687563106673
 30
0.0
 40
0.5
  1
2.15
100
AcDbAttributeDefinition
  3

  2
S
 70
     8
280
     0
  0
ATTDEF
  5
8B
330
6E
100
AcDbEntity
  8
AM_6
100
AcDbText
 10
11.0
 20
-8.761687563106673
 30
0.0
 40
0.5
  1
0.25
100
AcDbAttributeDefinition
  3

  2
X
 70
     8
280
     0
  0
ATTDEF
  5
8C
330
6E
100
AcDbEntity
  8
AM_6
100
AcDbText
 10
11.0
 20
-9.261687563106673
 30
0.0
 40
0.5
  1
0.025
100
AcDbAttributeDefinition
  3

  2
Y
 70
     8
280
     0
  0
ATTDEF
  5
8D
330
6E
100
AcDbEntity
  8
AM_6
100
AcDbText
 10
11.0
 20
-9.761687563106673
 30
0.0
 40
0.5
  1
3.47
100
AcDbAttributeDefinition
  3

  2
Z
 70
     8
280
     0
  0
ATTDEF
  5
8E
330
6E
100
AcDbEntity
  8
AM_6
100
AcDbText
 10
11.0
 20
-10.26168756310667
 30
0.0
 40
0.5
  1
baldor
100
AcDbAttributeDefinition
  3

  2
COMPANY
 70
     8
280
     0
  0
INSERT
  5
90
330
6E
100
AcDbEntity
  8
0
100
AcDbBlockReference
  2
2_405015E_Inch_0_in_071241_0
 10
0.0
 20
0.0
 30
0.0
  0
INSERT
  5
C9
330
6E
100
AcDbEntity
  8
0
100
AcDbBlockReference
  2
3_ASME_B18_3_10_1_0_in_071241_0
 10
0.0
 20
0.0
 30
0.0
  0
INSERT
  5
E7
330
6E
100
AcDbEntity
  8
0
100
AcDbBlockReference
  2
4_ASME_B18_3_10_2_0_in_071241_0
 10
0.0
 20
0.0
 30
0.0
  0
INSERT
  5
103
330
6E
100
AcDbEntity
  8
0
100
AcDbBlockReference
  2
5_070897LWE_0_in_071241_0
 10
0.0
 20
0.0
 30
0.0
  0
INSERT
  5
153
330
6E
100
AcDbEntity
  8
0
100
AcDbBlockReference
  2
6_070929EL_0_in_071241_0
 10
0.0
 20
0.0
 30
0.0
  0
INSERT
  5
1B3
330
6E
100
AcDbEntity
  8
0
100
AcDbBlockReference
  2
7_071241H_0_in_071241_0
 10
0.0
 20
0.0
 30
0.0
  0
ENDBLK
  5
71
330
6E
100
AcDbEntity
  8
0
100
AcDbBlockEnd
  0
BLOCK
  5
91
330
8F
100
AcDbEntity
  8
0
100
AcDbBlockBegin
  2
2_405015E_Inch_0_in_071241_0
 70
     2
 10
0.0
 20
0.0
 30
0.0
  3
2_405015E_Inch_0_in_071241_0
  1

  0
ATTDEF
  5
93
330
8F
100
AcDbEntity
  8
AM_6
100
AcDbText
 10
3.633650533277436
 20
3.238312436893328
 30
0.0
 40
0.5
  1
405015E -Inch
100
AcDbAttributeDefinition
  3

  2
NN
 70
     8
280
     0
  0
ATTDEF
  5
94
330
8F
100
AcDbEntity
  8
AM_6
100
AcDbText
 10
3.633650533277436
 20
2.738312436893328
 30
0.0
 40
0.5
  1
Grease Fitting
100
AcDbAttributeDefinition
  3

  2
NT
 70
     8
280
     0
  0
ATTDEF
  5
95
330
8F
100
AcDbEntity
  8
AM_6
100
AcDbText
 10
3.633650533277436
 20
2.238312436893328
 30
0.0
 40
0.5
  1
405015E-Inch
100
AcDbAttributeDefinition
  3

  2
NB
 70
     8
280
     0
  0
ATTDEF
  5
96
330
8F
100
AcDbEntity
  8
AM_6
100
AcDbText
 10
3.633650533277436
 20
1.738312436893328
 30
0.0
 40
0.5
  1
$MN.-Inch
100
AcDbAttributeDefinition
  3

  2
NBSYN
 70
     8
280
     0
  0
ATTDEF
  5
97
330
8F
100
AcDbEntity
  8
AM_6
100
AcDbText
 10
3.633650533277436
 20
1.238312436893328
 30
0.0
 40
0.5
  1
405015E
100
AcDbAttributeDefinition
  3

  2
LINA
 70
     8
280
     0
  0
ATTDEF
  5
98
330
8F
100
AcDbEntity
  8
AM_6
100
AcDbText
 10
3.633650533277436
 20
0.7383124368933283
 30
0.0
 40
0.5
  1
405015E
100
AcDbAttributeDefinition
  3

  2
MN
 70
     8
280
     0
  0
ATTDEF
  5
99
330
8F
100
AcDbEntity
  8
AM_6
100
AcDbText
 10
3.633650533277436
 20
0.2383124368933283
 30
0.0
 40
0.5
  1
1/8 x 27PTF
100
AcDbAttributeDefinition
  3

  2
T
 70
     8
280
     0
  0
ATTDEF
  5
9A
330
8F
100
AcDbEntity
  8
AM_6
100
AcDbText
 10
3.633650533277436
 20
-0.2616875631066717
 30
0.0
 40
0.5
  1
baldor
100
AcDbAttributeDefinition
  3

  2
COMPANY
 70
     8
280
     0
  0
LINE
  5
9D
330
8F
100
AcDbEntity
  8
AM_9
100
AcDbLine
 10
-1.379787999493343
 20
2.713668663740828
 30
0.0
 11
-1.366349466722564
 21
2.763821950820553
 31
0.0
  0
LINE
  5
9E
330
8F
100
AcDbEntity
  8
AM_9
100
AcDbLine
 10
-1.710365287586382
 20
2.565204324039338
 30
0.0
 11
-1.660212000506657
 21
2.551765791268559
 31
0.0
  0
LINE
  5
9F
330
8F
100
AcDbEntity
  8
AM_9
100
AcDbLine
 10
-1.660212000506657
 20
2.551765791268559
 30
0.0
 11
-1.379787999493343
 21
2.713668663740828
 31
0.0
  0
LINE
  5
A0
330
8F
100
AcDbEntity
  8
AM_9
100
AcDbLine
 10
-1.366349466722564
 20
2.763821950820553
 30
0.0
 11
-1.474313630127977
 21
2.965089908119105
 31
0.0
  0
LINE
  5
A1
330
8F
100
AcDbEntity
  8
AM_9
100
AcDbLine
 10
-1.830686369872023
 20
2.759338010896035
 30
0.0
 11
-1.710365287586382
 21
2.565204324039338
 31
0.0
  0
LINE
  5
A2
330
8F
100
AcDbEntity
  8
AM_9
100
AcDbLine
 10
-1.710365287586382
 20
2.565204324039338
 30
0.0
 11
-1.366349466722564
 21
2.763821950820553
 31
0.0
  0
LINE
  5
A4
330
8F
100
AcDbEntity
  8
AM_5
100
AcDbLine
 10
-1.474313630127977
 20
2.889884363377662
 30
0.0
 11
-1.379787999493343
 21
2.713668663740828
 31
0.0
  0
LINE
  5
A5
330
8F
100
AcDbEntity
  8
AM_5
100
AcDbLine
 10
-1.474313630127976
 20
2.965089908119105
 30
0.0
 11
-1.474313630127977
 21
2.889884363377662
 31
0.0
  0
LINE
  5
A6
330
8F
100
AcDbEntity
  8
AM_5
100
AcDbLine
 10
-1.79635869570477
 20
2.703951558075709
 30
0.0
 11
-1.443511392043693
 21
2.907668043827266
 31
0.0
  0
LINE
  5
A7
330
8F
100
AcDbEntity
  8
AM_5
100
AcDbLine
 10
-1.765556457620486
 20
2.721735238525314
 30
0.0
 11
-1.660212000506657
 21
2.551765791268559
 31
0.0
  0
LINE
  5
A8
330
8F
100
AcDbEntity
  8
AM_5
100
AcDbLine
 10
-1.830686369872023
 20
2.759338010896035
 30
0.0
 11
-1.765556457620486
 21
2.721735238525314
 31
0.0
  0
LINE
  5
AA
330
8F
100
AcDbEntity
  8
AM_4
100
AcDbLine
 10
-1.664067332602634
 20
3.09224916728338
 30
0.0
 11
-1.679067332602634
 21
3.118229929396913
 31
0.0
  0
LINE
  5
AB
330
8F
100
AcDbEntity
  8
AM_4
100
AcDbLine
 10
-1.860932667397366
 20
3.013229929396913
 30
0.0
 11
-1.845932667397366
 21
2.98724916728338
 31
0.0
  0
LINE
  5
AC
330
8F
100
AcDbEntity
  8
AM_4
100
AcDbLine
 10
-1.845932667397366
 20
2.98724916728338
 30
0.0
 11
-1.841777777865679
 21
2.952412506044868
 31
0.0
  0
LINE
  5
AD
330
8F
100
AcDbEntity
  8
AM_4
100
AcDbLine
 10
-1.635975343752893
 20
3.071232596779765
 30
0.0
 11
-1.664067332602634
 21
3.09224916728338
 31
0.0
  0
LINE
  5
AE
330
8F
100
AcDbEntity
  8
AM_4
100
AcDbLine
 10
-1.845932667397366
 20
2.98724916728338
 30
0.0
 11
-1.664067332602634
 21
3.09224916728338
 31
0.0
  0
LINE
  5
AF
330
8F
100
AcDbEntity
  8
AM_4
100
AcDbLine
 10
-1.928921671481428
 20
3.135634534960141
 30
0.0
 11
-1.916913429510899
 21
3.050191453623979
 31
0.0
  0
LINE
  5
B0
330
8F
100
AcDbEntity
  8
AM_4
100
AcDbLine
 10
-1.683086570489101
 20
3.185191453623979
 30
0.0
 11
-1.751078328518572
 21
3.238312436893328
 31
0.0
  0
LINE
  5
B1
330
8F
100
AcDbEntity
  8
AM_4
100
AcDbLine
 10
-1.928921671481428
 20
3.135634534960141
 30
0.0
 11
-1.751078328518572
 21
3.238312436893328
 31
0.0
  0
LINE
  5
B2
330
8F
100
AcDbEntity
  8
AM_4
100
AcDbLine
 10
-1.679067332602634
 20
3.118229929396913
 30
0.0
 11
-1.683086570489101
 21
3.185191453623979
 31
0.0
  0
LINE
  5
B3
330
8F
100
AcDbEntity
  8
AM_4
100
AcDbLine
 10
-1.916913429510899
 20
3.050191453623979
 30
0.0
 11
-1.860932667397366
 21
3.013229929396913
 31
0.0
  0
LINE
  5
B4
330
8F
100
AcDbEntity
  8
AM_4
100
AcDbLine
 10
-1.916913429510899
 20
3.050191453623979
 30
0.0
 11
-1.683086570489101
 21
3.185191453623979
 31
0.0
  0
LINE
  5
B5
330
8F
100
AcDbEntity
  8
AM_4
100
AcDbLine
 10
-1.860932667397366
 20
3.013229929396913
 30
0.0
 11
-1.679067332602634
 21
3.118229929396913
 31
0.0
  0
LINE
  5
B6
330
8F
100
AcDbEntity
  8
AM_4
100
AcDbLine
 10
-1.841777777865679
 20
2.952412506044868
 30
0.0
 11
-1.86107797243143
 21
2.878413498532477
 31
0.0
  0
LINE
  5
B7
330
8F
100
AcDbEntity
  8
AM_4
100
AcDbLine
 10
-1.562240226109452
 20
3.050947551815493
 30
0.0
 11
-1.635975343752893
 21
3.071232596779765
 31
0.0
  0
LINE
  5
B8
330
8F
100
AcDbEntity
  8
AM_4
100
AcDbLine
 10
-1.841777777865679
 20
2.952412506044868
 30
0.0
 11
-1.635975343752893
 21
3.071232596779765
 31
0.0
  0
LINE
  5
B9
330
8F
100
AcDbEntity
  8
AM_4
100
AcDbLine
 10
-1.891943057077846
 20
2.839441499886014
 30
0.0
 11
-1.841943057077846
 21
2.75283895950757
 31
0.0
  0
LINE
  5
BA
330
8F
100
AcDbEntity
  8
AM_4
100
AcDbLine
 10
-1.891943057077846
 20
2.839441499886014
 30
0.0
 11
-1.513056942922154
 21
3.058191499886014
 31
0.0
  0
LINE
  5
BB
330
8F
100
AcDbEntity
  8
AM_4
100
AcDbLine
 10
-1.463056942922154
 20
2.97158895950757
 30
0.0
 11
-1.513056942922154
 21
3.058191499886014
 31
0.0
  0
LINE
  5
BC
330
8F
100
AcDbEntity
  8
AM_4
100
AcDbLine
 10
-1.86107797243143
 20
2.878413498532477
 30
0.0
 11
-1.887612930058924
 21
2.841941499886013
 31
0.0
  0
LINE
  5
BD
330
8F
100
AcDbEntity
  8
AM_4
100
AcDbLine
 10
-1.517387069941076
 20
3.055691499886014
 30
0.0
 11
-1.562240226109452
 21
3.050947551815493
 31
0.0
  0
LINE
  5
BE
330
8F
100
AcDbEntity
  8
AM_4
100
AcDbLine
 10
-1.86107797243143
 20
2.878413498532477
 30
0.0
 11
-1.562240226109452
 21
3.050947551815493
 31
0.0
  0
LWPOLYLINE
  5
BF
330
8F
100
AcDbEntity
  8
AM_4
100
AcDbPolyline
 90
        3
 70
     0
 43
0.0
 10
-1.607778471461077
 20
3.003503999886014
 10
-1.559221016799098
 20
3.028775021325244
 10
-1.508523143073847
 20
3.050338728197397
  0
LWPOLYLINE
  5
C0
330
8F
100
AcDbEntity
  8
AM_4
100
AcDbPolyline
 90
        3
 70
     0
 43
0.0
 10
-1.697966200151693
 20
2.940963728197397
 10
-1.654144920004845
 20
2.973946265078646
 10
-1.607778471461077
 20
3.003503999886014
  0
LWPOLYLINE
  5
C1
330
8F
100
AcDbEntity
  8
AM_4
100
AcDbPolyline
 90
        3
 70
     0
 43
0.0
 10
-1.467590742770461
 20
2.979441731196186
 10
-1.51141202291731
 20
2.946459194314937
 10
-1.557778471461077
 20
2.91690145950757
  0
LWPOLYLINE
  5
C2
330
8F
100
AcDbEntity
  8
AM_4
100
AcDbPolyline
 90
        3
 70
     0
 43
0.0
 10
-1.557778471461077
 20
2.91690145950757
 10
-1.606335926123056
 20
2.891630438068339
 10
-1.657033799848307
 20
2.870066731196186
  0
LINE
  5
C3
330
8F
100
AcDbEntity
  8
AM_4
100
AcDbLine
 10
-1.697966200151693
 20
2.940963728197397
 30
0.0
 11
-1.657033799848307
 21
2.870066731196186
 31
0.0
  0
LWPOLYLINE
  5
C4
330
8F
100
AcDbEntity
  8
AM_4
100
AcDbPolyline
 90
        3
 70
     0
 43
0.0
 10
-1.797221528538923
 20
2.894128999886014
 10
-1.748664073876944
 20
2.919400021325244
 10
-1.697966200151693
 20
2.940963728197397
  0
LWPOLYLINE
  5
C5
330
8F
100
AcDbEntity
  8
AM_4
100
AcDbPolyline
 90
        3
 70
     0
 43
0.0
 10
-1.887409257229539
 20
2.831588728197397
 10
-1.84358797708269
 20
2.864571265078646
 10
-1.797221528538923
 20
2.894128999886014
  0
LWPOLYLINE
  5
C6
330
8F
100
AcDbEntity
  8
AM_4
100
AcDbPolyline
 90
        3
 70
     0
 43
0.0
 10
-1.747221528538923
 20
2.80752645950757
 10
-1.795778983200902
 20
2.78225543806834
 10
-1.846476856926153
 20
2.760691731196186
  0
LWPOLYLINE
  5
C7
330
8F
100
AcDbEntity
  8
AM_4
100
AcDbPolyline
 90
        3
 70
     0
 43
0.0
 10
-1.657033799848307
 20
2.870066731196186
 10
-1.700855079995155
 20
2.837084194314937
 10
-1.747221528538923
 20
2.80752645950757
  0
ENDBLK
  5
92
330
8F
100
AcDbEntity
  8
0
100
AcDbBlockEnd
  0
BLOCK
  5
CA
330
C8
100
AcDbEntity
  8
0
100
AcDbBlockBegin
  2
3_ASME_B18_3_10_1_0_in_071241_0
 70
     2
 10
0.0
 20
0.0
 30
0.0
  3
3_ASME_B18_3_10_1_0_in_071241_0
  1

  0
ATTDEF
  5
CC
330
C8
100
AcDbEntity
  8
AM_6
100
AcDbText
 10
5.189525
 20
-1.636340277777778
 30
0.0
 40
0.5
  1
ANSI/ASME B18.3-1998
100
AcDbAttributeDefinition
  3

  2
NN
 70
     8
280
     0
  0
ATTDEF
  5
CD
330
C8
100
AcDbEntity
  8
AM_6
100
AcDbText
 10
5.189525
 20
-2.136340277777778
 30
0.0
 40
0.5
  1
Socket Button Head Cap Screws
100
AcDbAttributeDefinition
  3

  2
NT
 70
     8
280
     0
  0
ATTDEF
  5
CE
330
C8
100
AcDbEntity
  8
AM_6
100
AcDbText
 10
5.189525
 20
-2.636340277777778
 30
0.0
 40
0.5
  1
ASME B18.3-10
100
AcDbAttributeDefinition
  3

  2
NB
 70
     8
280
     0
  0
ATTDEF
  5
CF
330
C8
100
AcDbEntity
  8
AM_6
100
AcDbText
 10
5.189525
 20
-3.136340277777778
 30
0.0
 40
0.5
  1
ASME B18.3-$NS.
100
AcDbAttributeDefinition
  3

  2
NBSYN
 70
     8
280
     0
  0
ATTDEF
  5
D0
330
C8
100
AcDbEntity
  8
AM_6
100
AcDbText
 10
5.189525
 20
-3.636340277777778
 30
0.0
 40
0.5
  1
ASME B18.3-10
100
AcDbAttributeDefinition
  3

  2
LINA
 70
     8
280
     0
  0
ATTDEF
  5
D1
330
C8
100
AcDbEntity
  8
AM_6
100
AcDbText
 10
5.189525
 20
-4.136340277777778
 30
0.0
 40
0.5
  1
10
100
AcDbAttributeDefinition
  3

  2
NS
 70
     8
280
     0
  0
ATTDEF
  5
D2
330
C8
100
AcDbEntity
  8
AM_6
100
AcDbText
 10
5.189525
 20
-4.636340277777778
 30
0.0
 40
0.5
  1
0.361
100
AcDbAttributeDefinition
  3

  2
A
 70
     8
280
     0
  0
ATTDEF
  5
D3
330
C8
100
AcDbEntity
  8
AM_6
100
AcDbText
 10
5.189525
 20
-5.136340277777778
 30
0.0
 40
0.5
  1
0.101
100
AcDbAttributeDefinition
  3

  2
H
 70
     8
280
     0
  0
ATTDEF
  5
D4
330
C8
100
AcDbEntity
  8
AM_6
100
AcDbText
 10
5.189525
 20
-5.636340277777778
 30
0.0
 40
0.5
  1
0.800
100
AcDbAttributeDefinition
  3

  2
L
 70
     8
280
     0
  0
ATTDEF
  5
D5
330
C8
100
AcDbEntity
  8
AM_6
100
AcDbText
 10
5.189525
 20
-6.136340277777778
 30
0.0
 40
0.5
  1
0.020
100
AcDbAttributeDefinition
  3

  2
S
 70
     8
280
     0
  0
ATTDEF
  5
D6
330
C8
100
AcDbEntity
  8
AM_6
100
AcDbText
 10
5.189525
 20
-6.636340277777778
 30
0.0
 40
0.5
  1
0.125000
100
AcDbAttributeDefinition
  3

  2
J
 70
     8
280
     0
  0
ATTDEF
  5
D7
330
C8
100
AcDbEntity
  8
AM_6
100
AcDbText
 10
5.189525
 20
-7.136340277777778
 30
0.0
 40
0.5
  1
baldor
100
AcDbAttributeDefinition
  3

  2
COMPANY
 70
     8
280
     0
  0
ARC
  5
D8
330
C8
100
AcDbEntity
  8
AM_5
100
AcDbCircle
 10
0.0000000000000003
 20
-1.816840277777778
 30
0.0
 40
0.0702
100
AcDbArc
 50
75.00000000000024
 51
15.00000000000027
  0
LINE
  5
DB
330
C8
100
AcDbEntity
  8
AM_7
100
AcDbLine
 10
-0.1895249999999999
 20
-1.816840277777778
 30
0.0
 11
0.1895249999999999
 21
-1.816840277777778
 31
0.0
  0
LINE
  5
DC
330
C8
100
AcDbEntity
  8
AM_4
100
AcDbLine
 10
0.0
 20
-1.744671494129074
 30
0.0
 11
0.0625
 21
-1.780755885953426
 31
0.0
  0
LINE
  5
DD
330
C8
100
AcDbEntity
  8
AM_4
100
AcDbLine
 10
0.0
 20
-1.889009061426481
 30
0.0
 11
-0.0625
 21
-1.852924669602129
 31
0.0
  0
CIRCLE
  5
DE
330
C8
100
AcDbEntity
  8
AM_4
100
AcDbCircle
 10
0.0
 20
-1.816840277777778
 30
0.0
 40
0.0995
  0
LINE
  5
DF
330
C8
100
AcDbEntity
  8
AM_4
100
AcDbLine
 10
-0.0625
 20
-1.852924669602129
 30
0.0
 11
-0.0625
 21
-1.780755885953426
 31
0.0
  0
LINE
  5
E0
330
C8
100
AcDbEntity
  8
AM_4
100
AcDbLine
 10
-0.0625
 20
-1.780755885953426
 30
0.0
 11
0.0
 21
-1.744671494129074
 31
0.0
  0
LINE
  5
E1
330
C8
100
AcDbEntity
  8
AM_4
100
AcDbLine
 10
0.0625
 20
-1.780755885953426
 30
0.0
 11
0.0625
 21
-1.852924669602129
 31
0.0
  0
LINE
  5
E2
330
C8
100
AcDbEntity
  8
AM_4
100
AcDbLine
 10
0.0625
 20
-1.852924669602129
 30
0.0
 11
0.0
 21
-1.889009061426481
 31
0.0
  0
ARC
  5
E3
330
C8
100
AcDbEntity
  8
AM_5
100
AcDbCircle
 10
0.0
 20
-1.816840277777777
 30
0.0
 40
0.0702
100
AcDbArc
 50
344.9999999999998
 51
284.9999999999999
  0
CIRCLE
  5
E4
330
C8
100
AcDbEntity
  8
AM_4
100
AcDbCircle
 10
0.0
 20
-1.816840277777778
 30
0.0
 40
0.1804999999999999
  0
CIRCLE
  5
E5
330
C8
100
AcDbEntity
  8
AM_5
100
AcDbCircle
 10
0.0
 20
-1.816840277777778
 30
0.0
 40
0.0764
  0
ENDBLK
  5
CB
330
C8
100
AcDbEntity
  8
0
100
AcDbBlockEnd
  0
BLOCK
  5
E8
330
E6
100
AcDbEntity
  8
0
100
AcDbBlockBegin
  2
4_ASME_B18_3_10_2_0_in_071241_0
 70
     2
 10
0.0
 20
0.0
 30
0.0
  3
4_ASME_B18_3_10_2_0_in_071241_0
  1

  0
ATTDEF
  5
EA
330
E6
100
AcDbEntity
  8
AM_6
100
AcDbText
 10
5.189525
 20
1.997340277777778
 30
0.0
 40
0.5
  1
ANSI/ASME B18.3-1998
100
AcDbAttributeDefinition
  3

  2
NN
 70
     8
280
     0
  0
ATTDEF
  5
EB
330
E6
100
AcDbEntity
  8
AM_6
100
AcDbText
 10
5.189525
 20
1.497340277777778
 30
0.0
 40
0.5
  1
Socket Button Head Cap Screws
100
AcDbAttributeDefinition
  3

  2
NT
 70
     8
280
     0
  0
ATTDEF
  5
EC
330
E6
100
AcDbEntity
  8
AM_6
100
AcDbText
 10
5.189525
 20
0.9973402777777776
 30
0.0
 40
0.5
  1
ASME B18.3-10
100
AcDbAttributeDefinition
  3

  2
NB
 70
     8
280
     0
  0
ATTDEF
  5
ED
330
E6
100
AcDbEntity
  8
AM_6
100
AcDbText
 10
5.189525
 20
0.4973402777777776
 30
0.0
 40
0.5
  1
ASME B18.3-$NS.
100
AcDbAttributeDefinition
  3

  2
NBSYN
 70
     8
280
     0
  0
ATTDEF
  5
EE
330
E6
100
AcDbEntity
  8
AM_6
100
AcDbText
 10
5.189525
 20
-0.0026597222222224
 30
0.0
 40
0.5
  1
ASME B18.3-10
100
AcDbAttributeDefinition
  3

  2
LINA
 70
     8
280
     0
  0
ATTDEF
  5
EF
330
E6
100
AcDbEntity
  8
AM_6
100
AcDbText
 10
5.189525
 20
-0.5026597222222224
 30
0.0
 40
0.5
  1
10
100
AcDbAttributeDefinition
  3

  2
NS
 70
     8
280
     0
  0
ATTDEF
  5
F0
330
E6
100
AcDbEntity
  8
AM_6
100
AcDbText
 10
5.189525
 20
-1.002659722222222
 30
0.0
 40
0.5
  1
0.361
100
AcDbAttributeDefinition
  3

  2
A
 70
     8
280
     0
  0
ATTDEF
  5
F1
330
E6
100
AcDbEntity
  8
AM_6
100
AcDbText
 10
5.189525
 20
-1.502659722222222
 30
0.0
 40
0.5
  1
0.101
100
AcDbAttributeDefinition
  3

  2
H
 70
     8
280
     0
  0
ATTDEF
  5
F2
330
E6
100
AcDbEntity
  8
AM_6
100
AcDbText
 10
5.189525
 20
-2.002659722222222
 30
0.0
 40
0.5
  1
0.800
100
AcDbAttributeDefinition
  3

  2
L
 70
     8
280
     0
  0
ATTDEF
  5
F3
330
E6
100
AcDbEntity
  8
AM_6
100
AcDbText
 10
5.189525
 20
-2.502659722222222
 30
0.0
 40
0.5
  1
0.020
100
AcDbAttributeDefinition
  3

  2
S
 70
     8
280
     0
  0
ATTDEF
  5
F4
330
E6
100
AcDbEntity
  8
AM_6
100
AcDbText
 10
5.189525
 20
-3.002659722222222
 30
0.0
 40
0.5
  1
0.125000
100
AcDbAttributeDefinition
  3

  2
J
 70
     8
280
     0
  0
ATTDEF
  5
F5
330
E6
100
AcDbEntity
  8
AM_6
100
AcDbText
 10
5.189525
 20
-3.502659722222222
 30
0.0
 40
0.5
  1
baldor
100
AcDbAttributeDefinition
  3

  2
COMPANY
 70
     8
280
     0
  0
ARC
  5
F6
330
E6
100
AcDbEntity
  8
AM_5
100
AcDbCircle
 10
-0.0000000000000001
 20
1.816840277777777
 30
0.0
 40
0.0702000000000003
100
AcDbArc
 50
75.0000000000001
 51
15.00000000000019
  0
LINE
  5
F7
330
E6
100
AcDbEntity
  8
AM_7
100
AcDbLine
 10
-0.1895249999999999
 20
1.816840277777778
 30
0.0
 11
0.1895249999999999
 21
1.816840277777778
 31
0.0
  0
LINE
  5
F8
330
E6
100
AcDbEntity
  8
AM_4
100
AcDbLine
 10
0.0
 20
1.889009061426481
 30
0.0
 11
0.0625
 21
1.852924669602129
 31
0.0
  0
CIRCLE
  5
F9
330
E6
100
AcDbEntity
  8
AM_4
100
AcDbCircle
 10
0.0
 20
1.816840277777778
 30
0.0
 40
0.0995
  0
LINE
  5
FA
330
E6
100
AcDbEntity
  8
AM_4
100
AcDbLine
 10
-0.0625
 20
1.780755885953426
 30
0.0
 11
-0.0625
 21
1.852924669602129
 31
0.0
  0
LINE
  5
FB
330
E6
100
AcDbEntity
  8
AM_4
100
AcDbLine
 10
-0.0625
 20
1.852924669602129
 30
0.0
 11
0.0
 21
1.889009061426481
 31
0.0
  0
LINE
  5
FC
330
E6
100
AcDbEntity
  8
AM_4
100
AcDbLine
 10
0.0625
 20
1.852924669602129
 30
0.0
 11
0.0625
 21
1.780755885953426
 31
0.0
  0
LINE
  5
FD
330
E6
100
AcDbEntity
  8
AM_4
100
AcDbLine
 10
0.0625
 20
1.780755885953426
 30
0.0
 11
0.0
 21
1.744671494129074
 31
0.0
  0
LINE
  5
FE
330
E6
100
AcDbEntity
  8
AM_4
100
AcDbLine
 10
0.0
 20
1.744671494129074
 30
0.0
 11
-0.0625
 21
1.780755885953426
 31
0.0
  0
ARC
  5
FF
330
E6
100
AcDbEntity
  8
AM_5
100
AcDbCircle
 10
0.0
 20
1.816840277777778
 30
0.0
 40
0.0702
100
AcDbArc
 50
344.9999999999998
 51
284.9999999999999
  0
CIRCLE
  5
100
330
E6
100
AcDbEntity
  8
AM_4
100
AcDbCircle
 10
0.0
 20
1.816840277777778
 30
0.0
 40
0.1804999999999999
  0
CIRCLE
  5
101
330
E6
100
AcDbEntity
  8
AM_5
100
AcDbCircle
 10
0.0
 20
1.816840277777778
 30
0.0
 40
0.0764
  0
ENDBLK
  5
E9
330
E6
100
AcDbEntity
  8
0
100
AcDbBlockEnd
  0
BLOCK
  5
104
330
102
100
AcDbEntity
  8
0
100
AcDbBlockBegin
  2
5_070897LWE_0_in_071241_0
 70
     2
 10
0.0
 20
0.0
 30
0.0
  3
5_070897LWE_0_in_071241_0
  1

  0
ATTDEF
  5
106
330
102
100
AcDbEntity
  8
AM_6
100
AcDbText
 10
7.140000000000001
 20
2.14
 30
0.0
 40
0.5
  1
Imperial/E Insert Lockwasher -Inch
100
AcDbAttributeDefinition
  3

  2
NN
 70
     8
280
     0
  0
ATTDEF
  5
107
330
102
100
AcDbEntity
  8
AM_6
100
AcDbText
 10
7.140000000000001
 20
1.64
 30
0.0
 40
0.5
  1
Imperial/E Bearings
100
AcDbAttributeDefinition
  3

  2
NT
 70
     8
280
     0
  0
ATTDEF
  5
108
330
102
100
AcDbEntity
  8
AM_6
100
AcDbText
 10
7.140000000000001
 20
1.14
 30
0.0
 40
0.5
  1
070897LWE
100
AcDbAttributeDefinition
  3

  2
NB
 70
     8
280
     0
  0
ATTDEF
  5
109
330
102
100
AcDbEntity
  8
AM_6
100
AcDbText
 10
7.140000000000001
 20
0.6400000000000001
 30
0.0
 40
0.5
  1
$PN.LWE
100
AcDbAttributeDefinition
  3

  2
NBSYN
 70
     8
280
     0
  0
ATTDEF
  5
10A
330
102
100
AcDbEntity
  8
AM_6
100
AcDbText
 10
7.140000000000001
 20
0.1400000000000001
 30
0.0
 40
0.5
  1
070897
100
AcDbAttributeDefinition
  3

  2
LINA
 70
     8
280
     0
  0
ATTDEF
  5
10B
330
102
100
AcDbEntity
  8
AM_6
100
AcDbText
 10
7.140000000000001
 20
-0.3599999999999999
 30
0.0
 40
0.5
  1
2-11/16
100
AcDbAttributeDefinition
  3

  2
SS
 70
     8
280
     0
  0
ATTDEF
  5
10C
330
102
100
AcDbEntity
  8
AM_6
100
AcDbText
 10
7.140000000000001
 20
-0.8599999999999999
 30
0.0
 40
0.5
  1
4.280000
100
AcDbAttributeDefinition
  3

  2
E1
 70
     8
280
     0
  0
ATTDEF
  5
10D
330
102
100
AcDbEntity
  8
AM_6
100
AcDbText
 10
7.140000000000001
 20
-1.36
 30
0.0
 40
0.5
  1
2.687500
100
AcDbAttributeDefinition
  3

  2
SS1
 70
     8
280
     0
  0
ATTDEF
  5
10E
330
102
100
AcDbEntity
  8
AM_6
100
AcDbText
 10
7.140000000000001
 20
-1.86
 30
0.0
 40
0.5
  1
070897
100
AcDbAttributeDefinition
  3

  2
PN
 70
     8
280
     0
  0
ATTDEF
  5
10F
330
102
100
AcDbEntity
  8
AM_6
100
AcDbText
 10
7.140000000000001
 20
-2.36
 30
0.0
 40
0.5
  1
INS-IP-211R
100
AcDbAttributeDefinition
  3

  2
DESCRIPTION
 70
     8
280
     0
  0
ATTDEF
  5
110
330
102
100
AcDbEntity
  8
AM_6
100
AcDbText
 10
7.140000000000001
 20
-2.86
 30
0.0
 40
0.5
  1
5.1181
100
AcDbAttributeDefinition
  3

  2
A
 70
     8
280
     0
  0
ATTDEF
  5
111
330
102
100
AcDbEntity
  8
AM_6
100
AcDbText
 10
7.140000000000001
 20
-3.36
 30
0.0
 40
0.5
  1
1-9/32
100
AcDbAttributeDefinition
  3

  2
B
 70
     8
280
     0
  0
ATTDEF
  5
112
330
102
100
AcDbEntity
  8
AM_6
100
AcDbText
 10
7.140000000000001
 20
-3.86
 30
0.0
 40
0.5
  1
1.281250
100
AcDbAttributeDefinition
  3

  2
B1
 70
     8
280
     0
  0
ATTDEF
  5
113
330
102
100
AcDbEntity
  8
AM_6
100
AcDbText
 10
7.140000000000001
 20
-4.359999999999999
 30
0.0
 40
0.5
  1
3-1/2
100
AcDbAttributeDefinition
  3

  2
C
 70
     8
280
     0
  0
ATTDEF
  5
114
330
102
100
AcDbEntity
  8
AM_6
100
AcDbText
 10
7.140000000000001
 20
-4.859999999999999
 30
0.0
 40
0.5
  1
3.500000
100
AcDbAttributeDefinition
  3

  2
C1
 70
     8
280
     0
  0
ATTDEF
  5
115
330
102
100
AcDbEntity
  8
AM_6
100
AcDbText
 10
7.140000000000001
 20
-5.359999999999999
 30
0.0
 40
0.5
  1
1.219
100
AcDbAttributeDefinition
  3

  2
D
 70
     8
280
     0
  0
ATTDEF
  5
116
330
102
100
AcDbEntity
  8
AM_6
100
AcDbText
 10
7.140000000000001
 20
-5.859999999999999
 30
0.0
 40
0.5
  1
4-9/32
100
AcDbAttributeDefinition
  3

  2
E
 70
     8
280
     0
  0
ATTDEF
  5
117
330
102
100
AcDbEntity
  8
AM_6
100
AcDbText
 10
7.140000000000001
 20
-6.359999999999999
 30
0.0
 40
0.5
  1
0.1900
100
AcDbAttributeDefinition
  3

  2
NDM
 70
     8
280
     0
  0
ATTDEF
  5
118
330
102
100
AcDbEntity
  8
AM_6
100
AcDbText
 10
7.140000000000001
 20
-6.859999999999999
 30
0.0
 40
0.5
  1
0.1450
100
AcDbAttributeDefinition
  3

  2
KDM
 70
     8
280
     0
  0
ATTDEF
  5
119
330
102
100
AcDbEntity
  8
AM_6
100
AcDbText
 10
7.140000000000001
 20
-7.359999999999999
 30
0.0
 40
0.5
  1
3.74
100
AcDbAttributeDefinition
  3

  2
AL
 70
     8
280
     0
  0
ATTDEF
  5
11A
330
102
100
AcDbEntity
  8
AM_6
100
AcDbText
 10
7.140000000000001
 20
-7.859999999999999
 30
0.0
 40
0.5
  1
0.50
100
AcDbAttributeDefinition
  3

  2
BL
 70
     8
280
     0
  0
ATTDEF
  5
11B
330
102
100
AcDbEntity
  8
AM_6
100
AcDbText
 10
7.140000000000001
 20
-8.36
 30
0.0
 40
0.5
  1
0.07
100
AcDbAttributeDefinition
  3

  2
CL
 70
     8
280
     0
  0
ATTDEF
  5
11C
330
102
100
AcDbEntity
  8
AM_6
100
AcDbText
 10
7.140000000000001
 20
-8.86
 30
0.0
 40
0.5
  1
0.44
100
AcDbAttributeDefinition
  3

  2
DL
 70
     8
280
     0
  0
ATTDEF
  5
11D
330
102
100
AcDbEntity
  8
AM_6
100
AcDbText
 10
7.140000000000001
 20
-9.36
 30
0.0
 40
0.5
  1
baldor
100
AcDbAttributeDefinition
  3

  2
COMPANY
 70
     8
280
     0
  0
ARC
  5
11E
330
102
100
AcDbEntity
  8
AM_9
100
AcDbCircle
 10
0.0000000000000045
 20
-0.0000000000000111
 30
0.0
 40
1.414473684210538
100
AcDbArc
 50
107.4300382973271
 51
117.5699617026729
  0
LINE
  5
11F
330
102
100
AcDbEntity
  8
AM_9
100
AcDbLine
 10
0.0949999999999998
 20
1.816527777777778
 30
0.0
 11
0.0949999999999999
 21
1.663363080774444
 31
0.0
  0
LINE
  5
120
330
102
100
AcDbEntity
  8
AM_9
100
AcDbLine
 10
0.0950000000000005
 20
-1.663363080774445
 30
0.0
 11
0.0950000000000005
 21
-1.816527777777778
 31
0.0
  0
LINE
  5
121
330
102
100
AcDbEntity
  8
AM_9
100
AcDbLine
 10
-0.0949999999999995
 20
-1.816527777777778
 30
0.0
 11
-0.0949999999999995
 21
-1.663363080774444
 31
0.0
  0
LINE
  5
122
330
102
100
AcDbEntity
  8
AM_9
100
AcDbLine
 10
-0.0949999999999998
 20
1.663363080774444
 30
0.0
 11
-0.0949999999999998
 21
1.816527777777778
 31
0.0
  0
LINE
  5
123
330
102
100
AcDbEntity
  8
AM_7
100
AcDbLine
 10
-0.0997500058414535
 20
-1.816560289698625
 30
0.0
 11
0.0997500058414545
 21
-1.816560289698625
 31
0.0
  0
LINE
  5
124
330
102
100
AcDbEntity
  8
AM_7
100
AcDbLine
 10
1.184752093438644
 20
-1.284502099280097
 30
0.0
 11
1.384252105121551
 21
-1.284502099280097
 31
0.0
  0
LINE
  5
125
330
102
100
AcDbEntity
  8
AM_7
100
AcDbLine
 10
1.284502099280098
 20
-1.384252105121551
 30
0.0
 11
1.284502099280098
 21
-1.184752093438643
 31
0.0
  0
LINE
  5
126
330
102
100
AcDbEntity
  8
AM_7
100
AcDbLine
 10
1.184752093438643
 20
1.284502099280097
 30
0.0
 11
1.384252105121551
 21
1.284502099280097
 31
0.0
  0
LINE
  5
127
330
102
100
AcDbEntity
  8
AM_7
100
AcDbLine
 10
1.284502099280097
 20
1.184752093438644
 30
0.0
 11
1.284502099280097
 21
1.384252105121551
 31
0.0
  0
LINE
  5
128
330
102
100
AcDbEntity
  8
AM_7
100
AcDbLine
 10
1.816560289698626
 20
-0.0997500058414538
 30
0.0
 11
1.816560289698626
 21
0.0997500058414541
 31
0.0
  0
LINE
  5
129
330
102
100
AcDbEntity
  8
AM_7
100
AcDbLine
 10
-1.384252105121551
 20
1.284502099280097
 30
0.0
 11
-1.184752093438643
 21
1.284502099280097
 31
0.0
  0
LINE
  5
12A
330
102
100
AcDbEntity
  8
AM_7
100
AcDbLine
 10
-1.284502099280097
 20
1.184752093438644
 30
0.0
 11
-1.284502099280097
 21
1.384252105121551
 31
0.0
  0
LINE
  5
12B
330
102
100
AcDbEntity
  8
AM_7
100
AcDbLine
 10
-1.816560289698626
 20
-0.0997500058414544
 30
0.0
 11
-1.816560289698626
 21
0.0997500058414526
 31
0.0
  0
LINE
  5
12C
330
102
100
AcDbEntity
  8
AM_7
100
AcDbLine
 10
-0.0997500058414534
 20
1.816560289698626
 30
0.0
 11
0.0997500058414536
 21
1.816560289698626
 31
0.0
  0
LINE
  5
12D
330
102
100
AcDbEntity
  8
AM_7
100
AcDbLine
 10
-1.384252105121551
 20
-1.284502099280098
 30
0.0
 11
-1.184752093438643
 21
-1.284502099280098
 31
0.0
  0
LINE
  5
12E
330
102
100
AcDbEntity
  8
AM_7
100
AcDbLine
 10
-1.284502099280097
 20
-1.384252105121552
 30
0.0
 11
-1.284502099280097
 21
-1.184752093438644
 31
0.0
  0
ARC
  5
12F
330
102
100
AcDbEntity
  8
AM_4
100
AcDbCircle
 10
-1.284502099280097
 20
-1.284502099280098
 30
0.0
 40
0.0950000055632892
100
AcDbArc
 50
134.9803916234135
 51
315.0196083765862
  0
ARC
  5
130
330
102
100
AcDbEntity
  8
AM_4
100
AcDbCircle
 10
0.0000000000000004
 20
0.0000000000000029
 30
0.0
 40
1.4527027027027
100
AcDbArc
 50
48.74955325993105
 51
86.25044674006895
  0
LINE
  5
131
330
102
100
AcDbEntity
  8
AM_4
100
AcDbLine
 10
0.0949999999999999
 20
1.663363080774444
 30
0.0
 11
0.0949999999999999
 21
1.449593095471877
 31
0.0
  0
ARC
  5
132
330
102
100
AcDbEntity
  8
AM_4
100
AcDbCircle
 10
-1.816560289698626
 20
-0.0000000000000009
 30
0.0
 40
0.0950000055632892
100
AcDbArc
 50
89.98039162341327
 51
270.0196083765866
  0
ARC
  5
133
330
102
100
AcDbEntity
  8
AM_4
100
AcDbCircle
 10
1.284502099280098
 20
-1.284502099280097
 30
0.0
 40
0.0950000055632892
100
AcDbArc
 50
224.980391623411
 51
45.01960837658644
  0
ARC
  5
134
330
102
100
AcDbEntity
  8
AM_4
100
AcDbCircle
 10
0.0000000000000004
 20
-0.0000000000000004
 30
0.0
 40
1.452702702702702
100
AcDbArc
 50
273.7495532599311
 51
311.2504467400689
  0
LINE
  5
135
330
102
100
AcDbEntity
  8
AM_4
100
AcDbLine
 10
1.449593095471877
 20
0.0950000000000016
 30
0.0
 11
1.816527777777778
 21
0.0950000000000002
 31
0.0
  0
ARC
  5
136
330
102
100
AcDbEntity
  8
AM_4
100
AcDbCircle
 10
0.0000000000000049
 20
0.0000000000000024
 30
0.0
 40
1.452702702702698
100
AcDbArc
 50
3.749553259930969
 51
41.25044674006899
  0
LINE
  5
137
330
102
100
AcDbEntity
  8
AM_4
100
AcDbLine
 10
1.351654254093119
 20
1.217303965667675
 30
0.0
 11
1.092192251982085
 21
0.9578419635566406
 31
0.0
  0
LINE
  5
138
330
102
100
AcDbEntity
  8
AM_4
100
AcDbLine
 10
1.092192251982085
 20
-0.9578419635566398
 30
0.0
 11
1.351654254093119
 21
-1.217303965667675
 31
0.0
  0
ARC
  5
139
330
102
100
AcDbEntity
  8
AM_4
100
AcDbCircle
 10
0.0000000000000016
 20
0.0
 30
0.0
 40
1.452702702702702
100
AcDbArc
 50
318.7495532599311
 51
356.250446740069
  0
LINE
  5
13A
330
102
100
AcDbEntity
  8
AM_4
100
AcDbLine
 10
-0.6693483385457604
 20
1.289309095649979
 30
0.0
 11
-0.6546627846207973
 21
1.253855032193372
 31
0.0
  0
LINE
  5
13B
330
102
100
AcDbEntity
  8
AM_4
100
AcDbLine
 10
0.9578419635566392
 20
1.092192251982085
 30
0.0
 11
1.217303965667675
 21
1.351654254093119
 31
0.0
  0
ARC
  5
13C
330
102
100
AcDbEntity
  8
AM_4
100
AcDbCircle
 10
1.284502099280097
 20
1.284502099280098
 30
0.0
 40
0.0950000055632894
100
AcDbArc
 50
314.9803916234139
 51
135.0196083765861
  0
ARC
  5
13D
330
102
100
AcDbEntity
  8
AM_4
100
AcDbCircle
 10
1.816560289698626
 20
0.0000000000000001
 30
0.0
 40
0.0950000055632895
100
AcDbArc
 50
269.9803916234133
 51
90.01960837658648
  0
LINE
  5
13E
330
102
100
AcDbEntity
  8
AM_4
100
AcDbLine
 10
1.816527777777778
 20
-0.0950000000000001
 30
0.0
 11
1.449593095471877
 21
-0.0949999999999995
 31
0.0
  0
LINE
  5
13F
330
102
100
AcDbEntity
  8
AM_4
100
AcDbLine
 10
1.217303965667672
 20
-1.351654254093115
 30
0.0
 11
0.9578419635566408
 21
-1.092192251982084
 31
0.0
  0
LINE
  5
140
330
102
100
AcDbEntity
  8
AM_4
100
AcDbLine
 10
0.0950000000000017
 20
-1.449593095471877
 30
0.0
 11
0.0950000000000005
 21
-1.663363080774445
 31
0.0
  0
LINE
  5
141
330
102
100
AcDbEntity
  8
AM_4
100
AcDbLine
 10
-0.0949999999999995
 20
-1.663363080774444
 30
0.0
 11
-0.0949999999999993
 21
-1.449593095471877
 31
0.0
  0
ARC
  5
142
330
102
100
AcDbEntity
  8
AM_4
100
AcDbCircle
 10
-0.0000000000000001
 20
-0.0000000000000002
 30
0.0
 40
1.452702702702702
100
AcDbArc
 50
228.7495532599312
 51
266.250446740069
  0
LINE
  5
143
330
102
100
AcDbEntity
  8
AM_4
100
AcDbLine
 10
-0.9578419635566374
 20
-1.092192251982087
 30
0.0
 11
-1.217303965667674
 21
-1.35165425409312
 31
0.0
  0
LINE
  5
144
330
102
100
AcDbEntity
  8
AM_4
100
AcDbLine
 10
-1.351654254093118
 20
-1.217303965667675
 30
0.0
 11
-1.092192251982084
 21
-0.9578419635566409
 31
0.0
  0
ARC
  5
145
330
102
100
AcDbEntity
  8
AM_4
100
AcDbCircle
 10
-0.0000000000000082
 20
-0.0000000000000031
 30
0.0
 40
1.452702702702694
100
AcDbArc
 50
183.7495532599311
 51
221.2504467400691
  0
LINE
  5
146
330
102
100
AcDbEntity
  8
AM_4
100
AcDbLine
 10
-1.449593095471877
 20
-0.095000000000001
 30
0.0
 11
-1.816527777777778
 21
-0.0950000000000006
 31
0.0
  0
LINE
  5
147
330
102
100
AcDbEntity
  8
AM_4
100
AcDbLine
 10
-1.816527777777778
 20
0.094999999999999
 30
0.0
 11
-1.449593095471877
 21
0.0949999999999993
 31
0.0
  0
ARC
  5
148
330
102
100
AcDbEntity
  8
AM_4
100
AcDbCircle
 10
0.0000000000000036
 20
-0.0000000000000019
 30
0.0
 40
1.452702702702706
100
AcDbArc
 50
138.7495532599311
 51
176.2504467400689
  0
LINE
  5
149
330
102
100
AcDbEntity
  8
AM_4
100
AcDbLine
 10
-1.092192251982084
 20
0.9578419635566404
 30
0.0
 11
-1.351654254093119
 21
1.217303965667675
 31
0.0
  0
ARC
  5
14A
330
102
100
AcDbEntity
  8
AM_4
100
AcDbCircle
 10
-1.284502099280097
 20
1.284502099280097
 30
0.0
 40
0.0950000055632894
100
AcDbArc
 50
44.98039162342995
 51
225.0196083765859
  0
LINE
  5
14B
330
102
100
AcDbEntity
  8
AM_4
100
AcDbLine
 10
-1.217303965667693
 20
1.351654254093138
 30
0.0
 11
-0.9578419635566402
 21
1.092192251982085
 31
0.0
  0
ARC
  5
14C
330
102
100
AcDbEntity
  8
AM_4
100
AcDbCircle
 10
0.0000000000000087
 20
-0.000000000000012
 30
0.0
 40
1.452702702702717
100
AcDbArc
 50
117.4362060653172
 51
131.2504467400688
  0
ARC
  5
14D
330
102
100
AcDbEntity
  8
AM_4
100
AcDbCircle
 10
0.0000000000000133
 20
-0.0000000000000313
 30
0.0
 40
1.343750000000034
100
AcDbArc
 50
107.1624431505853
 51
117.8375568494147
  0
LINE
  5
14E
330
102
100
AcDbEntity
  8
AM_4
100
AcDbLine
 10
-0.4236929014929757
 20
1.349525890284645
 30
0.0
 11
-0.4383784554179387
 21
1.384979953741252
 31
0.0
  0
ARC
  5
14F
330
102
100
AcDbEntity
  8
AM_4
100
AcDbCircle
 10
-0.0000000000000039
 20
0.0000000000000169
 30
0.0
 40
1.452702702702686
100
AcDbArc
 50
93.74955325993095
 51
107.5637939346829
  0
LINE
  5
150
330
102
100
AcDbEntity
  8
AM_4
100
AcDbLine
 10
-0.0949999999999997
 20
1.449593095471877
 30
0.0
 11
-0.0949999999999998
 21
1.663363080774444
 31
0.0
  0
CIRCLE
  5
151
330
102
100
AcDbEntity
  8
AM_4
100
AcDbCircle
 10
0.0
 20
0.0
 30
0.0
 40
2.14
  0
ENDBLK
  5
105
330
102
100
AcDbEntity
  8
0
100
AcDbBlockEnd
  0
BLOCK
  5
154
330
152
100
AcDbEntity
  8
0
100
AcDbBlockBegin
  2
6_070929EL_0_in_071241_0
 70
     2
 10
0.0
 20
0.0
 30
0.0
  3
6_070929EL_0_in_071241_0
  1

  0
ATTDEF
  5
156
330
152
100
AcDbEntity
  8
AM_6
100
AcDbText
 10
7.549049999999999
 20
2.549049999999999
 30
0.0
 40
0.5
  1
Imperial/E Insert -Inch
100
AcDbAttributeDefinition
  3

  2
NN
 70
     8
280
     0
  0
ATTDEF
  5
157
330
152
100
AcDbEntity
  8
AM_6
100
AcDbText
 10
7.549049999999999
 20
2.049049999999999
 30
0.0
 40
0.5
  1
Imperial Bearings
100
AcDbAttributeDefinition
  3

  2
NT
 70
     8
280
     0
  0
ATTDEF
  5
158
330
152
100
AcDbEntity
  8
AM_6
100
AcDbText
 10
7.549049999999999
 20
1.549049999999999
 30
0.0
 40
0.5
  1
070929EL
100
AcDbAttributeDefinition
  3

  2
NB
 70
     8
280
     0
  0
ATTDEF
  5
159
330
152
100
AcDbEntity
  8
AM_6
100
AcDbText
 10
7.549049999999999
 20
1.049049999999999
 30
0.0
 40
0.5
  1
$PN.
100
AcDbAttributeDefinition
  3

  2
NBSYN
 70
     8
280
     0
  0
ATTDEF
  5
15A
330
152
100
AcDbEntity
  8
AM_6
100
AcDbText
 10
7.549049999999999
 20
0.5490499999999994
 30
0.0
 40
0.5
  1
070929EL
100
AcDbAttributeDefinition
  3

  2
LINA
 70
     8
280
     0
  0
ATTDEF
  5
15B
330
152
100
AcDbEntity
  8
AM_6
100
AcDbText
 10
7.549049999999999
 20
0.0490499999999994
 30
0.0
 40
0.5
  1
2-11/16
100
AcDbAttributeDefinition
  3

  2
SS
 70
     8
280
     0
  0
ATTDEF
  5
15C
330
152
100
AcDbEntity
  8
AM_6
100
AcDbText
 10
7.549049999999999
 20
-0.4509500000000006
 30
0.0
 40
0.5
  1
2.687500
100
AcDbAttributeDefinition
  3

  2
SS1
 70
     8
280
     0
  0
ATTDEF
  5
15D
330
152
100
AcDbEntity
  8
AM_6
100
AcDbText
 10
7.549049999999999
 20
-0.9509500000000006
 30
0.0
 40
0.5
  1
070929EL
100
AcDbAttributeDefinition
  3

  2
PN
 70
     8
280
     0
  0
ATTDEF
  5
15E
330
152
100
AcDbEntity
  8
AM_6
100
AcDbText
 10
7.549049999999999
 20
-1.450950000000001
 30
0.0
 40
0.5
  1
INS-IP-211L
100
AcDbAttributeDefinition
  3

  2
DESCRIPTION
 70
     8
280
     0
  0
ATTDEF
  5
15F
330
152
100
AcDbEntity
  8
AM_6
100
AcDbText
 10
7.549049999999999
 20
-1.950950000000001
 30
0.0
 40
0.5
  1
Labyrinth Seal
100
AcDbAttributeDefinition
  3

  2
ST
 70
     8
280
     0
  0
ATTDEF
  5
160
330
152
100
AcDbEntity
  8
AM_6
100
AcDbText
 10
7.549049999999999
 20
-2.450950000000001
 30
0.0
 40
0.5
  1
2
100
AcDbAttributeDefinition
  3

  2
ST1
 70
     8
280
     0
  0
ATTDEF
  5
161
330
152
100
AcDbEntity
  8
AM_6
100
AcDbText
 10
7.549049999999999
 20
-2.950950000000001
 30
0.0
 40
0.5
  1
5.1181
100
AcDbAttributeDefinition
  3

  2
A
 70
     8
280
     0
  0
ATTDEF
  5
162
330
152
100
AcDbEntity
  8
AM_6
100
AcDbText
 10
7.549049999999999
 20
-3.450950000000001
 30
0.0
 40
0.5
  1
1-9/32
100
AcDbAttributeDefinition
  3

  2
B
 70
     8
280
     0
  0
ATTDEF
  5
163
330
152
100
AcDbEntity
  8
AM_6
100
AcDbText
 10
7.549049999999999
 20
-3.950950000000001
 30
0.0
 40
0.5
  1
1.281250
100
AcDbAttributeDefinition
  3

  2
B1
 70
     8
280
     0
  0
ATTDEF
  5
164
330
152
100
AcDbEntity
  8
AM_6
100
AcDbText
 10
7.549049999999999
 20
-4.450950000000001
 30
0.0
 40
0.5
  1
3-1/2
100
AcDbAttributeDefinition
  3

  2
C
 70
     8
280
     0
  0
ATTDEF
  5
165
330
152
100
AcDbEntity
  8
AM_6
100
AcDbText
 10
7.549049999999999
 20
-4.950950000000001
 30
0.0
 40
0.5
  1
3.500000
100
AcDbAttributeDefinition
  3

  2
C1
 70
     8
280
     0
  0
ATTDEF
  5
166
330
152
100
AcDbEntity
  8
AM_6
100
AcDbText
 10
7.549049999999999
 20
-5.450950000000001
 30
0.0
 40
0.5
  1
4.41000
100
AcDbAttributeDefinition
  3

  2
CR
 70
     8
280
     0
  0
ATTDEF
  5
167
330
152
100
AcDbEntity
  8
AM_6
100
AcDbText
 10
7.549049999999999
 20
-5.950950000000001
 30
0.0
 40
0.5
  1
1.219
100
AcDbAttributeDefinition
  3

  2
D
 70
     8
280
     0
  0
ATTDEF
  5
168
330
152
100
AcDbEntity
  8
AM_6
100
AcDbText
 10
7.549049999999999
 20
-6.450950000000001
 30
0.0
 40
0.5
  1
4-9/32
100
AcDbAttributeDefinition
  3

  2
E
 70
     8
280
     0
  0
ATTDEF
  5
169
330
152
100
AcDbEntity
  8
AM_6
100
AcDbText
 10
7.549049999999999
 20
-6.950950000000001
 30
0.0
 40
0.5
  1
4.281250
100
AcDbAttributeDefinition
  3

  2
E1
 70
     8
280
     0
  0
ATTDEF
  5
16A
330
152
100
AcDbEntity
  8
AM_6
100
AcDbText
 10
7.549049999999999
 20
-7.450950000000001
 30
0.0
 40
0.5
  1
0.1900
100
AcDbAttributeDefinition
  3

  2
NDM
 70
     8
280
     0
  0
ATTDEF
  5
16B
330
152
100
AcDbEntity
  8
AM_6
100
AcDbText
 10
7.549049999999999
 20
-7.950950000000001
 30
0.0
 40
0.5
  1
0.1450
100
AcDbAttributeDefinition
  3

  2
KDM
 70
     8
280
     0
  0
ATTDEF
  5
16C
330
152
100
AcDbEntity
  8
AM_6
100
AcDbText
 10
7.549049999999999
 20
-8.45095
 30
0.0
 40
0.5
  1
3.74
100
AcDbAttributeDefinition
  3

  2
AL
 70
     8
280
     0
  0
ATTDEF
  5
16D
330
152
100
AcDbEntity
  8
AM_6
100
AcDbText
 10
7.549049999999999
 20
-8.95095
 30
0.0
 40
0.5
  1
0.50
100
AcDbAttributeDefinition
  3

  2
BL
 70
     8
280
     0
  0
ATTDEF
  5
16E
330
152
100
AcDbEntity
  8
AM_6
100
AcDbText
 10
7.549049999999999
 20
-9.45095
 30
0.0
 40
0.5
  1
0.07
100
AcDbAttributeDefinition
  3

  2
CL
 70
     8
280
     0
  0
ATTDEF
  5
16F
330
152
100
AcDbEntity
  8
AM_6
100
AcDbText
 10
7.549049999999999
 20
-9.95095
 30
0.0
 40
0.5
  1
0.44
100
AcDbAttributeDefinition
  3

  2
DL
 70
     8
280
     0
  0
ATTDEF
  5
170
330
152
100
AcDbEntity
  8
AM_6
100
AcDbText
 10
7.549049999999999
 20
-10.45095
 30
0.0
 40
0.5
  1
0.8000
100
AcDbAttributeDefinition
  3

  2
LL
 70
     8
280
     0
  0
ATTDEF
  5
171
330
152
100
AcDbEntity
  8
AM_6
100
AcDbText
 10
7.549049999999999
 20
-10.95095
 30
0.0
 40
0.5
  1
0.025
100
AcDbAttributeDefinition
  3

  2
Y
 70
     8
280
     0
  0
ATTDEF
  5
172
330
152
100
AcDbEntity
  8
AM_6
100
AcDbText
 10
7.549049999999999
 20
-11.45095
 30
0.0
 40
0.5
  1
0.025000
100
AcDbAttributeDefinition
  3

  2
Y1
 70
     8
280
     0
  0
ATTDEF
  5
173
330
152
100
AcDbEntity
  8
AM_6
100
AcDbText
 10
7.549049999999999
 20
-11.95095
 30
0.0
 40
0.5
  1
3-15/32
100
AcDbAttributeDefinition
  3

  2
Z
 70
     8
280
     0
  0
ATTDEF
  5
174
330
152
100
AcDbEntity
  8
AM_6
100
AcDbText
 10
7.549049999999999
 20
-12.45095
 30
0.0
 40
0.5
  1
3.468750
100
AcDbAttributeDefinition
  3

  2
Z1
 70
     8
280
     0
  0
ATTDEF
  5
175
330
152
100
AcDbEntity
  8
AM_6
100
AcDbText
 10
7.549049999999999
 20
-12.95095
 30
0.0
 40
0.5
  1
0.99000
100
AcDbAttributeDefinition
  3

  2
P1
 70
     8
280
     0
  0
ATTDEF
  5
176
330
152
100
AcDbEntity
  8
AM_6
100
AcDbText
 10
7.549049999999999
 20
-13.45095
 30
0.0
 40
0.5
  1
1.50000
100
AcDbAttributeDefinition
  3

  2
H1
 70
     8
280
     0
  0
ATTDEF
  5
177
330
152
100
AcDbEntity
  8
AM_6
100
AcDbText
 10
7.549049999999999
 20
-13.95095
 30
0.0
 40
0.5
  1
1.04000
100
AcDbAttributeDefinition
  3

  2
G1
 70
     8
280
     0
  0
ATTDEF
  5
178
330
152
100
AcDbEntity
  8
AM_6
100
AcDbText
 10
7.549049999999999
 20
-14.45095
 30
0.0
 40
0.5
  1
0.10100
100
AcDbAttributeDefinition
  3

  2
CW
 70
     8
280
     0
  0
ATTDEF
  5
179
330
152
100
AcDbEntity
  8
AM_6
100
AcDbText
 10
7.549049999999999
 20
-14.95095
 30
0.0
 40
0.5
  1
4.28000
100
AcDbAttributeDefinition
  3

  2
L1
 70
     8
280
     0
  0
ATTDEF
  5
17A
330
152
100
AcDbEntity
  8
AM_6
100
AcDbText
 10
7.549049999999999
 20
-15.45095
 30
0.0
 40
0.5
  1
baldor
100
AcDbAttributeDefinition
  3

  2
COMPANY
 70
     8
280
     0
  0
CIRCLE
  5
17B
330
152
100
AcDbEntity
  8
AM_9
100
AcDbCircle
 10
0.0
 20
0.0
 30
0.0
 40
1.734375
  0
CIRCLE
  5
17C
330
152
100
AcDbEntity
  8
AM_9
100
AcDbCircle
 10
0.0
 20
0.0
 30
0.0
 40
2.3125
  0
CIRCLE
  5
17D
330
152
100
AcDbEntity
  8
AM_9
100
AcDbCircle
 10
0.0
 20
0.0
 30
0.0
 40
2.239971506979639
  0
CIRCLE
  5
17E
330
152
100
AcDbEntity
  8
AM_9
100
AcDbCircle
 10
0.0
 20
0.0
 30
0.0
 40
2.35905
  0
CIRCLE
  5
17F
330
152
100
AcDbEntity
  8
AM_9
100
AcDbCircle
 10
0.0
 20
0.0
 30
0.0
 40
2.50905
  0
CIRCLE
  5
180
330
152
100
AcDbEntity
  8
AM_9
100
AcDbCircle
 10
0.0
 20
0.0
 30
0.0
 40
2.494987500000001
  0
CIRCLE
  5
181
330
152
100
AcDbEntity
  8
AM_9
100
AcDbCircle
 10
0.0
 20
-1.816840277777778
 30
0.0
 40
0.0724499999999999
  0
CIRCLE
  5
182
330
152
100
AcDbEntity
  8
AM_9
100
AcDbCircle
 10
0.0
 20
1.816840277777778
 30
0.0
 40
0.0724499999999999
  0
LINE
  5
183
330
152
100
AcDbEntity
  8
AM_9
100
AcDbLine
 10
1.145512985522207
 20
1.499066376115481
 30
0.0
 11
1.326070602335429
 21
1.679623992928702
 31
0.0
  0
LINE
  5
184
330
152
100
AcDbEntity
  8
AM_9
100
AcDbLine
 10
-1.326070602335428
 20
1.679623992928702
 30
0.0
 11
-1.145512985522207
 21
1.499066376115481
 31
0.0
  0
LINE
  5
185
330
152
100
AcDbEntity
  8
AM_9
100
AcDbLine
 10
-1.377828849069413
 20
1.266750512568275
 30
0.0
 11
-1.49906637611548
 21
1.145512985522207
 31
0.0
  0
LINE
  5
186
330
152
100
AcDbEntity
  8
AM_9
100
AcDbLine
 10
-1.145512985522207
 20
1.499066376115481
 30
0.0
 11
-1.266750512568274
 21
1.377828849069414
 31
0.0
  0
LINE
  5
187
330
152
100
AcDbEntity
  8
AM_9
100
AcDbLine
 10
-1.49906637611548
 20
1.145512985522207
 30
0.0
 11
-1.679623992928702
 21
1.326070602335429
 31
0.0
  0
LINE
  5
188
330
152
100
AcDbEntity
  8
AM_9
100
AcDbLine
 10
-1.679623992928702
 20
-1.326070602335428
 30
0.0
 11
-1.499066376115481
 21
-1.145512985522207
 31
0.0
  0
LINE
  5
189
330
152
100
AcDbEntity
  8
AM_9
100
AcDbLine
 10
-1.266750512568274
 20
-1.377828849069414
 30
0.0
 11
-1.145512985522207
 21
-1.499066376115481
 31
0.0
  0
LINE
  5
18A
330
152
100
AcDbEntity
  8
AM_9
100
AcDbLine
 10
-1.499066376115481
 20
-1.145512985522207
 30
0.0
 11
-1.377828849069413
 21
-1.266750512568275
 31
0.0
  0
LINE
  5
18B
330
152
100
AcDbEntity
  8
AM_9
100
AcDbLine
 10
-1.145512985522207
 20
-1.499066376115481
 30
0.0
 11
-1.326070602335429
 21
-1.679623992928702
 31
0.0
  0
LINE
  5
18C
330
152
100
AcDbEntity
  8
AM_9
100
AcDbLine
 10
1.326070602335428
 20
-1.679623992928702
 30
0.0
 11
1.145512985522207
 21
-1.499066376115481
 31
0.0
  0
LINE
  5
18D
330
152
100
AcDbEntity
  8
AM_9
100
AcDbLine
 10
1.377828849069414
 20
-1.266750512568274
 30
0.0
 11
1.499066376115481
 21
-1.145512985522207
 31
0.0
  0
LINE
  5
18E
330
152
100
AcDbEntity
  8
AM_9
100
AcDbLine
 10
1.145512985522207
 20
-1.499066376115481
 30
0.0
 11
1.266750512568275
 21
-1.377828849069413
 31
0.0
  0
LINE
  5
18F
330
152
100
AcDbEntity
  8
AM_9
100
AcDbLine
 10
1.499066376115481
 20
-1.145512985522207
 30
0.0
 11
1.679623992928702
 21
-1.326070602335428
 31
0.0
  0
LINE
  5
190
330
152
100
AcDbEntity
  8
AM_9
100
AcDbLine
 10
1.679623992928702
 20
1.326070602335428
 30
0.0
 11
1.499066376115481
 21
1.145512985522207
 31
0.0
  0
LINE
  5
191
330
152
100
AcDbEntity
  8
AM_9
100
AcDbLine
 10
1.266750512568274
 20
1.377828849069413
 30
0.0
 11
1.145512985522207
 21
1.499066376115481
 31
0.0
  0
LINE
  5
192
330
152
100
AcDbEntity
  8
AM_9
100
AcDbLine
 10
1.499066376115481
 20
1.145512985522207
 30
0.0
 11
1.377828849069413
 21
1.266750512568274
 31
0.0
  0
ARC
  5
193
330
152
100
AcDbEntity
  8
AM_9
100
AcDbCircle
 10
0.0000000000000164
 20
-0.0000000000000406
 30
0.0
 40
1.418205804749384
100
AcDbArc
 50
107.4434150956223
 51
117.5565849043777
  0
CIRCLE
  5
194
330
152
100
AcDbEntity
  8
AM_9
100
AcDbCircle
 10
0.0000000000000004
 20
-0.0000000000000027
 30
0.0
 40
2.153368966601197
  0
CIRCLE
  5
195
330
152
100
AcDbEntity
  8
AM_4
100
AcDbCircle
 10
0.0
 20
0.0
 30
0.0
 40
2.549049999999999
  0
CIRCLE
  5
196
330
152
100
AcDbEntity
  8
AM_4
100
AcDbCircle
 10
0.0
 20
0.0
 30
0.0
 40
2.213624573384518
  0
LINE
  5
197
330
152
100
AcDbEntity
  8
AM_4
100
AcDbLine
 10
1.326515590093168
 20
1.680068980686441
 30
0.0
 11
1.331983616199923
 21
1.685537006793197
 31
0.0
  0
LINE
  5
198
330
152
100
AcDbEntity
  8
AM_4
100
AcDbLine
 10
-1.680068980686441
 20
1.326515590093168
 30
0.0
 11
-1.685537006793197
 21
1.331983616199924
 31
0.0
  0
LINE
  5
199
330
152
100
AcDbEntity
  8
AM_4
100
AcDbLine
 10
-1.326515590093168
 20
-1.680068980686441
 30
0.0
 11
-1.331983616199923
 21
-1.685537006793197
 31
0.0
  0
LINE
  5
19A
330
152
100
AcDbEntity
  8
AM_4
100
AcDbLine
 10
1.680068980686441
 20
-1.326515590093167
 30
0.0
 11
1.685537006793197
 21
-1.331983616199923
 31
0.0
  0
LINE
  5
19B
330
152
100
AcDbEntity
  8
AM_4
100
AcDbLine
 10
-1.331983616199923
 20
1.685537006793197
 30
0.0
 11
-1.326515590093167
 21
1.680068980686441
 31
0.0
  0
CIRCLE
  5
19C
330
152
100
AcDbEntity
  8
AM_4
100
AcDbCircle
 10
0.0
 20
0.0
 30
0.0
 40
2.163632188626698
  0
ARC
  5
19D
330
152
100
AcDbEntity
  8
AM_4
100
AcDbCircle
 10
-0.0000000000000311
 20
0.0000000000000311
 30
0.0
 40
2.148305228568459
100
AcDbArc
 50
308.3173029423373
 51
321.6826970576627
  0
LINE
  5
19E
330
152
100
AcDbEntity
  8
AM_4
100
AcDbLine
 10
1.331983616199923
 20
-1.685537006793197
 30
0.0
 11
1.326515590093167
 21
-1.680068980686441
 31
0.0
  0
ARC
  5
19F
330
152
100
AcDbEntity
  8
AM_4
100
AcDbCircle
 10
0.0000000000000373
 20
0.0000000000000384
 30
0.0
 40
2.148305228568469
100
AcDbArc
 50
218.3173029423374
 51
231.6826970576626
  0
LINE
  5
1A0
330
152
100
AcDbEntity
  8
AM_4
100
AcDbLine
 10
-1.685537006793197
 20
-1.331983616199923
 30
0.0
 11
-1.680068980686441
 21
-1.326515590093167
 31
0.0
  0
ARC
  5
1A1
330
152
100
AcDbEntity
  8
AM_4
100
AcDbCircle
 10
0.0000000000000038
 20
-0.0000000000000044
 30
0.0
 40
2.148305228568422
100
AcDbArc
 50
128.3173029423372
 51
141.6826970576628
  0
ARC
  5
1A2
330
152
100
AcDbEntity
  8
AM_4
100
AcDbCircle
 10
-0.0000000000000382
 20
-0.0000000000000395
 30
0.0
 40
2.148305228568471
100
AcDbArc
 50
38.31730294233738
 51
51.68269705766266
  0
LINE
  5
1A3
330
152
100
AcDbEntity
  8
AM_4
100
AcDbLine
 10
1.685537006793197
 20
1.331983616199923
 30
0.0
 11
1.680068980686441
 21
1.326515590093167
 31
0.0
  0
ARC
  5
1A4
330
152
100
AcDbEntity
  8
AM_4
100
AcDbCircle
 10
-0.0000000000000001
 20
-0.0000000000000004
 30
0.0
 40
2.140625
100
AcDbArc
 50
51.70678344424977
 51
128.2932165557502
  0
LINE
  5
1A5
330
152
100
AcDbEntity
  8
AM_4
100
AcDbLine
 10
-1.266750512568274
 20
1.377828849069414
 30
0.0
 11
-1.377828849069413
 21
1.266750512568275
 31
0.0
  0
ARC
  5
1A6
330
152
100
AcDbEntity
  8
AM_4
100
AcDbCircle
 10
0.0000000000000013
 20
0.0000000000000001
 30
0.0
 40
2.140625000000001
100
AcDbArc
 50
141.7067834442498
 51
218.2932165557502
  0
LINE
  5
1A7
330
152
100
AcDbEntity
  8
AM_4
100
AcDbLine
 10
-1.377828849069413
 20
-1.266750512568275
 30
0.0
 11
-1.266750512568274
 21
-1.377828849069414
 31
0.0
  0
ARC
  5
1A8
330
152
100
AcDbEntity
  8
AM_4
100
AcDbCircle
 10
0.0000000000000002
 20
0.0000000000000007
 30
0.0
 40
2.140625000000001
100
AcDbArc
 50
231.7067834442498
 51
308.2932165557502
  0
LINE
  5
1A9
330
152
100
AcDbEntity
  8
AM_4
100
AcDbLine
 10
1.266750512568275
 20
-1.377828849069413
 30
0.0
 11
1.377828849069414
 21
-1.266750512568274
 31
0.0
  0
ARC
  5
1AA
330
152
100
AcDbEntity
  8
AM_4
100
AcDbCircle
 10
-0.0000000000000011
 20
0.0
 30
0.0
 40
2.140625000000001
100
AcDbArc
 50
321.7067834442498
 51
38.29321655575019
  0
LINE
  5
1AB
330
152
100
AcDbEntity
  8
AM_4
100
AcDbLine
 10
1.377828849069413
 20
1.266750512568274
 30
0.0
 11
1.266750512568274
 21
1.377828849069413
 31
0.0
  0
LINE
  5
1AC
330
152
100
AcDbEntity
  8
AM_4
100
AcDbLine
 10
-0.3965161828574326
 20
1.283915487573918
 30
0.0
 11
-0.4236929014929762
 21
1.349525890284645
 31
0.0
  0
ARC
  5
1AD
330
152
100
AcDbEntity
  8
AM_4
100
AcDbCircle
 10
-0.0000000000000002
 20
0.0
 30
0.0
 40
1.34375
100
AcDbArc
 50
117.8375568494149
 51
107.1624431505851
  0
LINE
  5
1AE
330
152
100
AcDbEntity
  8
AM_4
100
AcDbLine
 10
-0.6546627846207977
 20
1.253855032193372
 30
0.0
 11
-0.6274860659852542
 21
1.188244629482645
 31
0.0
  0
ARC
  5
1AF
330
152
100
AcDbEntity
  8
AM_4
100
AcDbCircle
 10
0.0000000000000021
 20
0.000000000000001
 30
0.0
 40
1.414473684210527
100
AcDbArc
 50
117.569961702673
 51
107.4300382973272
  0
CIRCLE
  5
1B0
330
152
100
AcDbEntity
  8
AM_5
100
AcDbCircle
 10
0.0
 20
1.816840277777778
 30
0.0
 40
0.0950000000000001
  0
CIRCLE
  5
1B1
330
152
100
AcDbEntity
  8
AM_5
100
AcDbCircle
 10
0.0
 20
-1.816840277777778
 30
0.0
 40
0.0950000000000001
  0
ENDBLK
  5
155
330
152
100
AcDbEntity
  8
0
100
AcDbBlockEnd
  0
BLOCK
  5
1B4
330
1B2
100
AcDbEntity
  8
0
100
AcDbBlockBegin
  2
7_071241H_0_in_071241_0
 70
     2
 10
0.0
 20
0.0
 30
0.0
  3
7_071241H_0_in_071241_0
  1

  0
ATTDEF
  5
1B6
330
1B2
100
AcDbEntity
  8
AM_6
100
AcDbText
 10
11.0
 20
3.214686298847837
 30
0.0
 40
0.5
  1
EP4B-IP -(Labyrinth Seal)-Housing -Inch
100
AcDbAttributeDefinition
  3

  2
NN
 70
     8
280
     0
  0
ATTDEF
  5
1B7
330
1B2
100
AcDbEntity
  8
AM_6
100
AcDbText
 10
11.0
 20
2.714686298847837
 30
0.0
 40
0.5
  1
Imperial/E 4 Bolt Piliow Block Bearings
100
AcDbAttributeDefinition
  3

  2
NT
 70
     8
280
     0
  0
ATTDEF
  5
1B8
330
1B2
100
AcDbEntity
  8
AM_6
100
AcDbText
 10
11.0
 20
2.214686298847837
 30
0.0
 40
0.5
  1
071241H
100
AcDbAttributeDefinition
  3

  2
NB
 70
     8
280
     0
  0
ATTDEF
  5
1B9
330
1B2
100
AcDbEntity
  8
AM_6
100
AcDbText
 10
11.0
 20
1.714686298847837
 30
0.0
 40
0.5
  1
$PN.H
100
AcDbAttributeDefinition
  3

  2
NBSYN
 70
     8
280
     0
  0
ATTDEF
  5
1BA
330
1B2
100
AcDbEntity
  8
AM_6
100
AcDbText
 10
11.0
 20
1.214686298847837
 30
0.0
 40
0.5
  1
071241
100
AcDbAttributeDefinition
  3

  2
LINA
 70
     8
280
     0
  0
ATTDEF
  5
1BB
330
1B2
100
AcDbEntity
  8
AM_6
100
AcDbText
 10
11.0
 20
0.7146862988478366
 30
0.0
 40
0.5
  1
2-11/16
100
AcDbAttributeDefinition
  3

  2
SS
 70
     8
280
     0
  0
ATTDEF
  5
1BC
330
1B2
100
AcDbEntity
  8
AM_6
100
AcDbText
 10
11.0
 20
0.2146862988478366
 30
0.0
 40
0.5
  1
2.687500
100
AcDbAttributeDefinition
  3

  2
SS1
 70
     8
280
     0
  0
ATTDEF
  5
1BD
330
1B2
100
AcDbEntity
  8
AM_6
100
AcDbText
 10
11.0
 20
-0.2853137011521634
 30
0.0
 40
0.5
  1
Non-Expansion
100
AcDbAttributeDefinition
  3

  2
TYPE
 70
     8
280
     0
  0
ATTDEF
  5
1BE
330
1B2
100
AcDbEntity
  8
AM_6
100
AcDbText
 10
11.0
 20
-0.7853137011521634
 30
0.0
 40
0.5
  1
071241
100
AcDbAttributeDefinition
  3

  2
PN1
 70
     8
280
     0
  0
ATTDEF
  5
1BF
330
1B2
100
AcDbEntity
  8
AM_6
100
AcDbText
 10
11.0
 20
-1.285313701152163
 30
0.0
 40
0.5
  1
071258
100
AcDbAttributeDefinition
  3

  2
PN2
 70
     8
280
     0
  0
ATTDEF
  5
1C0
330
1B2
100
AcDbEntity
  8
AM_6
100
AcDbText
 10
11.0
 20
-1.785313701152163
 30
0.0
 40
0.5
  1
EP4B-IP-211L
100
AcDbAttributeDefinition
  3

  2
DESCRIPTION
 70
     8
280
     0
  0
ATTDEF
  5
1C1
330
1B2
100
AcDbEntity
  8
AM_6
100
AcDbText
 10
11.0
 20
-2.285313701152163
 30
0.0
 40
0.5
  1
Non-Expansion Type
100
AcDbAttributeDefinition
  3

  2
EF
 70
     8
280
     0
  0
ATTDEF
  5
1C2
330
1B2
100
AcDbEntity
  8
AM_6
100
AcDbText
 10
11.0
 20
-2.785313701152163
 30
0.0
 40
0.5
  1
1
100
AcDbAttributeDefinition
  3

  2
EF1
 70
     8
280
     0
  0
ATTDEF
  5
1C3
330
1B2
100
AcDbEntity
  8
AM_6
100
AcDbText
 10
11.0
 20
-3.285313701152163
 30
0.0
 40
0.5
  1
Labyrinth Seal
100
AcDbAttributeDefinition
  3

  2
ST
 70
     8
280
     0
  0
ATTDEF
  5
1C4
330
1B2
100
AcDbEntity
  8
AM_6
100
AcDbText
 10
11.0
 20
-3.785313701152163
 30
0.0
 40
0.5
  1
1
100
AcDbAttributeDefinition
  3

  2
ST1
 70
     8
280
     0
  0
ATTDEF
  5
1C5
330
1B2
100
AcDbEntity
  8
AM_6
100
AcDbText
 10
11.0
 20
-4.285313701152163
 30
0.0
 40
0.5
  1
3.5
100
AcDbAttributeDefinition
  3

  2
A
 70
     8
280
     0
  0
ATTDEF
  5
1C6
330
1B2
100
AcDbEntity
  8
AM_6
100
AcDbText
 10
11.0
 20
-4.785313701152163
 30
0.0
 40
0.5
  1
3.5000000
100
AcDbAttributeDefinition
  3

  2
A1
 70
     8
280
     0
  0
ATTDEF
  5
1C7
330
1B2
100
AcDbEntity
  8
AM_6
100
AcDbText
 10
11.0
 20
-5.285313701152163
 30
0.0
 40
0.5
  1
12
100
AcDbAttributeDefinition
  3

  2
B
 70
     8
280
     0
  0
ATTDEF
  5
1C8
330
1B2
100
AcDbEntity
  8
AM_6
100
AcDbText
 10
11.0
 20
-5.785313701152163
 30
0.0
 40
0.5
  1
12.0000000
100
AcDbAttributeDefinition
  3

  2
B1
 70
     8
280
     0
  0
ATTDEF
  5
1C9
330
1B2
100
AcDbEntity
  8
AM_6
100
AcDbText
 10
11.0
 20
-6.285313701152163
 30
0.0
 40
0.5
  1
4
100
AcDbAttributeDefinition
  3

  2
C
 70
     8
280
     0
  0
ATTDEF
  5
1CA
330
1B2
100
AcDbEntity
  8
AM_6
100
AcDbText
 10
11.0
 20
-6.785313701152163
 30
0.0
 40
0.5
  1
4.0000000
100
AcDbAttributeDefinition
  3

  2
C1
 70
     8
280
     0
  0
ATTDEF
  5
1CB
330
1B2
100
AcDbEntity
  8
AM_6
100
AcDbText
 10
11.0
 20
-7.285313701152163
 30
0.0
 40
0.5
  1
9.18
100
AcDbAttributeDefinition
  3

  2
DMIN
 70
     8
280
     0
  0
ATTDEF
  5
1CC
330
1B2
100
AcDbEntity
  8
AM_6
100
AcDbText
 10
11.0
 20
-7.785313701152163
 30
0.0
 40
0.5
  1
9.1800000
100
AcDbAttributeDefinition
  3

  2
DMIN1
 70
     8
280
     0
  0
ATTDEF
  5
1CD
330
1B2
100
AcDbEntity
  8
AM_6
100
AcDbText
 10
11.0
 20
-8.285313701152162
 30
0.0
 40
0.5
  1
9.82
100
AcDbAttributeDefinition
  3

  2
DMAX
 70
     8
280
     0
  0
ATTDEF
  5
1CE
330
1B2
100
AcDbEntity
  8
AM_6
100
AcDbText
 10
11.0
 20
-8.785313701152162
 30
0.0
 40
0.5
  1
9.8200000
100
AcDbAttributeDefinition
  3

  2
DMAX1
 70
     8
280
     0
  0
ATTDEF
  5
1CF
330
1B2
100
AcDbEntity
  8
AM_6
100
AcDbText
 10
11.0
 20
-9.285313701152162
 30
0.0
 40
0.5
  1
2.13
100
AcDbAttributeDefinition
  3

  2
E
 70
     8
280
     0
  0
ATTDEF
  5
1D0
330
1B2
100
AcDbEntity
  8
AM_6
100
AcDbText
 10
11.0
 20
-9.785313701152162
 30
0.0
 40
0.5
  1
2.130000
100
AcDbAttributeDefinition
  3

  2
E1
 70
     8
280
     0
  0
ATTDEF
  5
1D1
330
1B2
100
AcDbEntity
  8
AM_6
100
AcDbText
 10
11.0
 20
-10.28531370115216
 30
0.0
 40
0.5
  1
5/8
100
AcDbAttributeDefinition
  3

  2
F
 70
     8
280
     0
  0
ATTDEF
  5
1D2
330
1B2
100
AcDbEntity
  8
AM_6
100
AcDbText
 10
11.0
 20
-10.78531370115216
 30
0.0
 40
0.5
  1
0.6250000
100
AcDbAttributeDefinition
  3

  2
F1
 70
     8
280
     0
  0
ATTDEF
  5
1D3
330
1B2
100
AcDbEntity
  8
AM_6
100
AcDbText
 10
11.0
 20
-11.28531370115216
 30
0.0
 40
0.5
  1
1
100
AcDbAttributeDefinition
  3

  2
G
 70
     8
280
     0
  0
ATTDEF
  5
1D4
330
1B2
100
AcDbEntity
  8
AM_6
100
AcDbText
 10
11.0
 20
-11.78531370115216
 30
0.0
 40
0.5
  1
1.000000
100
AcDbAttributeDefinition
  3

  2
G1
 70
     8
280
     0
  0
ATTDEF
  5
1D5
330
1B2
100
AcDbEntity
  8
AM_6
100
AcDbText
 10
11.0
 20
-12.28531370115216
 30
0.0
 40
0.5
  1
1.88
100
AcDbAttributeDefinition
  3

  2
H
 70
     8
280
     0
  0
ATTDEF
  5
1D6
330
1B2
100
AcDbEntity
  8
AM_6
100
AcDbText
 10
11.0
 20
-12.78531370115216
 30
0.0
 40
0.5
  1
1.8800000
100
AcDbAttributeDefinition
  3

  2
H1
 70
     8
280
     0
  0
ATTDEF
  5
1D7
330
1B2
100
AcDbEntity
  8
AM_6
100
AcDbText
 10
11.0
 20
-13.28531370115216
 30
0.0
 40
0.5
  1
6.33
100
AcDbAttributeDefinition
  3

  2
J
 70
     8
280
     0
  0
ATTDEF
  5
1D8
330
1B2
100
AcDbEntity
  8
AM_6
100
AcDbText
 10
11.0
 20
-13.78531370115216
 30
0.0
 40
0.5
  1
6.330000
100
AcDbAttributeDefinition
  3

  2
J1
 70
     8
280
     0
  0
ATTDEF
  5
1D9
330
1B2
100
AcDbEntity
  8
AM_6
100
AcDbText
 10
11.0
 20
-14.28531370115216
 30
0.0
 40
0.5
  1
4.28
100
AcDbAttributeDefinition
  3

  2
L
 70
     8
280
     0
  0
ATTDEF
  5
1DA
330
1B2
100
AcDbEntity
  8
AM_6
100
AcDbText
 10
11.0
 20
-14.78531370115216
 30
0.0
 40
0.5
  1
4.2800000
100
AcDbAttributeDefinition
  3

  2
L1
 70
     8
280
     0
  0
ATTDEF
  5
1DB
330
1B2
100
AcDbEntity
  8
AM_6
100
AcDbText
 10
11.0
 20
-15.28531370115216
 30
0.0
 40
0.5
  1
3.125
100
AcDbAttributeDefinition
  3

  2
M
 70
     8
280
     0
  0
ATTDEF
  5
1DC
330
1B2
100
AcDbEntity
  8
AM_6
100
AcDbText
 10
11.0
 20
-15.78531370115216
 30
0.0
 40
0.5
  1
3.125000
100
AcDbAttributeDefinition
  3

  2
M1
 70
     8
280
     0
  0
ATTDEF
  5
1DD
330
1B2
100
AcDbEntity
  8
AM_6
100
AcDbText
 10
11.0
 20
-16.28531370115216
 30
0.0
 40
0.5
  1
1.35
100
AcDbAttributeDefinition
  3

  2
R
 70
     8
280
     0
  0
ATTDEF
  5
1DE
330
1B2
100
AcDbEntity
  8
AM_6
100
AcDbText
 10
11.0
 20
-16.78531370115216
 30
0.0
 40
0.5
  1
1.350000
100
AcDbAttributeDefinition
  3

  2
R1
 70
     8
280
     0
  0
ATTDEF
  5
1DF
330
1B2
100
AcDbEntity
  8
AM_6
100
AcDbText
 10
11.0
 20
-17.28531370115216
 30
0.0
 40
0.5
  1
2.15
100
AcDbAttributeDefinition
  3

  2
S
 70
     8
280
     0
  0
ATTDEF
  5
1E0
330
1B2
100
AcDbEntity
  8
AM_6
100
AcDbText
 10
11.0
 20
-17.78531370115216
 30
0.0
 40
0.5
  1
2.150000
100
AcDbAttributeDefinition
  3

  2
S1
 70
     8
280
     0
  0
ATTDEF
  5
1E1
330
1B2
100
AcDbEntity
  8
AM_6
100
AcDbText
 10
11.0
 20
-18.28531370115216
 30
0.0
 40
0.5
  1
0.25
100
AcDbAttributeDefinition
  3

  2
X
 70
     8
280
     0
  0
ATTDEF
  5
1E2
330
1B2
100
AcDbEntity
  8
AM_6
100
AcDbText
 10
11.0
 20
-18.78531370115216
 30
0.0
 40
0.5
  1
0.250000
100
AcDbAttributeDefinition
  3

  2
X1
 70
     8
280
     0
  0
ATTDEF
  5
1E3
330
1B2
100
AcDbEntity
  8
AM_6
100
AcDbText
 10
11.0
 20
-19.28531370115216
 30
0.0
 40
0.5
  1
0.025
100
AcDbAttributeDefinition
  3

  2
Y
 70
     8
280
     0
  0
ATTDEF
  5
1E4
330
1B2
100
AcDbEntity
  8
AM_6
100
AcDbText
 10
11.0
 20
-19.78531370115216
 30
0.0
 40
0.5
  1
3.47
100
AcDbAttributeDefinition
  3

  2
Z
 70
     8
280
     0
  0
ATTDEF
  5
1E5
330
1B2
100
AcDbEntity
  8
AM_6
100
AcDbText
 10
11.0
 20
-20.28531370115216
 30
0.0
 40
0.5
  1
3.470000
100
AcDbAttributeDefinition
  3

  2
Z1
 70
     8
280
     0
  0
ATTDEF
  5
1E6
330
1B2
100
AcDbEntity
  8
AM_6
100
AcDbText
 10
11.0
 20
-20.78531370115216
 30
0.0
 40
0.5
  1
5.1181
100
AcDbAttributeDefinition
  3

  2
BORE
 70
     8
280
     0
  0
ATTDEF
  5
1E7
330
1B2
100
AcDbEntity
  8
AM_6
100
AcDbText
 10
11.0
 20
-21.28531370115216
 30
0.0
 40
0.5
  1
0.07000
100
AcDbAttributeDefinition
  3

  2
CR
 70
     8
280
     0
  0
ATTDEF
  5
1E8
330
1B2
100
AcDbEntity
  8
AM_6
100
AcDbText
 10
11.0
 20
-21.78531370115216
 30
0.0
 40
0.5
  1
baldor
100
AcDbAttributeDefinition
  3

  2
COMPANY
 70
     8
280
     0
  0
ARC
  5
1E9
330
1B2
100
AcDbEntity
  8
AM_9
100
AcDbCircle
 10
-3.261400000000002
 20
-1.150999999999998
 30
0.0
 40
0.0940000000000007
100
AcDbArc
 50
270.0
 51
0.0
  0
LINE
  5
1EA
330
1B2
100
AcDbEntity
  8
AM_9
100
AcDbLine
 10
3.1674
 20
0.4894918181134378
 30
0.0
 11
3.1674
 21
-1.150999999999999
 31
0.0
  0
LINE
  5
1EB
330
1B2
100
AcDbEntity
  8
AM_9
100
AcDbLine
 10
3.261400000000001
 20
-1.245
 30
0.0
 11
3.558222868817172
 21
-1.245
 31
0.0
  0
ARC
  5
1EC
330
1B2
100
AcDbEntity
  8
AM_9
100
AcDbCircle
 10
3.261400000000001
 20
-1.151
 30
0.0
 40
0.0940000000000007
100
AcDbArc
 50
179.9999991462263
 51
270.0
  0
LINE
  5
1ED
330
1B2
100
AcDbEntity
  8
AM_9
100
AcDbLine
 10
-3.558222868817172
 20
-1.244999999999998
 30
0.0
 11
-3.2614
 21
-1.244999999999998
 31
0.0
  0
LINE
  5
1EE
330
1B2
100
AcDbEntity
  8
AM_9
100
AcDbLine
 10
-3.167400000000001
 20
-1.150999999999998
 30
0.0
 11
-3.167400000000001
 21
0.4894918181134381
 31
0.0
  0
ARC
  5
1EF
330
1B2
100
AcDbEntity
  8
AM_9
100
AcDbCircle
 10
-2.574076921927553
 20
-2.37300000000001
 30
0.0
 40
0.3760000000000107
100
AcDbArc
 50
42.67245970814232
 51
90.0
  0
LINE
  5
1F0
330
1B2
100
AcDbEntity
  8
AM_9
100
AcDbLine
 10
-2.574076921927552
 20
-1.996999999999999
 30
0.0
 11
-5.25
 21
-1.997
 31
0.0
  0
LINE
  5
1F1
330
1B2
100
AcDbEntity
  8
AM_9
100
AcDbLine
 10
-4.91
 20
-1.245
 30
0.0
 11
-4.91
 21
-3.125
 31
0.0
  0
LINE
  5
1F2
330
1B2
100
AcDbEntity
  8
AM_9
100
AcDbLine
 10
-5.25
 20
-1.245
 30
0.0
 11
-5.25
 21
-3.125
 31
0.0
  0
ARC
  5
1F3
330
1B2
100
AcDbEntity
  8
AM_9
100
AcDbCircle
 10
-0.0000000000000169
 20
0.000000000000024
 30
0.0
 40
3.125000000000029
100
AcDbArc
 50
287.5056593047691
 51
317.3275405284625
  0
LINE
  5
1F4
330
1B2
100
AcDbEntity
  8
AM_9
100
AcDbLine
 10
4.589999999999999
 20
-1.245
 30
0.0
 11
4.589999999999999
 21
-1.997
 31
0.0
  0
LINE
  5
1F5
330
1B2
100
AcDbEntity
  8
AM_9
100
AcDbLine
 10
4.25
 20
-1.245
 30
0.0
 11
4.25
 21
-1.997
 31
0.0
  0
ARC
  5
1F6
330
1B2
100
AcDbEntity
  8
AM_9
100
AcDbCircle
 10
0.0000000000000078
 20
0.0000000000000129
 30
0.0
 40
3.125000000000015
100
AcDbArc
 50
222.6724597081422
 51
252.494340695231
  0
LINE
  5
1F7
330
1B2
100
AcDbEntity
  8
AM_9
100
AcDbLine
 10
-0.9399999999999984
 20
-3.125
 30
0.0
 11
-0.94
 21
-2.980272638534938
 31
0.0
  0
LINE
  5
1F8
330
1B2
100
AcDbEntity
  8
AM_9
100
AcDbLine
 10
0.9399999999999988
 20
-2.980272638534939
 30
0.0
 11
0.9399999999999995
 21
-3.125
 31
0.0
  0
LINE
  5
1F9
330
1B2
100
AcDbEntity
  8
AM_9
100
AcDbLine
 10
5.25
 20
-1.997
 30
0.0
 11
2.574076921927547
 21
-1.997
 31
0.0
  0
LINE
  5
1FA
330
1B2
100
AcDbEntity
  8
AM_9
100
AcDbLine
 10
-4.59
 20
-1.245
 30
0.0
 11
-4.59
 21
-1.997
 31
0.0
  0
LINE
  5
1FB
330
1B2
100
AcDbEntity
  8
AM_9
100
AcDbLine
 10
-4.25
 20
-1.997
 30
0.0
 11
-4.25
 21
-1.245
 31
0.0
  0
LINE
  5
1FC
330
1B2
100
AcDbEntity
  8
AM_9
100
AcDbLine
 10
4.91
 20
-3.125
 30
0.0
 11
4.91
 21
-1.245
 31
0.0
  0
LINE
  5
1FD
330
1B2
100
AcDbEntity
  8
AM_9
100
AcDbLine
 10
5.25
 20
-1.245
 30
0.0
 11
5.25
 21
-3.125
 31
0.0
  0
ARC
  5
1FE
330
1B2
100
AcDbEntity
  8
AM_9
100
AcDbCircle
 10
2.574076921927548
 20
-2.373000000000001
 30
0.0
 40
0.3760000000000006
100
AcDbArc
 50
90.0
 51
137.327538325396
  0
LINE
  5
1FF
330
1B2
100
AcDbEntity
  8
AM_7
100
AcDbLine
 10
-2.6870025
 20
0.0
 30
0.0
 11
2.6870025
 21
0.0
 31
0.0
  0
LINE
  5
200
330
1B2
100
AcDbEntity
  8
AM_7
100
AcDbLine
 10
0.0
 20
-2.6870025
 30
0.0
 11
0.0
 21
2.6870025
 31
0.0
  0
LINE
  5
201
330
1B2
100
AcDbEntity
  8
AM_7
100
AcDbLine
 10
-1.856
 20
3.214686298847837
 30
0.0
 11
-1.32387903873437
 21
2.293025758163375
 31
0.0
  0
LINE
  5
202
330
1B2
100
AcDbEntity
  8
AM_4
100
AcDbLine
 10
-1.998910161513775
 20
2.66221395950757
 30
0.0
 11
-1.306089839767739
 21
3.062213958767687
 31
0.0
  0
ARC
  5
203
330
1B2
100
AcDbEntity
  8
AM_4
100
AcDbCircle
 10
-1.256089838486225
 20
2.975611419129125
 30
0.0
 40
0.1000000000000015
100
AcDbArc
 50
30.00000000000055
 51
119.9999999999993
  0
ARC
  5
204
330
1B2
100
AcDbEntity
  8
AM_4
100
AcDbCircle
 10
-1.948910161513774
 20
2.575611419129126
 30
0.0
 40
0.1000000000000013
100
AcDbArc
 50
120.0000000000008
 51
209.9999999999996
  0
LINE
  5
205
330
1B2
100
AcDbEntity
  8
AM_4
100
AcDbLine
 10
-2.035512701892219
 20
2.525611419129126
 30
0.0
 11
-1.169487298107781
 21
3.025611419129126
 31
0.0
  0
LINE
  5
206
330
1B2
100
AcDbEntity
  8
AM_4
100
AcDbLine
 10
-1.149988336028815
 20
2.991838226113499
 30
0.0
 11
-1.169487298107781
 21
3.025611419129126
 31
0.0
  0
LINE
  5
207
330
1B2
100
AcDbEntity
  8
AM_4
100
AcDbLine
 10
-2.035512701892219
 20
2.525611419129126
 30
0.0
 11
-2.015891803403134
 21
2.491627026055879
 31
0.0
  0
ARC
  5
208
330
1B2
100
AcDbEntity
  8
AM_4
100
AcDbCircle
 10
-3.558222868817156
 20
-1.057000000000004
 30
0.0
 40
0.1879999999999832
100
AcDbArc
 50
331.5033544395787
 51
352.6209243060337
  0
ARC
  5
209
330
1B2
100
AcDbEntity
  8
AM_4
100
AcDbCircle
 10
3.558222868817163
 20
-1.057000000000003
 30
0.0
 40
0.1879999999999909
100
AcDbArc
 50
187.3790756939665
 51
208.4966455604225
  0
LINE
  5
20A
330
1B2
100
AcDbEntity
  8
AM_4
100
AcDbLine
 10
-0.7590166666666667
 20
3.205
 30
0.0
 11
0.7590166666666667
 21
3.205
 31
0.0
  0
ARC
  5
20B
330
1B2
100
AcDbEntity
  8
AM_4
100
AcDbCircle
 10
-0.0000000000000036
 20
-0.0000000000000036
 30
0.0
 40
3.205000000000004
100
AcDbArc
 50
7.379075693966881
 51
74.56459308796607
  0
ARC
  5
20C
330
1B2
100
AcDbEntity
  8
AM_4
100
AcDbCircle
 10
0.0000000000000004
 20
-0.0000000000000013
 30
0.0
 40
3.205000000000001
100
AcDbArc
 50
105.4354069120339
 51
172.6209243060331
  0
ARC
  5
20D
330
1B2
100
AcDbEntity
  8
AM_4
100
AcDbCircle
 10
-0.7590166666666677
 20
3.111000000000001
 30
0.0
 40
0.093999999999999
100
AcDbArc
 50
90.0
 51
180.0
  0
ARC
  5
20E
330
1B2
100
AcDbEntity
  8
AM_4
100
AcDbCircle
 10
0.7590166666666671
 20
3.111
 30
0.0
 40
0.0939999999999995
100
AcDbArc
 50
0.0
 51
90.0
  0
LINE
  5
20F
330
1B2
100
AcDbEntity
  8
AM_4
100
AcDbLine
 10
-3.371779859972727
 20
-1.081145485147954
 30
0.0
 11
-3.178456613544933
 21
0.4116291483999631
 31
0.0
  0
LINE
  5
210
330
1B2
100
AcDbEntity
  8
AM_4
100
AcDbLine
 10
3.178456613544933
 20
0.4116291483999641
 30
0.0
 11
3.371779859972726
 21
-1.081145485147954
 31
0.0
  0
CIRCLE
  5
211
330
1B2
100
AcDbEntity
  8
AM_4
100
AcDbCircle
 10
0.0
 20
0.0
 30
0.0
 40
2.55905
  0
LINE
  5
212
330
1B2
100
AcDbEntity
  8
AM_4
100
AcDbLine
 10
0.8530166666666666
 20
3.111000000000002
 30
0.0
 11
0.8530166666666666
 21
3.089399224184031
 31
0.0
  0
LINE
  5
213
330
1B2
100
AcDbEntity
  8
AM_4
100
AcDbLine
 10
-0.8530166666666666
 20
3.089399224184031
 30
0.0
 11
-0.8530166666666666
 21
3.111
 31
0.0
  0
LINE
  5
214
330
1B2
100
AcDbEntity
  8
AM_4
100
AcDbLine
 10
5.899999999999999
 20
-2.185
 30
0.0
 11
5.899999999999999
 21
-1.26646740164809
 31
0.0
  0
LWPOLYLINE
  5
215
330
1B2
100
AcDbEntity
  8
AM_4
100
AcDbPolyline
 90
        6
 70
     0
 43
0.0
 10
5.89999999999988
 20
-1.266867522741575
 10
5.899109885574418
 20
-1.266399076127376
 10
5.890701302362127
 20
-1.262215965807651
 10
5.873446181128624
 20
-1.255325109188978
 10
5.847173511480126
 20
-1.248277730701108
 10
5.812000000000005
 20
-1.244999999999998
  0
LINE
  5
216
330
1B2
100
AcDbEntity
  8
AM_4
100
AcDbLine
 10
3.558222868817172
 20
-1.245
 30
0.0
 11
5.812000000000002
 21
-1.245
 31
0.0
  0
LWPOLYLINE
  5
217
330
1B2
100
AcDbEntity
  8
AM_4
100
AcDbPolyline
 90
       14
 70
     0
 43
0.0
 10
3.558222868817172
 20
-1.245
 10
3.541837589180612
 20
-1.244284603241248
 10
3.525577011415788
 20
-1.242143857566295
 10
3.509564888337898
 20
-1.238594055342345
 10
3.493923081871946
 20
-1.233662212707751
 10
3.478770635609921
 20
-1.22738586396289
 10
3.464222868817172
 20
-1.219812775911475
 10
3.450390498783175
 20
-1.211000584326331
 10
3.437378798196102
 20
-1.201016355306368
 10
3.425286793954101
 20
-1.189936074863071
 10
3.414206513510804
 20
-1.17784407062107
 10
3.404222284490841
 20
-1.164832370033997
 10
3.395410092905698
 20
-1.151
 10
3.393000000000001
 20
-1.146696173941947
  0
LINE
  5
218
330
1B2
100
AcDbEntity
  8
AM_4
100
AcDbLine
 10
3.393000000000001
 20
-1.146696173941946
 30
0.0
 11
3.393000000000001
 21
-3.125
 31
0.0
  0
LINE
  5
219
330
1B2
100
AcDbEntity
  8
AM_4
100
AcDbLine
 10
5.999999999999999
 20
-3.125
 30
0.0
 11
-5.999999999999999
 21
-3.125
 31
0.0
  0
LINE
  5
21A
330
1B2
100
AcDbEntity
  8
AM_4
100
AcDbLine
 10
5.542500000000003
 20
-2.185
 30
0.0
 11
5.999999999999999
 21
-2.185
 31
0.0
  0
LINE
  5
21B
330
1B2
100
AcDbEntity
  8
AM_4
100
AcDbLine
 10
5.999999999999999
 20
-2.185
 30
0.0
 11
5.999999999999999
 21
-3.125
 31
0.0
  0
LWPOLYLINE
  5
21C
330
1B2
100
AcDbEntity
  8
AM_4
100
AcDbPolyline
 90
        7
 70
     0
 43
0.0
 10
-5.812000000000001
 20
-1.245
 10
-5.84168468119214
 20
-1.247358356766266
 10
-5.865329338828702
 20
-1.252722487203496
 10
-5.882479968069559
 20
-1.258694844287851
 10
-5.893840704806804
 20
-1.263748414965394
 10
-5.89940699925415
 20
-1.266523117683129
 10
-5.899999999999882
 20
-1.266867522741575
  0
LINE
  5
21D
330
1B2
100
AcDbEntity
  8
AM_4
100
AcDbLine
 10
-5.900000000000001
 20
-1.266467401648091
 30
0.0
 11
-5.900000000000001
 21
-2.185
 31
0.0
  0
LINE
  5
21E
330
1B2
100
AcDbEntity
  8
AM_4
100
AcDbLine
 10
-5.999999999999999
 20
-2.185
 30
0.0
 11
-5.542500000000001
 21
-2.185
 31
0.0
  0
LINE
  5
21F
330
1B2
100
AcDbEntity
  8
AM_4
100
AcDbLine
 10
-5.542500000000001
 20
-2.185
 30
0.0
 11
-5.542500000000001
 21
-1.245
 31
0.0
  0
LINE
  5
220
330
1B2
100
AcDbEntity
  8
AM_4
100
AcDbLine
 10
5.542500000000003
 20
-2.185
 30
0.0
 11
5.542500000000003
 21
-1.245
 31
0.0
  0
LINE
  5
221
330
1B2
100
AcDbEntity
  8
AM_4
100
AcDbLine
 10
3.593
 20
-3.125
 30
0.0
 11
3.593
 21
-1.245000000000001
 31
0.0
  0
LINE
  5
222
330
1B2
100
AcDbEntity
  8
AM_4
100
AcDbLine
 10
5.600000000000001
 20
-2.185
 30
0.0
 11
5.6
 21
-3.125
 31
0.0
  0
LINE
  5
223
330
1B2
100
AcDbEntity
  8
AM_4
100
AcDbLine
 10
-5.999999999999999
 20
-2.185
 30
0.0
 11
-5.999999999999999
 21
-3.125
 31
0.0
  0
LINE
  5
224
330
1B2
100
AcDbEntity
  8
AM_4
100
AcDbLine
 10
-5.6
 20
-3.125
 30
0.0
 11
-5.6
 21
-2.185
 31
0.0
  0
LINE
  5
225
330
1B2
100
AcDbEntity
  8
AM_4
100
AcDbLine
 10
-3.392999999999998
 20
-1.146696173941941
 30
0.0
 11
-3.392999999999998
 21
-3.125
 31
0.0
  0
LWPOLYLINE
  5
226
330
1B2
100
AcDbEntity
  8
AM_4
100
AcDbPolyline
 90
       14
 70
     0
 43
0.0
 10
-3.392999999999998
 20
-1.146696173941941
 10
-3.401446259559529
 20
-1.160754974770736
 10
-3.411085683779814
 20
-1.174024137592559
 10
-3.421844910822096
 20
-1.186402676066197
 10
-3.433642056471983
 20
-1.197796382039499
 10
-3.446387337327767
 20
-1.2081185425303
 10
-3.459983754106326
 20
-1.217290599664575
 10
-3.474327829866234
 20
-1.225242748549293
 10
-3.489310397529769
 20
-1.231914468529801
 10
-3.504817430710288
 20
-1.237254983788553
 10
-3.520730911521885
 20
-1.24122364977974
 10
-3.536929728766763
 20
-1.243790262558822
 10
-3.553290599664574
 20
-1.244935288652787
 10
-3.558222868817172
 20
-1.245
  0
LINE
  5
227
330
1B2
100
AcDbEntity
  8
AM_4
100
AcDbLine
 10
-5.812000000000001
 20
-1.245
 30
0.0
 11
-3.558222868817172
 21
-1.245
 31
0.0
  0
LINE
  5
228
330
1B2
100
AcDbEntity
  8
AM_4
100
AcDbLine
 10
-3.592999999999998
 20
-1.245
 30
0.0
 11
-3.593
 21
-3.125
 31
0.0
  0
ENDBLK
  5
1B5
330
1B2
100
AcDbEntity
  8
0
100
AcDbBlockEnd
  0
ENDSEC
  0
SECTION
  2
ENTITIES
  0
INSERT
  5
6F
330
1F
100
AcDbEntity
  8
0
100
AcDbBlockReference
  2
1_071241_0
 10
0.0
 20
0.0
 30
0.0
  0
POINT
  5
22A
330
1F
100
AcDbEntity
  8
ConnectionPoints
100
AcDbPoint
 10
0.0
 20
-1.816840277777778
 30
1.946833333333333
  0
POINT
  5
22B
330
1F
100
AcDbEntity
  8
ConnectionPoints
100
AcDbPoint
 10
0.0
 20
1.816840277777778
 30
1.946833333333333
  0
POINT
  5
22C
330
1F
100
AcDbEntity
  8
ConnectionPoints
100
AcDbPoint
 10
0.0
 20
0.0
 30
1.876833333333333
  0
POINT
  5
22D
330
1F
100
AcDbEntity
  8
ConnectionPoints
100
AcDbPoint
 10
0.0
 20
0.0
 30
2.15
  0
POINT
  5
22E
330
1F
100
AcDbEntity
  8
ConnectionPoints
100
AcDbPoint
 10
0.0
 20
0.0
 30
2.075833333333333
  0
POINT
  5
22F
330
1F
100
AcDbEntity
  8
ConnectionPoints
100
AcDbPoint
 10
0.0
 20
1.816840277777778
 30
1.876833333333333
  0
POINT
  5
230
330
1F
100
AcDbEntity
  8
ConnectionPoints
100
AcDbPoint
 10
0.0
 20
-1.816840277777778
 30
1.876833333333333
  0
POINT
  5
231
330
1F
100
AcDbEntity
  8
ConnectionPoints
100
AcDbPoint
 10
0.0
 20
0.0
 30
1.876833333333333
  0
POINT
  5
232
330
1F
100
AcDbEntity
  8
ConnectionPoints
100
AcDbPoint
 10
-1.6525
 20
2.86221395950757
 30
0.0
  0
POINT
  5
233
330
1F
100
AcDbEntity
  8
ConnectionPoints
100
AcDbPoint
 10
0.0
 20
0.0
 30
1.9
  0
POINT
  5
234
330
1F
100
AcDbEntity
  8
ConnectionPoints
100
AcDbPoint
 10
0.0
 20
0.0
 30
2.15
  0
ENDSEC
  0
SECTION
  2
OBJECTS
  0
DICTIONARY
  5
C
330
0
100
AcDbDictionary
281
     1
  3
ACAD_DETAILVIEWSTYLE
350
23C
  3
ACAD_GROUP
350
D
  3
ACAD_LAYOUT
350
1A
  3
ACAD_MATERIAL
350
43
  3
ACAD_MLEADERSTYLE
350
6B
  3
ACAD_MLINESTYLE
350
17
  3
ACAD_PLOTSETTINGS
350
19
  3
ACAD_PLOTSTYLENAME
350
E
  3
ACAD_SCALELIST
350
47
  3
ACAD_SECTIONVIEWSTYLE
350
23D
  3
ACAD_TABLESTYLE
350
69
  3
ACAD_VISUALSTYLE
350
2A
  3
ACDB_RECOMPOSE_DATA
350
239
  3
AcDbVariableDictionary
350
235
  0
SUN
  5
6D
330
29
100
AcDbSun
 90
        1
290
     0
 63
     7
421
 16777215
 40
1.0
291
     1
 91
  2455826
 92
 54000000
292
     0
 70
     2
 71
   256
280
     1
  0
DICTIONARY
  5
23C
102
{ACAD_REACTORS
330
C
102
}
330
C
100
AcDbDictionary
281
     1
  0
DICTIONARY
  5
D
102
{ACAD_REACTORS
330
C
102
}
330
C
100
AcDbDictionary
281
     1
  0
DICTIONARY
  5
1A
102
{ACAD_REACTORS
330
C
102
}
330
C
100
AcDbDictionary
281
     1
  3
Layout1
350
1E
  3
Layout2
350
26
  3
Model
350
22
  0
DICTIONARY
  5
43
102
{ACAD_REACTORS
330
C
102
}
330
C
100
AcDbDictionary
281
     1
  3
ByBlock
350
45
  3
ByLayer
350
44
  3
Global
350
46
  0
DICTIONARY
  5
6B
102
{ACAD_REACTORS
330
C
102
}
330
C
100
AcDbDictionary
281
     1
  3
Standard
350
6C
  0
DICTIONARY
  5
17
102
{ACAD_REACTORS
330
C
102
}
330
C
100
AcDbDictionary
281
     1
  3
Standard
350
18
  0
DICTIONARY
  5
19
102
{ACAD_REACTORS
330
C
102
}
330
C
100
AcDbDictionary
281
     1
  0
ACDBDICTIONARYWDFLT
  5
E
102
{ACAD_REACTORS
330
C
102
}
330
C
100
AcDbDictionary
281
     1
  3
Normal
350
F
100
AcDbDictionaryWithDefault
340
F
  0
DICTIONARY
  5
47
102
{ACAD_REACTORS
330
C
102
}
330
C
100
AcDbDictionary
281
     1
  3
A0
350
48
  3
A1
350
49
  3
A2
350
4A
  3
A3
350
4B
  3
A4
350
4C
  3
A5
350
4D
  3
A6
350
4E
  3
A7
350
4F
  3
A8
350
50
  3
A9
350
51
  3
B0
350
52
  3
B1
350
53
  3
B2
350
54
  3
B3
350
55
  3
B4
350
56
  3
B5
350
57
  3
B6
350
58
  3
B7
350
59
  3
B8
350
5A
  3
B9
350
5B
  3
C0
350
5C
  3
C1
350
5D
  3
C2
350
5E
  3
C3
350
5F
  3
C4
350
60
  3
C5
350
61
  3
C6
350
62
  3
C7
350
63
  3
C8
350
64
  3
C9
350
65
  3
D0
350
66
  3
D1
350
67
  3
D2
350
68
  0
DICTIONARY
  5
23D
102
{ACAD_REACTORS
330
C
102
}
330
C
100
AcDbDictionary
281
     1
  0
DICTIONARY
  5
69
102
{ACAD_REACTORS
330
C
102
}
330
C
100
AcDbDictionary
281
     1
  3
Standard
350
6A
  0
DICTIONARY
  5
2A
102
{ACAD_REACTORS
330
C
102
}
330
C
100
AcDbDictionary
281
     1
  3
2dWireframe
350
2F
  3
Basic
350
32
  3
Brighten
350
36
  3
ColorChange
350
3A
  3
Conceptual
350
34
  3
Dim
350
35
  3
EdgeColorOff
350
3D
  3
Facepattern
350
39
  3
Flat
350
2B
  3
FlatWithEdges
350
2C
  3
Gouraud
350
2D
  3
GouraudWithEdges
350
2E
  3
Hidden
350
31
  3
JitterOff
350
3B
  3
Linepattern
350
38
  3
OverhangOff
350
3C
  3
Realistic
350
33
  3
Shaded
350
42
  3
Shaded with edges
350
41
  3
Shades of Gray
350
3E
  3
Sketchy
350
3F
  3
Thicken
350
37
  3
Wireframe
350
30
  3
X-Ray
350
40
  0
XRECORD
  5
239
102
{ACAD_REACTORS
330
C
102
}
330
C
100
AcDbXrecord
280
     1
 90
        1
330
6A
  0
DICTIONARY
  5
235
102
{ACAD_REACTORS
330
C
102
}
330
C
100
AcDbDictionary
281
     1
  3
CANNOSCALE
350
236
  3
CMLEADERSTYLE
350
23B
  3
CTABLESTYLE
350
23A
  0
LAYOUT
  5
1E
102
{ACAD_REACTORS
330
1A
102
}
330
1A
100
AcDbPlotSettings
  1

  2
none_device
  4

  6

 40
0.0
 41
0.0
 42
0.0
 43
0.0
 44
0.0
 45
0.0
 46
0.0
 47
0.0
 48
0.0
 49
0.0
140
0.0
141
0.0
142
1.0
143
1.0
 70
   688
 72
     0
 73
     0
 74
     5
  7

 75
    16
 76
     0
 77
     2
 78
   300
147
1.0
148
0.0
149
0.0
100
AcDbLayout
  1
Layout1
 70
     1
 71
     1
 10
0.0
 20
0.0
 11
12.0
 21
9.0
 12
0.0
 22
0.0
 32
0.0
 14
1.000000000000000E+20
 24
1.000000000000000E+20
 34
1.000000000000000E+20
 15
-1.000000000000000E+20
 25
-1.000000000000000E+20
 35
-1.000000000000000E+20
146
0.0
 13
0.0
 23
0.0
 33
0.0
 16
1.0
 26
0.0
 36
0.0
 17
0.0
 27
1.0
 37
0.0
 76
     0
330
1B
  0
LAYOUT
  5
26
102
{ACAD_REACTORS
330
1A
102
}
330
1A
100
AcDbPlotSettings
  1

  2
none_device
  4

  6

 40
0.0
 41
0.0
 42
0.0
 43
0.0
 44
0.0
 45
0.0
 46
0.0
 47
0.0
 48
0.0
 49
0.0
140
0.0
141
0.0
142
1.0
143
1.0
 70
   688
 72
     0
 73
     0
 74
     5
  7

 75
    16
 76
     0
 77
     2
 78
   300
147
1.0
148
0.0
149
0.0
100
AcDbLayout
  1
Layout2
 70
     1
 71
     2
 10
0.0
 20
0.0
 11
0.0
 21
0.0
 12
0.0
 22
0.0
 32
0.0
 14
0.0
 24
0.0
 34
0.0
 15
0.0
 25
0.0
 35
0.0
146
0.0
 13
0.0
 23
0.0
 33
0.0
 16
1.0
 26
0.0
 36
0.0
 17
0.0
 27
1.0
 37
0.0
 76
     0
330
23
  0
LAYOUT
  5
22
102
{ACAD_REACTORS
330
1A
102
}
330
1A
100
AcDbPlotSettings
  1

  2
none_device
  4
Letter_(8.50_x_11.00_Inches)
  6

 40
6.35
 41
6.35
 42
6.35000508
 43
6.35000508
 44
215.9
 45
279.4
 46
0.0
 47
0.0
 48
0.0
 49
0.0
140
0.0
141
0.0
142
1.0
143
1.0
 70
  1712
 72
     0
 73
     0
 74
     0
  7

 75
     0
 76
     0
 77
     2
 78
   300
147
1.0
148
0.0
149
0.0
100
AcDbLayout
  1
Model
 70
     1
 71
     0
 10
0.0
 20
0.0
 11
12.0
 21
9.0
 12
0.0
 22
0.0
 32
0.0
 14
1.000000000000000E+20
 24
1.000000000000000E+20
 34
1.000000000000000E+20
 15
-1.000000000000000E+20
 25
-1.000000000000000E+20
 35
-1.000000000000000E+20
146
0.0
 13
0.0
 23
0.0
 33
0.0
 16
1.0
 26
0.0
 36
0.0
 17
0.0
 27
1.0
 37
0.0
 76
     0
330
1F
331
29
  0
MATERIAL
  5
45
102
{ACAD_REACTORS
330
43
102
}
330
43
100
AcDbMaterial
  1
ByBlock
 72
     1
 94
      127
  0
MATERIAL
  5
44
102
{ACAD_REACTORS
330
43
102
}
330
43
100
AcDbMaterial
  1
ByLayer
 72
     1
 94
      127
  0
MATERIAL
  5
46
102
{ACAD_REACTORS
330
43
102
}
330
43
100
AcDbMaterial
  1
Global
 72
     1
 94
      127
  0
MLEADERSTYLE
  5
6C
102
{ACAD_REACTORS
330
6B
102
}
330
6B
100
AcDbMLeaderStyle
179
     2
170
     2
171
     1
172
     0
 90
        2
 40
0.0
 41
0.0
173
     1
 91
-1056964608
340
14
 92
       -2
290
     1
 42
0.09
291
     1
 43
0.36
  3
Standard
341
0
 44
0.18
300

342
11
174
     1
178
     6
175
     1
176
     0
 93
-1056964608
 45
0.18
292
     0
297
     0
 46
0.18
343
0
 94
-1056964608
 47
1.0
 49
1.0
140
1.0
293
     1
141
0.0
294
     1
177
     0
142
1.0
295
     0
296
     0
143
0.125
271
     0
272
     9
273
     9
298
     0
  0
MLINESTYLE
  5
18
102
{ACAD_REACTORS
330
17
102
}
330
17
100
AcDbMlineStyle
  2
Standard
 70
     0
  3

 62
   256
 51
90.0
 52
90.0
 71
     2
 49
0.5
 62
   256
  6
BYLAYER
 49
-0.5
 62
   256
  6
BYLAYER
  0
ACDBPLACEHOLDER
  5
F
102
{ACAD_REACTORS
330
E
102
}
330
E
  0
SCALE
  5
48
102
{ACAD_REACTORS
330
47
102
}
330
47
100
AcDbScale
 70
     0
300
1:1
140
1.0
141
1.0
290
     1
  0
SCALE
  5
49
102
{ACAD_REACTORS
330
47
102
}
330
47
100
AcDbScale
 70
     0
300
1:2
140
1.0
141
2.0
290
     0
  0
SCALE
  5
4A
102
{ACAD_REACTORS
330
47
102
}
330
47
100
AcDbScale
 70
     0
300
1:4
140
1.0
141
4.0
290
     0
  0
SCALE
  5
4B
102
{ACAD_REACTORS
330
47
102
}
330
47
100
AcDbScale
 70
     0
300
1:5
140
1.0
141
5.0
290
     0
  0
SCALE
  5
4C
102
{ACAD_REACTORS
330
47
102
}
330
47
100
AcDbScale
 70
     0
300
1:8
140
1.0
141
8.0
290
     0
  0
SCALE
  5
4D
102
{ACAD_REACTORS
330
47
102
}
330
47
100
AcDbScale
 70
     0
300
1:10
140
1.0
141
10.0
290
     0
  0
SCALE
  5
4E
102
{ACAD_REACTORS
330
47
102
}
330
47
100
AcDbScale
 70
     0
300
1:16
140
1.0
141
16.0
290
     0
  0
SCALE
  5
4F
102
{ACAD_REACTORS
330
47
102
}
330
47
100
AcDbScale
 70
     0
300
1:20
140
1.0
141
20.0
290
     0
  0
SCALE
  5
50
102
{ACAD_REACTORS
330
47
102
}
330
47
100
AcDbScale
 70
     0
300
1:30
140
1.0
141
30.0
290
     0
  0
SCALE
  5
51
102
{ACAD_REACTORS
330
47
102
}
330
47
100
AcDbScale
 70
     0
300
1:40
140
1.0
141
40.0
290
     0
  0
SCALE
  5
52
102
{ACAD_REACTORS
330
47
102
}
330
47
100
AcDbScale
 70
     0
300
1:50
140
1.0
141
50.0
290
     0
  0
SCALE
  5
53
102
{ACAD_REACTORS
330
47
102
}
330
47
100
AcDbScale
 70
     0
300
1:100
140
1.0
141
100.0
290
     0
  0
SCALE
  5
54
102
{ACAD_REACTORS
330
47
102
}
330
47
100
AcDbScale
 70
     0
300
2:1
140
2.0
141
1.0
290
     0
  0
SCALE
  5
55
102
{ACAD_REACTORS
330
47
102
}
330
47
100
AcDbScale
 70
     0
300
4:1
140
4.0
141
1.0
290
     0
  0
SCALE
  5
56
102
{ACAD_REACTORS
330
47
102
}
330
47
100
AcDbScale
 70
     0
300
8:1
140
8.0
141
1.0
290
     0
  0
SCALE
  5
57
102
{ACAD_REACTORS
330
47
102
}
330
47
100
AcDbScale
 70
     0
300
10:1
140
10.0
141
1.0
290
     0
  0
SCALE
  5
58
102
{ACAD_REACTORS
330
47
102
}
330
47
100
AcDbScale
 70
     0
300
100:1
140
100.0
141
1.0
290
     0
  0
SCALE
  5
59
102
{ACAD_REACTORS
330
47
102
}
330
47
100
AcDbScale
 70
     0
300
1/128" = 1'-0"
140
0.0078125
141
12.0
290
     0
  0
SCALE
  5
5A
102
{ACAD_REACTORS
330
47
102
}
330
47
100
AcDbScale
 70
     0
300
1/64" = 1'-0"
140
0.015625
141
12.0
290
     0
  0
SCALE
  5
5B
102
{ACAD_REACTORS
330
47
102
}
330
47
100
AcDbScale
 70
     0
300
1/32" = 1'-0"
140
0.03125
141
12.0
290
     0
  0
SCALE
  5
5C
102
{ACAD_REACTORS
330
47
102
}
330
47
100
AcDbScale
 70
     0
300
1/16" = 1'-0"
140
0.0625
141
12.0
290
     0
  0
SCALE
  5
5D
102
{ACAD_REACTORS
330
47
102
}
330
47
100
AcDbScale
 70
     0
300
3/32" = 1'-0"
140
0.09375
141
12.0
290
     0
  0
SCALE
  5
5E
102
{ACAD_REACTORS
330
47
102
}
330
47
100
AcDbScale
 70
     0
300
1/8" = 1'-0"
140
0.125
141
12.0
290
     0
  0
SCALE
  5
5F
102
{ACAD_REACTORS
330
47
102
}
330
47
100
AcDbScale
 70
     0
300
3/16" = 1'-0"
140
0.1875
141
12.0
290
     0
  0
SCALE
  5
60
102
{ACAD_REACTORS
330
47
102
}
330
47
100
AcDbScale
 70
     0
300
1/4" = 1'-0"
140
0.25
141
12.0
290
     0
  0
SCALE
  5
61
102
{ACAD_REACTORS
330
47
102
}
330
47
100
AcDbScale
 70
     0
300
3/8" = 1'-0"
140
0.375
141
12.0
290
     0
  0
SCALE
  5
62
102
{ACAD_REACTORS
330
47
102
}
330
47
100
AcDbScale
 70
     0
300
1/2" = 1'-0"
140
0.5
141
12.0
290
     0
  0
SCALE
  5
63
102
{ACAD_REACTORS
330
47
102
}
330
47
100
AcDbScale
 70
     0
300
3/4" = 1'-0"
140
0.75
141
12.0
290
     0
  0
SCALE
  5
64
102
{ACAD_REACTORS
330
47
102
}
330
47
100
AcDbScale
 70
     0
300
1" = 1'-0"
140
1.0
141
12.0
290
     0
  0
SCALE
  5
65
102
{ACAD_REACTORS
330
47
102
}
330
47
100
AcDbScale
 70
     0
300
1-1/2" = 1'-0"
140
1.5
141
12.0
290
     0
  0
SCALE
  5
66
102
{ACAD_REACTORS
330
47
102
}
330
47
100
AcDbScale
 70
     0
300
3" = 1'-0"
140
3.0
141
12.0
290
     0
  0
SCALE
  5
67
102
{ACAD_REACTORS
330
47
102
}
330
47
100
AcDbScale
 70
     0
300
6" = 1'-0"
140
6.0
141
12.0
290
     0
  0
SCALE
  5
68
102
{ACAD_REACTORS
330
47
102
}
330
47
100
AcDbScale
 70
     0
300
1'-0" = 1'-0"
140
12.0
141
12.0
290
     0
  0
TABLESTYLE
  5
6A
102
{ACAD_REACTORS
330
69
102
}
102
{ACAD_XDICTIONARY
360
237
102
}
330
69
100
AcDbTableStyle
  3
Standard
 70
     0
 71
     0
 40
0.06
 41
0.06
280
     0
281
     0
  7
Standard
140
0.18
170
     2
 62
     0
 63
   257
283
     0
 90
        4
 91
        0
  1

274
    -2
284
     1
 64
     0
275
    -2
285
     1
 65
     0
276
    -2
286
     1
 66
     0
277
    -2
287
     1
 67
     0
278
    -2
288
     1
 68
     0
279
    -2
289
     1
 69
     0
  7
Standard
140
0.25
170
     5
 62
     0
 63
   257
283
     0
 90
        4
 91
        0
  1

274
    -2
284
     1
 64
     0
275
    -2
285
     1
 65
     0
276
    -2
286
     1
 66
     0
277
    -2
287
     1
 67
     0
278
    -2
288
     1
 68
     0
279
    -2
289
     1
 69
     0
  7
Standard
140
0.18
170
     5
 62
     0
 63
   257
283
     0
 90
        4
 91
        0
  1

274
    -2
284
     1
 64
     0
275
    -2
285
     1
 65
     0
276
    -2
286
     1
 66
     0
277
    -2
287
     1
 67
     0
278
    -2
288
     1
 68
     0
279
    -2
289
     1
 69
     0
  0
VISUALSTYLE
  5
2F
102
{ACAD_REACTORS
330
2A
102
}
330
2A
100
AcDbVisualStyle
  2
2dWireframe
 70
     4
177
     3
291
     0
 70
    58
 90
        0
176
     1
 90
        2
176
     1
 90
        0
176
     1
 90
        0
176
     1
 40
0.6
176
     1
 40
30.0
176
     1
 62
     7
420
 16777215
176
     1
 90
        1
176
     1
 90
        4
176
     1
 62
     7
176
     1
 62
   257
176
     1
 90
        1
176
     1
 90
        1
176
     1
 40
1.0
176
     1
 90
        0
176
     1
 62
   257
176
     1
 40
1.0
176
     1
 90
        1
176
     1
 90
        6
176
     1
 90
        2
176
     1
 62
     7
176
     1
 90
        5
176
     1
 90
        0
176
     1
 90
        0
176
     1
290
     0
176
     1
 90
        1
176
     1
 40
0.0
176
     1
 90
        0
176
     1
290
     1
176
     1
290
     1
176
     1
290
     0
176
     1
290
     0
176
     1
290
     0
176
     1
290
     0
176
     1
290
     0
176
     1
290
     0
176
     1
290
     0
176
     1
 90
       50
176
     1
 40
0.0
176
     1
 40
1.0
176
     1
 90
        0
176
     1
 62
    18
420
        0
176
     1
 90
       50
176
     1
 90
        3
176
     1
 62
     5
420
      255
176
     1
290
     0
176
     1
 90
       50
176
     1
 90
       50
176
     1
 90
       50
176
     1
290
     0
176
     1
 90
       50
176
     1
 62
   256
176
     0
 40
1.0
176
     0
 90
        2
176
     1
  1
strokes_ogs.tif
176
     1
290
     0
176
     1
 40
1.0
176
     1
 40
1.0
176
     1
  0
VISUALSTYLE
  5
32
102
{ACAD_REACTORS
330
2A
102
}
330
2A
100
AcDbVisualStyle
  2
Basic
 70
     7
177
     3
291
     1
 70
    58
 90
        1
176
     1
 90
        0
176
     1
 90
        1
176
     1
 90
        0
176
     1
 40
0.6
176
     1
 40
30.0
176
     1
 62
     7
420
 16777215
176
     1
 90
        0
176
     1
 90
        4
176
     1
 62
     7
176
     1
 62
   257
176
     1
 90
        1
176
     1
 90
        1
176
     1
 40
1.0
176
     1
 90
        8
176
     1
 62
     7
176
     1
 40
1.0
176
     1
 90
        1
176
     1
 90
        6
176
     1
 90
        2
176
     1
 62
     7
176
     1
 90
        5
176
     1
 90
        0
176
     1
 90
        0
176
     1
290
     0
176
     1
 90
        1
176
     1
 40
0.0
176
     1
 90
        0
176
     1
290
     0
176
     1
290
     1
176
     1
290
     1
176
     1
290
     0
176
     1
290
     0
176
     1
290
     0
176
     1
290
     0
176
     1
290
     0
176
     1
290
     0
176
     1
 90
       50
176
     1
 40
0.0
176
     1
 40
1.0
176
     1
 90
        0
176
     1
 62
    18
420
        0
176
     1
 90
       50
176
     1
 90
        3
176
     1
 62
     5
420
      255
176
     1
290
     0
176
     1
 90
       50
176
     1
 90
       50
176
     1
 90
       50
176
     1
290
     0
176
     1
 90
       50
176
     1
 62
   256
176
     0
 40
1.0
176
     0
 90
        2
176
     1
  1
strokes_ogs.tif
176
     1
290
     0
176
     1
 40
1.0
176
     1
 40
1.0
176
     1
  0
VISUALSTYLE
  5
36
102
{ACAD_REACTORS
330
2A
102
}
330
2A
100
AcDbVisualStyle
  2
Brighten
 70
    12
177
     3
291
     1
 70
    58
 90
        2
176
     1
 90
        2
176
     1
 90
        0
176
     1
 90
        0
176
     1
 40
0.6
176
     1
 40
30.0
176
     1
 62
     7
420
 16777215
176
     1
 90
        1
176
     1
 90
        4
176
     1
 62
     7
176
     1
 62
   257
176
     1
 90
        1
176
     1
 90
        1
176
     1
 40
1.0
176
     1
 90
        8
176
     1
 62
     7
176
     1
 40
1.0
176
     1
 90
        1
176
     1
 90
        6
176
     1
 90
        2
176
     1
 62
     7
176
     1
 90
        5
176
     1
 90
        0
176
     1
 90
        0
176
     1
290
     0
176
     1
 90
        1
176
     1
 40
50.0
176
     1
 90
        0
176
     1
290
     0
176
     1
290
     1
176
     1
290
     1
176
     1
290
     0
176
     1
290
     0
176
     1
290
     0
176
     1
290
     0
176
     1
290
     0
176
     1
290
     0
176
     1
 90
       50
176
     1
 40
0.0
176
     1
 40
1.0
176
     1
 90
        0
176
     1
 62
    18
420
        0
176
     1
 90
       50
176
     1
 90
        3
176
     1
 62
     5
420
      255
176
     1
290
     0
176
     1
 90
       50
176
     1
 90
       50
176
     1
 90
       50
176
     1
290
     0
176
     1
 90
       50
176
     1
 62
   256
176
     0
 40
1.0
176
     0
 90
        2
176
     1
  1
strokes_ogs.tif
176
     1
290
     0
176
     1
 40
1.0
176
     1
 40
1.0
176
     1
  0
VISUALSTYLE
  5
3A
102
{ACAD_REACTORS
330
2A
102
}
330
2A
100
AcDbVisualStyle
  2
ColorChange
 70
    16
177
     3
291
     1
 70
    58
 90
        2
176
     1
 90
        2
176
     1
 90
        3
176
     1
 90
        0
176
     1
 40
0.6
176
     1
 40
30.0
176
     1
 62
     8
420
  8421504
176
     1
 90
        1
176
     1
 90
        4
176
     1
 62
     7
176
     1
 62
   257
176
     1
 90
        1
176
     1
 90
        1
176
     1
 40
1.0
176
     1
 90
        8
176
     1
 62
     8
420
  8421504
176
     1
 40
1.0
176
     1
 90
        1
176
     1
 90
        6
176
     1
 90
        2
176
     1
 62
     7
176
     1
 90
        5
176
     1
 90
        0
176
     1
 90
        0
176
     1
290
     0
176
     1
 90
        1
176
     1
 40
0.0
176
     1
 90
        0
176
     1
290
     0
176
     1
290
     1
176
     1
290
     1
176
     1
290
     0
176
     1
290
     0
176
     1
290
     0
176
     1
290
     0
176
     1
290
     0
176
     1
290
     0
176
     1
 90
       50
176
     1
 40
0.0
176
     1
 40
1.0
176
     1
 90
        0
176
     1
 62
    18
420
        0
176
     1
 90
       50
176
     1
 90
        3
176
     1
 62
     5
420
      255
176
     1
290
     0
176
     1
 90
       50
176
     1
 90
       50
176
     1
 90
       50
176
     1
290
     0
176
     1
 90
       50
176
     1
 62
   256
176
     0
 40
1.0
176
     0
 90
        2
176
     1
  1
strokes_ogs.tif
176
     1
290
     0
176
     1
 40
1.0
176
     1
 40
1.0
176
     1
  0
VISUALSTYLE
  5
34
102
{ACAD_REACTORS
330
2A
102
}
330
2A
100
AcDbVisualStyle
  2
Conceptual
 70
     9
177
     3
291
     0
 70
    58
 90
        3
176
     1
 90
        2
176
     1
 90
        0
176
     1
 90
        0
176
     1
 40
0.6
176
     1
 40
30.0
176
     1
 62
     7
420
 16777215
176
     1
 90
        2
176
     1
 90
        2
176
     1
 62
     7
176
     1
 62
   257
176
     1
 90
        1
176
     1
 90
        1
176
     1
 40
179.0
176
     1
 90
        8
176
     1
 62
     7
176
     1
 40
1.0
176
     1
 90
        1
176
     1
 90
        6
176
     1
 90
        2
176
     1
 62
     7
176
     1
 90
        3
176
     1
 90
        0
176
     1
 90
        0
176
     1
290
     0
176
     1
 90
        1
176
     1
 40
0.0
176
     1
 90
        0
176
     1
290
     0
176
     1
290
     1
176
     1
290
     1
176
     1
290
     0
176
     1
290
     0
176
     1
290
     0
176
     1
290
     0
176
     1
290
     0
176
     1
290
     0
176
     1
 90
       50
176
     1
 40
0.0
176
     1
 40
1.0
176
     1
 90
        0
176
     1
 62
    18
420
        0
176
     1
 90
       50
176
     1
 90
        3
176
     1
 62
     5
420
      255
176
     1
290
     0
176
     1
 90
       50
176
     1
 90
       50
176
     1
 90
       50
176
     1
290
     0
176
     1
 90
       50
176
     1
 62
   256
176
     0
 40
1.0
176
     0
 90
        2
176
     1
  1
strokes_ogs.tif
176
     1
290
     0
176
     1
 40
1.0
176
     1
 40
1.0
176
     1
  0
VISUALSTYLE
  5
35
102
{ACAD_REACTORS
330
2A
102
}
330
2A
100
AcDbVisualStyle
  2
Dim
 70
    11
177
     3
291
     1
 70
    58
 90
        2
176
     1
 90
        2
176
     1
 90
        0
176
     1
 90
        0
176
     1
 40
0.6
176
     1
 40
30.0
176
     1
 62
     7
420
 16777215
176
     1
 90
        1
176
     1
 90
        4
176
     1
 62
     7
176
     1
 62
   257
176
     1
 90
        1
176
     1
 90
        1
176
     1
 40
1.0
176
     1
 90
        8
176
     1
 62
     7
176
     1
 40
1.0
176
     1
 90
        1
176
     1
 90
        6
176
     1
 90
        2
176
     1
 62
     7
176
     1
 90
        5
176
     1
 90
        0
176
     1
 90
        0
176
     1
290
     0
176
     1
 90
        1
176
     1
 40
-50.0
176
     1
 90
        0
176
     1
290
     0
176
     1
290
     1
176
     1
290
     1
176
     1
290
     0
176
     1
290
     0
176
     1
290
     0
176
     1
290
     0
176
     1
290
     0
176
     1
290
     0
176
     1
 90
       50
176
     1
 40
0.0
176
     1
 40
1.0
176
     1
 90
        0
176
     1
 62
    18
420
        0
176
     1
 90
       50
176
     1
 90
        3
176
     1
 62
     5
420
      255
176
     1
290
     0
176
     1
 90
       50
176
     1
 90
       50
176
     1
 90
       50
176
     1
290
     0
176
     1
 90
       50
176
     1
 62
   256
176
     0
 40
1.0
176
     0
 90
        2
176
     1
  1
strokes_ogs.tif
176
     1
290
     0
176
     1
 40
1.0
176
     1
 40
1.0
176
     1
  0
VISUALSTYLE
  5
3D
102
{ACAD_REACTORS
330
2A
102
}
330
2A
100
AcDbVisualStyle
  2
EdgeColorOff
 70
    22
177
     3
291
     1
 70
    58
 90
        2
176
     0
 90
        2
176
     0
 90
        0
176
     0
 90
        0
176
     0
 40
0.6
176
     0
 40
30.0
176
     0
 62
     7
420
 16777215
176
     0
 90
        1
176
     0
 90
        4
176
     0
 62
     7
176
     0
 62
   257
176
     0
 90
        1
176
     0
 90
        1
176
     0
 40
1.0
176
     0
 90
        8
176
     2
 62
     7
176
     0
 40
1.0
176
     0
 90
        1
176
     0
 90
        6
176
     0
 90
        2
176
     0
 62
     7
176
     0
 90
        5
176
     0
 90
        0
176
     0
 90
        0
176
     0
290
     0
176
     0
 90
        1
176
     0
 40
0.0
176
     0
 90
        0
176
     0
290
     0
176
     0
290
     1
176
     0
290
     1
176
     0
290
     0
176
     0
290
     0
176
     0
290
     0
176
     0
290
     0
176
     0
290
     0
176
     0
290
     0
176
     0
 90
       50
176
     0
 40
0.0
176
     0
 40
1.0
176
     0
 90
        0
176
     0
 62
    18
420
        0
176
     0
 90
       50
176
     0
 90
        3
176
     0
 62
     5
420
      255
176
     0
290
     0
176
     0
 90
       50
176
     0
 90
       50
176
     0
 90
       50
176
     0
290
     0
176
     0
 90
       50
176
     0
 62
   256
176
     0
 40
1.0
176
     0
 90
        2
176
     0
  1
strokes_ogs.tif
176
     0
290
     0
176
     0
 40
1.0
176
     0
 40
1.0
176
     0
  0
VISUALSTYLE
  5
39
102
{ACAD_REACTORS
330
2A
102
}
330
2A
100
AcDbVisualStyle
  2
Facepattern
 70
    15
177
     3
291
     1
 70
    58
 90
        2
176
     1
 90
        2
176
     1
 90
        0
176
     1
 90
        0
176
     1
 40
0.6
176
     1
 40
30.0
176
     1
 62
     7
420
 16777215
176
     1
 90
        1
176
     1
 90
        4
176
     1
 62
     7
176
     1
 62
   257
176
     1
 90
        1
176
     1
 90
        1
176
     1
 40
1.0
176
     1
 90
        8
176
     1
 62
     7
176
     1
 40
1.0
176
     1
 90
        1
176
     1
 90
        6
176
     1
 90
        2
176
     1
 62
     7
176
     1
 90
        5
176
     1
 90
        0
176
     1
 90
        0
176
     1
290
     0
176
     1
 90
        1
176
     1
 40
0.0
176
     1
 90
        0
176
     1
290
     0
176
     1
290
     1
176
     1
290
     1
176
     1
290
     0
176
     1
290
     0
176
     1
290
     0
176
     1
290
     0
176
     1
290
     0
176
     1
290
     0
176
     1
 90
       50
176
     1
 40
0.0
176
     1
 40
1.0
176
     1
 90
        0
176
     1
 62
    18
420
        0
176
     1
 90
       50
176
     1
 90
        3
176
     1
 62
     5
420
      255
176
     1
290
     0
176
     1
 90
       50
176
     1
 90
       50
176
     1
 90
       50
176
     1
290
     0
176
     1
 90
       50
176
     1
 62
   256
176
     0
 40
1.0
176
     0
 90
        2
176
     1
  1
strokes_ogs.tif
176
     1
290
     0
176
     1
 40
1.0
176
     1
 40
1.0
176
     1
  0
VISUALSTYLE
  5
2B
102
{ACAD_REACTORS
330
2A
102
}
330
2A
100
AcDbVisualStyle
  2
Flat
 70
     0
177
     3
291
     1
 70
    58
 90
        2
176
     1
 90
        1
176
     1
 90
        1
176
     1
 90
        2
176
     1
 40
0.6
176
     1
 40
30.0
176
     1
 62
     7
420
 16777215
176
     1
 90
        0
176
     1
 90
        0
176
     1
 62
     7
176
     1
 62
   257
176
     1
 90
        1
176
     1
 90
        1
176
     1
 40
1.0
176
     1
 90
        8
176
     1
 62
     7
176
     1
 40
1.0
176
     1
 90
        1
176
     1
 90
        6
176
     1
 90
        2
176
     1
 62
     7
176
     1
 90
        5
176
     1
 90
        0
176
     1
 90
        0
176
     1
290
     0
176
     1
 90
       13
176
     1
 40
0.0
176
     1
 90
        0
176
     1
290
     0
176
     1
290
     1
176
     1
290
     1
176
     1
290
     0
176
     1
290
     0
176
     1
290
     0
176
     1
290
     0
176
     1
290
     0
176
     1
290
     0
176
     1
 90
       50
176
     1
 40
0.0
176
     1
 40
1.0
176
     1
 90
        0
176
     1
 62
    18
420
        0
176
     1
 90
       50
176
     1
 90
        3
176
     1
 62
     5
420
      255
176
     1
290
     0
176
     1
 90
       50
176
     1
 90
       50
176
     1
 90
       50
176
     1
290
     0
176
     1
 90
       50
176
     1
 62
   256
176
     0
 40
1.0
176
     0
 90
        2
176
     1
  1
strokes_ogs.tif
176
     1
290
     0
176
     1
 40
1.0
176
     1
 40
1.0
176
     1
  0
VISUALSTYLE
  5
2C
102
{ACAD_REACTORS
330
2A
102
}
330
2A
100
AcDbVisualStyle
  2
FlatWithEdges
 70
     1
177
     3
291
     1
 70
    58
 90
        2
176
     1
 90
        1
176
     1
 90
        1
176
     1
 90
        2
176
     1
 40
0.6
176
     1
 40
30.0
176
     1
 62
     7
420
 16777215
176
     1
 90
        1
176
     1
 90
        0
176
     1
 62
     7
176
     1
 62
   257
176
     1
 90
        1
176
     1
 90
        1
176
     1
 40
1.0
176
     1
 90
        0
176
     1
 62
   257
176
     1
 40
1.0
176
     1
 90
        1
176
     1
 90
        6
176
     1
 90
        2
176
     1
 62
     7
176
     1
 90
        5
176
     1
 90
        0
176
     1
 90
        0
176
     1
290
     0
176
     1
 90
       13
176
     1
 40
0.0
176
     1
 90
        0
176
     1
290
     0
176
     1
290
     1
176
     1
290
     1
176
     1
290
     0
176
     1
290
     0
176
     1
290
     0
176
     1
290
     0
176
     1
290
     0
176
     1
290
     0
176
     1
 90
       50
176
     1
 40
0.0
176
     1
 40
1.0
176
     1
 90
        0
176
     1
 62
    18
420
        0
176
     1
 90
       50
176
     1
 90
        3
176
     1
 62
     5
420
      255
176
     1
290
     0
176
     1
 90
       50
176
     1
 90
       50
176
     1
 90
       50
176
     1
290
     0
176
     1
 90
       50
176
     1
 62
   256
176
     0
 40
1.0
176
     0
 90
        2
176
     1
  1
strokes_ogs.tif
176
     1
290
     0
176
     1
 40
1.0
176
     1
 40
1.0
176
     1
  0
VISUALSTYLE
  5
2D
102
{ACAD_REACTORS
330
2A
102
}
330
2A
100
AcDbVisualStyle
  2
Gouraud
 70
     2
177
     3
291
     1
 70
    58
 90
        2
176
     1
 90
        2
176
     1
 90
        1
176
     1
 90
        2
176
     1
 40
0.6
176
     1
 40
30.0
176
     1
 62
     7
420
 16777215
176
     1
 90
        0
176
     1
 90
        0
176
     1
 62
     7
176
     1
 62
   257
176
     1
 90
        1
176
     1
 90
        1
176
     1
 40
1.0
176
     1
 90
        0
176
     1
 62
     7
176
     1
 40
1.0
176
     1
 90
        1
176
     1
 90
        6
176
     1
 90
        2
176
     1
 62
     7
176
     1
 90
        5
176
     1
 90
        0
176
     1
 90
        0
176
     1
290
     0
176
     1
 90
       13
176
     1
 40
0.0
176
     1
 90
        0
176
     1
290
     0
176
     1
290
     1
176
     1
290
     1
176
     1
290
     0
176
     1
290
     0
176
     1
290
     0
176
     1
290
     0
176
     1
290
     0
176
     1
290
     0
176
     1
 90
       50
176
     1
 40
0.0
176
     1
 40
1.0
176
     1
 90
        0
176
     1
 62
    18
420
        0
176
     1
 90
       50
176
     1
 90
        3
176
     1
 62
     5
420
      255
176
     1
290
     0
176
     1
 90
       50
176
     1
 90
       50
176
     1
 90
       50
176
     1
290
     0
176
     1
 90
       50
176
     1
 62
   256
176
     0
 40
1.0
176
     0
 90
        2
176
     1
  1
strokes_ogs.tif
176
     1
290
     0
176
     1
 40
1.0
176
     1
 40
1.0
176
     1
  0
VISUALSTYLE
  5
2E
102
{ACAD_REACTORS
330
2A
102
}
330
2A
100
AcDbVisualStyle
  2
GouraudWithEdges
 70
     3
177
     3
291
     1
 70
    58
 90
        2
176
     1
 90
        2
176
     1
 90
        1
176
     1
 90
        2
176
     1
 40
0.6
176
     1
 40
30.0
176
     1
 62
     7
420
 16777215
176
     1
 90
        1
176
     1
 90
        0
176
     1
 62
     7
176
     1
 62
   257
176
     1
 90
        1
176
     1
 90
        1
176
     1
 40
1.0
176
     1
 90
        0
176
     1
 62
   257
176
     1
 40
1.0
176
     1
 90
        1
176
     1
 90
        6
176
     1
 90
        2
176
     1
 62
     7
176
     1
 90
        5
176
     1
 90
        0
176
     1
 90
        0
176
     1
290
     0
176
     1
 90
       13
176
     1
 40
0.0
176
     1
 90
        0
176
     1
290
     0
176
     1
290
     1
176
     1
290
     1
176
     1
290
     0
176
     1
290
     0
176
     1
290
     0
176
     1
290
     0
176
     1
290
     0
176
     1
290
     0
176
     1
 90
       50
176
     1
 40
0.0
176
     1
 40
1.0
176
     1
 90
        0
176
     1
 62
    18
420
        0
176
     1
 90
       50
176
     1
 90
        3
176
     1
 62
     5
420
      255
176
     1
290
     0
176
     1
 90
       50
176
     1
 90
       50
176
     1
 90
       50
176
     1
290
     0
176
     1
 90
       50
176
     1
 62
   256
176
     0
 40
1.0
176
     0
 90
        2
176
     1
  1
strokes_ogs.tif
176
     1
290
     0
176
     1
 40
1.0
176
     1
 40
1.0
176
     1
  0
VISUALSTYLE
  5
31
102
{ACAD_REACTORS
330
2A
102
}
330
2A
100
AcDbVisualStyle
  2
Hidden
 70
     6
177
     3
291
     0
 70
    58
 90
        1
176
     1
 90
        2
176
     1
 90
        2
176
     1
 90
        0
176
     1
 40
0.6
176
     1
 40
30.0
176
     1
 62
     7
420
 16777215
176
     1
 90
        2
176
     1
 90
        2
176
     1
 62
     7
176
     1
 62
   257
176
     1
 90
        2
176
     1
 90
        1
176
     1
 40
40.0
176
     1
 90
        0
176
     1
 62
   257
176
     1
 40
1.0
176
     1
 90
        1
176
     1
 90
        6
176
     1
 90
        2
176
     1
 62
     7
176
     1
 90
        3
176
     1
 90
        0
176
     1
 90
        0
176
     1
290
     0
176
     1
 90
        1
176
     1
 40
0.0
176
     1
 90
        0
176
     1
290
     0
176
     1
290
     1
176
     1
290
     1
176
     1
290
     0
176
     1
290
     0
176
     1
290
     0
176
     1
290
     0
176
     1
290
     0
176
     1
290
     0
176
     1
 90
       50
176
     1
 40
0.0
176
     1
 40
1.0
176
     1
 90
        0
176
     1
 62
    18
420
        0
176
     1
 90
       50
176
     1
 90
        3
176
     1
 62
     5
420
      255
176
     1
290
     0
176
     1
 90
       50
176
     1
 90
       50
176
     1
 90
       50
176
     1
290
     0
176
     1
 90
       50
176
     1
 62
   256
176
     0
 40
1.0
176
     0
 90
        2
176
     1
  1
strokes_ogs.tif
176
     1
290
     0
176
     1
 40
1.0
176
     1
 40
1.0
176
     1
  0
VISUALSTYLE
  5
3B
102
{ACAD_REACTORS
330
2A
102
}
330
2A
100
AcDbVisualStyle
  2
JitterOff
 70
    20
177
     3
291
     1
 70
    58
 90
        2
176
     0
 90
        2
176
     0
 90
        0
176
     0
 90
        0
176
     0
 40
0.6
176
     0
 40
30.0
176
     0
 62
     7
420
 16777215
176
     0
 90
        1
176
     0
 90
        4
176
     0
 62
     7
176
     0
 62
   257
176
     0
 90
        1
176
     0
 90
        1
176
     0
 40
1.0
176
     0
 90
       10
176
     2
 62
     7
176
     0
 40
1.0
176
     0
 90
        1
176
     0
 90
        6
176
     0
 90
        2
176
     0
 62
     7
176
     0
 90
        5
176
     0
 90
        0
176
     0
 90
        0
176
     0
290
     0
176
     0
 90
        1
176
     0
 40
0.0
176
     0
 90
        0
176
     0
290
     0
176
     0
290
     1
176
     0
290
     1
176
     0
290
     0
176
     0
290
     0
176
     0
290
     0
176
     0
290
     0
176
     0
290
     0
176
     0
290
     0
176
     0
 90
       50
176
     0
 40
0.0
176
     0
 40
1.0
176
     0
 90
        0
176
     0
 62
    18
420
        0
176
     0
 90
       50
176
     0
 90
        3
176
     0
 62
     5
420
      255
176
     0
290
     0
176
     0
 90
       50
176
     0
 90
       50
176
     0
 90
       50
176
     0
290
     0
176
     0
 90
       50
176
     0
 62
   256
176
     0
 40
1.0
176
     0
 90
        2
176
     0
  1
strokes_ogs.tif
176
     0
290
     0
176
     0
 40
1.0
176
     0
 40
1.0
176
     0
  0
VISUALSTYLE
  5
38
102
{ACAD_REACTORS
330
2A
102
}
330
2A
100
AcDbVisualStyle
  2
Linepattern
 70
    14
177
     3
291
     1
 70
    58
 90
        2
176
     1
 90
        2
176
     1
 90
        0
176
     1
 90
        0
176
     1
 40
0.6
176
     1
 40
30.0
176
     1
 62
     7
420
 16777215
176
     1
 90
        1
176
     1
 90
        4
176
     1
 62
     7
176
     1
 62
   257
176
     1
 90
        7
176
     1
 90
        7
176
     1
 40
1.0
176
     1
 90
        8
176
     1
 62
     7
176
     1
 40
1.0
176
     1
 90
        1
176
     1
 90
        6
176
     1
 90
        2
176
     1
 62
     7
176
     1
 90
        5
176
     1
 90
        0
176
     1
 90
        0
176
     1
290
     0
176
     1
 90
        1
176
     1
 40
0.0
176
     1
 90
        0
176
     1
290
     0
176
     1
290
     1
176
     1
290
     1
176
     1
290
     0
176
     1
290
     0
176
     1
290
     0
176
     1
290
     0
176
     1
290
     0
176
     1
290
     0
176
     1
 90
       50
176
     1
 40
0.0
176
     1
 40
1.0
176
     1
 90
        0
176
     1
 62
    18
420
        0
176
     1
 90
       50
176
     1
 90
        3
176
     1
 62
     5
420
      255
176
     1
290
     0
176
     1
 90
       50
176
     1
 90
       50
176
     1
 90
       50
176
     1
290
     0
176
     1
 90
       50
176
     1
 62
   256
176
     0
 40
1.0
176
     0
 90
        2
176
     1
  1
strokes_ogs.tif
176
     1
290
     0
176
     1
 40
1.0
176
     1
 40
1.0
176
     1
  0
VISUALSTYLE
  5
3C
102
{ACAD_REACTORS
330
2A
102
}
330
2A
100
AcDbVisualStyle
  2
OverhangOff
 70
    21
177
     3
291
     1
 70
    58
 90
        2
176
     0
 90
        2
176
     0
 90
        0
176
     0
 90
        0
176
     0
 40
0.6
176
     0
 40
30.0
176
     0
 62
     7
420
 16777215
176
     0
 90
        1
176
     0
 90
        4
176
     0
 62
     7
176
     0
 62
   257
176
     0
 90
        1
176
     0
 90
        1
176
     0
 40
1.0
176
     0
 90
        9
176
     2
 62
     7
176
     0
 40
1.0
176
     0
 90
        1
176
     0
 90
        6
176
     0
 90
        2
176
     0
 62
     7
176
     0
 90
        5
176
     0
 90
        0
176
     0
 90
        0
176
     0
290
     0
176
     0
 90
        1
176
     0
 40
0.0
176
     0
 90
        0
176
     0
290
     0
176
     0
290
     1
176
     0
290
     1
176
     0
290
     0
176
     0
290
     0
176
     0
290
     0
176
     0
290
     0
176
     0
290
     0
176
     0
290
     0
176
     0
 90
       50
176
     0
 40
0.0
176
     0
 40
1.0
176
     0
 90
        0
176
     0
 62
    18
420
        0
176
     0
 90
       50
176
     0
 90
        3
176
     0
 62
     5
420
      255
176
     0
290
     0
176
     0
 90
       50
176
     0
 90
       50
176
     0
 90
       50
176
     0
290
     0
176
     0
 90
       50
176
     0
 62
   256
176
     0
 40
1.0
176
     0
 90
        2
176
     0
  1
strokes_ogs.tif
176
     0
290
     0
176
     0
 40
1.0
176
     0
 40
1.0
176
     0
  0
VISUALSTYLE
  5
33
102
{ACAD_REACTORS
330
2A
102
}
330
2A
100
AcDbVisualStyle
  2
Realistic
 70
     8
177
     3
291
     0
 70
    58
 90
        2
176
     1
 90
        3
176
     1
 90
        0
176
     1
 90
        2
176
     1
 40
0.6
176
     1
 40
30.0
176
     1
 62
     7
420
 16777215
176
     1
 90
        0
176
     1
 90
        0
176
     1
 62
     7
176
     1
 62
   257
176
     1
 90
        1
176
     1
 90
        1
176
     1
 40
1.0
176
     1
 90
        8
176
     1
 62
   257
176
     1
 40
1.0
176
     1
 90
        1
176
     1
 90
        6
176
     1
 90
        2
176
     1
 62
     7
176
     1
 90
        3
176
     1
 90
        0
176
     1
 90
        0
176
     1
290
     0
176
     1
 90
       13
176
     1
 40
0.0
176
     1
 90
        0
176
     1
290
     0
176
     1
290
     1
176
     1
290
     1
176
     1
290
     0
176
     1
290
     0
176
     1
290
     0
176
     1
290
     0
176
     1
290
     0
176
     1
290
     0
176
     1
 90
       50
176
     1
 40
0.0
176
     1
 40
1.0
176
     1
 90
        0
176
     1
 62
    18
420
        0
176
     1
 90
       50
176
     1
 90
        3
176
     1
 62
     5
420
      255
176
     1
290
     0
176
     1
 90
       50
176
     1
 90
       50
176
     1
 90
       50
176
     1
290
     0
176
     1
 90
       50
176
     1
 62
   256
176
     0
 40
1.0
176
     0
 90
        2
176
     1
  1
strokes_ogs.tif
176
     1
290
     0
176
     1
 40
1.0
176
     1
 40
1.0
176
     1
  0
VISUALSTYLE
  5
42
102
{ACAD_REACTORS
330
2A
102
}
330
2A
100
AcDbVisualStyle
  2
Shaded
 70
    27
177
     3
291
     0
 70
    58
 90
        2
176
     1
 90
        2
176
     1
 90
        1
176
     1
 90
        2
176
     1
 40
0.6
176
     1
 40
30.0
176
     1
 62
     7
420
 16777215
176
     1
 90
        0
176
     1
 90
        4
176
     1
 62
     7
176
     1
 62
   257
176
     1
 90
        1
176
     1
 90
        1
176
     1
 40
1.0
176
     1
 90
        8
176
     1
 62
   257
176
     1
 40
1.0
176
     1
 90
        1
176
     1
 90
        6
176
     1
 90
        2
176
     1
 62
     8
420
  7895160
176
     1
 90
        3
176
     1
 90
        0
176
     1
 90
        0
176
     1
290
     0
176
     1
 90
        5
176
     1
 40
0.0
176
     1
 90
        0
176
     1
290
     0
176
     1
290
     1
176
     1
290
     1
176
     1
290
     0
176
     1
290
     0
176
     1
290
     0
176
     1
290
     0
176
     1
290
     0
176
     1
290
     0
176
     1
 90
       50
176
     1
 40
0.0
176
     1
 40
1.0
176
     1
 90
        0
176
     1
 62
    18
420
        0
176
     1
 90
       50
176
     1
 90
        3
176
     1
 62
     5
420
      255
176
     1
290
     0
176
     1
 90
       50
176
     1
 90
       50
176
     1
 90
       50
176
     1
290
     0
176
     1
 90
       50
176
     1
 62
   256
176
     0
 40
1.0
176
     0
 90
        2
176
     1
  1
strokes_ogs.tif
176
     1
290
     0
176
     1
 40
1.0
176
     1
 40
1.0
176
     1
  0
VISUALSTYLE
  5
41
102
{ACAD_REACTORS
330
2A
102
}
330
2A
100
AcDbVisualStyle
  2
Shaded with edges
 70
    26
177
     3
291
     0
 70
    58
 90
        2
176
     1
 90
        2
176
     1
 90
        1
176
     1
 90
        2
176
     1
 40
0.6
176
     1
 40
30.0
176
     1
 62
     7
420
 16777215
176
     1
 90
        1
176
     1
 90
       10
176
     1
 62
     7
176
     1
 62
   257
176
     1
 90
        2
176
     1
 90
        1
176
     1
 40
1.0
176
     1
 90
        8
176
     1
 62
   257
176
     1
 40
1.0
176
     1
 90
        1
176
     1
 90
        6
176
     1
 90
        2
176
     1
 62
     7
176
     1
 90
        3
176
     1
 90
        0
176
     1
 90
        0
176
     1
290
     0
176
     1
 90
        5
176
     1
 40
0.0
176
     1
 90
        0
176
     1
290
     0
176
     1
290
     1
176
     1
290
     1
176
     1
290
     0
176
     1
290
     0
176
     1
290
     0
176
     1
290
     0
176
     1
290
     0
176
     1
290
     0
176
     1
 90
       50
176
     1
 40
0.0
176
     1
 40
1.0
176
     1
 90
        0
176
     1
 62
    18
420
        0
176
     1
 90
       50
176
     1
 90
        3
176
     1
 62
     5
420
      255
176
     1
290
     0
176
     1
 90
       50
176
     1
 90
       50
176
     1
 90
       50
176
     1
290
     0
176
     1
 90
       50
176
     1
 62
   256
176
     0
 40
1.0
176
     0
 90
        2
176
     1
  1
strokes_ogs.tif
176
     1
290
     0
176
     1
 40
1.0
176
     1
 40
1.0
176
     1
  0
VISUALSTYLE
  5
3E
102
{ACAD_REACTORS
330
2A
102
}
330
2A
100
AcDbVisualStyle
  2
Shades of Gray
 70
    23
177
     3
291
     0
 70
    58
 90
        2
176
     1
 90
        2
176
     1
 90
        3
176
     1
 90
        0
176
     1
 40
0.6
176
     1
 40
30.0
176
     1
 62
     7
420
 16777215
176
     1
 90
        2
176
     1
 90
        2
176
     1
 62
     7
176
     1
 62
     7
176
     1
 90
        1
176
     1
 90
        1
176
     1
 40
40.0
176
     1
 90
        8
176
     1
 62
     7
176
     1
 40
1.0
176
     1
 90
        1
176
     1
 90
        6
176
     1
 90
        2
176
     1
 62
     7
176
     1
 90
        3
176
     1
 90
        0
176
     1
 90
        0
176
     1
290
     0
176
     1
 90
        1
176
     1
 40
0.0
176
     1
 90
        0
176
     1
290
     0
176
     1
290
     1
176
     1
290
     1
176
     1
290
     0
176
     1
290
     0
176
     1
290
     0
176
     1
290
     0
176
     1
290
     0
176
     1
290
     0
176
     1
 90
       50
176
     1
 40
0.0
176
     1
 40
1.0
176
     1
 90
        0
176
     1
 62
    18
420
        0
176
     1
 90
       50
176
     1
 90
        3
176
     1
 62
     5
420
      255
176
     1
290
     0
176
     1
 90
       50
176
     1
 90
       50
176
     1
 90
       50
176
     1
290
     0
176
     1
 90
       50
176
     1
 62
   256
176
     0
 40
1.0
176
     0
 90
        2
176
     1
  1
strokes_ogs.tif
176
     1
290
     0
176
     1
 40
1.0
176
     1
 40
1.0
176
     1
  0
VISUALSTYLE
  5
3F
102
{ACAD_REACTORS
330
2A
102
}
330
2A
100
AcDbVisualStyle
  2
Sketchy
 70
    24
177
     3
291
     0
 70
    58
 90
        1
176
     1
 90
        2
176
     1
 90
        2
176
     1
 90
        0
176
     1
 40
0.6
176
     1
 40
30.0
176
     1
 62
     7
420
 16777215
176
     1
 90
        2
176
     1
 90
        2
176
     1
 62
     7
176
     1
 62
     7
176
     1
 90
        1
176
     1
 90
        1
176
     1
 40
40.0
176
     1
 90
       11
176
     1
 62
     7
176
     1
 40
1.0
176
     1
 90
        1
176
     1
 90
        6
176
     1
 90
        2
176
     1
 62
     7
176
     1
 90
        6
176
     1
 90
        0
176
     1
 90
        0
176
     1
290
     0
176
     1
 90
        1
176
     1
 40
0.0
176
     1
 90
        0
176
     1
290
     0
176
     1
290
     1
176
     1
290
     1
176
     1
290
     0
176
     1
290
     0
176
     1
290
     0
176
     1
290
     0
176
     1
290
     0
176
     1
290
     0
176
     1
 90
       50
176
     1
 40
0.0
176
     1
 40
1.0
176
     1
 90
        0
176
     1
 62
    18
420
        0
176
     1
 90
       50
176
     1
 90
        3
176
     1
 62
     5
420
      255
176
     1
290
     0
176
     1
 90
       50
176
     1
 90
       50
176
     1
 90
       50
176
     1
290
     0
176
     1
 90
       50
176
     1
 62
   256
176
     0
 40
1.0
176
     0
 90
        2
176
     1
  1
strokes_ogs.tif
176
     1
290
     0
176
     1
 40
1.0
176
     1
 40
1.0
176
     1
  0
VISUALSTYLE
  5
37
102
{ACAD_REACTORS
330
2A
102
}
330
2A
100
AcDbVisualStyle
  2
Thicken
 70
    13
177
     3
291
     1
 70
    58
 90
        2
176
     1
 90
        2
176
     1
 90
        0
176
     1
 90
        0
176
     1
 40
0.6
176
     1
 40
30.0
176
     1
 62
     7
420
 16777215
176
     1
 90
        1
176
     1
 90
        4
176
     1
 62
     7
176
     1
 62
   257
176
     1
 90
        1
176
     1
 90
        1
176
     1
 40
1.0
176
     1
 90
       12
176
     1
 62
     7
176
     1
 40
1.0
176
     1
 90
        1
176
     1
 90
        6
176
     1
 90
        2
176
     1
 62
     7
176
     1
 90
        5
176
     1
 90
        0
176
     1
 90
        0
176
     1
290
     0
176
     1
 90
        1
176
     1
 40
0.0
176
     1
 90
        0
176
     1
290
     0
176
     1
290
     1
176
     1
290
     1
176
     1
290
     0
176
     1
290
     0
176
     1
290
     0
176
     1
290
     0
176
     1
290
     0
176
     1
290
     0
176
     1
 90
       50
176
     1
 40
0.0
176
     1
 40
1.0
176
     1
 90
        0
176
     1
 62
    18
420
        0
176
     1
 90
       50
176
     1
 90
        3
176
     1
 62
     5
420
      255
176
     1
290
     0
176
     1
 90
       50
176
     1
 90
       50
176
     1
 90
       50
176
     1
290
     0
176
     1
 90
       50
176
     1
 62
   256
176
     0
 40
1.0
176
     0
 90
        2
176
     1
  1
strokes_ogs.tif
176
     1
290
     0
176
     1
 40
1.0
176
     1
 40
1.0
176
     1
  0
VISUALSTYLE
  5
30
102
{ACAD_REACTORS
330
2A
102
}
330
2A
100
AcDbVisualStyle
  2
Wireframe
 70
     5
177
     3
291
     0
 70
    58
 90
        0
176
     1
 90
        2
176
     1
 90
        0
176
     1
 90
        0
176
     1
 40
0.6
176
     1
 40
30.0
176
     1
 62
     7
420
 16777215
176
     1
 90
        1
176
     1
 90
        4
176
     1
 62
     7
176
     1
 62
   257
176
     1
 90
        1
176
     1
 90
        1
176
     1
 40
1.0
176
     1
 90
        0
176
     1
 62
   257
176
     1
 40
1.0
176
     1
 90
        1
176
     1
 90
        6
176
     1
 90
        2
176
     1
 62
     7
176
     1
 90
        3
176
     1
 90
        0
176
     1
 90
        0
176
     1
290
     0
176
     1
 90
        1
176
     1
 40
0.0
176
     1
 90
        0
176
     1
290
     0
176
     1
290
     1
176
     1
290
     1
176
     1
290
     0
176
     1
290
     0
176
     1
290
     0
176
     1
290
     0
176
     1
290
     0
176
     1
290
     0
176
     1
 90
       50
176
     1
 40
0.0
176
     1
 40
1.0
176
     1
 90
        0
176
     1
 62
    18
420
        0
176
     1
 90
       50
176
     1
 90
        3
176
     1
 62
     5
420
      255
176
     1
290
     0
176
     1
 90
       50
176
     1
 90
       50
176
     1
 90
       50
176
     1
290
     0
176
     1
 90
       50
176
     1
 62
   256
176
     0
 40
1.0
176
     0
 90
        2
176
     1
  1
strokes_ogs.tif
176
     1
290
     0
176
     1
 40
1.0
176
     1
 40
1.0
176
     1
  0
VISUALSTYLE
  5
40
102
{ACAD_REACTORS
330
2A
102
}
330
2A
100
AcDbVisualStyle
  2
X-Ray
 70
    25
177
     3
291
     0
 70
    58
 90
        2
176
     1
 90
        2
176
     1
 90
        1
176
     1
 90
        1
176
     1
 40
0.5
176
     1
 40
30.0
176
     1
 62
     7
420
 16777215
176
     1
 90
        1
176
     1
 90
        0
176
     1
 62
     7
176
     1
 62
   257
176
     1
 90
        1
176
     1
 90
        1
176
     1
 40
1.0
176
     1
 90
        8
176
     1
 62
     7
176
     1
 40
1.0
176
     1
 90
        1
176
     1
 90
        6
176
     1
 90
        2
176
     1
 62
     7
176
     1
 90
        3
176
     1
 90
        0
176
     1
 90
        0
176
     1
290
     0
176
     1
 90
       13
176
     1
 40
0.0
176
     1
 90
        0
176
     1
290
     0
176
     1
290
     1
176
     1
290
     1
176
     1
290
     0
176
     1
290
     0
176
     1
290
     0
176
     1
290
     0
176
     1
290
     0
176
     1
290
     0
176
     1
 90
       50
176
     1
 40
0.0
176
     1
 40
1.0
176
     1
 90
        0
176
     1
 62
    18
420
        0
176
     1
 90
       50
176
     1
 90
        3
176
     1
 62
     5
420
      255
176
     1
290
     0
176
     1
 90
       50
176
     1
 90
       50
176
     1
 90
       50
176
     1
290
     0
176
     1
 90
       50
176
     1
 62
   256
176
     0
 40
1.0
176
     0
 90
        2
176
     1
  1
strokes_ogs.tif
176
     1
290
     0
176
     1
 40
1.0
176
     1
 40
1.0
176
     1
  0
DICTIONARYVAR
  5
236
102
{ACAD_REACTORS
330
235
102
}
330
235
100
DictionaryVariables
280
     0
  1
1:1
  0
DICTIONARYVAR
  5
23B
102
{ACAD_REACTORS
330
235
102
}
330
235
100
DictionaryVariables
280
     0
  1
Standard
  0
DICTIONARYVAR
  5
23A
102
{ACAD_REACTORS
330
235
102
}
330
235
100
DictionaryVariables
280
     0
  1
Standard
  0
DICTIONARY
  5
237
330
6A
100
AcDbDictionary
280
     1
281
     1
  3
ACAD_ROUNDTRIP_2008_TABLESTYLE_CELLSTYLEMAP
360
238
  0
CELLSTYLEMAP
  5
238
102
{ACAD_REACTORS
330
237
102
}
330
237
100
AcDbCellStyleMap
 90
        3
300
CELLSTYLE
  1
TABLEFORMAT_BEGIN
 90
        5
170
     1
 91
        0
 92
    32768
 62
   257
 93
        1
300
CONTENTFORMAT
  1
CONTENTFORMAT_BEGIN
 90
        0
 91
        0
 92
        4
 93
        0
300

 40
0.0
140
1.0
 94
        5
 62
     0
340
11
144
0.25
309
CONTENTFORMAT_END
171
     1
301
MARGIN
  1
CELLMARGIN_BEGIN
 40
0.06
 40
0.06
 40
0.06
 40
0.06
 40
0.06
 40
0.06
309
CELLMARGIN_END
 94
        6
 95
        1
302
GRIDFORMAT
  1
GRIDFORMAT_BEGIN
 90
        0
 91
        1
 62
     0
 92
       -2
340
14
 93
        0
 40
0.045
309
GRIDFORMAT_END
 95
        2
302
GRIDFORMAT
  1
GRIDFORMAT_BEGIN
 90
        0
 91
        1
 62
     0
 92
       -2
340
14
 93
        0
 40
0.045
309
GRIDFORMAT_END
 95
        4
302
GRIDFORMAT
  1
GRIDFORMAT_BEGIN
 90
        0
 91
        1
 62
     0
 92
       -2
340
14
 93
        0
 40
0.045
309
GRIDFORMAT_END
 95
        8
302
GRIDFORMAT
  1
GRIDFORMAT_BEGIN
 90
        0
 91
        1
 62
     0
 92
       -2
340
14
 93
        0
 40
0.045
309
GRIDFORMAT_END
 95
       16
302
GRIDFORMAT
  1
GRIDFORMAT_BEGIN
 90
        0
 91
        1
 62
     0
 92
       -2
340
14
 93
        0
 40
0.045
309
GRIDFORMAT_END
 95
       32
302
GRIDFORMAT
  1
GRIDFORMAT_BEGIN
 90
        0
 91
        1
 62
     0
 92
       -2
340
14
 93
        0
 40
0.045
309
GRIDFORMAT_END
309
TABLEFORMAT_END
  1
CELLSTYLE_BEGIN
 90
        1
 91
        1
300
_TITLE
309
CELLSTYLE_END
300
CELLSTYLE
  1
TABLEFORMAT_BEGIN
 90
        5
170
     1
 91
        0
 92
        0
 62
   257
 93
        1
300
CONTENTFORMAT
  1
CONTENTFORMAT_BEGIN
 90
        0
 91
        0
 92
        4
 93
        0
300

 40
0.0
140
1.0
 94
        5
 62
     0
340
11
144
0.18
309
CONTENTFORMAT_END
171
     1
301
MARGIN
  1
CELLMARGIN_BEGIN
 40
0.06
 40
0.06
 40
0.06
 40
0.06
 40
0.06
 40
0.06
309
CELLMARGIN_END
 94
        6
 95
        1
302
GRIDFORMAT
  1
GRIDFORMAT_BEGIN
 90
        0
 91
        1
 62
     0
 92
       -2
340
14
 93
        0
 40
0.045
309
GRIDFORMAT_END
 95
        2
302
GRIDFORMAT
  1
GRIDFORMAT_BEGIN
 90
        0
 91
        1
 62
     0
 92
       -2
340
14
 93
        0
 40
0.045
309
GRIDFORMAT_END
 95
        4
302
GRIDFORMAT
  1
GRIDFORMAT_BEGIN
 90
        0
 91
        1
 62
     0
 92
       -2
340
14
 93
        0
 40
0.045
309
GRIDFORMAT_END
 95
        8
302
GRIDFORMAT
  1
GRIDFORMAT_BEGIN
 90
        0
 91
        1
 62
     0
 92
       -2
340
14
 93
        0
 40
0.045
309
GRIDFORMAT_END
 95
       16
302
GRIDFORMAT
  1
GRIDFORMAT_BEGIN
 90
        0
 91
        1
 62
     0
 92
       -2
340
14
 93
        0
 40
0.045
309
GRIDFORMAT_END
 95
       32
302
GRIDFORMAT
  1
GRIDFORMAT_BEGIN
 90
        0
 91
        1
 62
     0
 92
       -2
340
14
 93
        0
 40
0.045
309
GRIDFORMAT_END
309
TABLEFORMAT_END
  1
CELLSTYLE_BEGIN
 90
        2
 91
        1
300
_HEADER
309
CELLSTYLE_END
300
CELLSTYLE
  1
TABLEFORMAT_BEGIN
 90
        5
170
     1
 91
        0
 92
        0
 62
   257
 93
        1
300
CONTENTFORMAT
  1
CONTENTFORMAT_BEGIN
 90
        0
 91
        0
 92
        4
 93
        0
300

 40
0.0
140
1.0
 94
        2
 62
     0
340
11
144
0.18
309
CONTENTFORMAT_END
171
     1
301
MARGIN
  1
CELLMARGIN_BEGIN
 40
0.06
 40
0.06
 40
0.06
 40
0.06
 40
0.06
 40
0.06
309
CELLMARGIN_END
 94
        6
 95
        1
302
GRIDFORMAT
  1
GRIDFORMAT_BEGIN
 90
        0
 91
        1
 62
     0
 92
       -2
340
14
 93
        0
 40
0.045
309
GRIDFORMAT_END
 95
        2
302
GRIDFORMAT
  1
GRIDFORMAT_BEGIN
 90
        0
 91
        1
 62
     0
 92
       -2
340
14
 93
        0
 40
0.045
309
GRIDFORMAT_END
 95
        4
302
GRIDFORMAT
  1
GRIDFORMAT_BEGIN
 90
        0
 91
        1
 62
     0
 92
       -2
340
14
 93
        0
 40
0.045
309
GRIDFORMAT_END
 95
        8
302
GRIDFORMAT
  1
GRIDFORMAT_BEGIN
 90
        0
 91
        1
 62
     0
 92
       -2
340
14
 93
        0
 40
0.045
309
GRIDFORMAT_END
 95
       16
302
GRIDFORMAT
  1
GRIDFORMAT_BEGIN
 90
        0
 91
        1
 62
     0
 92
       -2
340
14
 93
        0
 40
0.045
309
GRIDFORMAT_END
 95
       32
302
GRIDFORMAT
  1
GRIDFORMAT_BEGIN
 90
        0
 91
        1
 62
     0
 92
       -2
340
14
 93
        0
 40
0.045
309
GRIDFORMAT_END
309
TABLEFORMAT_END
  1
CELLSTYLE_BEGIN
 90
        3
 91
        2
300
_DATA
309
CELLSTYLE_END
  0
ENDSEC
  0
EOF