0
SECTION
  2
HEADER
  9
$ACADVER
  1
AC1027
  9
$ACADMAINTVER
 70
     8
  9
$DWGCODEPAGE
  3
ANSI_1252
  9
$REQUIREDVERSIONS
160
                 0
  9
$COMMENTS
  1
File was created by Cadenas
  9
$CUSTOMPROPERTYTAG
  1
NN
  9
$CUSTOMPROPERTY
  1
Imperial - IP Pillow Block with Type E Dimensions 2-1/4 thru 7 inch 4-Bolt Labyrinth Seal Expansion
  9
$CUSTOMPROPERTYTAG
  1
NT
  9
$CUSTOMPROPERTY
  1
Imperial/E 4 Bolt Piliow Block Bearings
  9
$CUSTOMPROPERTYTAG
  1
NB
  9
$CUSTOMPROPERTY
  1
071238
  9
$CUSTOMPROPERTYTAG
  1
NBSYN
  9
$CUSTOMPROPERTY
  1
$PN.
  9
$CUSTOMPROPERTYTAG
  1
LINA
  9
$CUSTOMPROPERTY
  1
071238
  9
$CUSTOMPROPERTYTAG
  1
SS
  9
$CUSTOMPROPERTY
  1
2-1/4
  9
$CUSTOMPROPERTYTAG
  1
TYPE
  9
$CUSTOMPROPERTY
  1
Non-Expansion
  9
$CUSTOMPROPERTYTAG
  1
PN
  9
$CUSTOMPROPERTY
  1
071238
  9
$CUSTOMPROPERTYTAG
  1
DESCRIPTION
  9
$CUSTOMPROPERTY
  1
EP4B-IP-204L
  9
$CUSTOMPROPERTYTAG
  1
ST
  9
$CUSTOMPROPERTY
  1
Labyrinth Seal
  9
$CUSTOMPROPERTYTAG
  1
A
  9
$CUSTOMPROPERTY
  1
3.42
  9
$CUSTOMPROPERTYTAG
  1
B
  9
$CUSTOMPROPERTY
  1
10.5
  9
$CUSTOMPROPERTYTAG
  1
C
  9
$CUSTOMPROPERTY
  1
3.49
  9
$CUSTOMPROPERTYTAG
  1
DMIN
  9
$CUSTOMPROPERTY
  1
8.31
  9
$CUSTOMPROPERTYTAG
  1
DMAX
  9
$CUSTOMPROPERTY
  1
8.69
  9
$CUSTOMPROPERTYTAG
  1
E
  9
$CUSTOMPROPERTY
  1
1.87
  9
$CUSTOMPROPERTYTAG
  1
F
  9
$CUSTOMPROPERTY
  1
5/8
  9
$CUSTOMPROPERTYTAG
  1
G
  9
$CUSTOMPROPERTY
  1
0.87
  9
$CUSTOMPROPERTYTAG
  1
H
  9
$CUSTOMPROPERTY
  1
1.63
  9
$CUSTOMPROPERTYTAG
  1
J
  9
$CUSTOMPROPERTY
  1
5.72
  9
$CUSTOMPROPERTYTAG
  1
L
  9
$CUSTOMPROPERTY
  1
3.88
  9
$CUSTOMPROPERTYTAG
  1
M
  9
$CUSTOMPROPERTY
  1
2.75
  9
$CUSTOMPROPERTYTAG
  1
R
  9
$CUSTOMPROPERTY
  1
1.21
  9
$CUSTOMPROPERTYTAG
  1
S
  9
$CUSTOMPROPERTY
  1
2.21
  9
$CUSTOMPROPERTYTAG
  1
X
  9
$CUSTOMPROPERTY
  1
0.25
  9
$CUSTOMPROPERTYTAG
  1
Y
  9
$CUSTOMPROPERTY
  1
0.025
  9
$CUSTOMPROPERTYTAG
  1
Z
  9
$CUSTOMPROPERTY
  1
2.94
  9
$CUSTOMPROPERTYTAG
  1
COMPANY
  9
$CUSTOMPROPERTY
  1
baldor
  9
$INSBASE
 10
0.0
 20
0.0
 30
0.0
  9
$EXTMIN
 10
1.000000000000000E+20
 20
1.000000000000000E+20
 30
1.000000000000000E+20
  9
$EXTMAX
 10
-1.000000000000000E+20
 20
-1.000000000000000E+20
 30
-1.000000000000000E+20
  9
$LIMMIN
 10
0.0
 20
0.0
  9
$LIMMAX
 10
12.0
 20
9.0
  9
$ORTHOMODE
 70
     0
  9
$REGENMODE
 70
     1
  9
$FILLMODE
 70
     1
  9
$QTEXTMODE
 70
     0
  9
$MIRRTEXT
 70
     1
  9
$LTSCALE
 40
1.0
  9
$ATTMODE
 70
     1
  9
$TEXTSIZE
 40
0.2
  9
$TRACEWID
 40
0.05
  9
$TEXTSTYLE
  7
Standard
  9
$CLAYER
  8
0
  9
$CELTYPE
  6
ByLayer
  9
$CECOLOR
 62
   256
  9
$CELTSCALE
 40
1.0
  9
$DISPSILH
 70
     0
  9
$DIMSCALE
 40
1.0
  9
$DIMASZ
 40
0.18
  9
$DIMEXO
 40
0.0625
  9
$DIMDLI
 40
0.38
  9
$DIMRND
 40
0.0
  9
$DIMDLE
 40
0.0
  9
$DIMEXE
 40
0.18
  9
$DIMTP
 40
0.0
  9
$DIMTM
 40
0.0
  9
$DIMTXT
 40
0.18
  9
$DIMCEN
 40
0.09
  9
$DIMTSZ
 40
0.0
  9
$DIMTOL
 70
     0
  9
$DIMLIM
 70
     0
  9
$DIMTIH
 70
     1
  9
$DIMTOH
 70
     1
  9
$DIMSE1
 70
     0
  9
$DIMSE2
 70
     0
  9
$DIMTAD
 70
     0
  9
$DIMZIN
 70
     0
  9
$DIMBLK
  1

  9
$DIMASO
 70
     1
  9
$DIMSHO
 70
     1
  9
$DIMPOST
  1

  9
$DIMAPOST
  1

  9
$DIMALT
 70
     0
  9
$DIMALTD
 70
     2
  9
$DIMALTF
 40
25.4
  9
$DIMLFAC
 40
1.0
  9
$DIMTOFL
 70
     0
  9
$DIMTVP
 40
0.0
  9
$DIMTIX
 70
     0
  9
$DIMSOXD
 70
     0
  9
$DIMSAH
 70
     0
  9
$DIMBLK1
  1

  9
$DIMBLK2
  1

  9
$DIMSTYLE
  2
Standard
  9
$DIMCLRD
 70
     0
  9
$DIMCLRE
 70
     0
  9
$DIMCLRT
 70
     0
  9
$DIMTFAC
 40
1.0
  9
$DIMGAP
 40
0.09
  9
$DIMJUST
 70
     0
  9
$DIMSD1
 70
     0
  9
$DIMSD2
 70
     0
  9
$DIMTOLJ
 70
     1
  9
$DIMTZIN
 70
     0
  9
$DIMALTZ
 70
     0
  9
$DIMALTTZ
 70
     0
  9
$DIMUPT
 70
     0
  9
$DIMDEC
 70
     4
  9
$DIMTDEC
 70
     4
  9
$DIMALTU
 70
     2
  9
$DIMALTTD
 70
     2
  9
$DIMTXSTY
  7
Standard
  9
$DIMAUNIT
 70
     0
  9
$DIMADEC
 70
     0
  9
$DIMALTRND
 40
0.0
  9
$DIMAZIN
 70
     0
  9
$DIMDSEP
 70
    46
  9
$DIMATFIT
 70
     3
  9
$DIMFRAC
 70
     0
  9
$DIMLDRBLK
  1

  9
$DIMLUNIT
 70
     2
  9
$DIMLWD
 70
    -2
  9
$DIMLWE
 70
    -2
  9
$DIMTMOVE
 70
     0
  9
$DIMFXL
 40
1.0
  9
$DIMFXLON
 70
     0
  9
$DIMJOGANG
 40
0.7853981633974483
  9
$DIMTFILL
 70
     0
  9
$DIMTFILLCLR
 70
     0
  9
$DIMARCSYM
 70
     0
  9
$DIMLTYPE
  6

  9
$DIMLTEX1
  6

  9
$DIMLTEX2
  6

  9
$DIMTXTDIRECTION
 70
     0
  9
$LUNITS
 70
     2
  9
$LUPREC
 70
     4
  9
$SKETCHINC
 40
0.1
  9
$FILLETRAD
 40
0.5
  9
$AUNITS
 70
     0
  9
$AUPREC
 70
     0
  9
$MENU
  1
.
  9
$ELEVATION
 40
0.0
  9
$PELEVATION
 40
0.0
  9
$THICKNESS
 40
0.0
  9
$LIMCHECK
 70
     0
  9
$CHAMFERA
 40
0.0
  9
$CHAMFERB
 40
0.0
  9
$CHAMFERC
 40
0.0
  9
$CHAMFERD
 40
0.0
  9
$SKPOLY
 70
     0
  9
$TDCREATE
 40
2458168.982631967
  9
$TDUCREATE
 40
2458168.940965301
  9
$TDUPDATE
 40
2458168.982632153
  9
$TDUUPDATE
 40
2458168.940965486
  9
$TDINDWG
 40
0.0000000116
  9
$TDUSRTIMER
 40
0.0000000116
  9
$USRTIMER
 70
     1
  9
$ANGBASE
 50
0.0
  9
$ANGDIR
 70
     0
  9
$PDMODE
 70
     0
  9
$PDSIZE
 40
0.0
  9
$PLINEWID
 40
0.0
  9
$SPLFRAME
 70
     0
  9
$SPLINETYPE
 70
     6
  9
$SPLINESEGS
 70
     8
  9
$HANDSEED
  5
27D
  9
$SURFTAB1
 70
     6
  9
$SURFTAB2
 70
     6
  9
$SURFTYPE
 70
     6
  9
$SURFU
 70
     6
  9
$SURFV
 70
     6
  9
$UCSBASE
  2

  9
$UCSNAME
  2

  9
$UCSORG
 10
0.0
 20
0.0
 30
0.0
  9
$UCSXDIR
 10
1.0
 20
0.0
 30
0.0
  9
$UCSYDIR
 10
0.0
 20
1.0
 30
0.0
  9
$UCSORTHOREF
  2

  9
$UCSORTHOVIEW
 70
     0
  9
$UCSORGTOP
 10
0.0
 20
0.0
 30
0.0
  9
$UCSORGBOTTOM
 10
0.0
 20
0.0
 30
0.0
  9
$UCSORGLEFT
 10
0.0
 20
0.0
 30
0.0
  9
$UCSORGRIGHT
 10
0.0
 20
0.0
 30
0.0
  9
$UCSORGFRONT
 10
0.0
 20
0.0
 30
0.0
  9
$UCSORGBACK
 10
0.0
 20
0.0
 30
0.0
  9
$PUCSBASE
  2

  9
$PUCSNAME
  2

  9
$PUCSORG
 10
0.0
 20
0.0
 30
0.0
  9
$PUCSXDIR
 10
1.0
 20
0.0
 30
0.0
  9
$PUCSYDIR
 10
0.0
 20
1.0
 30
0.0
  9
$PUCSORTHOREF
  2

  9
$PUCSORTHOVIEW
 70
     0
  9
$PUCSORGTOP
 10
0.0
 20
0.0
 30
0.0
  9
$PUCSORGBOTTOM
 10
0.0
 20
0.0
 30
0.0
  9
$PUCSORGLEFT
 10
0.0
 20
0.0
 30
0.0
  9
$PUCSORGRIGHT
 10
0.0
 20
0.0
 30
0.0
  9
$PUCSORGFRONT
 10
0.0
 20
0.0
 30
0.0
  9
$PUCSORGBACK
 10
0.0
 20
0.0
 30
0.0
  9
$USERI1
 70
     0
  9
$USERI2
 70
     0
  9
$USERI3
 70
     0
  9
$USERI4
 70
     0
  9
$USERI5
 70
     0
  9
$USERR1
 40
0.0
  9
$USERR2
 40
0.0
  9
$USERR3
 40
0.0
  9
$USERR4
 40
0.0
  9
$USERR5
 40
0.0
  9
$WORLDVIEW
 70
     1
  9
$SHADEDGE
 70
     3
  9
$SHADEDIF
 70
    70
  9
$TILEMODE
 70
     1
  9
$MAXACTVP
 70
    64
  9
$PINSBASE
 10
0.0
 20
0.0
 30
0.0
  9
$PLIMCHECK
 70
     0
  9
$PEXTMIN
 10
1.000000000000000E+20
 20
1.000000000000000E+20
 30
1.000000000000000E+20
  9
$PEXTMAX
 10
-1.000000000000000E+20
 20
-1.000000000000000E+20
 30
-1.000000000000000E+20
  9
$PLIMMIN
 10
0.0
 20
0.0
  9
$PLIMMAX
 10
12.0
 20
9.0
  9
$UNITMODE
 70
     0
  9
$VISRETAIN
 70
     1
  9
$PLINEGEN
 70
     0
  9
$PSLTSCALE
 70
     1
  9
$TREEDEPTH
 70
  3020
  9
$CMLSTYLE
  2
Standard
  9
$CMLJUST
 70
     0
  9
$CMLSCALE
 40
1.0
  9
$PROXYGRAPHICS
 70
     1
  9
$MEASUREMENT
 70
     0
  9
$CELWEIGHT
370
    -1
  9
$ENDCAPS
280
     0
  9
$JOINSTYLE
280
     0
  9
$LWDISPLAY
290
     0
  9
$INSUNITS
 70
     1
  9
$HYPERLINKBASE
  1

  9
$STYLESHEET
  1

  9
$XEDIT
290
     1
  9
$CEPSNTYPE
380
     0
  9
$PSTYLEMODE
290
     1
  9
$FINGERPRINTGUID
  2
{B573AED0-96F5-4511-B6BD-A6F288A515D5}
  9
$VERSIONGUID
  2
{FAEB1C32-E019-11D5-929B-00C0DF256EC4}
  9
$EXTNAMES
290
     1
  9
$PSVPSCALE
 40
0.0
  9
$OLESTARTUP
290
     0
  9
$SORTENTS
280
   127
  9
$INDEXCTL
280
     0
  9
$HIDETEXT
280
     1
  9
$XCLIPFRAME
280
     2
  9
$HALOGAP
280
     0
  9
$OBSCOLOR
 70
   257
  9
$OBSLTYPE
280
     0
  9
$INTERSECTIONDISPLAY
280
     0
  9
$INTERSECTIONCOLOR
 70
   257
  9
$DIMASSOC
280
     2
  9
$PROJECTNAME
  1

  9
$CAMERADISPLAY
290
     0
  9
$LENSLENGTH
 40
50.0
  9
$CAMERAHEIGHT
 40
0.0
  9
$STEPSPERSEC
 40
2.0
  9
$STEPSIZE
 40
6.0
  9
$3DDWFPREC
 40
2.0
  9
$PSOLWIDTH
 40
0.25
  9
$PSOLHEIGHT
 40
4.0
  9
$LOFTANG1
 40
1.570796326794897
  9
$LOFTANG2
 40
1.570796326794897
  9
$LOFTMAG1
 40
0.0
  9
$LOFTMAG2
 40
0.0
  9
$LOFTPARAM
 70
     7
  9
$LOFTNORMALS
280
     1
  9
$LATITUDE
 40
37.795
  9
$LONGITUDE
 40
-122.394
  9
$NORTHDIRECTION
 40
0.0
  9
$TIMEZONE
 70
 -8000
  9
$LIGHTGLYPHDISPLAY
280
     1
  9
$TILEMODELIGHTSYNCH
280
     1
  9
$CMATERIAL
347
44
  9
$SOLIDHIST
280
     0
  9
$SHOWHIST
280
     1
  9
$DWFFRAME
280
     2
  9
$DGNFRAME
280
     2
  9
$REALWORLDSCALE
290
     1
  9
$INTERFERECOLOR
 62
   256
  9
$CSHADOW
280
     0
  9
$SHADOWPLANELOCATION
 40
0.0
  0
ENDSEC
  0
SECTION
  2
CLASSES
  0
CLASS
  1
ACDBDICTIONARYWDFLT
  2
AcDbDictionaryWithDefault
  3
ObjectDBX Classes
 90
        0
 91
        4
280
     0
281
     0
  0
CLASS
  1
VISUALSTYLE
  2
AcDbVisualStyle
  3
ObjectDBX Classes
 90
     4095
 91
        4
280
     0
281
     0
  0
CLASS
  1
MATERIAL
  2
AcDbMaterial
  3
ObjectDBX Classes
 90
     1153
 91
        4
280
     0
281
     0
  0
CLASS
  1
SCALE
  2
AcDbScale
  3
ObjectDBX Classes
 90
     1153
 91
        4
280
     0
281
     0
  0
CLASS
  1
TABLESTYLE
  2
AcDbTableStyle
  3
ObjectDBX Classes
 90
     4095
 91
        4
280
     0
281
     0
  0
CLASS
  1
MLEADERSTYLE
  2
AcDbMLeaderStyle
  3
ACDB_MLEADERSTYLE_CLASS
 90
     4095
 91
        4
280
     0
281
     0
  0
CLASS
  1
SUN
  2
AcDbSun
  3
SCENEOE
 90
     1153
 91
        4
280
     0
281
     0
  0
CLASS
  1
DICTIONARYVAR
  2
AcDbDictionaryVar
  3
ObjectDBX Classes
 90
        0
 91
        4
280
     0
281
     0
  0
CLASS
  1
CELLSTYLEMAP
  2
AcDbCellStyleMap
  3
ObjectDBX Classes
 90
     1152
 91
        4
280
     0
281
     0
  0
ENDSEC
  0
SECTION
  2
TABLES
  0
TABLE
  2
VPORT
  5
8
330
0
100
AcDbSymbolTable
 70
     1
  0
VPORT
  5
29
330
8
100
AcDbSymbolTableRecord
100
AcDbViewportTableRecord
  2
*Active
 70
     0
 10
0.0
 20
0.0
 11
1.0
 21
1.0
 12
0.0
 22
-0.231374999999999
 13
0.0
 23
0.0
 14
0.5
 24
0.5
 15
0.5
 25
0.5
 16
0.0
 26
0.0
 36
1.0
 17
0.0
 27
0.0
 37
0.0
 40
4.387784999999998
 41
2.440867088975418
 42
50.0
 43
0.0
 44
0.0
 50
0.0
 51
0.0
 71
     0
 72
   100
 73
     1
 74
     3
 75
     0
 76
     0
 77
     0
 78
     0
281
     0
 65
     1
110
0.0
120
0.0
130
0.0
111
1.0
121
0.0
131
0.0
112
0.0
122
1.0
132
0.0
 79
     0
146
0.0
348
2F
 60
     3
 61
     5
292
     1
282
     1
141
0.0
142
0.0
 63
   250
361
6D
  0
ENDTAB
  0
TABLE
  2
LTYPE
  5
5
330
0
100
AcDbSymbolTable
 70
     3
  0
LTYPE
  5
14
330
5
100
AcDbSymbolTableRecord
100
AcDbLinetypeTableRecord
  2
ByBlock
 70
     0
  3

 72
    65
 73
     0
 40
0.0
  0
LTYPE
  5
15
330
5
100
AcDbSymbolTableRecord
100
AcDbLinetypeTableRecord
  2
ByLayer
 70
     0
  3

 72
    65
 73
     0
 40
0.0
  0
LTYPE
  5
16
330
5
100
AcDbSymbolTableRecord
100
AcDbLinetypeTableRecord
  2
Continuous
 70
     0
  3
Solid line
 72
    65
 73
     0
 40
0.0
  0
LTYPE
  5
9B
330
5
100
AcDbSymbolTableRecord
100
AcDbLinetypeTableRecord
  2
Dashed
 70
     0
  3

 72
    65
 73
     2
 40
2.0
 49
1.0
 74
     0
 49
-1.0
 74
     0
  0
LTYPE
  5
214
330
5
100
AcDbSymbolTableRecord
100
AcDbLinetypeTableRecord
  2
Center
 70
     0
  3

 72
    65
 73
     4
 40
1.5
 49
0.45
 74
     0
 49
-0.5
 74
     0
 49
0.05
 74
     0
 49
-0.5
 74
     0
  0
ENDTAB
  0
TABLE
  2
LAYER
  5
2
330
0
100
AcDbSymbolTable
 70
     7
  0
LAYER
  5
10
330
2
100
AcDbSymbolTableRecord
100
AcDbLayerTableRecord
  2
0
 70
     0
 62
     7
  6
Continuous
370
    -3
390
F
347
46
348
0
  0
LAYER
  5
72
330
2
100
AcDbSymbolTableRecord
100
AcDbLayerTableRecord
  2
AM_6
 70
     0
 62
    -2
  6
Continuous
370
    35
390
F
347
46
348
0
  0
LAYER
  5
9C
330
2
100
AcDbSymbolTableRecord
100
AcDbLayerTableRecord
  2
AM_9
 70
     0
 62
     6
  6
Dashed
370
    25
390
F
347
46
348
0
  0
LAYER
  5
BA
330
2
100
AcDbSymbolTableRecord
100
AcDbLayerTableRecord
  2
AM_4
 70
     0
 62
     7
  6
Continuous
370
    50
390
F
347
46
348
0
  0
LAYER
  5
ED
330
2
100
AcDbSymbolTableRecord
100
AcDbLayerTableRecord
  2
AM_5
 70
     0
 62
     3
  6
Continuous
370
    25
390
F
347
46
348
0
  0
LAYER
  5
215
330
2
100
AcDbSymbolTableRecord
100
AcDbLayerTableRecord
  2
AM_7
 70
     0
 62
     7
  6
Center
370
    25
390
F
347
46
348
0
  0
LAYER
  5
268
330
2
100
AcDbSymbolTableRecord
100
AcDbLayerTableRecord
  2
ConnectionPoints
 70
     0
 62
     7
  6
Continuous
370
    50
390
F
347
46
348
0
  0
ENDTAB
  0
TABLE
  2
STYLE
  5
3
330
0
100
AcDbSymbolTable
 70
     1
  0
STYLE
  5
11
330
3
100
AcDbSymbolTableRecord
100
AcDbTextStyleTableRecord
  2
Standard
 70
     0
 40
0.0
 41
1.0
 50
0.0
 71
     0
 42
0.2
  3
txt
  4

  0
ENDTAB
  0
TABLE
  2
VIEW
  5
6
330
0
100
AcDbSymbolTable
 70
     0
  0
ENDTAB
  0
TABLE
  2
UCS
  5
7
330
0
100
AcDbSymbolTable
 70
     0
  0
ENDTAB
  0
TABLE
  2
APPID
  5
9
330
0
100
AcDbSymbolTable
 70
     1
  0
APPID
  5
12
330
9
100
AcDbSymbolTableRecord
100
AcDbRegAppTableRecord
  2
ACAD
 70
     0
  0
ENDTAB
  0
TABLE
  2
DIMSTYLE
  5
A
330
0
100
AcDbSymbolTable
 70
     1
100
AcDbDimStyleTable
  0
DIMSTYLE
105
27
330
A
100
AcDbSymbolTableRecord
100
AcDbDimStyleTableRecord
  2
Standard
 70
     0
178
     0
340
11
  0
ENDTAB
  0
TABLE
  2
BLOCK_RECORD
  5
1
330
0
100
AcDbSymbolTable
 70
     8
  0
BLOCK_RECORD
  5
1F
330
1
100
AcDbSymbolTableRecord
100
AcDbBlockTableRecord
  2
*Model_Space
340
22
 70
     0
280
     1
281
     0
  0
BLOCK_RECORD
  5
1B
330
1
100
AcDbSymbolTableRecord
100
AcDbBlockTableRecord
  2
*Paper_Space
340
1E
 70
     0
280
     1
281
     0
  0
BLOCK_RECORD
  5
23
330
1
100
AcDbSymbolTableRecord
100
AcDbBlockTableRecord
  2
*Paper_Space0
340
26
 70
     0
280
     1
281
     0
  0
BLOCK_RECORD
  5
6E
330
1
100
AcDbSymbolTableRecord
100
AcDbBlockTableRecord
  2
1_071238_4
340
0
102
{BLKREFS
331
6F
102
}
 70
     0
280
     1
281
     0
  0
BLOCK_RECORD
  5
8F
330
1
100
AcDbSymbolTableRecord
100
AcDbBlockTableRecord
  2
2_405015E_Inch_0_in_071238_4
340
0
102
{BLKREFS
331
90
102
}
 70
     0
280
     1
281
     0
  0
BLOCK_RECORD
  5
DD
330
1
100
AcDbSymbolTableRecord
100
AcDbBlockTableRecord
  2
3_ASME_B18_3_10_1_0_in_071238_4
340
0
102
{BLKREFS
331
DE
102
}
 70
     0
280
     1
281
     0
  0
BLOCK_RECORD
  5
F0
330
1
100
AcDbSymbolTableRecord
100
AcDbBlockTableRecord
  2
4_ASME_B18_3_10_2_0_in_071238_4
340
0
102
{BLKREFS
331
F1
102
}
 70
     0
280
     1
281
     0
  0
BLOCK_RECORD
  5
112
330
1
100
AcDbSymbolTableRecord
100
AcDbBlockTableRecord
  2
5_070893LWE_0_in_071238_4
340
0
102
{BLKREFS
331
113
102
}
 70
     0
280
     1
281
     0
  0
BLOCK_RECORD
  5
14B
330
1
100
AcDbSymbolTableRecord
100
AcDbBlockTableRecord
  2
6_070893EL_0_in_071238_4
340
0
102
{BLKREFS
331
14C
102
}
 70
     0
280
     1
281
     0
  0
BLOCK_RECORD
  5
1CC
330
1
100
AcDbSymbolTableRecord
100
AcDbBlockTableRecord
  2
7_071238H_0_in_071238_4
340
0
102
{BLKREFS
331
1CD
102
}
 70
     0
280
     1
281
     0
  0
ENDTAB
  0
ENDSEC
  0
SECTION
  2
BLOCKS
  0
BLOCK
  5
20
330
1F
100
AcDbEntity
  8
0
100
AcDbBlockBegin
  2
*Model_Space
 70
     0
 10
0.0
 20
0.0
 30
0.0
  3
*Model_Space
  1

  0
ENDBLK
  5
21
330
1F
100
AcDbEntity
  8
0
100
AcDbBlockEnd
  0
BLOCK
  5
1C
330
1B
100
AcDbEntity
 67
     1
  8
0
100
AcDbBlockBegin
  2
*Paper_Space
 70
     0
 10
0.0
 20
0.0
 30
0.0
  3
*Paper_Space
  1

  0
ENDBLK
  5
1D
330
1B
100
AcDbEntity
 67
     1
  8
0
100
AcDbBlockEnd
  0
BLOCK
  5
24
330
23
100
AcDbEntity
  8
0
100
AcDbBlockBegin
  2
*Paper_Space0
 70
     0
 10
0.0
 20
0.0
 30
0.0
  3
*Paper_Space0
  1

  0
ENDBLK
  5
25
330
23
100
AcDbEntity
  8
0
100
AcDbBlockEnd
  0
BLOCK
  5
70
330
6E
100
AcDbEntity
  8
0
100
AcDbBlockBegin
  2
1_071238_4
 70
     2
 10
0.0
 20
0.0
 30
0.0
  3
1_071238_4
  1

  0
ATTDEF
  5
73
330
6E
100
AcDbEntity
  8
AM_6
100
AcDbText
 10
10.25
 20
1.9195
 30
0.0
 40
0.5
  1
Imperial - IP Pillow Block with Type E Dimensions 2-1/4 thru 7 inch 4-Bolt Labyrinth Seal Expansion
100
AcDbAttributeDefinition
  3

  2
NN
 70
     8
280
     0
  0
ATTDEF
  5
74
330
6E
100
AcDbEntity
  8
AM_6
100
AcDbText
 10
10.25
 20
1.4195
 30
0.0
 40
0.5
  1
Imperial/E 4 Bolt Piliow Block Bearings
100
AcDbAttributeDefinition
  3

  2
NT
 70
     8
280
     0
  0
ATTDEF
  5
75
330
6E
100
AcDbEntity
  8
AM_6
100
AcDbText
 10
10.25
 20
0.9195000000000002
 30
0.0
 40
0.5
  1
071238
100
AcDbAttributeDefinition
  3

  2
NB
 70
     8
280
     0
  0
ATTDEF
  5
76
330
6E
100
AcDbEntity
  8
AM_6
100
AcDbText
 10
10.25
 20
0.4195000000000002
 30
0.0
 40
0.5
  1
$PN.
100
AcDbAttributeDefinition
  3

  2
NBSYN
 70
     8
280
     0
  0
ATTDEF
  5
77
330
6E
100
AcDbEntity
  8
AM_6
100
AcDbText
 10
10.25
 20
-0.0804999999999998
 30
0.0
 40
0.5
  1
071238
100
AcDbAttributeDefinition
  3

  2
LINA
 70
     8
280
     0
  0
ATTDEF
  5
78
330
6E
100
AcDbEntity
  8
AM_6
100
AcDbText
 10
10.25
 20
-0.5804999999999998
 30
0.0
 40
0.5
  1
2-1/4
100
AcDbAttributeDefinition
  3

  2
SS
 70
     8
280
     0
  0
ATTDEF
  5
79
330
6E
100
AcDbEntity
  8
AM_6
100
AcDbText
 10
10.25
 20
-1.0805
 30
0.0
 40
0.5
  1
Non-Expansion
100
AcDbAttributeDefinition
  3

  2
TYPE
 70
     8
280
     0
  0
ATTDEF
  5
7A
330
6E
100
AcDbEntity
  8
AM_6
100
AcDbText
 10
10.25
 20
-1.5805
 30
0.0
 40
0.5
  1
071238
100
AcDbAttributeDefinition
  3

  2
PN
 70
     8
280
     0
  0
ATTDEF
  5
7B
330
6E
100
AcDbEntity
  8
AM_6
100
AcDbText
 10
10.25
 20
-2.0805
 30
0.0
 40
0.5
  1
EP4B-IP-204L
100
AcDbAttributeDefinition
  3

  2
DESCRIPTION
 70
     8
280
     0
  0
ATTDEF
  5
7C
330
6E
100
AcDbEntity
  8
AM_6
100
AcDbText
 10
10.25
 20
-2.5805
 30
0.0
 40
0.5
  1
Labyrinth Seal
100
AcDbAttributeDefinition
  3

  2
ST
 70
     8
280
     0
  0
ATTDEF
  5
7D
330
6E
100
AcDbEntity
  8
AM_6
100
AcDbText
 10
10.25
 20
-3.0805
 30
0.0
 40
0.5
  1
3.42
100
AcDbAttributeDefinition
  3

  2
A
 70
     8
280
     0
  0
ATTDEF
  5
7E
330
6E
100
AcDbEntity
  8
AM_6
100
AcDbText
 10
10.25
 20
-3.5805
 30
0.0
 40
0.5
  1
10.5
100
AcDbAttributeDefinition
  3

  2
B
 70
     8
280
     0
  0
ATTDEF
  5
7F
330
6E
100
AcDbEntity
  8
AM_6
100
AcDbText
 10
10.25
 20
-4.0805
 30
0.0
 40
0.5
  1
3.49
100
AcDbAttributeDefinition
  3

  2
C
 70
     8
280
     0
  0
ATTDEF
  5
80
330
6E
100
AcDbEntity
  8
AM_6
100
AcDbText
 10
10.25
 20
-4.5805
 30
0.0
 40
0.5
  1
8.31
100
AcDbAttributeDefinition
  3

  2
DMIN
 70
     8
280
     0
  0
ATTDEF
  5
81
330
6E
100
AcDbEntity
  8
AM_6
100
AcDbText
 10
10.25
 20
-5.0805
 30
0.0
 40
0.5
  1
8.69
100
AcDbAttributeDefinition
  3

  2
DMAX
 70
     8
280
     0
  0
ATTDEF
  5
82
330
6E
100
AcDbEntity
  8
AM_6
100
AcDbText
 10
10.25
 20
-5.5805
 30
0.0
 40
0.5
  1
1.87
100
AcDbAttributeDefinition
  3

  2
E
 70
     8
280
     0
  0
ATTDEF
  5
83
330
6E
100
AcDbEntity
  8
AM_6
100
AcDbText
 10
10.25
 20
-6.0805
 30
0.0
 40
0.5
  1
5/8
100
AcDbAttributeDefinition
  3

  2
F
 70
     8
280
     0
  0
ATTDEF
  5
84
330
6E
100
AcDbEntity
  8
AM_6
100
AcDbText
 10
10.25
 20
-6.5805
 30
0.0
 40
0.5
  1
0.87
100
AcDbAttributeDefinition
  3

  2
G
 70
     8
280
     0
  0
ATTDEF
  5
85
330
6E
100
AcDbEntity
  8
AM_6
100
AcDbText
 10
10.25
 20
-7.0805
 30
0.0
 40
0.5
  1
1.63
100
AcDbAttributeDefinition
  3

  2
H
 70
     8
280
     0
  0
ATTDEF
  5
86
330
6E
100
AcDbEntity
  8
AM_6
100
AcDbText
 10
10.25
 20
-7.5805
 30
0.0
 40
0.5
  1
5.72
100
AcDbAttributeDefinition
  3

  2
J
 70
     8
280
     0
  0
ATTDEF
  5
87
330
6E
100
AcDbEntity
  8
AM_6
100
AcDbText
 10
10.25
 20
-8.0805
 30
0.0
 40
0.5
  1
3.88
100
AcDbAttributeDefinition
  3

  2
L
 70
     8
280
     0
  0
ATTDEF
  5
88
330
6E
100
AcDbEntity
  8
AM_6
100
AcDbText
 10
10.25
 20
-8.5805
 30
0.0
 40
0.5
  1
2.75
100
AcDbAttributeDefinition
  3

  2
M
 70
     8
280
     0
  0
ATTDEF
  5
89
330
6E
100
AcDbEntity
  8
AM_6
100
AcDbText
 10
10.25
 20
-9.0805
 30
0.0
 40
0.5
  1
1.21
100
AcDbAttributeDefinition
  3

  2
R
 70
     8
280
     0
  0
ATTDEF
  5
8A
330
6E
100
AcDbEntity
  8
AM_6
100
AcDbText
 10
10.25
 20
-9.5805
 30
0.0
 40
0.5
  1
2.21
100
AcDbAttributeDefinition
  3

  2
S
 70
     8
280
     0
  0
ATTDEF
  5
8B
330
6E
100
AcDbEntity
  8
AM_6
100
AcDbText
 10
10.25
 20
-10.0805
 30
0.0
 40
0.5
  1
0.25
100
AcDbAttributeDefinition
  3

  2
X
 70
     8
280
     0
  0
ATTDEF
  5
8C
330
6E
100
AcDbEntity
  8
AM_6
100
AcDbText
 10
10.25
 20
-10.5805
 30
0.0
 40
0.5
  1
0.025
100
AcDbAttributeDefinition
  3

  2
Y
 70
     8
280
     0
  0
ATTDEF
  5
8D
330
6E
100
AcDbEntity
  8
AM_6
100
AcDbText
 10
10.25
 20
-11.0805
 30
0.0
 40
0.5
  1
2.94
100
AcDbAttributeDefinition
  3

  2
Z
 70
     8
280
     0
  0
ATTDEF
  5
8E
330
6E
100
AcDbEntity
  8
AM_6
100
AcDbText
 10
10.25
 20
-11.5805
 30
0.0
 40
0.5
  1
baldor
100
AcDbAttributeDefinition
  3

  2
COMPANY
 70
     8
280
     0
  0
INSERT
  5
90
330
6E
100
AcDbEntity
  8
0
100
AcDbBlockReference
  2
2_405015E_Inch_0_in_071238_4
 10
0.0
 20
0.0
 30
0.0
  0
INSERT
  5
DE
330
6E
100
AcDbEntity
  8
0
100
AcDbBlockReference
  2
3_ASME_B18_3_10_1_0_in_071238_4
 10
0.0
 20
0.0
 30
0.0
  0
INSERT
  5
F1
330
6E
100
AcDbEntity
  8
0
100
AcDbBlockReference
  2
4_ASME_B18_3_10_2_0_in_071238_4
 10
0.0
 20
0.0
 30
0.0
  0
INSERT
  5
113
330
6E
100
AcDbEntity
  8
0
100
AcDbBlockReference
  2
5_070893LWE_0_in_071238_4
 10
0.0
 20
0.0
 30
0.0
  0
INSERT
  5
14C
330
6E
100
AcDbEntity
  8
0
100
AcDbBlockReference
  2
6_070893EL_0_in_071238_4
 10
0.0
 20
0.0
 30
0.0
  0
INSERT
  5
1CD
330
6E
100
AcDbEntity
  8
0
100
AcDbBlockReference
  2
7_071238H_0_in_071238_4
 10
0.0
 20
0.0
 30
0.0
  0
ENDBLK
  5
71
330
6E
100
AcDbEntity
  8
0
100
AcDbBlockEnd
  0
BLOCK
  5
91
330
8F
100
AcDbEntity
  8
0
100
AcDbBlockBegin
  2
2_405015E_Inch_0_in_071238_4
 70
     2
 10
0.0
 20
0.0
 30
0.0
  3
2_405015E_Inch_0_in_071238_4
  1

  0
ATTDEF
  5
93
330
8F
100
AcDbEntity
  8
AM_6
100
AcDbText
 10
3.751150533277437
 20
0.2525907427704614
 30
0.0
 40
0.5
  1
405015E -Inch
100
AcDbAttributeDefinition
  3

  2
NN
 70
     8
280
     0
  0
ATTDEF
  5
94
330
8F
100
AcDbEntity
  8
AM_6
100
AcDbText
 10
3.751150533277437
 20
-0.2474092572295386
 30
0.0
 40
0.5
  1
Grease Fitting
100
AcDbAttributeDefinition
  3

  2
NT
 70
     8
280
     0
  0
ATTDEF
  5
95
330
8F
100
AcDbEntity
  8
AM_6
100
AcDbText
 10
3.751150533277437
 20
-0.7474092572295385
 30
0.0
 40
0.5
  1
405015E-Inch
100
AcDbAttributeDefinition
  3

  2
NB
 70
     8
280
     0
  0
ATTDEF
  5
96
330
8F
100
AcDbEntity
  8
AM_6
100
AcDbText
 10
3.751150533277437
 20
-1.247409257229539
 30
0.0
 40
0.5
  1
$MN.-Inch
100
AcDbAttributeDefinition
  3

  2
NBSYN
 70
     8
280
     0
  0
ATTDEF
  5
97
330
8F
100
AcDbEntity
  8
AM_6
100
AcDbText
 10
3.751150533277437
 20
-1.747409257229539
 30
0.0
 40
0.5
  1
405015E
100
AcDbAttributeDefinition
  3

  2
LINA
 70
     8
280
     0
  0
ATTDEF
  5
98
330
8F
100
AcDbEntity
  8
AM_6
100
AcDbText
 10
3.751150533277437
 20
-2.247409257229538
 30
0.0
 40
0.5
  1
405015E
100
AcDbAttributeDefinition
  3

  2
MN
 70
     8
280
     0
  0
ATTDEF
  5
99
330
8F
100
AcDbEntity
  8
AM_6
100
AcDbText
 10
3.751150533277437
 20
-2.747409257229538
 30
0.0
 40
0.5
  1
1/8 x 27PTF
100
AcDbAttributeDefinition
  3

  2
T
 70
     8
280
     0
  0
ATTDEF
  5
9A
330
8F
100
AcDbEntity
  8
AM_6
100
AcDbText
 10
3.751150533277437
 20
-3.247409257229538
 30
0.0
 40
0.5
  1
baldor
100
AcDbAttributeDefinition
  3

  2
COMPANY
 70
     8
280
     0
  0
ELLIPSE
  5
9D
330
8F
100
AcDbEntity
  8
AM_9
100
AcDbEllipse
 10
-1.4025
 20
0.0000000000000001
 30
0.0
 11
-2.974107518188895E-17
 21
-0.161902872472269
 31
0.0
210
0.0
220
0.0
230
1.0
 40
0.8660254037844383
 41
0.0
 42
6.283185307179586
  0
LWPOLYLINE
  5
9E
330
8F
100
AcDbEntity
  8
AM_9
100
AcDbPolyline
 90
        3
 70
     0
 43
0.0
 10
-1.629721528538922
 20
-0.1894430570778458
 10
-1.678278983200901
 20
-0.1578692142315381
 10
-1.728976856926153
 20
-0.1262953713852305
  0
LINE
  5
9F
330
8F
100
AcDbEntity
  8
AM_9
100
AcDbLine
 10
-1.72463599690026
 20
-0.0251421462924506
 30
0.0
 11
-1.724443057077846
 21
0.0000000000000002
 31
0.0
  0
LWPOLYLINE
  5
A0
330
8F
100
AcDbEntity
  8
AM_9
100
AcDbPolyline
 90
        4
 70
     0
 43
0.0
 10
-1.728976856926153
 20
-0.1262953713852305
 10
-1.727184263336768
 20
-0.0967996321117976
 10
-1.725155971199381
 20
-0.0485424412477542
 10
-1.72463599690026
 20
-0.0251421462924506
  0
LWPOLYLINE
  5
A1
330
8F
100
AcDbEntity
  8
AM_9
100
AcDbPolyline
 90
        3
 70
     0
 43
0.0
 10
-1.728976856926153
 20
0.1262953713852308
 10
-1.67850250203231
 20
0.1577272497321278
 10
-1.629721528538922
 20
0.1894430570778461
  0
LWPOLYLINE
  5
A2
330
8F
100
AcDbEntity
  8
AM_9
100
AcDbPolyline
 90
        3
 70
     0
 43
0.0
 10
-1.724637087520573
 20
0.0252133397670715
 10
-1.725639747470363
 20
0.0631476856926155
 10
-1.728976856926153
 20
0.1262953713852308
  0
LINE
  5
A3
330
8F
100
AcDbEntity
  8
AM_9
100
AcDbLine
 10
-1.724443057077846
 20
0.0000000000000002
 30
0.0
 11
-1.724637087520573
 21
0.0252133397670715
 31
0.0
  0
LINE
  5
A4
330
8F
100
AcDbEntity
  8
AM_9
100
AcDbLine
 10
-1.769909257229538
 20
-0.1262953713852305
 30
0.0
 11
-1.728976856926153
 21
-0.1262953713852305
 31
0.0
  0
LINE
  5
A5
330
8F
100
AcDbEntity
  8
AM_9
100
AcDbLine
 10
-1.769909257229538
 20
0.1262953713852308
 30
0.0
 11
-1.728976856926153
 21
0.1262953713852308
 31
0.0
  0
LWPOLYLINE
  5
A6
330
8F
100
AcDbEntity
  8
AM_9
100
AcDbPolyline
 90
        3
 70
     0
 43
0.0
 10
-1.774443057077846
 20
0.0000000000000002
 10
-1.773734276719277
 20
-0.0483998160558987
 10
-1.772177270281705
 20
-0.0876643906215057
  0
LWPOLYLINE
  5
A7
330
8F
100
AcDbEntity
  8
AM_9
100
AcDbPolyline
 90
        3
 70
     0
 43
0.0
 10
-1.772168054366515
 20
0.0878491423263091
 10
-1.773235794603035
 20
0.0634316146914369
 10
-1.774443057077846
 20
0.0000000000000002
  0
LWPOLYLINE
  5
A8
330
8F
100
AcDbEntity
  8
AM_9
100
AcDbPolyline
 90
        3
 70
     0
 43
0.0
 10
-1.539533799848307
 20
-0.2525907427704611
 10
-1.583355079995155
 20
-0.2211588644235641
 10
-1.629721528538922
 20
-0.1894430570778458
  0
LWPOLYLINE
  5
A9
330
8F
100
AcDbEntity
  8
AM_9
100
AcDbPolyline
 90
        3
 70
     0
 43
0.0
 10
-1.629721528538922
 20
0.1894430570778461
 10
-1.583557454661978
 20
0.2210168999241537
 10
-1.539533799848307
 20
0.2525907427704614
  0
LINE
  5
AA
330
8F
100
AcDbEntity
  8
AM_9
100
AcDbLine
 10
-1.411546710626154
 20
0.1983264404626881
 30
0.0
 11
-1.52535489783229
 21
0.2054502516015136
 31
0.0
  0
LINE
  5
AB
330
8F
100
AcDbEntity
  8
AM_9
100
AcDbLine
 10
-1.52535489783229
 20
-0.2054502516015133
 30
0.0
 11
-1.411546710626154
 21
-0.1983264404626878
 31
0.0
  0
ELLIPSE
  5
AC
330
8F
100
AcDbEntity
  8
AM_9
100
AcDbEllipse
 10
-1.584999999999992
 20
-0.0000000000000012
 30
0.0
 11
1.339457436567449E-17
 21
0.2187500000000051
 31
0.0
210
0.0
220
0.0
230
1.0
 40
0.8660254037844511
 41
1.032970329614995
 42
2.108622323974788
  0
ELLIPSE
  5
AD
330
8F
100
AcDbEntity
  8
AM_9
100
AcDbEllipse
 10
-1.585000000000001
 20
0.0000000000000002
 30
0.0
 11
1.308841266588726E-17
 21
0.2137499999999987
 31
0.0
210
0.0
220
0.0
230
1.0
 40
0.8660254037844379
 41
0.9862868522353319
 42
2.155305801354461
  0
ELLIPSE
  5
AE
330
8F
100
AcDbEntity
  8
AM_9
100
AcDbEllipse
 10
-1.594159099270441
 20
0.0000000000000002
 30
0.0
 11
1.056466380484819E-17
 21
0.1725340532830155
 31
0.0
210
0.0
220
0.0
230
1.0
 40
0.8660254037844362
 41
0.673270410147544
 42
2.468322243442249
  0
LINE
  5
AF
330
8F
100
AcDbEntity
  8
AM_9
100
AcDbLine
 10
-1.704999999999999
 20
-0.0703562363973514
 30
0.0
 11
-1.697760904853149
 21
-0.0796165180238019
 31
0.0
  0
LINE
  5
B0
330
8F
100
AcDbEntity
  8
AM_9
100
AcDbLine
 10
-1.697760904853149
 20
0.0796165180238022
 30
0.0
 11
-1.704999999999999
 21
0.0703562363973518
 31
0.0
  0
ELLIPSE
  5
B1
330
8F
100
AcDbEntity
  8
AM_9
100
AcDbEllipse
 10
-1.621376560809284
 20
0.0000000000000007
 30
0.0
 11
7.275632189644553E-18
 21
0.1188200907348981
 31
0.0
210
0.0
220
0.0
230
1.0
 40
0.8660254037844431
 41
0.052171442410522
 42
3.089421211179273
  0
LINE
  5
B2
330
8F
100
AcDbEntity
  8
AM_9
100
AcDbLine
 10
-1.6375
 20
0.1050000000000002
 30
0.0
 11
-1.6525
 21
0.1050000000000002
 31
0.0
  0
LINE
  5
B3
330
8F
100
AcDbEntity
  8
AM_9
100
AcDbLine
 10
-1.6525
 20
-0.1049999999999998
 30
0.0
 11
-1.6375
 21
-0.1049999999999998
 31
0.0
  0
ELLIPSE
  5
B4
330
8F
100
AcDbEntity
  8
AM_9
100
AcDbEllipse
 10
-1.6525
 20
0.0000000000000004
 30
0.0
 11
6.429395695523625E-18
 21
0.1050000000000003
 31
0.0
210
0.0
220
0.0
230
1.0
 40
0.8660254037844423
 41
5.235987755982985
 42
10.47197551196597
  0
ELLIPSE
  5
B5
330
8F
100
AcDbEntity
  8
AM_9
100
AcDbEllipse
 10
-1.637500000000001
 20
0.0000000000000006
 30
0.0
 11
6.429395695523582E-18
 21
0.1049999999999996
 31
0.0
210
0.0
220
0.0
230
1.0
 40
0.8660254037844395
 41
5.858105981271178
 42
9.849857286677786
  0
ELLIPSE
  5
B6
330
8F
100
AcDbEntity
  8
AM_9
100
AcDbEllipse
 10
-1.682499999999999
 20
0.0000000000000002
 30
0.0
 11
8.266365894244665E-18
 21
0.1350000000000005
 31
0.0
210
0.0
220
0.0
230
1.0
 40
0.8660254037844362
 41
0.7751090107151235
 42
2.36648364287467
  0
ELLIPSE
  5
B7
330
8F
100
AcDbEntity
  8
AM_9
100
AcDbEllipse
 10
-1.535
 20
-0.0000000000000003
 30
0.0
 11
1.339457436567420E-17
 21
0.2187500000000005
 31
0.0
210
0.0
220
0.0
230
1.0
 40
0.8660254037844392
 41
0.0
 42
6.283185307179586
  0
ELLIPSE
  5
B8
330
8F
100
AcDbEntity
  8
AM_9
100
AcDbEllipse
 10
-1.535
 20
0.0000000000000001
 30
0.0
 11
1.259867011763638E-17
 21
0.2057518972230697
 31
0.0
210
0.0
220
0.0
230
1.0
 40
0.8660254037844317
 41
0.0
 42
6.283185307179586
  0
ELLIPSE
  5
B9
330
8F
100
AcDbEntity
  8
AM_9
100
AcDbEllipse
 10
-1.420857377154473
 20
0.0000000000000001
 30
0.0
 11
1.216182204459296E-17
 21
0.1986176267812154
 31
0.0
210
0.0
220
0.0
230
1.0
 40
0.8660254037844427
 41
0.0
 42
6.283185307179586
  0
LWPOLYLINE
  5
BB
330
8F
100
AcDbEntity
  8
AM_4
100
AcDbPolyline
 90
        3
 70
     0
 43
0.0
 10
-1.769909257229538
 20
-0.1262953713852305
 10
-1.72608797708269
 20
-0.1577272497321274
 10
-1.679721528538922
 20
-0.1894430570778458
  0
LINE
  5
BC
330
8F
100
AcDbEntity
  8
AM_4
100
AcDbLine
 10
-1.772177270281705
 20
-0.0876643906215057
 30
0.0
 11
-1.769909257229538
 21
-0.1262953713852305
 31
0.0
  0
LWPOLYLINE
  5
BD
330
8F
100
AcDbEntity
  8
AM_4
100
AcDbPolyline
 90
        3
 70
     0
 43
0.0
 10
-1.679721528538922
 20
0.1894430570778461
 10
-1.725885602415867
 20
0.1578692142315385
 10
-1.769909257229538
 20
0.1262953713852308
  0
LINE
  5
BE
330
8F
100
AcDbEntity
  8
AM_4
100
AcDbLine
 10
-1.769909257229538
 20
0.1262953713852308
 30
0.0
 11
-1.772168054366515
 21
0.0878491423263091
 31
0.0
  0
LWPOLYLINE
  5
BF
330
8F
100
AcDbEntity
  8
AM_4
100
AcDbPolyline
 90
        3
 70
     0
 43
0.0
 10
-1.580466200151692
 20
0.2525907427704614
 10
-1.630940555045535
 20
0.2211588644235645
 10
-1.679721528538922
 20
0.1894430570778461
  0
LWPOLYLINE
  5
C0
330
8F
100
AcDbEntity
  8
AM_4
100
AcDbPolyline
 90
        3
 70
     0
 43
0.0
 10
-1.679721528538922
 20
-0.1894430570778458
 10
-1.631164073876944
 20
-0.2210168999241534
 10
-1.580466200151692
 20
-0.2525907427704611
  0
ELLIPSE
  5
C1
330
8F
100
AcDbEntity
  8
AM_4
100
AcDbEllipse
 10
-1.584999999999999
 20
0.0000000000000007
 30
0.0
 11
1.339457436567414E-17
 21
0.2187499999999995
 31
0.0
210
0.0
220
0.0
230
1.0
 40
0.8660254037844378
 41
2.108622323974807
 42
7.316155636794578
  0
LINE
  5
C2
330
8F
100
AcDbEntity
  8
AM_4
100
AcDbLine
 10
-1.580466200151692
 20
0.2525907427704614
 30
0.0
 11
-1.539533799848307
 21
0.2525907427704614
 31
0.0
  0
LWPOLYLINE
  5
C3
330
8F
100
AcDbEntity
  8
AM_4
100
AcDbPolyline
 90
        3
 70
     0
 43
0.0
 10
-1.490278471461077
 20
0.1894430570778461
 10
-1.536442545338021
 20
0.2210168999241537
 10
-1.580466200151692
 20
0.2525907427704614
  0
LWPOLYLINE
  5
C4
330
8F
100
AcDbEntity
  8
AM_4
100
AcDbPolyline
 90
        3
 70
     0
 43
0.0
 10
-1.440278471461077
 20
0.1894430570778461
 10
-1.394114397584132
 20
0.1578692142315385
 10
-1.350090742770461
 20
0.1262953713852308
  0
LWPOLYLINE
  5
C5
330
8F
100
AcDbEntity
  8
AM_4
100
AcDbPolyline
 90
        3
 70
     0
 43
0.0
 10
-1.539533799848307
 20
0.2525907427704614
 10
-1.489059444954464
 20
0.2211588644235644
 10
-1.440278471461077
 20
0.1894430570778461
  0
LINE
  5
C6
330
8F
100
AcDbEntity
  8
AM_4
100
AcDbLine
 10
-1.391023143073846
 20
0.1262953713852308
 30
0.0
 11
-1.350090742770461
 21
0.1262953713852308
 31
0.0
  0
LWPOLYLINE
  5
C7
330
8F
100
AcDbEntity
  8
AM_4
100
AcDbPolyline
 90
        4
 70
     0
 43
0.0
 10
-1.391023143073846
 20
-0.1262953713852305
 10
-1.392815736663232
 20
-0.0967996321117976
 10
-1.394844028800618
 20
-0.0485424412477542
 10
-1.395556942922154
 20
0.0000000000000002
  0
LWPOLYLINE
  5
C8
330
8F
100
AcDbEntity
  8
AM_4
100
AcDbPolyline
 90
        4
 70
     0
 43
0.0
 10
-1.345556942922154
 20
0.0000000000000002
 10
-1.346265723280722
 20
-0.0483998160558987
 10
-1.348298149181075
 20
-0.0967996321117976
 10
-1.350090742770461
 20
-0.1262953713852305
  0
LWPOLYLINE
  5
C9
330
8F
100
AcDbEntity
  8
AM_4
100
AcDbPolyline
 90
        3
 70
     0
 43
0.0
 10
-1.350090742770461
 20
0.1262953713852308
 10
-1.346764205396964
 20
0.0634316146914369
 10
-1.345556942922154
 20
0.0000000000000002
  0
LWPOLYLINE
  5
CA
330
8F
100
AcDbEntity
  8
AM_4
100
AcDbPolyline
 90
        3
 70
     0
 43
0.0
 10
-1.395556942922154
 20
0.0000000000000002
 10
-1.394360252529636
 20
0.0631476856926155
 10
-1.391023143073846
 20
0.1262953713852308
  0
LWPOLYLINE
  5
CB
330
8F
100
AcDbEntity
  8
AM_4
100
AcDbPolyline
 90
        3
 70
     0
 43
0.0
 10
-1.391023143073846
 20
0.1262953713852308
 10
-1.441497497967689
 20
0.1577272497321277
 10
-1.490278471461077
 20
0.1894430570778461
  0
LINE
  5
CC
330
8F
100
AcDbEntity
  8
AM_4
100
AcDbLine
 10
-1.391023143073846
 20
-0.1262953713852305
 30
0.0
 11
-1.350090742770461
 21
-0.1262953713852305
 31
0.0
  0
LWPOLYLINE
  5
CD
330
8F
100
AcDbEntity
  8
AM_4
100
AcDbPolyline
 90
        3
 70
     0
 43
0.0
 10
-1.490278471461077
 20
-0.1894430570778458
 10
-1.441721016799098
 20
-0.1578692142315382
 10
-1.391023143073846
 20
-0.1262953713852305
  0
LWPOLYLINE
  5
CE
330
8F
100
AcDbEntity
  8
AM_4
100
AcDbPolyline
 90
        3
 70
     0
 43
0.0
 10
-1.580466200151692
 20
-0.2525907427704611
 10
-1.536644920004844
 20
-0.2211588644235641
 10
-1.490278471461077
 20
-0.1894430570778458
  0
LINE
  5
CF
330
8F
100
AcDbEntity
  8
AM_4
100
AcDbLine
 10
-1.580466200151692
 20
-0.2525907427704611
 30
0.0
 11
-1.539533799848307
 21
-0.2525907427704611
 31
0.0
  0
LWPOLYLINE
  5
D0
330
8F
100
AcDbEntity
  8
AM_4
100
AcDbPolyline
 90
        3
 70
     0
 43
0.0
 10
-1.440278471461077
 20
-0.1894430570778458
 10
-1.488835926123055
 20
-0.2210168999241534
 10
-1.539533799848307
 20
-0.2525907427704611
  0
LWPOLYLINE
  5
D1
330
8F
100
AcDbEntity
  8
AM_4
100
AcDbPolyline
 90
        3
 70
     0
 43
0.0
 10
-1.350090742770461
 20
-0.1262953713852305
 10
-1.393912022917309
 20
-0.1577272497321274
 10
-1.440278471461077
 20
-0.1894430570778458
  0
ELLIPSE
  5
D2
330
8F
100
AcDbEntity
  8
AM_4
100
AcDbEllipse
 10
-1.585
 20
0.0000000000000003
 30
0.0
 11
1.308841266588733E-17
 21
0.2137499999999999
 31
0.0
210
0.0
220
0.0
230
1.0
 40
0.8660254037844394
 41
2.155305801354459
 42
7.269472159414923
  0
ELLIPSE
  5
D3
330
8F
100
AcDbEntity
  8
AM_4
100
AcDbEllipse
 10
-1.594159099270441
 20
0.0000000000000003
 30
0.0
 11
1.056466380484818E-17
 21
0.1725340532830153
 31
0.0
210
0.0
220
0.0
230
1.0
 40
0.8660254037844372
 41
2.468322243442247
 42
6.956455717327132
  0
ELLIPSE
  5
D4
330
8F
100
AcDbEntity
  8
AM_4
100
AcDbEllipse
 10
-1.62137656080879
 20
-0.0000000000000936
 30
0.0
 11
7.275632189650261E-18
 21
0.1188200907349913
 31
0.0
210
0.0
220
0.0
230
1.0
 40
0.8660254037845317
 41
3.089421211174438
 42
6.335356749594855
  0
ELLIPSE
  5
D5
330
8F
100
AcDbEntity
  8
AM_4
100
AcDbEllipse
 10
-1.6375
 20
0.0000000000000002
 30
0.0
 11
6.429395695523596E-18
 21
0.1049999999999999
 31
0.0
210
0.0
220
0.0
230
1.0
 40
0.8660254037844396
 41
3.566671979498185
 42
5.858105981271195
  0
LINE
  5
D6
330
8F
100
AcDbEntity
  8
AM_4
100
AcDbLine
 10
-1.57375
 20
0.0525000000000003
 30
0.0
 11
-1.58125
 21
0.0675000000000003
 31
0.0
  0
LINE
  5
D7
330
8F
100
AcDbEntity
  8
AM_4
100
AcDbLine
 10
-1.58125
 20
-0.0675
 30
0.0
 11
-1.57375
 21
-0.0525
 31
0.0
  0
ELLIPSE
  5
D8
330
8F
100
AcDbEntity
  8
AM_4
100
AcDbEllipse
 10
-1.652500000000002
 20
0.0000000000000003
 30
0.0
 11
6.429395695523686E-18
 21
0.1050000000000013
 31
0.0
210
0.0
220
0.0
230
1.0
 40
0.8660254037844488
 41
4.188790204786395
 42
5.235987755982978
  0
ELLIPSE
  5
D9
330
8F
100
AcDbEntity
  8
AM_4
100
AcDbEllipse
 10
-1.682499999999999
 20
-0.0000000000000012
 30
0.0
 11
8.266365894244716E-18
 21
0.1350000000000013
 31
0.0
210
0.0
220
0.0
230
1.0
 40
0.8660254037844392
 41
2.366483642874661
 42
7.058294317894704
  0
LINE
  5
DA
330
8F
100
AcDbEntity
  8
AM_4
100
AcDbLine
 10
-1.784726847792107
 20
-0.0733474205218686
 30
0.0
 11
-1.764315310731619
 21
-0.0964365416902989
 31
0.0
  0
LINE
  5
DB
330
8F
100
AcDbEntity
  8
AM_4
100
AcDbLine
 10
-1.764315310731619
 20
0.0964365416902993
 30
0.0
 11
-1.784726847792107
 21
0.0733474205218689
 31
0.0
  0
ELLIPSE
  5
DC
330
8F
100
AcDbEntity
  8
AM_4
100
AcDbEllipse
 10
-1.7225
 20
-0.0000000000000001
 30
0.0
 11
6.287208197282211E-18
 21
0.1026779019331878
 31
0.0
210
0.0
220
0.0
230
1.0
 40
0.8660254037844355
 41
0.0
 42
6.283185307179586
  0
ENDBLK
  5
92
330
8F
100
AcDbEntity
  8
0
100
AcDbBlockEnd
  0
BLOCK
  5
DF
330
DD
100
AcDbEntity
  8
0
100
AcDbBlockBegin
  2
3_ASME_B18_3_10_1_0_in_071238_4
 70
     2
 10
0.0
 20
0.0
 30
0.0
  3
3_ASME_B18_3_10_1_0_in_071238_4
  1

  0
ATTDEF
  5
E1
330
DD
100
AcDbEntity
  8
AM_6
100
AcDbText
 10
5.095
 20
-1.955
 30
0.0
 40
0.5
  1
ANSI/ASME B18.3-1998
100
AcDbAttributeDefinition
  3

  2
NN
 70
     8
280
     0
  0
ATTDEF
  5
E2
330
DD
100
AcDbEntity
  8
AM_6
100
AcDbText
 10
5.095
 20
-2.455
 30
0.0
 40
0.5
  1
Socket Button Head Cap Screws
100
AcDbAttributeDefinition
  3

  2
NT
 70
     8
280
     0
  0
ATTDEF
  5
E3
330
DD
100
AcDbEntity
  8
AM_6
100
AcDbText
 10
5.095
 20
-2.955
 30
0.0
 40
0.5
  1
ASME B18.3-10
100
AcDbAttributeDefinition
  3

  2
NB
 70
     8
280
     0
  0
ATTDEF
  5
E4
330
DD
100
AcDbEntity
  8
AM_6
100
AcDbText
 10
5.095
 20
-3.455
 30
0.0
 40
0.5
  1
ASME B18.3-$NS.
100
AcDbAttributeDefinition
  3

  2
NBSYN
 70
     8
280
     0
  0
ATTDEF
  5
E5
330
DD
100
AcDbEntity
  8
AM_6
100
AcDbText
 10
5.095
 20
-3.955
 30
0.0
 40
0.5
  1
ASME B18.3-10
100
AcDbAttributeDefinition
  3

  2
LINA
 70
     8
280
     0
  0
ATTDEF
  5
E6
330
DD
100
AcDbEntity
  8
AM_6
100
AcDbText
 10
5.095
 20
-4.455
 30
0.0
 40
0.5
  1
10
100
AcDbAttributeDefinition
  3

  2
NS
 70
     8
280
     0
  0
ATTDEF
  5
E7
330
DD
100
AcDbEntity
  8
AM_6
100
AcDbText
 10
5.095
 20
-4.955
 30
0.0
 40
0.5
  1
0.361
100
AcDbAttributeDefinition
  3

  2
A
 70
     8
280
     0
  0
ATTDEF
  5
E8
330
DD
100
AcDbEntity
  8
AM_6
100
AcDbText
 10
5.095
 20
-5.455
 30
0.0
 40
0.5
  1
0.101
100
AcDbAttributeDefinition
  3

  2
H
 70
     8
280
     0
  0
ATTDEF
  5
E9
330
DD
100
AcDbEntity
  8
AM_6
100
AcDbText
 10
5.095
 20
-5.955
 30
0.0
 40
0.5
  1
0.800
100
AcDbAttributeDefinition
  3

  2
L
 70
     8
280
     0
  0
ATTDEF
  5
EA
330
DD
100
AcDbEntity
  8
AM_6
100
AcDbText
 10
5.095
 20
-6.455
 30
0.0
 40
0.5
  1
0.020
100
AcDbAttributeDefinition
  3

  2
S
 70
     8
280
     0
  0
ATTDEF
  5
EB
330
DD
100
AcDbEntity
  8
AM_6
100
AcDbText
 10
5.095
 20
-6.955
 30
0.0
 40
0.5
  1
0.125000
100
AcDbAttributeDefinition
  3

  2
J
 70
     8
280
     0
  0
ATTDEF
  5
EC
330
DD
100
AcDbEntity
  8
AM_6
100
AcDbText
 10
5.095
 20
-7.455
 30
0.0
 40
0.5
  1
baldor
100
AcDbAttributeDefinition
  3

  2
COMPANY
 70
     8
280
     0
  0
LINE
  5
EE
330
DD
100
AcDbEntity
  8
AM_5
100
AcDbLine
 10
0.095
 20
-1.955
 30
0.0
 11
-0.095
 21
-1.955
 31
0.0
  0
LINE
  5
EF
330
DD
100
AcDbEntity
  8
AM_5
100
AcDbLine
 10
0.0764
 20
-1.955
 30
0.0
 11
0.095
 21
-1.987216145020781
 31
0.0
  0
ENDBLK
  5
E0
330
DD
100
AcDbEntity
  8
0
100
AcDbBlockEnd
  0
BLOCK
  5
F2
330
F0
100
AcDbEntity
  8
0
100
AcDbBlockBegin
  2
4_ASME_B18_3_10_2_0_in_071238_4
 70
     2
 10
0.0
 20
0.0
 30
0.0
  3
4_ASME_B18_3_10_2_0_in_071238_4
  1

  0
ATTDEF
  5
F4
330
F0
100
AcDbEntity
  8
AM_6
100
AcDbText
 10
5.1805
 20
-1.235
 30
0.0
 40
0.5
  1
ANSI/ASME B18.3-1998
100
AcDbAttributeDefinition
  3

  2
NN
 70
     8
280
     0
  0
ATTDEF
  5
F5
330
F0
100
AcDbEntity
  8
AM_6
100
AcDbText
 10
5.1805
 20
-1.735
 30
0.0
 40
0.5
  1
Socket Button Head Cap Screws
100
AcDbAttributeDefinition
  3

  2
NT
 70
     8
280
     0
  0
ATTDEF
  5
F6
330
F0
100
AcDbEntity
  8
AM_6
100
AcDbText
 10
5.1805
 20
-2.235
 30
0.0
 40
0.5
  1
ASME B18.3-10
100
AcDbAttributeDefinition
  3

  2
NB
 70
     8
280
     0
  0
ATTDEF
  5
F7
330
F0
100
AcDbEntity
  8
AM_6
100
AcDbText
 10
5.1805
 20
-2.735
 30
0.0
 40
0.5
  1
ASME B18.3-$NS.
100
AcDbAttributeDefinition
  3

  2
NBSYN
 70
     8
280
     0
  0
ATTDEF
  5
F8
330
F0
100
AcDbEntity
  8
AM_6
100
AcDbText
 10
5.1805
 20
-3.235
 30
0.0
 40
0.5
  1
ASME B18.3-10
100
AcDbAttributeDefinition
  3

  2
LINA
 70
     8
280
     0
  0
ATTDEF
  5
F9
330
F0
100
AcDbEntity
  8
AM_6
100
AcDbText
 10
5.1805
 20
-3.735
 30
0.0
 40
0.5
  1
10
100
AcDbAttributeDefinition
  3

  2
NS
 70
     8
280
     0
  0
ATTDEF
  5
FA
330
F0
100
AcDbEntity
  8
AM_6
100
AcDbText
 10
5.1805
 20
-4.234999999999999
 30
0.0
 40
0.5
  1
0.361
100
AcDbAttributeDefinition
  3

  2
A
 70
     8
280
     0
  0
ATTDEF
  5
FB
330
F0
100
AcDbEntity
  8
AM_6
100
AcDbText
 10
5.1805
 20
-4.734999999999999
 30
0.0
 40
0.5
  1
0.101
100
AcDbAttributeDefinition
  3

  2
H
 70
     8
280
     0
  0
ATTDEF
  5
FC
330
F0
100
AcDbEntity
  8
AM_6
100
AcDbText
 10
5.1805
 20
-5.234999999999999
 30
0.0
 40
0.5
  1
0.800
100
AcDbAttributeDefinition
  3

  2
L
 70
     8
280
     0
  0
ATTDEF
  5
FD
330
F0
100
AcDbEntity
  8
AM_6
100
AcDbText
 10
5.1805
 20
-5.734999999999999
 30
0.0
 40
0.5
  1
0.020
100
AcDbAttributeDefinition
  3

  2
S
 70
     8
280
     0
  0
ATTDEF
  5
FE
330
F0
100
AcDbEntity
  8
AM_6
100
AcDbText
 10
5.1805
 20
-6.234999999999999
 30
0.0
 40
0.5
  1
0.125000
100
AcDbAttributeDefinition
  3

  2
J
 70
     8
280
     0
  0
ATTDEF
  5
FF
330
F0
100
AcDbEntity
  8
AM_6
100
AcDbText
 10
5.1805
 20
-6.734999999999999
 30
0.0
 40
0.5
  1
baldor
100
AcDbAttributeDefinition
  3

  2
COMPANY
 70
     8
280
     0
  0
LINE
  5
100
330
F0
100
AcDbEntity
  8
AM_9
100
AcDbLine
 10
0.0625
 20
-2.075
 30
0.0
 11
0.0625
 21
-2.136
 31
0.0
  0
LINE
  5
101
330
F0
100
AcDbEntity
  8
AM_9
100
AcDbLine
 10
-0.0625
 20
-2.075
 30
0.0
 11
-0.0625
 21
-2.136
 31
0.0
  0
LINE
  5
102
330
F0
100
AcDbEntity
  8
AM_9
100
AcDbLine
 10
-0.0625
 20
-2.075
 30
0.0
 11
0.0625
 21
-2.075
 31
0.0
  0
LINE
  5
103
330
F0
100
AcDbEntity
  8
AM_9
100
AcDbLine
 10
0.0
 20
-2.075
 30
0.0
 11
0.0
 21
-2.136
 31
0.0
  0
LINE
  5
104
330
F0
100
AcDbEntity
  8
AM_9
100
AcDbLine
 10
-0.0764
 20
-1.235
 30
0.0
 11
-0.095
 21
-1.2536
 31
0.0
  0
LINE
  5
105
330
F0
100
AcDbEntity
  8
AM_9
100
AcDbLine
 10
0.095
 20
-1.2536
 30
0.0
 11
0.0764
 21
-1.235
 31
0.0
  0
LINE
  5
106
330
F0
100
AcDbEntity
  8
AM_9
100
AcDbLine
 10
-0.0764
 20
-1.235
 30
0.0
 11
0.0764
 21
-1.235
 31
0.0
  0
LINE
  5
107
330
F0
100
AcDbEntity
  8
AM_9
100
AcDbLine
 10
0.095
 20
-2.035
 30
0.0
 11
0.095
 21
-1.2536
 31
0.0
  0
LINE
  5
108
330
F0
100
AcDbEntity
  8
AM_9
100
AcDbLine
 10
-0.095
 20
-1.2536
 30
0.0
 11
-0.095
 21
-2.035
 31
0.0
  0
LINE
  5
109
330
F0
100
AcDbEntity
  8
AM_9
100
AcDbLine
 10
-0.095
 20
-1.2536
 30
0.0
 11
0.095
 21
-1.2536
 31
0.0
  0
LINE
  5
10A
330
F0
100
AcDbEntity
  8
AM_5
100
AcDbLine
 10
0.0764
 20
-1.955
 30
0.0
 11
0.0950000119770943
 21
-1.987216165765717
 31
0.0
  0
LINE
  5
10B
330
F0
100
AcDbEntity
  8
AM_5
100
AcDbLine
 10
-0.0950000000000002
 20
-1.955
 30
0.0
 11
0.095
 21
-1.955
 31
0.0
  0
LINE
  5
10C
330
F0
100
AcDbEntity
  8
AM_4
100
AcDbLine
 10
0.1805
 20
-2.055
 30
0.0
 11
0.1805
 21
-2.035
 31
0.0
  0
LINE
  5
10D
330
F0
100
AcDbEntity
  8
AM_4
100
AcDbLine
 10
-0.1805
 20
-2.035
 30
0.0
 11
-0.1805
 21
-2.055
 31
0.0
  0
LINE
  5
10E
330
F0
100
AcDbEntity
  8
AM_4
100
AcDbLine
 10
-0.0994999933390793
 20
-2.136
 30
0.0
 11
0.0995
 21
-2.136
 31
0.0
  0
ARC
  5
10F
330
F0
100
AcDbEntity
  8
AM_4
100
AcDbCircle
 10
0.0995000000000003
 20
-2.055
 30
0.0
 40
0.0809999999999995
100
AcDbArc
 50
270.0
 51
0.0
  0
ARC
  5
110
330
F0
100
AcDbEntity
  8
AM_4
100
AcDbCircle
 10
-0.0995000000000003
 20
-2.055
 30
0.0
 40
0.0809999999999996
100
AcDbArc
 50
180.0
 51
270.0
  0
LINE
  5
111
330
F0
100
AcDbEntity
  8
AM_4
100
AcDbLine
 10
-0.1805
 20
-2.055
 30
0.0
 11
0.1805
 21
-2.055
 31
0.0
  0
ENDBLK
  5
F3
330
F0
100
AcDbEntity
  8
0
100
AcDbBlockEnd
  0
BLOCK
  5
114
330
112
100
AcDbEntity
  8
0
100
AcDbBlockBegin
  2
5_070893LWE_0_in_071238_4
 70
     2
 10
0.0
 20
0.0
 30
0.0
  3
5_070893LWE_0_in_071238_4
  1

  0
ATTDEF
  5
116
330
112
100
AcDbEntity
  8
AM_6
100
AcDbText
 10
6.75
 20
-1.595
 30
0.0
 40
0.5
  1
Imperial/E Insert Lockwasher -Inch
100
AcDbAttributeDefinition
  3

  2
NN
 70
     8
280
     0
  0
ATTDEF
  5
117
330
112
100
AcDbEntity
  8
AM_6
100
AcDbText
 10
6.75
 20
-2.095
 30
0.0
 40
0.5
  1
Imperial/E Bearings
100
AcDbAttributeDefinition
  3

  2
NT
 70
     8
280
     0
  0
ATTDEF
  5
118
330
112
100
AcDbEntity
  8
AM_6
100
AcDbText
 10
6.75
 20
-2.595
 30
0.0
 40
0.5
  1
070893LWE
100
AcDbAttributeDefinition
  3

  2
NB
 70
     8
280
     0
  0
ATTDEF
  5
119
330
112
100
AcDbEntity
  8
AM_6
100
AcDbText
 10
6.75
 20
-3.095
 30
0.0
 40
0.5
  1
$PN.LWE
100
AcDbAttributeDefinition
  3

  2
NBSYN
 70
     8
280
     0
  0
ATTDEF
  5
11A
330
112
100
AcDbEntity
  8
AM_6
100
AcDbText
 10
6.75
 20
-3.595
 30
0.0
 40
0.5
  1
070893
100
AcDbAttributeDefinition
  3

  2
LINA
 70
     8
280
     0
  0
ATTDEF
  5
11B
330
112
100
AcDbEntity
  8
AM_6
100
AcDbText
 10
6.75
 20
-4.095
 30
0.0
 40
0.5
  1
2-1/4
100
AcDbAttributeDefinition
  3

  2
SS
 70
     8
280
     0
  0
ATTDEF
  5
11C
330
112
100
AcDbEntity
  8
AM_6
100
AcDbText
 10
6.75
 20
-4.595
 30
0.0
 40
0.5
  1
3.500000
100
AcDbAttributeDefinition
  3

  2
E1
 70
     8
280
     0
  0
ATTDEF
  5
11D
330
112
100
AcDbEntity
  8
AM_6
100
AcDbText
 10
6.75
 20
-5.095
 30
0.0
 40
0.5
  1
2.250000
100
AcDbAttributeDefinition
  3

  2
SS1
 70
     8
280
     0
  0
ATTDEF
  5
11E
330
112
100
AcDbEntity
  8
AM_6
100
AcDbText
 10
6.75
 20
-5.595
 30
0.0
 40
0.5
  1
070893
100
AcDbAttributeDefinition
  3

  2
PN
 70
     8
280
     0
  0
ATTDEF
  5
11F
330
112
100
AcDbEntity
  8
AM_6
100
AcDbText
 10
6.75
 20
-6.095
 30
0.0
 40
0.5
  1
INS-IP-204R
100
AcDbAttributeDefinition
  3

  2
DESCRIPTION
 70
     8
280
     0
  0
ATTDEF
  5
120
330
112
100
AcDbEntity
  8
AM_6
100
AcDbText
 10
6.75
 20
-6.595
 30
0.0
 40
0.5
  1
3.9370
100
AcDbAttributeDefinition
  3

  2
A
 70
     8
280
     0
  0
ATTDEF
  5
121
330
112
100
AcDbEntity
  8
AM_6
100
AcDbText
 10
6.75
 20
-7.095
 30
0.0
 40
0.5
  1
1-3/64
100
AcDbAttributeDefinition
  3

  2
B
 70
     8
280
     0
  0
ATTDEF
  5
122
330
112
100
AcDbEntity
  8
AM_6
100
AcDbText
 10
6.75
 20
-7.595
 30
0.0
 40
0.5
  1
1.046875
100
AcDbAttributeDefinition
  3

  2
B1
 70
     8
280
     0
  0
ATTDEF
  5
123
330
112
100
AcDbEntity
  8
AM_6
100
AcDbText
 10
6.75
 20
-8.094999999999999
 30
0.0
 40
0.5
  1
3-1/32
100
AcDbAttributeDefinition
  3

  2
C
 70
     8
280
     0
  0
ATTDEF
  5
124
330
112
100
AcDbEntity
  8
AM_6
100
AcDbText
 10
6.75
 20
-8.594999999999999
 30
0.0
 40
0.5
  1
3.031250
100
AcDbAttributeDefinition
  3

  2
C1
 70
     8
280
     0
  0
ATTDEF
  5
125
330
112
100
AcDbEntity
  8
AM_6
100
AcDbText
 10
6.75
 20
-9.094999999999999
 30
0.0
 40
0.5
  1
1.050
100
AcDbAttributeDefinition
  3

  2
D
 70
     8
280
     0
  0
ATTDEF
  5
126
330
112
100
AcDbEntity
  8
AM_6
100
AcDbText
 10
6.75
 20
-9.594999999999999
 30
0.0
 40
0.5
  1
3-1/2
100
AcDbAttributeDefinition
  3

  2
E
 70
     8
280
     0
  0
ATTDEF
  5
127
330
112
100
AcDbEntity
  8
AM_6
100
AcDbText
 10
6.75
 20
-10.095
 30
0.0
 40
0.5
  1
0.1900
100
AcDbAttributeDefinition
  3

  2
NDM
 70
     8
280
     0
  0
ATTDEF
  5
128
330
112
100
AcDbEntity
  8
AM_6
100
AcDbText
 10
6.75
 20
-10.595
 30
0.0
 40
0.5
  1
0.1450
100
AcDbAttributeDefinition
  3

  2
KDM
 70
     8
280
     0
  0
ATTDEF
  5
129
330
112
100
AcDbEntity
  8
AM_6
100
AcDbText
 10
6.75
 20
-11.095
 30
0.0
 40
0.5
  1
2.92
100
AcDbAttributeDefinition
  3

  2
AL
 70
     8
280
     0
  0
ATTDEF
  5
12A
330
112
100
AcDbEntity
  8
AM_6
100
AcDbText
 10
6.75
 20
-11.595
 30
0.0
 40
0.5
  1
0.50
100
AcDbAttributeDefinition
  3

  2
BL
 70
     8
280
     0
  0
ATTDEF
  5
12B
330
112
100
AcDbEntity
  8
AM_6
100
AcDbText
 10
6.75
 20
-12.095
 30
0.0
 40
0.5
  1
0.07
100
AcDbAttributeDefinition
  3

  2
CL
 70
     8
280
     0
  0
ATTDEF
  5
12C
330
112
100
AcDbEntity
  8
AM_6
100
AcDbText
 10
6.75
 20
-12.595
 30
0.0
 40
0.5
  1
0.44
100
AcDbAttributeDefinition
  3

  2
DL
 70
     8
280
     0
  0
ATTDEF
  5
12D
330
112
100
AcDbEntity
  8
AM_6
100
AcDbText
 10
6.75
 20
-13.095
 30
0.0
 40
0.5
  1
baldor
100
AcDbAttributeDefinition
  3

  2
COMPANY
 70
     8
280
     0
  0
LINE
  5
12E
330
112
100
AcDbEntity
  8
AM_9
100
AcDbLine
 10
-1.5
 20
-1.965
 30
0.0
 11
-1.5
 21
-2.035
 31
0.0
  0
LINE
  5
12F
330
112
100
AcDbEntity
  8
AM_9
100
AcDbLine
 10
-1.595047715730004
 20
-1.965
 30
0.0
 11
-1.595047715730004
 21
-2.035
 31
0.0
  0
LINE
  5
130
330
112
100
AcDbEntity
  8
AM_9
100
AcDbLine
 10
1.5
 20
-1.965
 30
0.0
 11
1.5
 21
-2.035
 31
0.0
  0
LINE
  5
131
330
112
100
AcDbEntity
  8
AM_9
100
AcDbLine
 10
1.595047715730005
 20
-2.035
 30
0.0
 11
1.595047715730005
 21
-1.965
 31
0.0
  0
LINE
  5
132
330
112
100
AcDbEntity
  8
AM_9
100
AcDbLine
 10
-1.212500261685452
 20
-1.965
 30
0.0
 11
-1.212500261685452
 21
-2.035
 31
0.0
  0
LINE
  5
133
330
112
100
AcDbEntity
  8
AM_9
100
AcDbLine
 10
1.212500261685452
 20
-1.965
 30
0.0
 11
1.212500261685452
 21
-2.035
 31
0.0
  0
LINE
  5
134
330
112
100
AcDbEntity
  8
AM_9
100
AcDbLine
 10
0.9245423014409686
 20
-1.965
 30
0.0
 11
0.9245423014409686
 21
-2.035
 31
0.0
  0
LINE
  5
135
330
112
100
AcDbEntity
  8
AM_9
100
AcDbLine
 10
-0.9245423014409687
 20
-1.965
 30
0.0
 11
-0.9245423014409687
 21
-2.035
 31
0.0
  0
LINE
  5
136
330
112
100
AcDbEntity
  8
AM_9
100
AcDbLine
 10
-0.5433380258795526
 20
-1.595
 30
0.0
 11
-0.5433380258795526
 21
-2.035
 31
0.0
  0
LINE
  5
137
330
112
100
AcDbEntity
  8
AM_9
100
AcDbLine
 10
-0.578446001936897
 20
-1.965
 30
0.0
 11
-0.578446001936897
 21
-2.035
 31
0.0
  0
LINE
  5
138
330
112
100
AcDbEntity
  8
AM_9
100
AcDbLine
 10
-0.7901920130155244
 20
-1.965
 30
0.0
 11
-0.7901920130155244
 21
-2.035
 31
0.0
  0
LINE
  5
139
330
112
100
AcDbEntity
  8
AM_9
100
AcDbLine
 10
0.7901920130155249
 20
-1.965
 30
0.0
 11
0.7901920130155256
 21
-2.035
 31
0.0
  0
LINE
  5
13A
330
112
100
AcDbEntity
  8
AM_9
100
AcDbLine
 10
-0.3474761188090754
 20
-1.965
 30
0.0
 11
-0.3474761188090754
 21
-2.035
 31
0.0
  0
LINE
  5
13B
330
112
100
AcDbEntity
  8
AM_9
100
AcDbLine
 10
-0.3123681427517311
 20
-1.595
 30
0.0
 11
-0.5661309709304763
 21
-1.595
 31
0.0
  0
LINE
  5
13C
330
112
100
AcDbEntity
  8
AM_9
100
AcDbLine
 10
-0.3123681427517311
 20
-1.595
 30
0.0
 11
-0.3123681427517311
 21
-2.035
 31
0.0
  0
LINE
  5
13D
330
112
100
AcDbEntity
  8
AM_9
100
AcDbLine
 10
0.9934850275670993
 20
-1.965
 30
0.0
 11
0.9934850275670993
 21
-2.035
 31
0.0
  0
LINE
  5
13E
330
112
100
AcDbEntity
  8
AM_9
100
AcDbLine
 10
1.127835315992543
 20
-1.965
 30
0.0
 11
1.127835315992543
 21
-2.035
 31
0.0
  0
LINE
  5
13F
330
112
100
AcDbEntity
  8
AM_9
100
AcDbLine
 10
1.155693915404086
 20
-2.035
 30
0.0
 11
1.155693915404086
 21
-1.965
 31
0.0
  0
LINE
  5
140
330
112
100
AcDbEntity
  8
AM_9
100
AcDbLine
 10
-1.127835315992543
 20
-1.965
 30
0.0
 11
-1.127835315992543
 21
-2.035
 31
0.0
  0
LINE
  5
141
330
112
100
AcDbEntity
  8
AM_9
100
AcDbLine
 10
-0.993485027567096
 20
-1.965
 30
0.0
 11
-0.993485027567096
 21
-2.035
 31
0.0
  0
LINE
  5
142
330
112
100
AcDbEntity
  8
AM_9
100
AcDbLine
 10
-1.155693915404086
 20
-1.965
 30
0.0
 11
-1.155693915404086
 21
-2.035
 31
0.0
  0
LINE
  5
143
330
112
100
AcDbEntity
  8
AM_9
100
AcDbLine
 10
-0.3351610878026545
 20
-1.965
 30
0.0
 11
-0.3351610878026545
 21
-1.595
 31
0.0
  0
LINE
  5
144
330
112
100
AcDbEntity
  8
AM_9
100
AcDbLine
 10
-0.5661309709304763
 20
-1.595
 30
0.0
 11
-0.5661309709304763
 21
-1.965
 31
0.0
  0
LINE
  5
145
330
112
100
AcDbEntity
  8
AM_9
100
AcDbLine
 10
-0.0949999999999998
 20
-1.965
 30
0.0
 11
-0.0949999999999998
 21
-2.035
 31
0.0
  0
LINE
  5
146
330
112
100
AcDbEntity
  8
AM_9
100
AcDbLine
 10
0.0950000000000001
 20
-1.965
 30
0.0
 11
0.0950000000000002
 21
-2.035
 31
0.0
  0
LINE
  5
147
330
112
100
AcDbEntity
  8
AM_4
100
AcDbLine
 10
-1.75
 20
-1.965
 30
0.0
 11
-1.75
 21
-2.035
 31
0.0
  0
LINE
  5
148
330
112
100
AcDbEntity
  8
AM_4
100
AcDbLine
 10
1.75
 20
-2.035
 30
0.0
 11
1.75
 21
-1.965
 31
0.0
  0
LINE
  5
149
330
112
100
AcDbEntity
  8
AM_4
100
AcDbLine
 10
-1.75
 20
-2.035
 30
0.0
 11
1.75
 21
-2.035
 31
0.0
  0
LINE
  5
14A
330
112
100
AcDbEntity
  8
AM_4
100
AcDbLine
 10
-1.75
 20
-1.965
 30
0.0
 11
1.75
 21
-1.965
 31
0.0
  0
ENDBLK
  5
115
330
112
100
AcDbEntity
  8
0
100
AcDbBlockEnd
  0
BLOCK
  5
14D
330
14B
100
AcDbEntity
  8
0
100
AcDbBlockBegin
  2
6_070893EL_0_in_071238_4
 70
     2
 10
0.0
 20
0.0
 30
0.0
  3
6_070893EL_0_in_071238_4
  1

  0
ATTDEF
  5
14F
330
14B
100
AcDbEntity
  8
AM_6
100
AcDbText
 10
6.9685
 20
1.235000000000001
 30
0.0
 40
0.5
  1
Imperial/E Insert -Inch
100
AcDbAttributeDefinition
  3

  2
NN
 70
     8
280
     0
  0
ATTDEF
  5
150
330
14B
100
AcDbEntity
  8
AM_6
100
AcDbText
 10
6.9685
 20
0.7350000000000012
 30
0.0
 40
0.5
  1
Imperial Bearings
100
AcDbAttributeDefinition
  3

  2
NT
 70
     8
280
     0
  0
ATTDEF
  5
151
330
14B
100
AcDbEntity
  8
AM_6
100
AcDbText
 10
6.9685
 20
0.2350000000000012
 30
0.0
 40
0.5
  1
070893EL
100
AcDbAttributeDefinition
  3

  2
NB
 70
     8
280
     0
  0
ATTDEF
  5
152
330
14B
100
AcDbEntity
  8
AM_6
100
AcDbText
 10
6.9685
 20
-0.2649999999999988
 30
0.0
 40
0.5
  1
$PN.
100
AcDbAttributeDefinition
  3

  2
NBSYN
 70
     8
280
     0
  0
ATTDEF
  5
153
330
14B
100
AcDbEntity
  8
AM_6
100
AcDbText
 10
6.9685
 20
-0.7649999999999988
 30
0.0
 40
0.5
  1
070893EL
100
AcDbAttributeDefinition
  3

  2
LINA
 70
     8
280
     0
  0
ATTDEF
  5
154
330
14B
100
AcDbEntity
  8
AM_6
100
AcDbText
 10
6.9685
 20
-1.264999999999999
 30
0.0
 40
0.5
  1
2-1/4
100
AcDbAttributeDefinition
  3

  2
SS
 70
     8
280
     0
  0
ATTDEF
  5
155
330
14B
100
AcDbEntity
  8
AM_6
100
AcDbText
 10
6.9685
 20
-1.764999999999999
 30
0.0
 40
0.5
  1
2.250000
100
AcDbAttributeDefinition
  3

  2
SS1
 70
     8
280
     0
  0
ATTDEF
  5
156
330
14B
100
AcDbEntity
  8
AM_6
100
AcDbText
 10
6.9685
 20
-2.264999999999999
 30
0.0
 40
0.5
  1
070893EL
100
AcDbAttributeDefinition
  3

  2
PN
 70
     8
280
     0
  0
ATTDEF
  5
157
330
14B
100
AcDbEntity
  8
AM_6
100
AcDbText
 10
6.9685
 20
-2.764999999999999
 30
0.0
 40
0.5
  1
INS-IP-204R
100
AcDbAttributeDefinition
  3

  2
DESCRIPTION
 70
     8
280
     0
  0
ATTDEF
  5
158
330
14B
100
AcDbEntity
  8
AM_6
100
AcDbText
 10
6.9685
 20
-3.264999999999999
 30
0.0
 40
0.5
  1
Labyrinth Seal
100
AcDbAttributeDefinition
  3

  2
ST
 70
     8
280
     0
  0
ATTDEF
  5
159
330
14B
100
AcDbEntity
  8
AM_6
100
AcDbText
 10
6.9685
 20
-3.764999999999999
 30
0.0
 40
0.5
  1
1
100
AcDbAttributeDefinition
  3

  2
ST1
 70
     8
280
     0
  0
ATTDEF
  5
15A
330
14B
100
AcDbEntity
  8
AM_6
100
AcDbText
 10
6.9685
 20
-4.264999999999999
 30
0.0
 40
0.5
  1
3.9370
100
AcDbAttributeDefinition
  3

  2
A
 70
     8
280
     0
  0
ATTDEF
  5
15B
330
14B
100
AcDbEntity
  8
AM_6
100
AcDbText
 10
6.9685
 20
-4.764999999999999
 30
0.0
 40
0.5
  1
1-3/64
100
AcDbAttributeDefinition
  3

  2
B
 70
     8
280
     0
  0
ATTDEF
  5
15C
330
14B
100
AcDbEntity
  8
AM_6
100
AcDbText
 10
6.9685
 20
-5.264999999999999
 30
0.0
 40
0.5
  1
1.046875
100
AcDbAttributeDefinition
  3

  2
B1
 70
     8
280
     0
  0
ATTDEF
  5
15D
330
14B
100
AcDbEntity
  8
AM_6
100
AcDbText
 10
6.9685
 20
-5.764999999999999
 30
0.0
 40
0.5
  1
3-1/32
100
AcDbAttributeDefinition
  3

  2
C
 70
     8
280
     0
  0
ATTDEF
  5
15E
330
14B
100
AcDbEntity
  8
AM_6
100
AcDbText
 10
6.9685
 20
-6.264999999999999
 30
0.0
 40
0.5
  1
3.420000
100
AcDbAttributeDefinition
  3

  2
C1
 70
     8
280
     0
  0
ATTDEF
  5
15F
330
14B
100
AcDbEntity
  8
AM_6
100
AcDbText
 10
6.9685
 20
-6.764999999999999
 30
0.0
 40
0.5
  1
4.41000
100
AcDbAttributeDefinition
  3

  2
CR
 70
     8
280
     0
  0
ATTDEF
  5
160
330
14B
100
AcDbEntity
  8
AM_6
100
AcDbText
 10
6.9685
 20
-7.264999999999999
 30
0.0
 40
0.5
  1
1.050
100
AcDbAttributeDefinition
  3

  2
D
 70
     8
280
     0
  0
ATTDEF
  5
161
330
14B
100
AcDbEntity
  8
AM_6
100
AcDbText
 10
6.9685
 20
-7.764999999999999
 30
0.0
 40
0.5
  1
3-1/2
100
AcDbAttributeDefinition
  3

  2
E
 70
     8
280
     0
  0
ATTDEF
  5
162
330
14B
100
AcDbEntity
  8
AM_6
100
AcDbText
 10
6.9685
 20
-8.264999999999999
 30
0.0
 40
0.5
  1
3.500000
100
AcDbAttributeDefinition
  3

  2
E1
 70
     8
280
     0
  0
ATTDEF
  5
163
330
14B
100
AcDbEntity
  8
AM_6
100
AcDbText
 10
6.9685
 20
-8.764999999999999
 30
0.0
 40
0.5
  1
0.1900
100
AcDbAttributeDefinition
  3

  2
NDM
 70
     8
280
     0
  0
ATTDEF
  5
164
330
14B
100
AcDbEntity
  8
AM_6
100
AcDbText
 10
6.9685
 20
-9.264999999999999
 30
0.0
 40
0.5
  1
0.1450
100
AcDbAttributeDefinition
  3

  2
KDM
 70
     8
280
     0
  0
ATTDEF
  5
165
330
14B
100
AcDbEntity
  8
AM_6
100
AcDbText
 10
6.9685
 20
-9.764999999999999
 30
0.0
 40
0.5
  1
2.92
100
AcDbAttributeDefinition
  3

  2
AL
 70
     8
280
     0
  0
ATTDEF
  5
166
330
14B
100
AcDbEntity
  8
AM_6
100
AcDbText
 10
6.9685
 20
-10.265
 30
0.0
 40
0.5
  1
0.50
100
AcDbAttributeDefinition
  3

  2
BL
 70
     8
280
     0
  0
ATTDEF
  5
167
330
14B
100
AcDbEntity
  8
AM_6
100
AcDbText
 10
6.9685
 20
-10.765
 30
0.0
 40
0.5
  1
0.07
100
AcDbAttributeDefinition
  3

  2
CL
 70
     8
280
     0
  0
ATTDEF
  5
168
330
14B
100
AcDbEntity
  8
AM_6
100
AcDbText
 10
6.9685
 20
-11.265
 30
0.0
 40
0.5
  1
0.44
100
AcDbAttributeDefinition
  3

  2
DL
 70
     8
280
     0
  0
ATTDEF
  5
169
330
14B
100
AcDbEntity
  8
AM_6
100
AcDbText
 10
6.9685
 20
-11.765
 30
0.0
 40
0.5
  1
0.8000
100
AcDbAttributeDefinition
  3

  2
LL
 70
     8
280
     0
  0
ATTDEF
  5
16A
330
14B
100
AcDbEntity
  8
AM_6
100
AcDbText
 10
6.9685
 20
-12.265
 30
0.0
 40
0.5
  1
0.025
100
AcDbAttributeDefinition
  3

  2
Y
 70
     8
280
     0
  0
ATTDEF
  5
16B
330
14B
100
AcDbEntity
  8
AM_6
100
AcDbText
 10
6.9685
 20
-12.765
 30
0.0
 40
0.5
  1
0.025000
100
AcDbAttributeDefinition
  3

  2
Y1
 70
     8
280
     0
  0
ATTDEF
  5
16C
330
14B
100
AcDbEntity
  8
AM_6
100
AcDbText
 10
6.9685
 20
-13.265
 30
0.0
 40
0.5
  1
2-19/32
100
AcDbAttributeDefinition
  3

  2
Z
 70
     8
280
     0
  0
ATTDEF
  5
16D
330
14B
100
AcDbEntity
  8
AM_6
100
AcDbText
 10
6.9685
 20
-13.765
 30
0.0
 40
0.5
  1
2.593750
100
AcDbAttributeDefinition
  3

  2
Z1
 70
     8
280
     0
  0
ATTDEF
  5
16E
330
14B
100
AcDbEntity
  8
AM_6
100
AcDbText
 10
6.9685
 20
-14.265
 30
0.0
 40
0.5
  1
0.99000
100
AcDbAttributeDefinition
  3

  2
P1
 70
     8
280
     0
  0
ATTDEF
  5
16F
330
14B
100
AcDbEntity
  8
AM_6
100
AcDbText
 10
6.9685
 20
-14.765
 30
0.0
 40
0.5
  1
1.50000
100
AcDbAttributeDefinition
  3

  2
H1
 70
     8
280
     0
  0
ATTDEF
  5
170
330
14B
100
AcDbEntity
  8
AM_6
100
AcDbText
 10
6.9685
 20
-15.265
 30
0.0
 40
0.5
  1
1.04000
100
AcDbAttributeDefinition
  3

  2
G1
 70
     8
280
     0
  0
ATTDEF
  5
171
330
14B
100
AcDbEntity
  8
AM_6
100
AcDbText
 10
6.9685
 20
-15.765
 30
0.0
 40
0.5
  1
0.10100
100
AcDbAttributeDefinition
  3

  2
CW
 70
     8
280
     0
  0
ATTDEF
  5
172
330
14B
100
AcDbEntity
  8
AM_6
100
AcDbText
 10
6.9685
 20
-16.265
 30
0.0
 40
0.5
  1
3.88000
100
AcDbAttributeDefinition
  3

  2
L1
 70
     8
280
     0
  0
ATTDEF
  5
173
330
14B
100
AcDbEntity
  8
AM_6
100
AcDbText
 10
6.9685
 20
-16.765
 30
0.0
 40
0.5
  1
baldor
100
AcDbAttributeDefinition
  3

  2
COMPANY
 70
     8
280
     0
  0
LINE
  5
174
330
14B
100
AcDbEntity
  8
AM_9
100
AcDbLine
 10
-0.5673333902847526
 20
0.6834375000000004
 30
0.0
 11
-0.5673333902847526
 21
-1.965
 31
0.0
  0
LINE
  5
175
330
14B
100
AcDbEntity
  8
AM_9
100
AcDbLine
 10
-0.3123681427517311
 20
0.6834375000000004
 30
0.0
 11
-0.3123681427517311
 21
-2.21
 31
0.0
  0
LINE
  5
176
330
14B
100
AcDbEntity
  8
AM_9
100
AcDbLine
 10
-0.5433380258795527
 20
-2.035
 30
0.0
 11
-0.5433380258795525
 21
0.6834375000000004
 31
0.0
  0
LINE
  5
177
330
14B
100
AcDbEntity
  8
AM_9
100
AcDbLine
 10
-1.125
 20
0.6834375000000004
 30
0.0
 11
-1.125
 21
-2.21
 31
0.0
  0
LINE
  5
178
330
14B
100
AcDbEntity
  8
AM_9
100
AcDbLine
 10
1.125
 20
-2.21
 30
0.0
 11
1.125
 21
0.6834375000000004
 31
0.0
  0
LINE
  5
179
330
14B
100
AcDbEntity
  8
AM_9
100
AcDbLine
 10
-0.3363635071569309
 20
0.6834375000000004
 30
0.0
 11
-0.3363635071569309
 21
-1.965
 31
0.0
  0
LINE
  5
17A
330
14B
100
AcDbEntity
  8
AM_9
100
AcDbLine
 10
-1.18421052631579
 20
1.21
 30
0.0
 11
-1.18421052631579
 21
0.6834375000000004
 31
0.0
  0
LINE
  5
17B
330
14B
100
AcDbEntity
  8
AM_9
100
AcDbLine
 10
1.18421052631579
 20
0.6834375000000004
 30
0.0
 11
1.18421052631579
 21
1.21
 31
0.0
  0
LINE
  5
17C
330
14B
100
AcDbEntity
  8
AM_9
100
AcDbLine
 10
-0.3351610878026548
 20
-2.035
 30
0.0
 11
-0.3351610878026548
 21
-1.965
 31
0.0
  0
LINE
  5
17D
330
14B
100
AcDbEntity
  8
AM_9
100
AcDbLine
 10
-0.5661309709304764
 20
-1.965
 30
0.0
 11
-0.5661309709304764
 21
-2.035
 31
0.0
  0
LINE
  5
17E
330
14B
100
AcDbEntity
  8
AM_9
100
AcDbLine
 10
-1.18421052631579
 20
-1.965
 30
0.0
 11
-1.18421052631579
 21
-2.035
 31
0.0
  0
LINE
  5
17F
330
14B
100
AcDbEntity
  8
AM_9
100
AcDbLine
 10
1.18421052631579
 20
-2.035
 30
0.0
 11
1.18421052631579
 21
-1.965
 31
0.0
  0
LINE
  5
180
330
14B
100
AcDbEntity
  8
AM_9
100
AcDbLine
 10
0.8555992052357232
 20
-1.525
 30
0.0
 11
0.8555992052357232
 21
-1.965
 31
0.0
  0
LINE
  5
181
330
14B
100
AcDbEntity
  8
AM_9
100
AcDbLine
 10
1.209152595828997
 20
-1.525
 30
0.0
 11
1.209152595828997
 21
-1.5705
 31
0.0
  0
LINE
  5
182
330
14B
100
AcDbEntity
  8
AM_9
100
AcDbLine
 10
-0.8555992052357224
 20
-1.525
 30
0.0
 11
-0.8555992052357224
 21
-1.965
 31
0.0
  0
LINE
  5
183
330
14B
100
AcDbEntity
  8
AM_9
100
AcDbLine
 10
-1.209152595828996
 20
-1.525
 30
0.0
 11
-1.209152595828996
 21
-1.5705
 31
0.0
  0
LINE
  5
184
330
14B
100
AcDbEntity
  8
AM_9
100
AcDbLine
 10
1.296875
 20
1.21
 30
0.0
 11
-1.296875
 21
1.21
 31
0.0
  0
LINE
  5
185
330
14B
100
AcDbEntity
  8
AM_9
100
AcDbLine
 10
-1.296875
 20
1.235000000000001
 30
0.0
 11
-1.296875
 21
1.21
 31
0.0
  0
LINE
  5
186
330
14B
100
AcDbEntity
  8
AM_9
100
AcDbLine
 10
1.296875
 20
1.21
 30
0.0
 11
1.296875
 21
1.235000000000001
 31
0.0
  0
LINE
  5
187
330
14B
100
AcDbEntity
  8
AM_9
100
AcDbLine
 10
0.8555992052357232
 20
-1.525
 30
0.0
 11
1.407008337285316
 21
-1.525
 31
0.0
  0
LINE
  5
188
330
14B
100
AcDbEntity
  8
AM_9
100
AcDbLine
 10
-1.407008337285316
 20
-1.525
 30
0.0
 11
-0.8555992052357224
 21
-1.525
 31
0.0
  0
LINE
  5
189
330
14B
100
AcDbEntity
  8
AM_9
100
AcDbLine
 10
0.0
 20
-1.125
 30
0.0
 11
-0.0724499999999999
 21
-1.166829027002789
 31
0.0
  0
LINE
  5
18A
330
14B
100
AcDbEntity
  8
AM_9
100
AcDbLine
 10
0.0724499999999999
 20
-1.166829027002789
 30
0.0
 11
0.0
 21
-1.125
 31
0.0
  0
LINE
  5
18B
330
14B
100
AcDbEntity
  8
AM_9
100
AcDbLine
 10
0.0724499999999999
 20
-1.166829027002789
 30
0.0
 11
-0.0724499999999999
 21
-1.166829027002789
 31
0.0
  0
LINE
  5
18C
330
14B
100
AcDbEntity
  8
AM_9
100
AcDbLine
 10
-0.0724499999999999
 20
-1.166829027002789
 30
0.0
 11
-0.0724499999999999
 21
-1.94245
 31
0.0
  0
LINE
  5
18D
330
14B
100
AcDbEntity
  8
AM_9
100
AcDbLine
 10
0.0724499999999999
 20
-1.94245
 30
0.0
 11
0.0724499999999999
 21
-1.166829027002789
 31
0.0
  0
LINE
  5
18E
330
14B
100
AcDbEntity
  8
AM_9
100
AcDbLine
 10
0.0724499999999999
 20
-1.94245
 30
0.0
 11
-0.0724499999999999
 21
-1.94245
 31
0.0
  0
LINE
  5
18F
330
14B
100
AcDbEntity
  8
AM_9
100
AcDbLine
 10
-0.0724499999999999
 20
-1.94245
 30
0.0
 11
-0.0950000000000002
 21
-1.965
 31
0.0
  0
LINE
  5
190
330
14B
100
AcDbEntity
  8
AM_9
100
AcDbLine
 10
0.0950000000000002
 20
-1.965
 30
0.0
 11
0.0724499999999999
 21
-1.94245
 31
0.0
  0
ARC
  5
191
330
14B
100
AcDbEntity
  8
AM_9
100
AcDbCircle
 10
-1.589882260469459
 20
0.7928124999999995
 30
0.0
 40
0.1000000000000012
100
AcDbArc
 50
90.0
 51
149.9999999999999
  0
ARC
  5
192
330
14B
100
AcDbEntity
  8
AM_9
100
AcDbCircle
 10
1.589882260469459
 20
0.7928124999999995
 30
0.0
 40
0.1000000000000012
100
AcDbArc
 50
30.00000000000016
 51
90.0
  0
LINE
  5
193
330
14B
100
AcDbEntity
  8
AM_9
100
AcDbLine
 10
1.729166666666667
 20
1.235000000000001
 30
0.0
 11
-1.729166666666667
 21
1.235000000000001
 31
0.0
  0
LINE
  5
194
330
14B
100
AcDbEntity
  8
AM_9
100
AcDbLine
 10
1.729166666666667
 20
0.8928125000000001
 30
0.0
 11
-1.729166666666667
 21
0.8928125000000001
 31
0.0
  0
LINE
  5
195
330
14B
100
AcDbEntity
  8
AM_9
100
AcDbLine
 10
-1.729166666666667
 20
1.235000000000001
 30
0.0
 11
-1.729166666666667
 21
0.8928125000000001
 31
0.0
  0
LINE
  5
196
330
14B
100
AcDbEntity
  8
AM_9
100
AcDbLine
 10
1.729166666666667
 20
0.8928125000000001
 30
0.0
 11
1.729166666666667
 21
1.235000000000001
 31
0.0
  0
LINE
  5
197
330
14B
100
AcDbEntity
  8
AM_9
100
AcDbLine
 10
1.676484800847903
 20
0.8428125000000003
 30
0.0
 11
-1.676484800847903
 21
0.8428125000000003
 31
0.0
  0
LINE
  5
198
330
14B
100
AcDbEntity
  8
AM_9
100
AcDbLine
 10
-1.676484800847903
 20
0.8428125000000003
 30
0.0
 11
-1.7685
 21
0.6834375000000004
 31
0.0
  0
LINE
  5
199
330
14B
100
AcDbEntity
  8
AM_9
100
AcDbLine
 10
1.7685
 20
0.6834375000000004
 30
0.0
 11
1.676484800847903
 21
0.8428125000000003
 31
0.0
  0
LINE
  5
19A
330
14B
100
AcDbEntity
  8
AM_9
100
AcDbLine
 10
-1.406440978379362
 20
-1.570500000574931
 30
0.0
 11
-1.407008337285316
 21
-1.525
 31
0.0
  0
LINE
  5
19B
330
14B
100
AcDbEntity
  8
AM_9
100
AcDbLine
 10
-1.053454946692042
 20
-1.525
 30
0.0
 11
-1.052887587786089
 21
-1.570500000574931
 31
0.0
  0
LINE
  5
19C
330
14B
100
AcDbEntity
  8
AM_9
100
AcDbLine
 10
1.05288758778609
 20
-1.570500000574931
 30
0.0
 11
1.053454946692043
 21
-1.525
 31
0.0
  0
LINE
  5
19D
330
14B
100
AcDbEntity
  8
AM_9
100
AcDbLine
 10
1.407008337285316
 20
-1.525
 30
0.0
 11
1.406440978379363
 21
-1.570500000574931
 31
0.0
  0
LINE
  5
19E
330
14B
100
AcDbEntity
  8
AM_9
100
AcDbLine
 10
1.756886023114183
 20
-1.5705
 30
0.0
 11
1.777097855822064
 21
-0.4125648796781357
 31
0.0
  0
LINE
  5
19F
330
14B
100
AcDbEntity
  8
AM_9
100
AcDbLine
 10
-1.777097855822064
 20
-0.4125648796781357
 30
0.0
 11
-1.756886023114183
 21
-1.5705
 31
0.0
  0
LINE
  5
1A0
330
14B
100
AcDbEntity
  8
AM_9
100
AcDbLine
 10
1.777097855822064
 20
-0.4125648796781357
 30
0.0
 11
-1.777097855822064
 21
-0.4125648796781357
 31
0.0
  0
ARC
  5
1A1
330
14B
100
AcDbEntity
  8
AM_9
100
AcDbCircle
 10
-1.827090240579884
 20
-0.4134375000000003
 30
0.0
 40
0.0500000000000005
100
AcDbArc
 50
1.000000000000629
 51
90.0
  0
ARC
  5
1A2
330
14B
100
AcDbEntity
  8
AM_9
100
AcDbCircle
 10
1.827090240579884
 20
-0.4134375000000003
 30
0.0
 40
0.0500000000000004
100
AcDbArc
 50
90.0
 51
178.9999999999994
  0
LINE
  5
1A3
330
14B
100
AcDbEntity
  8
AM_9
100
AcDbLine
 10
-1.91615625
 20
0.1702206781528945
 30
0.0
 11
-1.91615625
 21
0.1097793218471056
 31
0.0
  0
LINE
  5
1A4
330
14B
100
AcDbEntity
  8
AM_9
100
AcDbLine
 10
1.91615625
 20
0.1097793218471056
 30
0.0
 11
1.91615625
 21
0.1702206781528945
 31
0.0
  0
LINE
  5
1A5
330
14B
100
AcDbEntity
  8
AM_9
100
AcDbLine
 10
1.958499999999999
 20
-0.3634375
 30
0.0
 11
-1.958499999993213
 21
-0.3634375
 31
0.0
  0
ARC
  5
1A6
330
14B
100
AcDbEntity
  8
AM_9
100
AcDbCircle
 10
-1.958500000000001
 20
-0.3534375000000011
 30
0.0
 40
0.0099999999999987
100
AcDbArc
 50
180.0
 51
270.0
  0
ARC
  5
1A7
330
14B
100
AcDbEntity
  8
AM_9
100
AcDbCircle
 10
1.958500000000001
 20
-0.3534375000000011
 30
0.0
 40
0.0099999999999988
100
AcDbArc
 50
270.0
 51
0.0
  0
LINE
  5
1A8
330
14B
100
AcDbEntity
  8
AM_9
100
AcDbLine
 10
1.91615625
 20
0.1702206781528945
 30
0.0
 11
-1.91615625
 21
0.1702206781528945
 31
0.0
  0
LINE
  5
1A9
330
14B
100
AcDbEntity
  8
AM_9
100
AcDbLine
 10
1.91615625
 20
0.1702206781528945
 30
0.0
 11
1.9685
 21
0.200441356305789
 31
0.0
  0
LINE
  5
1AA
330
14B
100
AcDbEntity
  8
AM_9
100
AcDbLine
 10
-1.9685
 20
0.200441356305789
 30
0.0
 11
-1.91615625
 21
0.1702206781528945
 31
0.0
  0
LINE
  5
1AB
330
14B
100
AcDbEntity
  8
AM_9
100
AcDbLine
 10
1.91615625
 20
0.1097793218471056
 30
0.0
 11
-1.91615625
 21
0.1097793218471056
 31
0.0
  0
LINE
  5
1AC
330
14B
100
AcDbEntity
  8
AM_9
100
AcDbLine
 10
-1.91615625
 20
0.1097793218471056
 30
0.0
 11
-1.9685
 21
0.0795586436942112
 31
0.0
  0
LINE
  5
1AD
330
14B
100
AcDbEntity
  8
AM_9
100
AcDbLine
 10
1.9685
 20
0.0795586436942112
 30
0.0
 11
1.91615625
 21
0.1097793218471056
 31
0.0
  0
LINE
  5
1AE
330
14B
100
AcDbEntity
  8
AM_9
100
AcDbLine
 10
1.9685
 20
0.200441356305789
 30
0.0
 11
-1.9685
 21
0.200441356305789
 31
0.0
  0
LINE
  5
1AF
330
14B
100
AcDbEntity
  8
AM_9
100
AcDbLine
 10
-1.9685
 20
0.6334375000000001
 30
0.0
 11
-1.9685
 21
0.200441356305789
 31
0.0
  0
LINE
  5
1B0
330
14B
100
AcDbEntity
  8
AM_9
100
AcDbLine
 10
1.9685
 20
0.200441356305789
 30
0.0
 11
1.9685
 21
0.6334375000000001
 31
0.0
  0
LINE
  5
1B1
330
14B
100
AcDbEntity
  8
AM_9
100
AcDbLine
 10
1.9685
 20
0.0795586436942112
 30
0.0
 11
-1.968499999999999
 21
0.0795586436942112
 31
0.0
  0
LINE
  5
1B2
330
14B
100
AcDbEntity
  8
AM_9
100
AcDbLine
 10
1.968499999999999
 20
-0.3534375000000007
 30
0.0
 11
-1.968499999999999
 21
-0.3534375000000007
 31
0.0
  0
LINE
  5
1B3
330
14B
100
AcDbEntity
  8
AM_9
100
AcDbLine
 10
-1.968499999999999
 20
0.0795586436942112
 30
0.0
 11
-1.968499999999999
 21
-0.3534375000000007
 31
0.0
  0
LINE
  5
1B4
330
14B
100
AcDbEntity
  8
AM_9
100
AcDbLine
 10
1.968499999999999
 20
-0.3534375000000007
 30
0.0
 11
1.968499999999999
 21
0.0795586436942112
 31
0.0
  0
LINE
  5
1B5
330
14B
100
AcDbEntity
  8
AM_9
100
AcDbLine
 10
1.9185
 20
0.6834375000000004
 30
0.0
 11
-1.918499999988533
 21
0.6834375000000004
 31
0.0
  0
LINE
  5
1B6
330
14B
100
AcDbEntity
  8
AM_9
100
AcDbLine
 10
1.9685
 20
0.6334375000000001
 30
0.0
 11
-1.9685
 21
0.6334375000000001
 31
0.0
  0
ARC
  5
1B7
330
14B
100
AcDbEntity
  8
AM_9
100
AcDbCircle
 10
-1.918499999999999
 20
0.6334374999999999
 30
0.0
 40
0.0500000000000004
100
AcDbArc
 50
90.0
 51
180.0
  0
ARC
  5
1B8
330
14B
100
AcDbEntity
  8
AM_9
100
AcDbCircle
 10
1.918499999999999
 20
0.6334374999999999
 30
0.0
 40
0.0500000000000005
100
AcDbArc
 50
0.0
 51
90.0
  0
LINE
  5
1B9
330
14B
100
AcDbEntity
  8
AM_5
100
AcDbLine
 10
0.095
 20
-1.265
 30
0.0
 11
0.0794273103968562
 21
-1.238027310396856
 31
0.0
  0
LINE
  5
1BA
330
14B
100
AcDbEntity
  8
AM_5
100
AcDbLine
 10
-0.095
 20
-1.264999999999994
 30
0.0
 11
-0.0794273103968659
 21
-1.238027310396866
 31
0.0
  0
LINE
  5
1BB
330
14B
100
AcDbEntity
  8
AM_4
100
AcDbLine
 10
-0.5433380258795528
 20
-2.21
 30
0.0
 11
-0.5433380258795527
 21
-2.035
 31
0.0
  0
LINE
  5
1BC
330
14B
100
AcDbEntity
  8
AM_4
100
AcDbLine
 10
-0.3351610878026547
 20
-2.21
 30
0.0
 11
-0.3351610878026548
 21
-2.035
 31
0.0
  0
LINE
  5
1BD
330
14B
100
AcDbEntity
  8
AM_4
100
AcDbLine
 10
-0.5661309709304764
 20
-2.035
 30
0.0
 11
-0.5661309709304763
 21
-2.21
 31
0.0
  0
LINE
  5
1BE
330
14B
100
AcDbEntity
  8
AM_4
100
AcDbLine
 10
-1.18421052631579
 20
-2.035
 30
0.0
 11
-1.18421052631579
 21
-2.21
 31
0.0
  0
LINE
  5
1BF
330
14B
100
AcDbEntity
  8
AM_4
100
AcDbLine
 10
1.18421052631579
 20
-2.21
 30
0.0
 11
1.18421052631579
 21
-2.035
 31
0.0
  0
LINE
  5
1C0
330
14B
100
AcDbEntity
  8
AM_4
100
AcDbLine
 10
1.18421052631579
 20
-2.21
 30
0.0
 11
-1.18421052631579
 21
-2.21
 31
0.0
  0
LINE
  5
1C1
330
14B
100
AcDbEntity
  8
AM_4
100
AcDbLine
 10
1.209152595828997
 20
-1.5705
 30
0.0
 11
1.209152595828997
 21
-1.965
 31
0.0
  0
LINE
  5
1C2
330
14B
100
AcDbEntity
  8
AM_4
100
AcDbLine
 10
-1.209152595828996
 20
-1.5705
 30
0.0
 11
-1.209152595828996
 21
-1.965
 31
0.0
  0
LINE
  5
1C3
330
14B
100
AcDbEntity
  8
AM_4
100
AcDbLine
 10
-1.401521566688227
 20
-1.965
 30
0.0
 11
-1.750000000000001
 21
-1.965
 31
0.0
  0
LINE
  5
1C4
330
14B
100
AcDbEntity
  8
AM_4
100
AcDbLine
 10
-1.401521566688227
 20
-1.965
 30
0.0
 11
-1.406440978379362
 21
-1.570500000574931
 31
0.0
  0
LINE
  5
1C5
330
14B
100
AcDbEntity
  8
AM_4
100
AcDbLine
 10
-1.052887587786089
 20
-1.570500000574931
 30
0.0
 11
-1.047968176094953
 21
-1.965
 31
0.0
  0
LINE
  5
1C6
330
14B
100
AcDbEntity
  8
AM_4
100
AcDbLine
 10
1.047968176094954
 20
-1.965
 30
0.0
 11
-1.047968176094953
 21
-1.965
 31
0.0
  0
LINE
  5
1C7
330
14B
100
AcDbEntity
  8
AM_4
100
AcDbLine
 10
1.047968176094954
 20
-1.965
 30
0.0
 11
1.05288758778609
 21
-1.570500000574931
 31
0.0
  0
LINE
  5
1C8
330
14B
100
AcDbEntity
  8
AM_4
100
AcDbLine
 10
1.406440978379363
 20
-1.570500000574931
 30
0.0
 11
1.401521566688227
 21
-1.965
 31
0.0
  0
LINE
  5
1C9
330
14B
100
AcDbEntity
  8
AM_4
100
AcDbLine
 10
1.750000000000001
 20
-1.965
 30
0.0
 11
1.756886023114183
 21
-1.5705
 31
0.0
  0
LINE
  5
1CA
330
14B
100
AcDbEntity
  8
AM_4
100
AcDbLine
 10
-1.756886023114183
 20
-1.5705
 30
0.0
 11
-1.750000000000001
 21
-1.965
 31
0.0
  0
LINE
  5
1CB
330
14B
100
AcDbEntity
  8
AM_4
100
AcDbLine
 10
1.750000000000001
 20
-1.965
 30
0.0
 11
1.401521566688227
 21
-1.965
 31
0.0
  0
ENDBLK
  5
14E
330
14B
100
AcDbEntity
  8
0
100
AcDbBlockEnd
  0
BLOCK
  5
1CE
330
1CC
100
AcDbEntity
  8
0
100
AcDbBlockBegin
  2
7_071238H_0_in_071238_4
 70
     2
 10
0.0
 20
0.0
 30
0.0
  3
7_071238H_0_in_071238_4
  1

  0
ATTDEF
  5
1D0
330
1CC
100
AcDbEntity
  8
AM_6
100
AcDbText
 10
10.25
 20
1.9195
 30
0.0
 40
0.5
  1
EP4B-IP -(Labyrinth Seal)-Housing -Inch
100
AcDbAttributeDefinition
  3

  2
NN
 70
     8
280
     0
  0
ATTDEF
  5
1D1
330
1CC
100
AcDbEntity
  8
AM_6
100
AcDbText
 10
10.25
 20
1.4195
 30
0.0
 40
0.5
  1
Imperial/E 4 Bolt Piliow Block Bearings
100
AcDbAttributeDefinition
  3

  2
NT
 70
     8
280
     0
  0
ATTDEF
  5
1D2
330
1CC
100
AcDbEntity
  8
AM_6
100
AcDbText
 10
10.25
 20
0.9195000000000002
 30
0.0
 40
0.5
  1
071238H
100
AcDbAttributeDefinition
  3

  2
NB
 70
     8
280
     0
  0
ATTDEF
  5
1D3
330
1CC
100
AcDbEntity
  8
AM_6
100
AcDbText
 10
10.25
 20
0.4195000000000002
 30
0.0
 40
0.5
  1
$PN.H
100
AcDbAttributeDefinition
  3

  2
NBSYN
 70
     8
280
     0
  0
ATTDEF
  5
1D4
330
1CC
100
AcDbEntity
  8
AM_6
100
AcDbText
 10
10.25
 20
-0.0804999999999998
 30
0.0
 40
0.5
  1
071238
100
AcDbAttributeDefinition
  3

  2
LINA
 70
     8
280
     0
  0
ATTDEF
  5
1D5
330
1CC
100
AcDbEntity
  8
AM_6
100
AcDbText
 10
10.25
 20
-0.5804999999999998
 30
0.0
 40
0.5
  1
2-1/4
100
AcDbAttributeDefinition
  3

  2
SS
 70
     8
280
     0
  0
ATTDEF
  5
1D6
330
1CC
100
AcDbEntity
  8
AM_6
100
AcDbText
 10
10.25
 20
-1.0805
 30
0.0
 40
0.5
  1
2.375000
100
AcDbAttributeDefinition
  3

  2
SS1
 70
     8
280
     0
  0
ATTDEF
  5
1D7
330
1CC
100
AcDbEntity
  8
AM_6
100
AcDbText
 10
10.25
 20
-1.5805
 30
0.0
 40
0.5
  1
Non-Expansion
100
AcDbAttributeDefinition
  3

  2
TYPE
 70
     8
280
     0
  0
ATTDEF
  5
1D8
330
1CC
100
AcDbEntity
  8
AM_6
100
AcDbText
 10
10.25
 20
-2.0805
 30
0.0
 40
0.5
  1
071238
100
AcDbAttributeDefinition
  3

  2
PN1
 70
     8
280
     0
  0
ATTDEF
  5
1D9
330
1CC
100
AcDbEntity
  8
AM_6
100
AcDbText
 10
10.25
 20
-2.5805
 30
0.0
 40
0.5
  1
071255
100
AcDbAttributeDefinition
  3

  2
PN2
 70
     8
280
     0
  0
ATTDEF
  5
1DA
330
1CC
100
AcDbEntity
  8
AM_6
100
AcDbText
 10
10.25
 20
-3.0805
 30
0.0
 40
0.5
  1
EP4B-IP-204L
100
AcDbAttributeDefinition
  3

  2
DESCRIPTION
 70
     8
280
     0
  0
ATTDEF
  5
1DB
330
1CC
100
AcDbEntity
  8
AM_6
100
AcDbText
 10
10.25
 20
-3.5805
 30
0.0
 40
0.5
  1
Non-Expansion Type
100
AcDbAttributeDefinition
  3

  2
EF
 70
     8
280
     0
  0
ATTDEF
  5
1DC
330
1CC
100
AcDbEntity
  8
AM_6
100
AcDbText
 10
10.25
 20
-4.0805
 30
0.0
 40
0.5
  1
1
100
AcDbAttributeDefinition
  3

  2
EF1
 70
     8
280
     0
  0
ATTDEF
  5
1DD
330
1CC
100
AcDbEntity
  8
AM_6
100
AcDbText
 10
10.25
 20
-4.5805
 30
0.0
 40
0.5
  1
Labyrinth Seal
100
AcDbAttributeDefinition
  3

  2
ST
 70
     8
280
     0
  0
ATTDEF
  5
1DE
330
1CC
100
AcDbEntity
  8
AM_6
100
AcDbText
 10
10.25
 20
-5.0805
 30
0.0
 40
0.5
  1
1
100
AcDbAttributeDefinition
  3

  2
ST1
 70
     8
280
     0
  0
ATTDEF
  5
1DF
330
1CC
100
AcDbEntity
  8
AM_6
100
AcDbText
 10
10.25
 20
-5.5805
 30
0.0
 40
0.5
  1
3.42
100
AcDbAttributeDefinition
  3

  2
A
 70
     8
280
     0
  0
ATTDEF
  5
1E0
330
1CC
100
AcDbEntity
  8
AM_6
100
AcDbText
 10
10.25
 20
-6.0805
 30
0.0
 40
0.5
  1
3.4200000
100
AcDbAttributeDefinition
  3

  2
A1
 70
     8
280
     0
  0
ATTDEF
  5
1E1
330
1CC
100
AcDbEntity
  8
AM_6
100
AcDbText
 10
10.25
 20
-6.5805
 30
0.0
 40
0.5
  1
10.5
100
AcDbAttributeDefinition
  3

  2
B
 70
     8
280
     0
  0
ATTDEF
  5
1E2
330
1CC
100
AcDbEntity
  8
AM_6
100
AcDbText
 10
10.25
 20
-7.0805
 30
0.0
 40
0.5
  1
10.5000000
100
AcDbAttributeDefinition
  3

  2
B1
 70
     8
280
     0
  0
ATTDEF
  5
1E3
330
1CC
100
AcDbEntity
  8
AM_6
100
AcDbText
 10
10.25
 20
-7.5805
 30
0.0
 40
0.5
  1
3.49
100
AcDbAttributeDefinition
  3

  2
C
 70
     8
280
     0
  0
ATTDEF
  5
1E4
330
1CC
100
AcDbEntity
  8
AM_6
100
AcDbText
 10
10.25
 20
-8.0805
 30
0.0
 40
0.5
  1
3.4900000
100
AcDbAttributeDefinition
  3

  2
C1
 70
     8
280
     0
  0
ATTDEF
  5
1E5
330
1CC
100
AcDbEntity
  8
AM_6
100
AcDbText
 10
10.25
 20
-8.5805
 30
0.0
 40
0.5
  1
8.31
100
AcDbAttributeDefinition
  3

  2
DMIN
 70
     8
280
     0
  0
ATTDEF
  5
1E6
330
1CC
100
AcDbEntity
  8
AM_6
100
AcDbText
 10
10.25
 20
-9.0805
 30
0.0
 40
0.5
  1
8.3100000
100
AcDbAttributeDefinition
  3

  2
DMIN1
 70
     8
280
     0
  0
ATTDEF
  5
1E7
330
1CC
100
AcDbEntity
  8
AM_6
100
AcDbText
 10
10.25
 20
-9.5805
 30
0.0
 40
0.5
  1
8.69
100
AcDbAttributeDefinition
  3

  2
DMAX
 70
     8
280
     0
  0
ATTDEF
  5
1E8
330
1CC
100
AcDbEntity
  8
AM_6
100
AcDbText
 10
10.25
 20
-10.0805
 30
0.0
 40
0.5
  1
8.6900000
100
AcDbAttributeDefinition
  3

  2
DMAX1
 70
     8
280
     0
  0
ATTDEF
  5
1E9
330
1CC
100
AcDbEntity
  8
AM_6
100
AcDbText
 10
10.25
 20
-10.5805
 30
0.0
 40
0.5
  1
1.87
100
AcDbAttributeDefinition
  3

  2
E
 70
     8
280
     0
  0
ATTDEF
  5
1EA
330
1CC
100
AcDbEntity
  8
AM_6
100
AcDbText
 10
10.25
 20
-11.0805
 30
0.0
 40
0.5
  1
1.870000
100
AcDbAttributeDefinition
  3

  2
E1
 70
     8
280
     0
  0
ATTDEF
  5
1EB
330
1CC
100
AcDbEntity
  8
AM_6
100
AcDbText
 10
10.25
 20
-11.5805
 30
0.0
 40
0.5
  1
5/8
100
AcDbAttributeDefinition
  3

  2
F
 70
     8
280
     0
  0
ATTDEF
  5
1EC
330
1CC
100
AcDbEntity
  8
AM_6
100
AcDbText
 10
10.25
 20
-12.0805
 30
0.0
 40
0.5
  1
0.6250000
100
AcDbAttributeDefinition
  3

  2
F1
 70
     8
280
     0
  0
ATTDEF
  5
1ED
330
1CC
100
AcDbEntity
  8
AM_6
100
AcDbText
 10
10.25
 20
-12.5805
 30
0.0
 40
0.5
  1
0.87
100
AcDbAttributeDefinition
  3

  2
G
 70
     8
280
     0
  0
ATTDEF
  5
1EE
330
1CC
100
AcDbEntity
  8
AM_6
100
AcDbText
 10
10.25
 20
-13.0805
 30
0.0
 40
0.5
  1
0.870000
100
AcDbAttributeDefinition
  3

  2
G1
 70
     8
280
     0
  0
ATTDEF
  5
1EF
330
1CC
100
AcDbEntity
  8
AM_6
100
AcDbText
 10
10.25
 20
-13.5805
 30
0.0
 40
0.5
  1
1.63
100
AcDbAttributeDefinition
  3

  2
H
 70
     8
280
     0
  0
ATTDEF
  5
1F0
330
1CC
100
AcDbEntity
  8
AM_6
100
AcDbText
 10
10.25
 20
-14.0805
 30
0.0
 40
0.5
  1
1.6300000
100
AcDbAttributeDefinition
  3

  2
H1
 70
     8
280
     0
  0
ATTDEF
  5
1F1
330
1CC
100
AcDbEntity
  8
AM_6
100
AcDbText
 10
10.25
 20
-14.5805
 30
0.0
 40
0.5
  1
5.72
100
AcDbAttributeDefinition
  3

  2
J
 70
     8
280
     0
  0
ATTDEF
  5
1F2
330
1CC
100
AcDbEntity
  8
AM_6
100
AcDbText
 10
10.25
 20
-15.0805
 30
0.0
 40
0.5
  1
5.720000
100
AcDbAttributeDefinition
  3

  2
J1
 70
     8
280
     0
  0
ATTDEF
  5
1F3
330
1CC
100
AcDbEntity
  8
AM_6
100
AcDbText
 10
10.25
 20
-15.5805
 30
0.0
 40
0.5
  1
3.88
100
AcDbAttributeDefinition
  3

  2
L
 70
     8
280
     0
  0
ATTDEF
  5
1F4
330
1CC
100
AcDbEntity
  8
AM_6
100
AcDbText
 10
10.25
 20
-16.0805
 30
0.0
 40
0.5
  1
3.8800000
100
AcDbAttributeDefinition
  3

  2
L1
 70
     8
280
     0
  0
ATTDEF
  5
1F5
330
1CC
100
AcDbEntity
  8
AM_6
100
AcDbText
 10
10.25
 20
-16.5805
 30
0.0
 40
0.5
  1
2.75
100
AcDbAttributeDefinition
  3

  2
M
 70
     8
280
     0
  0
ATTDEF
  5
1F6
330
1CC
100
AcDbEntity
  8
AM_6
100
AcDbText
 10
10.25
 20
-17.0805
 30
0.0
 40
0.5
  1
2.750000
100
AcDbAttributeDefinition
  3

  2
M1
 70
     8
280
     0
  0
ATTDEF
  5
1F7
330
1CC
100
AcDbEntity
  8
AM_6
100
AcDbText
 10
10.25
 20
-17.5805
 30
0.0
 40
0.5
  1
1.21
100
AcDbAttributeDefinition
  3

  2
R
 70
     8
280
     0
  0
ATTDEF
  5
1F8
330
1CC
100
AcDbEntity
  8
AM_6
100
AcDbText
 10
10.25
 20
-18.0805
 30
0.0
 40
0.5
  1
1.210000
100
AcDbAttributeDefinition
  3

  2
R1
 70
     8
280
     0
  0
ATTDEF
  5
1F9
330
1CC
100
AcDbEntity
  8
AM_6
100
AcDbText
 10
10.25
 20
-18.5805
 30
0.0
 40
0.5
  1
2.21
100
AcDbAttributeDefinition
  3

  2
S
 70
     8
280
     0
  0
ATTDEF
  5
1FA
330
1CC
100
AcDbEntity
  8
AM_6
100
AcDbText
 10
10.25
 20
-19.0805
 30
0.0
 40
0.5
  1
2.210000
100
AcDbAttributeDefinition
  3

  2
S1
 70
     8
280
     0
  0
ATTDEF
  5
1FB
330
1CC
100
AcDbEntity
  8
AM_6
100
AcDbText
 10
10.25
 20
-19.5805
 30
0.0
 40
0.5
  1
0.25
100
AcDbAttributeDefinition
  3

  2
X
 70
     8
280
     0
  0
ATTDEF
  5
1FC
330
1CC
100
AcDbEntity
  8
AM_6
100
AcDbText
 10
10.25
 20
-20.0805
 30
0.0
 40
0.5
  1
0.250000
100
AcDbAttributeDefinition
  3

  2
X1
 70
     8
280
     0
  0
ATTDEF
  5
1FD
330
1CC
100
AcDbEntity
  8
AM_6
100
AcDbText
 10
10.25
 20
-20.5805
 30
0.0
 40
0.5
  1
0.025
100
AcDbAttributeDefinition
  3

  2
Y
 70
     8
280
     0
  0
ATTDEF
  5
1FE
330
1CC
100
AcDbEntity
  8
AM_6
100
AcDbText
 10
10.25
 20
-21.0805
 30
0.0
 40
0.5
  1
2.94
100
AcDbAttributeDefinition
  3

  2
Z
 70
     8
280
     0
  0
ATTDEF
  5
1FF
330
1CC
100
AcDbEntity
  8
AM_6
100
AcDbText
 10
10.25
 20
-21.5805
 30
0.0
 40
0.5
  1
2.940000
100
AcDbAttributeDefinition
  3

  2
Z1
 70
     8
280
     0
  0
ATTDEF
  5
200
330
1CC
100
AcDbEntity
  8
AM_6
100
AcDbText
 10
10.25
 20
-22.0805
 30
0.0
 40
0.5
  1
3.9370
100
AcDbAttributeDefinition
  3

  2
BORE
 70
     8
280
     0
  0
ATTDEF
  5
201
330
1CC
100
AcDbEntity
  8
AM_6
100
AcDbText
 10
10.25
 20
-22.5805
 30
0.0
 40
0.5
  1
0.07000
100
AcDbAttributeDefinition
  3

  2
CR
 70
     8
280
     0
  0
ATTDEF
  5
202
330
1CC
100
AcDbEntity
  8
AM_6
100
AcDbText
 10
10.25
 20
-23.0805
 30
0.0
 40
0.5
  1
baldor
100
AcDbAttributeDefinition
  3

  2
COMPANY
 70
     8
280
     0
  0
LINE
  5
203
330
1CC
100
AcDbEntity
  8
AM_9
100
AcDbLine
 10
-0.815
 20
-1.275000000000001
 30
0.0
 11
-0.815
 21
1.275
 31
0.0
  0
LINE
  5
204
330
1CC
100
AcDbEntity
  8
AM_9
100
AcDbLine
 10
0.8150000000000007
 20
-1.275000000000001
 30
0.0
 11
0.8150000000000007
 21
1.275
 31
0.0
  0
LINE
  5
205
330
1CC
100
AcDbEntity
  8
AM_9
100
AcDbLine
 10
2.011078403687172
 20
-1.275000000000001
 30
0.0
 11
2.011078403687172
 21
1.275000000000001
 31
0.0
  0
LINE
  5
206
330
1CC
100
AcDbEntity
  8
AM_9
100
AcDbLine
 10
-2.011078403687173
 20
-1.275000000000001
 30
0.0
 11
-2.011078403687173
 21
1.275000000000001
 31
0.0
  0
LINE
  5
207
330
1CC
100
AcDbEntity
  8
AM_9
100
AcDbLine
 10
4.155
 20
-1.275
 30
0.0
 11
0.8150000000000007
 21
-1.275000000000001
 31
0.0
  0
LINE
  5
208
330
1CC
100
AcDbEntity
  8
AM_9
100
AcDbLine
 10
4.155
 20
1.275000000000001
 30
0.0
 11
0.8150000000000007
 21
1.275
 31
0.0
  0
LINE
  5
209
330
1CC
100
AcDbEntity
  8
AM_9
100
AcDbLine
 10
4.685
 20
-0.9350000000000003
 30
0.0
 11
4.685
 21
0.9349999999999996
 31
0.0
  0
LINE
  5
20A
330
1CC
100
AcDbEntity
  8
AM_9
100
AcDbLine
 10
2.249482607178815
 20
-1.275000000000001
 30
0.0
 11
2.249482607178815
 21
1.275000000000001
 31
0.0
  0
LINE
  5
20B
330
1CC
100
AcDbEntity
  8
AM_9
100
AcDbLine
 10
-2.249482607178816
 20
-1.275000000000001
 30
0.0
 11
-2.249482607178816
 21
1.275000000000001
 31
0.0
  0
LINE
  5
20C
330
1CC
100
AcDbEntity
  8
AM_9
100
AcDbLine
 10
-0.815
 20
-1.275000000000001
 30
0.0
 11
-4.155
 21
-1.275000000000001
 31
0.0
  0
LINE
  5
20D
330
1CC
100
AcDbEntity
  8
AM_9
100
AcDbLine
 10
-0.815
 20
1.275
 30
0.0
 11
-4.155
 21
1.275000000000001
 31
0.0
  0
LINE
  5
20E
330
1CC
100
AcDbEntity
  8
AM_9
100
AcDbLine
 10
-4.685
 20
0.9349999999999998
 30
0.0
 11
-4.685
 21
-0.9349999999999998
 31
0.0
  0
LINE
  5
20F
330
1CC
100
AcDbEntity
  8
AM_9
100
AcDbLine
 10
1.9685
 20
-1.5705
 30
0.0
 11
1.9685
 21
1.5705
 31
0.0
  0
LINE
  5
210
330
1CC
100
AcDbEntity
  8
AM_9
100
AcDbLine
 10
-1.9685
 20
1.5705
 30
0.0
 11
-1.9685
 21
-1.5705
 31
0.0
  0
ELLIPSE
  5
211
330
1CC
100
AcDbEntity
  8
AM_9
100
AcDbEllipse
 10
-1.485
 20
-0.0000000000000001
 30
0.0
 11
3.061616997868383E-17
 21
0.5
 31
0.0
210
0.0
220
0.0
230
1.0
 40
0.8660254037844388
 41
0.0
 42
3.02030629286637
  0
LWPOLYLINE
  5
212
330
1CC
100
AcDbEntity
  8
AM_9
100
AcDbPolyline
 90
       27
 70
     0
 43
0.0
 10
-1.531472795768002
 20
0.4970814150134039
 10
-1.576388394257954
 20
0.4884605841877877
 10
-1.619994590203955
 20
0.4742741597257998
 10
-1.662964862225549
 20
0.4538210203167561
 10
-1.703477992073912
 20
0.4277654401447772
 10
-1.740871766864998
 20
0.3965922894699645
 10
-1.775226158549847
 20
0.3600700458745629
 10
-1.80590645228466
 20
0.3189363250510296
 10
-1.832437562223614
 20
0.2739427818160952
 10
-1.854738988545061
 20
0.2251030081294838
 10
-1.872532190216264
 20
0.1732119378082341
 10
-1.885535727817356
 20
0.1192506657742526
 10
-1.893979683919912
 20
0.0600701021075045
 10
-1.896817675240786
 20
0.0000000000000001
 10
-1.894367576635985
 20
-0.0556000705568375
 10
-1.887093833978543
 20
-0.1106696279511689
 10
-1.875111277003905
 20
-0.1641689522464492
 10
-1.858445752255073
 20
-0.2155465346746442
 10
-1.83725161266806
 20
-0.2643889962017754
 10
-1.81185127784251
 20
-0.3098094969687681
 10
-1.782062519222173
 20
-0.3517065481976949
 10
-1.748331748962988
 20
-0.3893312094194498
 10
-1.7111885986812
 20
-0.4219913921510411
 10
-1.67058182994766
 20
-0.4494596501368603
 10
-1.62707646550173
 20
-0.4713256830618575
 10
-1.581433233906409
 20
-0.4871599915299852
 10
-1.535270979704647
 20
-0.4965801714781977
  0
LINE
  5
213
330
1CC
100
AcDbEntity
  8
AM_9
100
AcDbLine
 10
-1.484999999999998
 20
0.5000000000000002
 30
0.0
 11
-1.491414956660689
 21
0.4999450489376087
 31
0.0
  0
LINE
  5
216
330
1CC
100
AcDbEntity
  8
AM_7
100
AcDbLine
 10
0.0
 20
1.9195
 30
0.0
 11
0.0
 21
-2.382249999999999
 31
0.0
  0
LINE
  5
217
330
1CC
100
AcDbEntity
  8
AM_7
100
AcDbLine
 10
-4.701999999999999
 20
0.935
 30
0.0
 11
-3.798
 21
0.9349999999999998
 31
0.0
  0
LINE
  5
218
330
1CC
100
AcDbEntity
  8
AM_7
100
AcDbLine
 10
-4.344999999999998
 20
0.5779999999999992
 30
0.0
 11
-4.344999999999998
 21
1.292000000000001
 31
0.0
  0
LINE
  5
219
330
1CC
100
AcDbEntity
  8
AM_7
100
AcDbLine
 10
-4.701999999999999
 20
-0.935
 30
0.0
 11
-3.798
 21
-0.9350000000000003
 31
0.0
  0
LINE
  5
21A
330
1CC
100
AcDbEntity
  8
AM_7
100
AcDbLine
 10
-4.344999999999999
 20
-1.292
 30
0.0
 11
-4.344999999999999
 21
-0.5780000000000002
 31
0.0
  0
LINE
  5
21B
330
1CC
100
AcDbEntity
  8
AM_7
100
AcDbLine
 10
3.798
 20
-0.9349999999999998
 30
0.0
 11
4.701999999999999
 21
-0.9350000000000004
 31
0.0
  0
LINE
  5
21C
330
1CC
100
AcDbEntity
  8
AM_7
100
AcDbLine
 10
4.344999999999998
 20
-1.292000000000001
 30
0.0
 11
4.344999999999998
 21
-0.5779999999999996
 31
0.0
  0
LINE
  5
21D
330
1CC
100
AcDbEntity
  8
AM_7
100
AcDbLine
 10
-4.155
 20
0.5779999999999995
 30
0.0
 11
-4.155
 21
1.292
 31
0.0
  0
LINE
  5
21E
330
1CC
100
AcDbEntity
  8
AM_7
100
AcDbLine
 10
-4.155
 20
-1.292000000000001
 30
0.0
 11
-4.155
 21
-0.578
 31
0.0
  0
LINE
  5
21F
330
1CC
100
AcDbEntity
  8
AM_7
100
AcDbLine
 10
3.798
 20
0.9349999999999999
 30
0.0
 11
4.701999999999999
 21
0.9349999999999997
 31
0.0
  0
LINE
  5
220
330
1CC
100
AcDbEntity
  8
AM_7
100
AcDbLine
 10
4.344999999999998
 20
0.577999999999999
 30
0.0
 11
4.344999999999998
 21
1.292
 31
0.0
  0
LINE
  5
221
330
1CC
100
AcDbEntity
  8
AM_7
100
AcDbLine
 10
4.155
 20
-1.292
 30
0.0
 11
4.155
 21
-0.5779999999999995
 31
0.0
  0
LINE
  5
222
330
1CC
100
AcDbEntity
  8
AM_7
100
AcDbLine
 10
4.155
 20
0.5779999999999992
 30
0.0
 11
4.155
 21
1.292000000000001
 31
0.0
  0
LINE
  5
223
330
1CC
100
AcDbEntity
  8
AM_4
100
AcDbLine
 10
5.250000000000001
 20
1.395999999999999
 30
0.0
 11
4.901
 21
1.745
 31
0.0
  0
LINE
  5
224
330
1CC
100
AcDbEntity
  8
AM_4
100
AcDbLine
 10
4.901
 20
-1.745
 30
0.0
 11
5.25
 21
-1.396
 31
0.0
  0
LINE
  5
225
330
1CC
100
AcDbEntity
  8
AM_4
100
AcDbLine
 10
5.25
 20
-1.396
 30
0.0
 11
5.250000000000001
 21
1.395999999999999
 31
0.0
  0
LINE
  5
226
330
1CC
100
AcDbEntity
  8
AM_4
100
AcDbLine
 10
-5.25
 20
-1.395999999999999
 30
0.0
 11
-4.901
 21
-1.745
 31
0.0
  0
LINE
  5
227
330
1CC
100
AcDbEntity
  8
AM_4
100
AcDbLine
 10
-4.901
 20
1.745
 30
0.0
 11
-5.25
 21
1.396
 31
0.0
  0
LINE
  5
228
330
1CC
100
AcDbEntity
  8
AM_4
100
AcDbLine
 10
-5.25
 20
1.396
 30
0.0
 11
-5.25
 21
-1.395999999999999
 31
0.0
  0
LWPOLYLINE
  5
229
330
1CC
100
AcDbEntity
  8
AM_4
100
AcDbPolyline
 90
       11
 70
     0
 43
0.0
 10
-5.087
 20
-0.9288772793001313
 10
-5.107095630529908
 20
-0.7671092483203111
 10
-5.123360656780828
 20
-0.6048192036553817
 10
-5.136433037964918
 20
-0.431824406914529
 10
-5.145139722518714
 20
-0.258546389287631
 10
-5.149479090267173
 20
-0.0846190353696387
 10
-5.149419457940422
 20
0.0893701216588225
 10
-5.143477337865938
 20
0.2994807996735708
 10
-5.131121886464804
 20
0.5092907746261274
 10
-5.11227875772246
 20
0.7194109164860163
 10
-5.087
 20
0.9288772793001355
  0
LINE
  5
22A
330
1CC
100
AcDbEntity
  8
AM_4
100
AcDbLine
 10
-3.132999999999996
 20
1.5705
 30
0.0
 11
-3.3075
 21
1.745
 31
0.0
  0
LINE
  5
22B
330
1CC
100
AcDbEntity
  8
AM_4
100
AcDbLine
 10
-3.307500000000001
 20
-1.745
 30
0.0
 11
-3.133
 21
-1.5705
 31
0.0
  0
LINE
  5
22C
330
1CC
100
AcDbEntity
  8
AM_4
100
AcDbLine
 10
-4.344999999999999
 20
-1.275
 30
0.0
 11
-4.155
 21
-1.275000000000001
 31
0.0
  0
ARC
  5
22D
330
1CC
100
AcDbEntity
  8
AM_4
100
AcDbCircle
 10
-4.344999999999999
 20
-0.9349999999999999
 30
0.0
 40
0.3400000000000002
100
AcDbArc
 50
90.0
 51
270.0
  0
LINE
  5
22E
330
1CC
100
AcDbEntity
  8
AM_4
100
AcDbLine
 10
-4.155
 20
-0.5949999999999999
 30
0.0
 11
-4.344999999999999
 21
-0.5949999999999998
 31
0.0
  0
ARC
  5
22F
330
1CC
100
AcDbEntity
  8
AM_4
100
AcDbCircle
 10
-4.155
 20
-0.935
 30
0.0
 40
0.3400000000000005
100
AcDbArc
 50
270.0
 51
90.0
  0
LINE
  5
230
330
1CC
100
AcDbEntity
  8
AM_4
100
AcDbLine
 10
-4.344999999999999
 20
0.5949999999999994
 30
0.0
 11
-4.155
 21
0.5949999999999996
 31
0.0
  0
ARC
  5
231
330
1CC
100
AcDbEntity
  8
AM_4
100
AcDbCircle
 10
-4.344999999999998
 20
0.935
 30
0.0
 40
0.3400000000000005
100
AcDbArc
 50
90.0
 51
270.0
  0
LINE
  5
232
330
1CC
100
AcDbEntity
  8
AM_4
100
AcDbLine
 10
-4.155
 20
1.275
 30
0.0
 11
-4.344999999999999
 21
1.275000000000001
 31
0.0
  0
ARC
  5
233
330
1CC
100
AcDbEntity
  8
AM_4
100
AcDbCircle
 10
-4.155
 20
0.9349999999999999
 30
0.0
 40
0.3400000000000003
100
AcDbArc
 50
270.0
 51
90.0
  0
ARC
  5
234
330
1CC
100
AcDbEntity
  8
AM_4
100
AcDbCircle
 10
1.729222222222477
 20
0.0000000000000508
 30
0.0
 40
6.879222222222482
100
AcDbArc
 50
187.7601520885683
 51
194.4153957883772
  0
LINE
  5
235
330
1CC
100
AcDbEntity
  8
AM_4
100
AcDbLine
 10
-3.307500000000001
 20
-1.745
 30
0.0
 11
-4.901
 21
-1.745
 31
0.0
  0
LINE
  5
236
330
1CC
100
AcDbEntity
  8
AM_4
100
AcDbLine
 10
-3.3075
 20
1.745
 30
0.0
 11
-4.901
 21
1.745
 31
0.0
  0
ARC
  5
237
330
1CC
100
AcDbEntity
  8
AM_4
100
AcDbCircle
 10
1.729222222222617
 20
-0.0000000000000675
 30
0.0
 40
6.879222222222624
100
AcDbArc
 50
165.5846042116229
 51
172.2398479114316
  0
LINE
  5
238
330
1CC
100
AcDbEntity
  8
AM_4
100
AcDbLine
 10
-5.086999999999999
 20
-0.9288772793001371
 30
0.0
 11
-5.086999999999999
 21
0.928877279300141
 31
0.0
  0
LWPOLYLINE
  5
239
330
1CC
100
AcDbEntity
  8
AM_4
100
AcDbPolyline
 90
       11
 70
     0
 43
0.0
 10
5.086999999999999
 20
0.9288772793001325
 10
5.107095630529908
 20
0.7671092483203114
 10
5.123360656780827
 20
0.6048192036553813
 10
5.136433037964917
 20
0.4318244069145314
 10
5.145139722518713
 20
0.2585463892876363
 10
5.149479090267172
 20
0.0846190353696468
 10
5.14941945794042
 20
-0.0893701216588116
 10
5.143477337865936
 20
-0.2994807996735608
 10
5.131121886464802
 20
-0.5092907746261184
 10
5.112278757722459
 20
-0.7194109164860083
 10
5.086999999999999
 20
-0.9288772793001285
  0
LINE
  5
23A
330
1CC
100
AcDbEntity
  8
AM_4
100
AcDbLine
 10
3.132999999999997
 20
-1.570499999999999
 30
0.0
 11
3.3075
 21
-1.745
 31
0.0
  0
LINE
  5
23B
330
1CC
100
AcDbEntity
  8
AM_4
100
AcDbLine
 10
3.3075
 20
1.745
 30
0.0
 11
3.133
 21
1.5705
 31
0.0
  0
LINE
  5
23C
330
1CC
100
AcDbEntity
  8
AM_4
100
AcDbLine
 10
4.344999999999999
 20
1.275
 30
0.0
 11
4.155
 21
1.275000000000001
 31
0.0
  0
ARC
  5
23D
330
1CC
100
AcDbEntity
  8
AM_4
100
AcDbCircle
 10
4.344999999999998
 20
0.9349999999999996
 30
0.0
 40
0.34
100
AcDbArc
 50
270.0
 51
90.0
  0
LINE
  5
23E
330
1CC
100
AcDbEntity
  8
AM_4
100
AcDbLine
 10
4.155
 20
0.5949999999999994
 30
0.0
 11
4.345
 21
0.5949999999999996
 31
0.0
  0
ARC
  5
23F
330
1CC
100
AcDbEntity
  8
AM_4
100
AcDbCircle
 10
4.155
 20
0.9349999999999999
 30
0.0
 40
0.3400000000000006
100
AcDbArc
 50
90.0
 51
270.0
  0
LINE
  5
240
330
1CC
100
AcDbEntity
  8
AM_4
100
AcDbLine
 10
4.344999999999999
 20
-0.5949999999999999
 30
0.0
 11
4.155
 21
-0.5949999999999998
 31
0.0
  0
ARC
  5
241
330
1CC
100
AcDbEntity
  8
AM_4
100
AcDbCircle
 10
4.344999999999998
 20
-0.9350000000000005
 30
0.0
 40
0.3400000000000001
100
AcDbArc
 50
270.0
 51
90.0
  0
LINE
  5
242
330
1CC
100
AcDbEntity
  8
AM_4
100
AcDbLine
 10
4.155
 20
-1.275
 30
0.0
 11
4.345
 21
-1.275000000000001
 31
0.0
  0
ARC
  5
243
330
1CC
100
AcDbEntity
  8
AM_4
100
AcDbCircle
 10
4.155
 20
-0.9349999999999999
 30
0.0
 40
0.3400000000000002
100
AcDbArc
 50
90.0
 51
270.0
  0
ARC
  5
244
330
1CC
100
AcDbEntity
  8
AM_4
100
AcDbCircle
 10
-1.729222222222017
 20
0.0000000000000389
 30
0.0
 40
6.879222222222014
100
AcDbArc
 50
7.760152088568015
 51
14.41539578837746
  0
LINE
  5
245
330
1CC
100
AcDbEntity
  8
AM_4
100
AcDbLine
 10
4.901
 20
1.745
 30
0.0
 11
3.3075
 21
1.745
 31
0.0
  0
LINE
  5
246
330
1CC
100
AcDbEntity
  8
AM_4
100
AcDbLine
 10
4.901
 20
-1.745
 30
0.0
 11
3.3075
 21
-1.745
 31
0.0
  0
ARC
  5
247
330
1CC
100
AcDbEntity
  8
AM_4
100
AcDbCircle
 10
-1.729222222222224
 20
0.0000000000000091
 30
0.0
 40
6.879222222222224
100
AcDbArc
 50
345.5846042116225
 51
352.2398479114318
  0
LINE
  5
248
330
1CC
100
AcDbEntity
  8
AM_4
100
AcDbLine
 10
5.086999999999999
 20
-0.9288772793001282
 30
0.0
 11
5.086999999999999
 21
0.9288772793001326
 31
0.0
  0
LINE
  5
249
330
1CC
100
AcDbEntity
  8
AM_4
100
AcDbLine
 10
-3.0189
 20
-1.047
 30
0.0
 11
-3.0189
 21
1.047
 31
0.0
  0
LINE
  5
24A
330
1CC
100
AcDbEntity
  8
AM_4
100
AcDbLine
 10
3.0189
 20
-1.047
 30
0.0
 11
3.0189
 21
1.047
 31
0.0
  0
LINE
  5
24B
330
1CC
100
AcDbEntity
  8
AM_4
100
AcDbLine
 10
3.276904361245802
 20
1.047
 30
0.0
 11
3.276904361245802
 21
1.714404361245803
 31
0.0
  0
LINE
  5
24C
330
1CC
100
AcDbEntity
  8
AM_4
100
AcDbLine
 10
3.276904361245802
 20
-1.714404361245803
 30
0.0
 11
3.276904361245802
 21
-1.047
 31
0.0
  0
LINE
  5
24D
330
1CC
100
AcDbEntity
  8
AM_4
100
AcDbLine
 10
-3.276904361245803
 20
1.047
 30
0.0
 11
-3.276904361245803
 21
1.714404361245804
 31
0.0
  0
LINE
  5
24E
330
1CC
100
AcDbEntity
  8
AM_4
100
AcDbLine
 10
-3.276904361245803
 20
-1.714404361245803
 30
0.0
 11
-3.276904361245803
 21
-1.047
 31
0.0
  0
LINE
  5
24F
330
1CC
100
AcDbEntity
  8
AM_4
100
AcDbLine
 10
3.11516155380327
 20
1.047
 30
0.0
 11
3.11516155380327
 21
1.5705
 31
0.0
  0
LINE
  5
250
330
1CC
100
AcDbEntity
  8
AM_4
100
AcDbLine
 10
3.11516155380327
 20
-1.5705
 30
0.0
 11
3.11516155380327
 21
-1.047
 31
0.0
  0
LINE
  5
251
330
1CC
100
AcDbEntity
  8
AM_4
100
AcDbLine
 10
-3.115161553803269
 20
1.047
 30
0.0
 11
-3.115161553803269
 21
1.5705
 31
0.0
  0
LINE
  5
252
330
1CC
100
AcDbEntity
  8
AM_4
100
AcDbLine
 10
-3.115161553803269
 20
-1.5705
 30
0.0
 11
-3.115161553803269
 21
-1.047
 31
0.0
  0
ELLIPSE
  5
253
330
1CC
100
AcDbEntity
  8
AM_4
100
AcDbEllipse
 10
-1.485
 20
-0.0000000000000001
 30
0.0
 11
3.061616997868385E-17
 21
0.5000000000000004
 31
0.0
210
0.0
220
0.0
230
1.0
 40
0.8660254037844388
 41
3.141592653589793
 42
6.283185307179586
  0
ELLIPSE
  5
254
330
1CC
100
AcDbEntity
  8
AM_4
100
AcDbEllipse
 10
-1.534999999999999
 20
0.0000000000000002
 30
0.0
 11
-7.347880794884125E-17
 21
-0.4000000000000004
 31
0.0
210
0.0
220
0.0
230
1.0
 40
0.8660254037844387
 41
0.0
 42
6.283185307179586
  0
LWPOLYLINE
  5
255
330
1CC
100
AcDbEntity
  8
AM_4
100
AcDbPolyline
 90
       23
 70
     0
 43
0.0
 10
-1.931410161513775
 20
0.0000000000000001
 10
-1.930994357104987
 20
-0.021611207185404
 10
-1.92824187753881
 20
-0.0595617709186501
 10
-1.922922523977707
 20
-0.097192125776451
 10
-1.915062239080005
 20
-0.1342787768319498
 10
-1.904700887801943
 20
-0.1706063175525084
 10
-1.891892718071597
 20
-0.20596210554377
 10
-1.876706627929109
 20
-0.2401373178188189
 10
-1.859226429370955
 20
-0.272928187108776
 10
-1.839551038327517
 20
-0.3041374504309616
 10
-1.817794498891671
 20
-0.3335760216137543
 10
-1.794085737440178
 20
-0.3610648627521263
 10
-1.768567946165113
 20
-0.3864369822093871
 10
-1.741397522396688
 20
-0.4095394368650627
 10
-1.71274254153621
 20
-0.4302351769582367
 10
-1.682780810864006
 20
-0.4484045578203857
 10
-1.651697624053019
 20
-0.4639463645199868
 10
-1.619683392770237
 20
-0.4767782535052277
 10
-1.586931356072731
 20
-0.4868365982916344
 10
-1.553635553759271
 20
-0.4940758141715154
 10
-1.51998920163422
 20
-0.4984673089958696
 10
-1.486183538588489
 20
-0.4999982490423982
 10
-1.484871388975238
 20
-0.4999999793240049
  0
LWPOLYLINE
  5
256
330
1CC
100
AcDbEntity
  8
AM_4
100
AcDbPolyline
 90
       23
 70
     0
 43
0.0
 10
-1.486184014107207
 20
0.499998247635124
 10
-1.506169071353124
 20
0.4994395189816093
 10
-1.539822929573999
 20
0.496228614359446
 10
-1.573132950922259
 20
0.4901930846070598
 10
-1.605919270696191
 20
0.4813709305449662
 10
-1.638005271603438
 20
0.4698121699909886
 10
-1.669217349758697
 20
0.455578987303537
 10
-1.699384897472524
 20
0.4387462131733895
 10
-1.728340617027246
 20
0.4194019924148108
 10
-1.755921226673834
 20
0.3976484608903632
 10
-1.781968550930718
 20
0.3736022464343693
 10
-1.806330918442088
 20
0.3473946364705953
 10
-1.828864737083303
 20
0.319171312703707
 10
-1.84943609013485
 20
0.289091627880579
 10
-1.867922204276781
 20
0.2573274730643213
 10
-1.884212675479848
 20
0.2240618390607031
 10
-1.898210390606396
 20
0.1894872023899737
 10
-1.909832136054837
 20
0.1538038638125437
 10
-1.919008928090433
 20
0.1172183431580519
 10
-1.925686126406495
 20
0.0799418990447638
 10
-1.92982340275177
 20
0.0421892062257827
 10
-1.93137639591693
 20
0.0061597880757362
 10
-1.931410161513775
 20
0.0000000000000001
  0
LINE
  5
257
330
1CC
100
AcDbEntity
  8
AM_4
100
AcDbLine
 10
2.947092871805652
 20
-1.5705
 30
0.0
 11
2.947092871805652
 21
-1.047
 31
0.0
  0
LINE
  5
258
330
1CC
100
AcDbEntity
  8
AM_4
100
AcDbLine
 10
3.276904361245802
 20
-1.047
 30
0.0
 11
2.9374
 21
-1.047
 31
0.0
  0
LINE
  5
259
330
1CC
100
AcDbEntity
  8
AM_4
100
AcDbLine
 10
2.9374
 20
1.047
 30
0.0
 11
2.9374
 21
-1.047
 31
0.0
  0
LINE
  5
25A
330
1CC
100
AcDbEntity
  8
AM_4
100
AcDbLine
 10
3.276904361245802
 20
1.047
 30
0.0
 11
2.9374
 21
1.047
 31
0.0
  0
LINE
  5
25B
330
1CC
100
AcDbEntity
  8
AM_4
100
AcDbLine
 10
2.947092871805652
 20
1.047
 30
0.0
 11
2.947092871805652
 21
1.5705
 31
0.0
  0
LINE
  5
25C
330
1CC
100
AcDbEntity
  8
AM_4
100
AcDbLine
 10
0.6561666666666667
 20
-1.5705
 30
0.0
 11
0.6561666666666667
 21
1.5705
 31
0.0
  0
LINE
  5
25D
330
1CC
100
AcDbEntity
  8
AM_4
100
AcDbLine
 10
-0.6561666666666667
 20
-1.5705
 30
0.0
 11
-0.6561666666666667
 21
1.5705
 31
0.0
  0
LINE
  5
25E
330
1CC
100
AcDbEntity
  8
AM_4
100
AcDbLine
 10
-2.9374
 20
-1.047
 30
0.0
 11
-2.9374
 21
1.047
 31
0.0
  0
LINE
  5
25F
330
1CC
100
AcDbEntity
  8
AM_4
100
AcDbLine
 10
-2.9374
 20
-1.047
 30
0.0
 11
-3.276904361245803
 21
-1.047
 31
0.0
  0
LINE
  5
260
330
1CC
100
AcDbEntity
  8
AM_4
100
AcDbLine
 10
-2.947092871805652
 20
-1.5705
 30
0.0
 11
-2.947092871805652
 21
-1.047
 31
0.0
  0
LINE
  5
261
330
1CC
100
AcDbEntity
  8
AM_4
100
AcDbLine
 10
-2.947092871805653
 20
1.047
 30
0.0
 11
-2.947092871805652
 21
1.5705
 31
0.0
  0
LINE
  5
262
330
1CC
100
AcDbEntity
  8
AM_4
100
AcDbLine
 10
-2.9374
 20
1.047
 30
0.0
 11
-3.276904361245803
 21
1.047
 31
0.0
  0
LWPOLYLINE
  5
263
330
1CC
100
AcDbEntity
  8
AM_4
100
AcDbPolyline
 90
       30
 70
     0
 43
0.0
 10
-1.484999999999998
 20
-0.5000000000000004
 10
-1.437544890866467
 20
-0.4970200375053684
 10
-1.389475203216992
 20
-0.4879039631424416
 10
-1.341977523273734
 20
-0.4727917403717375
 10
-1.295973930936533
 20
-0.4519750279349659
 10
-1.251761108100783
 20
-0.4254451963693999
 10
-1.21000482062425
 20
-0.3936136476109054
 10
-1.171537125751536
 20
-0.3570645526865882
 10
-1.136427947396651
 20
-0.3155331442561778
 10
-1.105537113827118
 20
-0.2698817548264658
 10
-1.079528586256719
 20
-0.2209520255962423
 10
-1.058788945383647
 20
-0.1690914652745511
 10
-1.04354622455454
 20
-0.1148805752304678
 10
-1.034155109662259
 20
-0.0593565701925686
 10
-1.030847633250686
 20
-0.0037364189975575
 10
-1.033424301965586
 20
0.0521083938280786
 10
-1.041824859432172
 20
0.1071149442723207
 10
-1.055913190717606
 20
0.1604000028843992
 10
-1.075450341046619
 20
0.2118520797152584
 10
-1.100006907863176
 20
0.2605338435976386
 10
-1.129645780904552
 20
0.3063807949789823
 10
-1.163733984779394
 20
0.3485536656332294
 10
-1.20156375889213
 20
0.3862887569115492
 10
-1.243208017027072
 20
0.4195036575744095
 10
-1.287774388848552
 20
0.4475240663471272
 10
-1.334353937289944
 20
0.4698124197738038
 10
-1.382241726277152
 20
0.486000817586676
 10
-1.431125243483993
 20
0.4961203264565424
 10
-1.480033826590913
 20
0.4999671516892301
 10
-1.484999999999998
 20
0.5000000000000002
  0
LINE
  5
264
330
1CC
100
AcDbEntity
  8
AM_4
100
AcDbLine
 10
0.5746666666666664
 20
-1.5705
 30
0.0
 11
0.5746666666666664
 21
1.5705
 31
0.0
  0
LINE
  5
265
330
1CC
100
AcDbEntity
  8
AM_4
100
AcDbLine
 10
-3.133
 20
-1.5705
 30
0.0
 11
3.132999999999996
 21
-1.5705
 31
0.0
  0
LINE
  5
266
330
1CC
100
AcDbEntity
  8
AM_4
100
AcDbLine
 10
-0.5746666666666664
 20
-1.5705
 30
0.0
 11
-0.5746666666666664
 21
1.5705
 31
0.0
  0
LINE
  5
267
330
1CC
100
AcDbEntity
  8
AM_4
100
AcDbLine
 10
3.133
 20
1.5705
 30
0.0
 11
-3.132999999999996
 21
1.5705
 31
0.0
  0
ENDBLK
  5
1CF
330
1CC
100
AcDbEntity
  8
0
100
AcDbBlockEnd
  0
ENDSEC
  0
SECTION
  2
ENTITIES
  0
INSERT
  5
6F
330
1F
100
AcDbEntity
  8
0
100
AcDbBlockReference
  2
1_071238_4
 10
0.0
 20
0.0
 30
0.0
  0
POINT
  5
269
330
1F
100
AcDbEntity
  8
ConnectionPoints
100
AcDbPoint
 10
0.0
 20
-2.035
 30
-1.5
  0
POINT
  5
26A
330
1F
100
AcDbEntity
  8
ConnectionPoints
100
AcDbPoint
 10
0.0
 20
-2.035
 30
1.5
  0
POINT
  5
26B
330
1F
100
AcDbEntity
  8
ConnectionPoints
100
AcDbPoint
 10
0.0
 20
-1.965
 30
0.0000000000000001
  0
POINT
  5
26C
330
1F
100
AcDbEntity
  8
ConnectionPoints
100
AcDbPoint
 10
0.0
 20
-2.21
 30
0.0000000000000001
  0
POINT
  5
26D
330
1F
100
AcDbEntity
  8
ConnectionPoints
100
AcDbPoint
 10
0.0
 20
-2.164
 30
0.0000000000000001
  0
POINT
  5
26E
330
1F
100
AcDbEntity
  8
ConnectionPoints
100
AcDbPoint
 10
0.0
 20
-1.965
 30
1.5
  0
POINT
  5
26F
330
1F
100
AcDbEntity
  8
ConnectionPoints
100
AcDbPoint
 10
0.0
 20
-1.965
 30
-1.5
  0
POINT
  5
270
330
1F
100
AcDbEntity
  8
ConnectionPoints
100
AcDbPoint
 10
0.0
 20
-1.965
 30
0.0000000000000001
  0
POINT
  5
271
330
1F
100
AcDbEntity
  8
ConnectionPoints
100
AcDbPoint
 10
-1.535
 20
0.0000000000000002
 30
2.658697989618227
  0
POINT
  5
272
330
1F
100
AcDbEntity
  8
ConnectionPoints
100
AcDbPoint
 10
0.0
 20
-1.96
 30
0.0000000000000001
  0
POINT
  5
273
330
1F
100
AcDbEntity
  8
ConnectionPoints
100
AcDbPoint
 10
0.0
 20
-2.21
 30
0.0000000000000001
  0
ENDSEC
  0
SECTION
  2
OBJECTS
  0
DICTIONARY
  5
C
330
0
100
AcDbDictionary
281
     1
  3
ACAD_DETAILVIEWSTYLE
350
27B
  3
ACAD_GROUP
350
D
  3
ACAD_LAYOUT
350
1A
  3
ACAD_MATERIAL
350
43
  3
ACAD_MLEADERSTYLE
350
6B
  3
ACAD_MLINESTYLE
350
17
  3
ACAD_PLOTSETTINGS
350
19
  3
ACAD_PLOTSTYLENAME
350
E
  3
ACAD_SCALELIST
350
47
  3
ACAD_SECTIONVIEWSTYLE
350
27C
  3
ACAD_TABLESTYLE
350
69
  3
ACAD_VISUALSTYLE
350
2A
  3
ACDB_RECOMPOSE_DATA
350
278
  3
AcDbVariableDictionary
350
274
  0
SUN
  5
6D
330
29
100
AcDbSun
 90
        1
290
     0
 63
     7
421
 16777215
 40
1.0
291
     1
 91
  2455826
 92
 54000000
292
     0
 70
     2
 71
   256
280
     1
  0
DICTIONARY
  5
27B
102
{ACAD_REACTORS
330
C
102
}
330
C
100
AcDbDictionary
281
     1
  0
DICTIONARY
  5
D
102
{ACAD_REACTORS
330
C
102
}
330
C
100
AcDbDictionary
281
     1
  0
DICTIONARY
  5
1A
102
{ACAD_REACTORS
330
C
102
}
330
C
100
AcDbDictionary
281
     1
  3
Layout1
350
1E
  3
Layout2
350
26
  3
Model
350
22
  0
DICTIONARY
  5
43
102
{ACAD_REACTORS
330
C
102
}
330
C
100
AcDbDictionary
281
     1
  3
ByBlock
350
45
  3
ByLayer
350
44
  3
Global
350
46
  0
DICTIONARY
  5
6B
102
{ACAD_REACTORS
330
C
102
}
330
C
100
AcDbDictionary
281
     1
  3
Standard
350
6C
  0
DICTIONARY
  5
17
102
{ACAD_REACTORS
330
C
102
}
330
C
100
AcDbDictionary
281
     1
  3
Standard
350
18
  0
DICTIONARY
  5
19
102
{ACAD_REACTORS
330
C
102
}
330
C
100
AcDbDictionary
281
     1
  0
ACDBDICTIONARYWDFLT
  5
E
102
{ACAD_REACTORS
330
C
102
}
330
C
100
AcDbDictionary
281
     1
  3
Normal
350
F
100
AcDbDictionaryWithDefault
340
F
  0
DICTIONARY
  5
47
102
{ACAD_REACTORS
330
C
102
}
330
C
100
AcDbDictionary
281
     1
  3
A0
350
48
  3
A1
350
49
  3
A2
350
4A
  3
A3
350
4B
  3
A4
350
4C
  3
A5
350
4D
  3
A6
350
4E
  3
A7
350
4F
  3
A8
350
50
  3
A9
350
51
  3
B0
350
52
  3
B1
350
53
  3
B2
350
54
  3
B3
350
55
  3
B4
350
56
  3
B5
350
57
  3
B6
350
58
  3
B7
350
59
  3
B8
350
5A
  3
B9
350
5B
  3
C0
350
5C
  3
C1
350
5D
  3
C2
350
5E
  3
C3
350
5F
  3
C4
350
60
  3
C5
350
61
  3
C6
350
62
  3
C7
350
63
  3
C8
350
64
  3
C9
350
65
  3
D0
350
66
  3
D1
350
67
  3
D2
350
68
  0
DICTIONARY
  5
27C
102
{ACAD_REACTORS
330
C
102
}
330
C
100
AcDbDictionary
281
     1
  0
DICTIONARY
  5
69
102
{ACAD_REACTORS
330
C
102
}
330
C
100
AcDbDictionary
281
     1
  3
Standard
350
6A
  0
DICTIONARY
  5
2A
102
{ACAD_REACTORS
330
C
102
}
330
C
100
AcDbDictionary
281
     1
  3
2dWireframe
350
2F
  3
Basic
350
32
  3
Brighten
350
36
  3
ColorChange
350
3A
  3
Conceptual
350
34
  3
Dim
350
35
  3
EdgeColorOff
350
3D
  3
Facepattern
350
39
  3
Flat
350
2B
  3
FlatWithEdges
350
2C
  3
Gouraud
350
2D
  3
GouraudWithEdges
350
2E
  3
Hidden
350
31
  3
JitterOff
350
3B
  3
Linepattern
350
38
  3
OverhangOff
350
3C
  3
Realistic
350
33
  3
Shaded
350
42
  3
Shaded with edges
350
41
  3
Shades of Gray
350
3E
  3
Sketchy
350
3F
  3
Thicken
350
37
  3
Wireframe
350
30
  3
X-Ray
350
40
  0
XRECORD
  5
278
102
{ACAD_REACTORS
330
C
102
}
330
C
100
AcDbXrecord
280
     1
 90
        1
330
6A
  0
DICTIONARY
  5
274
102
{ACAD_REACTORS
330
C
102
}
330
C
100
AcDbDictionary
281
     1
  3
CANNOSCALE
350
275
  3
CMLEADERSTYLE
350
27A
  3
CTABLESTYLE
350
279
  0
LAYOUT
  5
1E
102
{ACAD_REACTORS
330
1A
102
}
330
1A
100
AcDbPlotSettings
  1

  2
none_device
  4

  6

 40
0.0
 41
0.0
 42
0.0
 43
0.0
 44
0.0
 45
0.0
 46
0.0
 47
0.0
 48
0.0
 49
0.0
140
0.0
141
0.0
142
1.0
143
1.0
 70
   688
 72
     0
 73
     0
 74
     5
  7

 75
    16
 76
     0
 77
     2
 78
   300
147
1.0
148
0.0
149
0.0
100
AcDbLayout
  1
Layout1
 70
     1
 71
     1
 10
0.0
 20
0.0
 11
12.0
 21
9.0
 12
0.0
 22
0.0
 32
0.0
 14
1.000000000000000E+20
 24
1.000000000000000E+20
 34
1.000000000000000E+20
 15
-1.000000000000000E+20
 25
-1.000000000000000E+20
 35
-1.000000000000000E+20
146
0.0
 13
0.0
 23
0.0
 33
0.0
 16
1.0
 26
0.0
 36
0.0
 17
0.0
 27
1.0
 37
0.0
 76
     0
330
1B
  0
LAYOUT
  5
26
102
{ACAD_REACTORS
330
1A
102
}
330
1A
100
AcDbPlotSettings
  1

  2
none_device
  4

  6

 40
0.0
 41
0.0
 42
0.0
 43
0.0
 44
0.0
 45
0.0
 46
0.0
 47
0.0
 48
0.0
 49
0.0
140
0.0
141
0.0
142
1.0
143
1.0
 70
   688
 72
     0
 73
     0
 74
     5
  7

 75
    16
 76
     0
 77
     2
 78
   300
147
1.0
148
0.0
149
0.0
100
AcDbLayout
  1
Layout2
 70
     1
 71
     2
 10
0.0
 20
0.0
 11
0.0
 21
0.0
 12
0.0
 22
0.0
 32
0.0
 14
0.0
 24
0.0
 34
0.0
 15
0.0
 25
0.0
 35
0.0
146
0.0
 13
0.0
 23
0.0
 33
0.0
 16
1.0
 26
0.0
 36
0.0
 17
0.0
 27
1.0
 37
0.0
 76
     0
330
23
  0
LAYOUT
  5
22
102
{ACAD_REACTORS
330
1A
102
}
330
1A
100
AcDbPlotSettings
  1

  2
none_device
  4
Letter_(8.50_x_11.00_Inches)
  6

 40
6.35
 41
6.35
 42
6.35000508
 43
6.35000508
 44
215.9
 45
279.4
 46
0.0
 47
0.0
 48
0.0
 49
0.0
140
0.0
141
0.0
142
1.0
143
1.0
 70
  1712
 72
     0
 73
     0
 74
     0
  7

 75
     0
 76
     0
 77
     2
 78
   300
147
1.0
148
0.0
149
0.0
100
AcDbLayout
  1
Model
 70
     1
 71
     0
 10
0.0
 20
0.0
 11
12.0
 21
9.0
 12
0.0
 22
0.0
 32
0.0
 14
1.000000000000000E+20
 24
1.000000000000000E+20
 34
1.000000000000000E+20
 15
-1.000000000000000E+20
 25
-1.000000000000000E+20
 35
-1.000000000000000E+20
146
0.0
 13
0.0
 23
0.0
 33
0.0
 16
1.0
 26
0.0
 36
0.0
 17
0.0
 27
1.0
 37
0.0
 76
     0
330
1F
331
29
  0
MATERIAL
  5
45
102
{ACAD_REACTORS
330
43
102
}
330
43
100
AcDbMaterial
  1
ByBlock
 72
     1
 94
      127
  0
MATERIAL
  5
44
102
{ACAD_REACTORS
330
43
102
}
330
43
100
AcDbMaterial
  1
ByLayer
 72
     1
 94
      127
  0
MATERIAL
  5
46
102
{ACAD_REACTORS
330
43
102
}
330
43
100
AcDbMaterial
  1
Global
 72
     1
 94
      127
  0
MLEADERSTYLE
  5
6C
102
{ACAD_REACTORS
330
6B
102
}
330
6B
100
AcDbMLeaderStyle
179
     2
170
     2
171
     1
172
     0
 90
        2
 40
0.0
 41
0.0
173
     1
 91
-1056964608
340
14
 92
       -2
290
     1
 42
0.09
291
     1
 43
0.36
  3
Standard
341
0
 44
0.18
300

342
11
174
     1
178
     6
175
     1
176
     0
 93
-1056964608
 45
0.18
292
     0
297
     0
 46
0.18
343
0
 94
-1056964608
 47
1.0
 49
1.0
140
1.0
293
     1
141
0.0
294
     1
177
     0
142
1.0
295
     0
296
     0
143
0.125
271
     0
272
     9
273
     9
298
     0
  0
MLINESTYLE
  5
18
102
{ACAD_REACTORS
330
17
102
}
330
17
100
AcDbMlineStyle
  2
Standard
 70
     0
  3

 62
   256
 51
90.0
 52
90.0
 71
     2
 49
0.5
 62
   256
  6
BYLAYER
 49
-0.5
 62
   256
  6
BYLAYER
  0
ACDBPLACEHOLDER
  5
F
102
{ACAD_REACTORS
330
E
102
}
330
E
  0
SCALE
  5
48
102
{ACAD_REACTORS
330
47
102
}
330
47
100
AcDbScale
 70
     0
300
1:1
140
1.0
141
1.0
290
     1
  0
SCALE
  5
49
102
{ACAD_REACTORS
330
47
102
}
330
47
100
AcDbScale
 70
     0
300
1:2
140
1.0
141
2.0
290
     0
  0
SCALE
  5
4A
102
{ACAD_REACTORS
330
47
102
}
330
47
100
AcDbScale
 70
     0
300
1:4
140
1.0
141
4.0
290
     0
  0
SCALE
  5
4B
102
{ACAD_REACTORS
330
47
102
}
330
47
100
AcDbScale
 70
     0
300
1:5
140
1.0
141
5.0
290
     0
  0
SCALE
  5
4C
102
{ACAD_REACTORS
330
47
102
}
330
47
100
AcDbScale
 70
     0
300
1:8
140
1.0
141
8.0
290
     0
  0
SCALE
  5
4D
102
{ACAD_REACTORS
330
47
102
}
330
47
100
AcDbScale
 70
     0
300
1:10
140
1.0
141
10.0
290
     0
  0
SCALE
  5
4E
102
{ACAD_REACTORS
330
47
102
}
330
47
100
AcDbScale
 70
     0
300
1:16
140
1.0
141
16.0
290
     0
  0
SCALE
  5
4F
102
{ACAD_REACTORS
330
47
102
}
330
47
100
AcDbScale
 70
     0
300
1:20
140
1.0
141
20.0
290
     0
  0
SCALE
  5
50
102
{ACAD_REACTORS
330
47
102
}
330
47
100
AcDbScale
 70
     0
300
1:30
140
1.0
141
30.0
290
     0
  0
SCALE
  5
51
102
{ACAD_REACTORS
330
47
102
}
330
47
100
AcDbScale
 70
     0
300
1:40
140
1.0
141
40.0
290
     0
  0
SCALE
  5
52
102
{ACAD_REACTORS
330
47
102
}
330
47
100
AcDbScale
 70
     0
300
1:50
140
1.0
141
50.0
290
     0
  0
SCALE
  5
53
102
{ACAD_REACTORS
330
47
102
}
330
47
100
AcDbScale
 70
     0
300
1:100
140
1.0
141
100.0
290
     0
  0
SCALE
  5
54
102
{ACAD_REACTORS
330
47
102
}
330
47
100
AcDbScale
 70
     0
300
2:1
140
2.0
141
1.0
290
     0
  0
SCALE
  5
55
102
{ACAD_REACTORS
330
47
102
}
330
47
100
AcDbScale
 70
     0
300
4:1
140
4.0
141
1.0
290
     0
  0
SCALE
  5
56
102
{ACAD_REACTORS
330
47
102
}
330
47
100
AcDbScale
 70
     0
300
8:1
140
8.0
141
1.0
290
     0
  0
SCALE
  5
57
102
{ACAD_REACTORS
330
47
102
}
330
47
100
AcDbScale
 70
     0
300
10:1
140
10.0
141
1.0
290
     0
  0
SCALE
  5
58
102
{ACAD_REACTORS
330
47
102
}
330
47
100
AcDbScale
 70
     0
300
100:1
140
100.0
141
1.0
290
     0
  0
SCALE
  5
59
102
{ACAD_REACTORS
330
47
102
}
330
47
100
AcDbScale
 70
     0
300
1/128" = 1'-0"
140
0.0078125
141
12.0
290
     0
  0
SCALE
  5
5A
102
{ACAD_REACTORS
330
47
102
}
330
47
100
AcDbScale
 70
     0
300
1/64" = 1'-0"
140
0.015625
141
12.0
290
     0
  0
SCALE
  5
5B
102
{ACAD_REACTORS
330
47
102
}
330
47
100
AcDbScale
 70
     0
300
1/32" = 1'-0"
140
0.03125
141
12.0
290
     0
  0
SCALE
  5
5C
102
{ACAD_REACTORS
330
47
102
}
330
47
100
AcDbScale
 70
     0
300
1/16" = 1'-0"
140
0.0625
141
12.0
290
     0
  0
SCALE
  5
5D
102
{ACAD_REACTORS
330
47
102
}
330
47
100
AcDbScale
 70
     0
300
3/32" = 1'-0"
140
0.09375
141
12.0
290
     0
  0
SCALE
  5
5E
102
{ACAD_REACTORS
330
47
102
}
330
47
100
AcDbScale
 70
     0
300
1/8" = 1'-0"
140
0.125
141
12.0
290
     0
  0
SCALE
  5
5F
102
{ACAD_REACTORS
330
47
102
}
330
47
100
AcDbScale
 70
     0
300
3/16" = 1'-0"
140
0.1875
141
12.0
290
     0
  0
SCALE
  5
60
102
{ACAD_REACTORS
330
47
102
}
330
47
100
AcDbScale
 70
     0
300
1/4" = 1'-0"
140
0.25
141
12.0
290
     0
  0
SCALE
  5
61
102
{ACAD_REACTORS
330
47
102
}
330
47
100
AcDbScale
 70
     0
300
3/8" = 1'-0"
140
0.375
141
12.0
290
     0
  0
SCALE
  5
62
102
{ACAD_REACTORS
330
47
102
}
330
47
100
AcDbScale
 70
     0
300
1/2" = 1'-0"
140
0.5
141
12.0
290
     0
  0
SCALE
  5
63
102
{ACAD_REACTORS
330
47
102
}
330
47
100
AcDbScale
 70
     0
300
3/4" = 1'-0"
140
0.75
141
12.0
290
     0
  0
SCALE
  5
64
102
{ACAD_REACTORS
330
47
102
}
330
47
100
AcDbScale
 70
     0
300
1" = 1'-0"
140
1.0
141
12.0
290
     0
  0
SCALE
  5
65
102
{ACAD_REACTORS
330
47
102
}
330
47
100
AcDbScale
 70
     0
300
1-1/2" = 1'-0"
140
1.5
141
12.0
290
     0
  0
SCALE
  5
66
102
{ACAD_REACTORS
330
47
102
}
330
47
100
AcDbScale
 70
     0
300
3" = 1'-0"
140
3.0
141
12.0
290
     0
  0
SCALE
  5
67
102
{ACAD_REACTORS
330
47
102
}
330
47
100
AcDbScale
 70
     0
300
6" = 1'-0"
140
6.0
141
12.0
290
     0
  0
SCALE
  5
68
102
{ACAD_REACTORS
330
47
102
}
330
47
100
AcDbScale
 70
     0
300
1'-0" = 1'-0"
140
12.0
141
12.0
290
     0
  0
TABLESTYLE
  5
6A
102
{ACAD_REACTORS
330
69
102
}
102
{ACAD_XDICTIONARY
360
276
102
}
330
69
100
AcDbTableStyle
  3
Standard
 70
     0
 71
     0
 40
0.06
 41
0.06
280
     0
281
     0
  7
Standard
140
0.18
170
     2
 62
     0
 63
   257
283
     0
 90
        4
 91
        0
  1

274
    -2
284
     1
 64
     0
275
    -2
285
     1
 65
     0
276
    -2
286
     1
 66
     0
277
    -2
287
     1
 67
     0
278
    -2
288
     1
 68
     0
279
    -2
289
     1
 69
     0
  7
Standard
140
0.25
170
     5
 62
     0
 63
   257
283
     0
 90
        4
 91
        0
  1

274
    -2
284
     1
 64
     0
275
    -2
285
     1
 65
     0
276
    -2
286
     1
 66
     0
277
    -2
287
     1
 67
     0
278
    -2
288
     1
 68
     0
279
    -2
289
     1
 69
     0
  7
Standard
140
0.18
170
     5
 62
     0
 63
   257
283
     0
 90
        4
 91
        0
  1

274
    -2
284
     1
 64
     0
275
    -2
285
     1
 65
     0
276
    -2
286
     1
 66
     0
277
    -2
287
     1
 67
     0
278
    -2
288
     1
 68
     0
279
    -2
289
     1
 69
     0
  0
VISUALSTYLE
  5
2F
102
{ACAD_REACTORS
330
2A
102
}
330
2A
100
AcDbVisualStyle
  2
2dWireframe
 70
     4
177
     3
291
     0
 70
    58
 90
        0
176
     1
 90
        2
176
     1
 90
        0
176
     1
 90
        0
176
     1
 40
0.6
176
     1
 40
30.0
176
     1
 62
     7
420
 16777215
176
     1
 90
        1
176
     1
 90
        4
176
     1
 62
     7
176
     1
 62
   257
176
     1
 90
        1
176
     1
 90
        1
176
     1
 40
1.0
176
     1
 90
        0
176
     1
 62
   257
176
     1
 40
1.0
176
     1
 90
        1
176
     1
 90
        6
176
     1
 90
        2
176
     1
 62
     7
176
     1
 90
        5
176
     1
 90
        0
176
     1
 90
        0
176
     1
290
     0
176
     1
 90
        1
176
     1
 40
0.0
176
     1
 90
        0
176
     1
290
     1
176
     1
290
     1
176
     1
290
     0
176
     1
290
     0
176
     1
290
     0
176
     1
290
     0
176
     1
290
     0
176
     1
290
     0
176
     1
290
     0
176
     1
 90
       50
176
     1
 40
0.0
176
     1
 40
1.0
176
     1
 90
        0
176
     1
 62
    18
420
        0
176
     1
 90
       50
176
     1
 90
        3
176
     1
 62
     5
420
      255
176
     1
290
     0
176
     1
 90
       50
176
     1
 90
       50
176
     1
 90
       50
176
     1
290
     0
176
     1
 90
       50
176
     1
 62
   256
176
     0
 40
1.0
176
     0
 90
        2
176
     1
  1
strokes_ogs.tif
176
     1
290
     0
176
     1
 40
1.0
176
     1
 40
1.0
176
     1
  0
VISUALSTYLE
  5
32
102
{ACAD_REACTORS
330
2A
102
}
330
2A
100
AcDbVisualStyle
  2
Basic
 70
     7
177
     3
291
     1
 70
    58
 90
        1
176
     1
 90
        0
176
     1
 90
        1
176
     1
 90
        0
176
     1
 40
0.6
176
     1
 40
30.0
176
     1
 62
     7
420
 16777215
176
     1
 90
        0
176
     1
 90
        4
176
     1
 62
     7
176
     1
 62
   257
176
     1
 90
        1
176
     1
 90
        1
176
     1
 40
1.0
176
     1
 90
        8
176
     1
 62
     7
176
     1
 40
1.0
176
     1
 90
        1
176
     1
 90
        6
176
     1
 90
        2
176
     1
 62
     7
176
     1
 90
        5
176
     1
 90
        0
176
     1
 90
        0
176
     1
290
     0
176
     1
 90
        1
176
     1
 40
0.0
176
     1
 90
        0
176
     1
290
     0
176
     1
290
     1
176
     1
290
     1
176
     1
290
     0
176
     1
290
     0
176
     1
290
     0
176
     1
290
     0
176
     1
290
     0
176
     1
290
     0
176
     1
 90
       50
176
     1
 40
0.0
176
     1
 40
1.0
176
     1
 90
        0
176
     1
 62
    18
420
        0
176
     1
 90
       50
176
     1
 90
        3
176
     1
 62
     5
420
      255
176
     1
290
     0
176
     1
 90
       50
176
     1
 90
       50
176
     1
 90
       50
176
     1
290
     0
176
     1
 90
       50
176
     1
 62
   256
176
     0
 40
1.0
176
     0
 90
        2
176
     1
  1
strokes_ogs.tif
176
     1
290
     0
176
     1
 40
1.0
176
     1
 40
1.0
176
     1
  0
VISUALSTYLE
  5
36
102
{ACAD_REACTORS
330
2A
102
}
330
2A
100
AcDbVisualStyle
  2
Brighten
 70
    12
177
     3
291
     1
 70
    58
 90
        2
176
     1
 90
        2
176
     1
 90
        0
176
     1
 90
        0
176
     1
 40
0.6
176
     1
 40
30.0
176
     1
 62
     7
420
 16777215
176
     1
 90
        1
176
     1
 90
        4
176
     1
 62
     7
176
     1
 62
   257
176
     1
 90
        1
176
     1
 90
        1
176
     1
 40
1.0
176
     1
 90
        8
176
     1
 62
     7
176
     1
 40
1.0
176
     1
 90
        1
176
     1
 90
        6
176
     1
 90
        2
176
     1
 62
     7
176
     1
 90
        5
176
     1
 90
        0
176
     1
 90
        0
176
     1
290
     0
176
     1
 90
        1
176
     1
 40
50.0
176
     1
 90
        0
176
     1
290
     0
176
     1
290
     1
176
     1
290
     1
176
     1
290
     0
176
     1
290
     0
176
     1
290
     0
176
     1
290
     0
176
     1
290
     0
176
     1
290
     0
176
     1
 90
       50
176
     1
 40
0.0
176
     1
 40
1.0
176
     1
 90
        0
176
     1
 62
    18
420
        0
176
     1
 90
       50
176
     1
 90
        3
176
     1
 62
     5
420
      255
176
     1
290
     0
176
     1
 90
       50
176
     1
 90
       50
176
     1
 90
       50
176
     1
290
     0
176
     1
 90
       50
176
     1
 62
   256
176
     0
 40
1.0
176
     0
 90
        2
176
     1
  1
strokes_ogs.tif
176
     1
290
     0
176
     1
 40
1.0
176
     1
 40
1.0
176
     1
  0
VISUALSTYLE
  5
3A
102
{ACAD_REACTORS
330
2A
102
}
330
2A
100
AcDbVisualStyle
  2
ColorChange
 70
    16
177
     3
291
     1
 70
    58
 90
        2
176
     1
 90
        2
176
     1
 90
        3
176
     1
 90
        0
176
     1
 40
0.6
176
     1
 40
30.0
176
     1
 62
     8
420
  8421504
176
     1
 90
        1
176
     1
 90
        4
176
     1
 62
     7
176
     1
 62
   257
176
     1
 90
        1
176
     1
 90
        1
176
     1
 40
1.0
176
     1
 90
        8
176
     1
 62
     8
420
  8421504
176
     1
 40
1.0
176
     1
 90
        1
176
     1
 90
        6
176
     1
 90
        2
176
     1
 62
     7
176
     1
 90
        5
176
     1
 90
        0
176
     1
 90
        0
176
     1
290
     0
176
     1
 90
        1
176
     1
 40
0.0
176
     1
 90
        0
176
     1
290
     0
176
     1
290
     1
176
     1
290
     1
176
     1
290
     0
176
     1
290
     0
176
     1
290
     0
176
     1
290
     0
176
     1
290
     0
176
     1
290
     0
176
     1
 90
       50
176
     1
 40
0.0
176
     1
 40
1.0
176
     1
 90
        0
176
     1
 62
    18
420
        0
176
     1
 90
       50
176
     1
 90
        3
176
     1
 62
     5
420
      255
176
     1
290
     0
176
     1
 90
       50
176
     1
 90
       50
176
     1
 90
       50
176
     1
290
     0
176
     1
 90
       50
176
     1
 62
   256
176
     0
 40
1.0
176
     0
 90
        2
176
     1
  1
strokes_ogs.tif
176
     1
290
     0
176
     1
 40
1.0
176
     1
 40
1.0
176
     1
  0
VISUALSTYLE
  5
34
102
{ACAD_REACTORS
330
2A
102
}
330
2A
100
AcDbVisualStyle
  2
Conceptual
 70
     9
177
     3
291
     0
 70
    58
 90
        3
176
     1
 90
        2
176
     1
 90
        0
176
     1
 90
        0
176
     1
 40
0.6
176
     1
 40
30.0
176
     1
 62
     7
420
 16777215
176
     1
 90
        2
176
     1
 90
        2
176
     1
 62
     7
176
     1
 62
   257
176
     1
 90
        1
176
     1
 90
        1
176
     1
 40
179.0
176
     1
 90
        8
176
     1
 62
     7
176
     1
 40
1.0
176
     1
 90
        1
176
     1
 90
        6
176
     1
 90
        2
176
     1
 62
     7
176
     1
 90
        3
176
     1
 90
        0
176
     1
 90
        0
176
     1
290
     0
176
     1
 90
        1
176
     1
 40
0.0
176
     1
 90
        0
176
     1
290
     0
176
     1
290
     1
176
     1
290
     1
176
     1
290
     0
176
     1
290
     0
176
     1
290
     0
176
     1
290
     0
176
     1
290
     0
176
     1
290
     0
176
     1
 90
       50
176
     1
 40
0.0
176
     1
 40
1.0
176
     1
 90
        0
176
     1
 62
    18
420
        0
176
     1
 90
       50
176
     1
 90
        3
176
     1
 62
     5
420
      255
176
     1
290
     0
176
     1
 90
       50
176
     1
 90
       50
176
     1
 90
       50
176
     1
290
     0
176
     1
 90
       50
176
     1
 62
   256
176
     0
 40
1.0
176
     0
 90
        2
176
     1
  1
strokes_ogs.tif
176
     1
290
     0
176
     1
 40
1.0
176
     1
 40
1.0
176
     1
  0
VISUALSTYLE
  5
35
102
{ACAD_REACTORS
330
2A
102
}
330
2A
100
AcDbVisualStyle
  2
Dim
 70
    11
177
     3
291
     1
 70
    58
 90
        2
176
     1
 90
        2
176
     1
 90
        0
176
     1
 90
        0
176
     1
 40
0.6
176
     1
 40
30.0
176
     1
 62
     7
420
 16777215
176
     1
 90
        1
176
     1
 90
        4
176
     1
 62
     7
176
     1
 62
   257
176
     1
 90
        1
176
     1
 90
        1
176
     1
 40
1.0
176
     1
 90
        8
176
     1
 62
     7
176
     1
 40
1.0
176
     1
 90
        1
176
     1
 90
        6
176
     1
 90
        2
176
     1
 62
     7
176
     1
 90
        5
176
     1
 90
        0
176
     1
 90
        0
176
     1
290
     0
176
     1
 90
        1
176
     1
 40
-50.0
176
     1
 90
        0
176
     1
290
     0
176
     1
290
     1
176
     1
290
     1
176
     1
290
     0
176
     1
290
     0
176
     1
290
     0
176
     1
290
     0
176
     1
290
     0
176
     1
290
     0
176
     1
 90
       50
176
     1
 40
0.0
176
     1
 40
1.0
176
     1
 90
        0
176
     1
 62
    18
420
        0
176
     1
 90
       50
176
     1
 90
        3
176
     1
 62
     5
420
      255
176
     1
290
     0
176
     1
 90
       50
176
     1
 90
       50
176
     1
 90
       50
176
     1
290
     0
176
     1
 90
       50
176
     1
 62
   256
176
     0
 40
1.0
176
     0
 90
        2
176
     1
  1
strokes_ogs.tif
176
     1
290
     0
176
     1
 40
1.0
176
     1
 40
1.0
176
     1
  0
VISUALSTYLE
  5
3D
102
{ACAD_REACTORS
330
2A
102
}
330
2A
100
AcDbVisualStyle
  2
EdgeColorOff
 70
    22
177
     3
291
     1
 70
    58
 90
        2
176
     0
 90
        2
176
     0
 90
        0
176
     0
 90
        0
176
     0
 40
0.6
176
     0
 40
30.0
176
     0
 62
     7
420
 16777215
176
     0
 90
        1
176
     0
 90
        4
176
     0
 62
     7
176
     0
 62
   257
176
     0
 90
        1
176
     0
 90
        1
176
     0
 40
1.0
176
     0
 90
        8
176
     2
 62
     7
176
     0
 40
1.0
176
     0
 90
        1
176
     0
 90
        6
176
     0
 90
        2
176
     0
 62
     7
176
     0
 90
        5
176
     0
 90
        0
176
     0
 90
        0
176
     0
290
     0
176
     0
 90
        1
176
     0
 40
0.0
176
     0
 90
        0
176
     0
290
     0
176
     0
290
     1
176
     0
290
     1
176
     0
290
     0
176
     0
290
     0
176
     0
290
     0
176
     0
290
     0
176
     0
290
     0
176
     0
290
     0
176
     0
 90
       50
176
     0
 40
0.0
176
     0
 40
1.0
176
     0
 90
        0
176
     0
 62
    18
420
        0
176
     0
 90
       50
176
     0
 90
        3
176
     0
 62
     5
420
      255
176
     0
290
     0
176
     0
 90
       50
176
     0
 90
       50
176
     0
 90
       50
176
     0
290
     0
176
     0
 90
       50
176
     0
 62
   256
176
     0
 40
1.0
176
     0
 90
        2
176
     0
  1
strokes_ogs.tif
176
     0
290
     0
176
     0
 40
1.0
176
     0
 40
1.0
176
     0
  0
VISUALSTYLE
  5
39
102
{ACAD_REACTORS
330
2A
102
}
330
2A
100
AcDbVisualStyle
  2
Facepattern
 70
    15
177
     3
291
     1
 70
    58
 90
        2
176
     1
 90
        2
176
     1
 90
        0
176
     1
 90
        0
176
     1
 40
0.6
176
     1
 40
30.0
176
     1
 62
     7
420
 16777215
176
     1
 90
        1
176
     1
 90
        4
176
     1
 62
     7
176
     1
 62
   257
176
     1
 90
        1
176
     1
 90
        1
176
     1
 40
1.0
176
     1
 90
        8
176
     1
 62
     7
176
     1
 40
1.0
176
     1
 90
        1
176
     1
 90
        6
176
     1
 90
        2
176
     1
 62
     7
176
     1
 90
        5
176
     1
 90
        0
176
     1
 90
        0
176
     1
290
     0
176
     1
 90
        1
176
     1
 40
0.0
176
     1
 90
        0
176
     1
290
     0
176
     1
290
     1
176
     1
290
     1
176
     1
290
     0
176
     1
290
     0
176
     1
290
     0
176
     1
290
     0
176
     1
290
     0
176
     1
290
     0
176
     1
 90
       50
176
     1
 40
0.0
176
     1
 40
1.0
176
     1
 90
        0
176
     1
 62
    18
420
        0
176
     1
 90
       50
176
     1
 90
        3
176
     1
 62
     5
420
      255
176
     1
290
     0
176
     1
 90
       50
176
     1
 90
       50
176
     1
 90
       50
176
     1
290
     0
176
     1
 90
       50
176
     1
 62
   256
176
     0
 40
1.0
176
     0
 90
        2
176
     1
  1
strokes_ogs.tif
176
     1
290
     0
176
     1
 40
1.0
176
     1
 40
1.0
176
     1
  0
VISUALSTYLE
  5
2B
102
{ACAD_REACTORS
330
2A
102
}
330
2A
100
AcDbVisualStyle
  2
Flat
 70
     0
177
     3
291
     1
 70
    58
 90
        2
176
     1
 90
        1
176
     1
 90
        1
176
     1
 90
        2
176
     1
 40
0.6
176
     1
 40
30.0
176
     1
 62
     7
420
 16777215
176
     1
 90
        0
176
     1
 90
        0
176
     1
 62
     7
176
     1
 62
   257
176
     1
 90
        1
176
     1
 90
        1
176
     1
 40
1.0
176
     1
 90
        8
176
     1
 62
     7
176
     1
 40
1.0
176
     1
 90
        1
176
     1
 90
        6
176
     1
 90
        2
176
     1
 62
     7
176
     1
 90
        5
176
     1
 90
        0
176
     1
 90
        0
176
     1
290
     0
176
     1
 90
       13
176
     1
 40
0.0
176
     1
 90
        0
176
     1
290
     0
176
     1
290
     1
176
     1
290
     1
176
     1
290
     0
176
     1
290
     0
176
     1
290
     0
176
     1
290
     0
176
     1
290
     0
176
     1
290
     0
176
     1
 90
       50
176
     1
 40
0.0
176
     1
 40
1.0
176
     1
 90
        0
176
     1
 62
    18
420
        0
176
     1
 90
       50
176
     1
 90
        3
176
     1
 62
     5
420
      255
176
     1
290
     0
176
     1
 90
       50
176
     1
 90
       50
176
     1
 90
       50
176
     1
290
     0
176
     1
 90
       50
176
     1
 62
   256
176
     0
 40
1.0
176
     0
 90
        2
176
     1
  1
strokes_ogs.tif
176
     1
290
     0
176
     1
 40
1.0
176
     1
 40
1.0
176
     1
  0
VISUALSTYLE
  5
2C
102
{ACAD_REACTORS
330
2A
102
}
330
2A
100
AcDbVisualStyle
  2
FlatWithEdges
 70
     1
177
     3
291
     1
 70
    58
 90
        2
176
     1
 90
        1
176
     1
 90
        1
176
     1
 90
        2
176
     1
 40
0.6
176
     1
 40
30.0
176
     1
 62
     7
420
 16777215
176
     1
 90
        1
176
     1
 90
        0
176
     1
 62
     7
176
     1
 62
   257
176
     1
 90
        1
176
     1
 90
        1
176
     1
 40
1.0
176
     1
 90
        0
176
     1
 62
   257
176
     1
 40
1.0
176
     1
 90
        1
176
     1
 90
        6
176
     1
 90
        2
176
     1
 62
     7
176
     1
 90
        5
176
     1
 90
        0
176
     1
 90
        0
176
     1
290
     0
176
     1
 90
       13
176
     1
 40
0.0
176
     1
 90
        0
176
     1
290
     0
176
     1
290
     1
176
     1
290
     1
176
     1
290
     0
176
     1
290
     0
176
     1
290
     0
176
     1
290
     0
176
     1
290
     0
176
     1
290
     0
176
     1
 90
       50
176
     1
 40
0.0
176
     1
 40
1.0
176
     1
 90
        0
176
     1
 62
    18
420
        0
176
     1
 90
       50
176
     1
 90
        3
176
     1
 62
     5
420
      255
176
     1
290
     0
176
     1
 90
       50
176
     1
 90
       50
176
     1
 90
       50
176
     1
290
     0
176
     1
 90
       50
176
     1
 62
   256
176
     0
 40
1.0
176
     0
 90
        2
176
     1
  1
strokes_ogs.tif
176
     1
290
     0
176
     1
 40
1.0
176
     1
 40
1.0
176
     1
  0
VISUALSTYLE
  5
2D
102
{ACAD_REACTORS
330
2A
102
}
330
2A
100
AcDbVisualStyle
  2
Gouraud
 70
     2
177
     3
291
     1
 70
    58
 90
        2
176
     1
 90
        2
176
     1
 90
        1
176
     1
 90
        2
176
     1
 40
0.6
176
     1
 40
30.0
176
     1
 62
     7
420
 16777215
176
     1
 90
        0
176
     1
 90
        0
176
     1
 62
     7
176
     1
 62
   257
176
     1
 90
        1
176
     1
 90
        1
176
     1
 40
1.0
176
     1
 90
        0
176
     1
 62
     7
176
     1
 40
1.0
176
     1
 90
        1
176
     1
 90
        6
176
     1
 90
        2
176
     1
 62
     7
176
     1
 90
        5
176
     1
 90
        0
176
     1
 90
        0
176
     1
290
     0
176
     1
 90
       13
176
     1
 40
0.0
176
     1
 90
        0
176
     1
290
     0
176
     1
290
     1
176
     1
290
     1
176
     1
290
     0
176
     1
290
     0
176
     1
290
     0
176
     1
290
     0
176
     1
290
     0
176
     1
290
     0
176
     1
 90
       50
176
     1
 40
0.0
176
     1
 40
1.0
176
     1
 90
        0
176
     1
 62
    18
420
        0
176
     1
 90
       50
176
     1
 90
        3
176
     1
 62
     5
420
      255
176
     1
290
     0
176
     1
 90
       50
176
     1
 90
       50
176
     1
 90
       50
176
     1
290
     0
176
     1
 90
       50
176
     1
 62
   256
176
     0
 40
1.0
176
     0
 90
        2
176
     1
  1
strokes_ogs.tif
176
     1
290
     0
176
     1
 40
1.0
176
     1
 40
1.0
176
     1
  0
VISUALSTYLE
  5
2E
102
{ACAD_REACTORS
330
2A
102
}
330
2A
100
AcDbVisualStyle
  2
GouraudWithEdges
 70
     3
177
     3
291
     1
 70
    58
 90
        2
176
     1
 90
        2
176
     1
 90
        1
176
     1
 90
        2
176
     1
 40
0.6
176
     1
 40
30.0
176
     1
 62
     7
420
 16777215
176
     1
 90
        1
176
     1
 90
        0
176
     1
 62
     7
176
     1
 62
   257
176
     1
 90
        1
176
     1
 90
        1
176
     1
 40
1.0
176
     1
 90
        0
176
     1
 62
   257
176
     1
 40
1.0
176
     1
 90
        1
176
     1
 90
        6
176
     1
 90
        2
176
     1
 62
     7
176
     1
 90
        5
176
     1
 90
        0
176
     1
 90
        0
176
     1
290
     0
176
     1
 90
       13
176
     1
 40
0.0
176
     1
 90
        0
176
     1
290
     0
176
     1
290
     1
176
     1
290
     1
176
     1
290
     0
176
     1
290
     0
176
     1
290
     0
176
     1
290
     0
176
     1
290
     0
176
     1
290
     0
176
     1
 90
       50
176
     1
 40
0.0
176
     1
 40
1.0
176
     1
 90
        0
176
     1
 62
    18
420
        0
176
     1
 90
       50
176
     1
 90
        3
176
     1
 62
     5
420
      255
176
     1
290
     0
176
     1
 90
       50
176
     1
 90
       50
176
     1
 90
       50
176
     1
290
     0
176
     1
 90
       50
176
     1
 62
   256
176
     0
 40
1.0
176
     0
 90
        2
176
     1
  1
strokes_ogs.tif
176
     1
290
     0
176
     1
 40
1.0
176
     1
 40
1.0
176
     1
  0
VISUALSTYLE
  5
31
102
{ACAD_REACTORS
330
2A
102
}
330
2A
100
AcDbVisualStyle
  2
Hidden
 70
     6
177
     3
291
     0
 70
    58
 90
        1
176
     1
 90
        2
176
     1
 90
        2
176
     1
 90
        0
176
     1
 40
0.6
176
     1
 40
30.0
176
     1
 62
     7
420
 16777215
176
     1
 90
        2
176
     1
 90
        2
176
     1
 62
     7
176
     1
 62
   257
176
     1
 90
        2
176
     1
 90
        1
176
     1
 40
40.0
176
     1
 90
        0
176
     1
 62
   257
176
     1
 40
1.0
176
     1
 90
        1
176
     1
 90
        6
176
     1
 90
        2
176
     1
 62
     7
176
     1
 90
        3
176
     1
 90
        0
176
     1
 90
        0
176
     1
290
     0
176
     1
 90
        1
176
     1
 40
0.0
176
     1
 90
        0
176
     1
290
     0
176
     1
290
     1
176
     1
290
     1
176
     1
290
     0
176
     1
290
     0
176
     1
290
     0
176
     1
290
     0
176
     1
290
     0
176
     1
290
     0
176
     1
 90
       50
176
     1
 40
0.0
176
     1
 40
1.0
176
     1
 90
        0
176
     1
 62
    18
420
        0
176
     1
 90
       50
176
     1
 90
        3
176
     1
 62
     5
420
      255
176
     1
290
     0
176
     1
 90
       50
176
     1
 90
       50
176
     1
 90
       50
176
     1
290
     0
176
     1
 90
       50
176
     1
 62
   256
176
     0
 40
1.0
176
     0
 90
        2
176
     1
  1
strokes_ogs.tif
176
     1
290
     0
176
     1
 40
1.0
176
     1
 40
1.0
176
     1
  0
VISUALSTYLE
  5
3B
102
{ACAD_REACTORS
330
2A
102
}
330
2A
100
AcDbVisualStyle
  2
JitterOff
 70
    20
177
     3
291
     1
 70
    58
 90
        2
176
     0
 90
        2
176
     0
 90
        0
176
     0
 90
        0
176
     0
 40
0.6
176
     0
 40
30.0
176
     0
 62
     7
420
 16777215
176
     0
 90
        1
176
     0
 90
        4
176
     0
 62
     7
176
     0
 62
   257
176
     0
 90
        1
176
     0
 90
        1
176
     0
 40
1.0
176
     0
 90
       10
176
     2
 62
     7
176
     0
 40
1.0
176
     0
 90
        1
176
     0
 90
        6
176
     0
 90
        2
176
     0
 62
     7
176
     0
 90
        5
176
     0
 90
        0
176
     0
 90
        0
176
     0
290
     0
176
     0
 90
        1
176
     0
 40
0.0
176
     0
 90
        0
176
     0
290
     0
176
     0
290
     1
176
     0
290
     1
176
     0
290
     0
176
     0
290
     0
176
     0
290
     0
176
     0
290
     0
176
     0
290
     0
176
     0
290
     0
176
     0
 90
       50
176
     0
 40
0.0
176
     0
 40
1.0
176
     0
 90
        0
176
     0
 62
    18
420
        0
176
     0
 90
       50
176
     0
 90
        3
176
     0
 62
     5
420
      255
176
     0
290
     0
176
     0
 90
       50
176
     0
 90
       50
176
     0
 90
       50
176
     0
290
     0
176
     0
 90
       50
176
     0
 62
   256
176
     0
 40
1.0
176
     0
 90
        2
176
     0
  1
strokes_ogs.tif
176
     0
290
     0
176
     0
 40
1.0
176
     0
 40
1.0
176
     0
  0
VISUALSTYLE
  5
38
102
{ACAD_REACTORS
330
2A
102
}
330
2A
100
AcDbVisualStyle
  2
Linepattern
 70
    14
177
     3
291
     1
 70
    58
 90
        2
176
     1
 90
        2
176
     1
 90
        0
176
     1
 90
        0
176
     1
 40
0.6
176
     1
 40
30.0
176
     1
 62
     7
420
 16777215
176
     1
 90
        1
176
     1
 90
        4
176
     1
 62
     7
176
     1
 62
   257
176
     1
 90
        7
176
     1
 90
        7
176
     1
 40
1.0
176
     1
 90
        8
176
     1
 62
     7
176
     1
 40
1.0
176
     1
 90
        1
176
     1
 90
        6
176
     1
 90
        2
176
     1
 62
     7
176
     1
 90
        5
176
     1
 90
        0
176
     1
 90
        0
176
     1
290
     0
176
     1
 90
        1
176
     1
 40
0.0
176
     1
 90
        0
176
     1
290
     0
176
     1
290
     1
176
     1
290
     1
176
     1
290
     0
176
     1
290
     0
176
     1
290
     0
176
     1
290
     0
176
     1
290
     0
176
     1
290
     0
176
     1
 90
       50
176
     1
 40
0.0
176
     1
 40
1.0
176
     1
 90
        0
176
     1
 62
    18
420
        0
176
     1
 90
       50
176
     1
 90
        3
176
     1
 62
     5
420
      255
176
     1
290
     0
176
     1
 90
       50
176
     1
 90
       50
176
     1
 90
       50
176
     1
290
     0
176
     1
 90
       50
176
     1
 62
   256
176
     0
 40
1.0
176
     0
 90
        2
176
     1
  1
strokes_ogs.tif
176
     1
290
     0
176
     1
 40
1.0
176
     1
 40
1.0
176
     1
  0
VISUALSTYLE
  5
3C
102
{ACAD_REACTORS
330
2A
102
}
330
2A
100
AcDbVisualStyle
  2
OverhangOff
 70
    21
177
     3
291
     1
 70
    58
 90
        2
176
     0
 90
        2
176
     0
 90
        0
176
     0
 90
        0
176
     0
 40
0.6
176
     0
 40
30.0
176
     0
 62
     7
420
 16777215
176
     0
 90
        1
176
     0
 90
        4
176
     0
 62
     7
176
     0
 62
   257
176
     0
 90
        1
176
     0
 90
        1
176
     0
 40
1.0
176
     0
 90
        9
176
     2
 62
     7
176
     0
 40
1.0
176
     0
 90
        1
176
     0
 90
        6
176
     0
 90
        2
176
     0
 62
     7
176
     0
 90
        5
176
     0
 90
        0
176
     0
 90
        0
176
     0
290
     0
176
     0
 90
        1
176
     0
 40
0.0
176
     0
 90
        0
176
     0
290
     0
176
     0
290
     1
176
     0
290
     1
176
     0
290
     0
176
     0
290
     0
176
     0
290
     0
176
     0
290
     0
176
     0
290
     0
176
     0
290
     0
176
     0
 90
       50
176
     0
 40
0.0
176
     0
 40
1.0
176
     0
 90
        0
176
     0
 62
    18
420
        0
176
     0
 90
       50
176
     0
 90
        3
176
     0
 62
     5
420
      255
176
     0
290
     0
176
     0
 90
       50
176
     0
 90
       50
176
     0
 90
       50
176
     0
290
     0
176
     0
 90
       50
176
     0
 62
   256
176
     0
 40
1.0
176
     0
 90
        2
176
     0
  1
strokes_ogs.tif
176
     0
290
     0
176
     0
 40
1.0
176
     0
 40
1.0
176
     0
  0
VISUALSTYLE
  5
33
102
{ACAD_REACTORS
330
2A
102
}
330
2A
100
AcDbVisualStyle
  2
Realistic
 70
     8
177
     3
291
     0
 70
    58
 90
        2
176
     1
 90
        3
176
     1
 90
        0
176
     1
 90
        2
176
     1
 40
0.6
176
     1
 40
30.0
176
     1
 62
     7
420
 16777215
176
     1
 90
        0
176
     1
 90
        0
176
     1
 62
     7
176
     1
 62
   257
176
     1
 90
        1
176
     1
 90
        1
176
     1
 40
1.0
176
     1
 90
        8
176
     1
 62
   257
176
     1
 40
1.0
176
     1
 90
        1
176
     1
 90
        6
176
     1
 90
        2
176
     1
 62
     7
176
     1
 90
        3
176
     1
 90
        0
176
     1
 90
        0
176
     1
290
     0
176
     1
 90
       13
176
     1
 40
0.0
176
     1
 90
        0
176
     1
290
     0
176
     1
290
     1
176
     1
290
     1
176
     1
290
     0
176
     1
290
     0
176
     1
290
     0
176
     1
290
     0
176
     1
290
     0
176
     1
290
     0
176
     1
 90
       50
176
     1
 40
0.0
176
     1
 40
1.0
176
     1
 90
        0
176
     1
 62
    18
420
        0
176
     1
 90
       50
176
     1
 90
        3
176
     1
 62
     5
420
      255
176
     1
290
     0
176
     1
 90
       50
176
     1
 90
       50
176
     1
 90
       50
176
     1
290
     0
176
     1
 90
       50
176
     1
 62
   256
176
     0
 40
1.0
176
     0
 90
        2
176
     1
  1
strokes_ogs.tif
176
     1
290
     0
176
     1
 40
1.0
176
     1
 40
1.0
176
     1
  0
VISUALSTYLE
  5
42
102
{ACAD_REACTORS
330
2A
102
}
330
2A
100
AcDbVisualStyle
  2
Shaded
 70
    27
177
     3
291
     0
 70
    58
 90
        2
176
     1
 90
        2
176
     1
 90
        1
176
     1
 90
        2
176
     1
 40
0.6
176
     1
 40
30.0
176
     1
 62
     7
420
 16777215
176
     1
 90
        0
176
     1
 90
        4
176
     1
 62
     7
176
     1
 62
   257
176
     1
 90
        1
176
     1
 90
        1
176
     1
 40
1.0
176
     1
 90
        8
176
     1
 62
   257
176
     1
 40
1.0
176
     1
 90
        1
176
     1
 90
        6
176
     1
 90
        2
176
     1
 62
     8
420
  7895160
176
     1
 90
        3
176
     1
 90
        0
176
     1
 90
        0
176
     1
290
     0
176
     1
 90
        5
176
     1
 40
0.0
176
     1
 90
        0
176
     1
290
     0
176
     1
290
     1
176
     1
290
     1
176
     1
290
     0
176
     1
290
     0
176
     1
290
     0
176
     1
290
     0
176
     1
290
     0
176
     1
290
     0
176
     1
 90
       50
176
     1
 40
0.0
176
     1
 40
1.0
176
     1
 90
        0
176
     1
 62
    18
420
        0
176
     1
 90
       50
176
     1
 90
        3
176
     1
 62
     5
420
      255
176
     1
290
     0
176
     1
 90
       50
176
     1
 90
       50
176
     1
 90
       50
176
     1
290
     0
176
     1
 90
       50
176
     1
 62
   256
176
     0
 40
1.0
176
     0
 90
        2
176
     1
  1
strokes_ogs.tif
176
     1
290
     0
176
     1
 40
1.0
176
     1
 40
1.0
176
     1
  0
VISUALSTYLE
  5
41
102
{ACAD_REACTORS
330
2A
102
}
330
2A
100
AcDbVisualStyle
  2
Shaded with edges
 70
    26
177
     3
291
     0
 70
    58
 90
        2
176
     1
 90
        2
176
     1
 90
        1
176
     1
 90
        2
176
     1
 40
0.6
176
     1
 40
30.0
176
     1
 62
     7
420
 16777215
176
     1
 90
        1
176
     1
 90
       10
176
     1
 62
     7
176
     1
 62
   257
176
     1
 90
        2
176
     1
 90
        1
176
     1
 40
1.0
176
     1
 90
        8
176
     1
 62
   257
176
     1
 40
1.0
176
     1
 90
        1
176
     1
 90
        6
176
     1
 90
        2
176
     1
 62
     7
176
     1
 90
        3
176
     1
 90
        0
176
     1
 90
        0
176
     1
290
     0
176
     1
 90
        5
176
     1
 40
0.0
176
     1
 90
        0
176
     1
290
     0
176
     1
290
     1
176
     1
290
     1
176
     1
290
     0
176
     1
290
     0
176
     1
290
     0
176
     1
290
     0
176
     1
290
     0
176
     1
290
     0
176
     1
 90
       50
176
     1
 40
0.0
176
     1
 40
1.0
176
     1
 90
        0
176
     1
 62
    18
420
        0
176
     1
 90
       50
176
     1
 90
        3
176
     1
 62
     5
420
      255
176
     1
290
     0
176
     1
 90
       50
176
     1
 90
       50
176
     1
 90
       50
176
     1
290
     0
176
     1
 90
       50
176
     1
 62
   256
176
     0
 40
1.0
176
     0
 90
        2
176
     1
  1
strokes_ogs.tif
176
     1
290
     0
176
     1
 40
1.0
176
     1
 40
1.0
176
     1
  0
VISUALSTYLE
  5
3E
102
{ACAD_REACTORS
330
2A
102
}
330
2A
100
AcDbVisualStyle
  2
Shades of Gray
 70
    23
177
     3
291
     0
 70
    58
 90
        2
176
     1
 90
        2
176
     1
 90
        3
176
     1
 90
        0
176
     1
 40
0.6
176
     1
 40
30.0
176
     1
 62
     7
420
 16777215
176
     1
 90
        2
176
     1
 90
        2
176
     1
 62
     7
176
     1
 62
     7
176
     1
 90
        1
176
     1
 90
        1
176
     1
 40
40.0
176
     1
 90
        8
176
     1
 62
     7
176
     1
 40
1.0
176
     1
 90
        1
176
     1
 90
        6
176
     1
 90
        2
176
     1
 62
     7
176
     1
 90
        3
176
     1
 90
        0
176
     1
 90
        0
176
     1
290
     0
176
     1
 90
        1
176
     1
 40
0.0
176
     1
 90
        0
176
     1
290
     0
176
     1
290
     1
176
     1
290
     1
176
     1
290
     0
176
     1
290
     0
176
     1
290
     0
176
     1
290
     0
176
     1
290
     0
176
     1
290
     0
176
     1
 90
       50
176
     1
 40
0.0
176
     1
 40
1.0
176
     1
 90
        0
176
     1
 62
    18
420
        0
176
     1
 90
       50
176
     1
 90
        3
176
     1
 62
     5
420
      255
176
     1
290
     0
176
     1
 90
       50
176
     1
 90
       50
176
     1
 90
       50
176
     1
290
     0
176
     1
 90
       50
176
     1
 62
   256
176
     0
 40
1.0
176
     0
 90
        2
176
     1
  1
strokes_ogs.tif
176
     1
290
     0
176
     1
 40
1.0
176
     1
 40
1.0
176
     1
  0
VISUALSTYLE
  5
3F
102
{ACAD_REACTORS
330
2A
102
}
330
2A
100
AcDbVisualStyle
  2
Sketchy
 70
    24
177
     3
291
     0
 70
    58
 90
        1
176
     1
 90
        2
176
     1
 90
        2
176
     1
 90
        0
176
     1
 40
0.6
176
     1
 40
30.0
176
     1
 62
     7
420
 16777215
176
     1
 90
        2
176
     1
 90
        2
176
     1
 62
     7
176
     1
 62
     7
176
     1
 90
        1
176
     1
 90
        1
176
     1
 40
40.0
176
     1
 90
       11
176
     1
 62
     7
176
     1
 40
1.0
176
     1
 90
        1
176
     1
 90
        6
176
     1
 90
        2
176
     1
 62
     7
176
     1
 90
        6
176
     1
 90
        0
176
     1
 90
        0
176
     1
290
     0
176
     1
 90
        1
176
     1
 40
0.0
176
     1
 90
        0
176
     1
290
     0
176
     1
290
     1
176
     1
290
     1
176
     1
290
     0
176
     1
290
     0
176
     1
290
     0
176
     1
290
     0
176
     1
290
     0
176
     1
290
     0
176
     1
 90
       50
176
     1
 40
0.0
176
     1
 40
1.0
176
     1
 90
        0
176
     1
 62
    18
420
        0
176
     1
 90
       50
176
     1
 90
        3
176
     1
 62
     5
420
      255
176
     1
290
     0
176
     1
 90
       50
176
     1
 90
       50
176
     1
 90
       50
176
     1
290
     0
176
     1
 90
       50
176
     1
 62
   256
176
     0
 40
1.0
176
     0
 90
        2
176
     1
  1
strokes_ogs.tif
176
     1
290
     0
176
     1
 40
1.0
176
     1
 40
1.0
176
     1
  0
VISUALSTYLE
  5
37
102
{ACAD_REACTORS
330
2A
102
}
330
2A
100
AcDbVisualStyle
  2
Thicken
 70
    13
177
     3
291
     1
 70
    58
 90
        2
176
     1
 90
        2
176
     1
 90
        0
176
     1
 90
        0
176
     1
 40
0.6
176
     1
 40
30.0
176
     1
 62
     7
420
 16777215
176
     1
 90
        1
176
     1
 90
        4
176
     1
 62
     7
176
     1
 62
   257
176
     1
 90
        1
176
     1
 90
        1
176
     1
 40
1.0
176
     1
 90
       12
176
     1
 62
     7
176
     1
 40
1.0
176
     1
 90
        1
176
     1
 90
        6
176
     1
 90
        2
176
     1
 62
     7
176
     1
 90
        5
176
     1
 90
        0
176
     1
 90
        0
176
     1
290
     0
176
     1
 90
        1
176
     1
 40
0.0
176
     1
 90
        0
176
     1
290
     0
176
     1
290
     1
176
     1
290
     1
176
     1
290
     0
176
     1
290
     0
176
     1
290
     0
176
     1
290
     0
176
     1
290
     0
176
     1
290
     0
176
     1
 90
       50
176
     1
 40
0.0
176
     1
 40
1.0
176
     1
 90
        0
176
     1
 62
    18
420
        0
176
     1
 90
       50
176
     1
 90
        3
176
     1
 62
     5
420
      255
176
     1
290
     0
176
     1
 90
       50
176
     1
 90
       50
176
     1
 90
       50
176
     1
290
     0
176
     1
 90
       50
176
     1
 62
   256
176
     0
 40
1.0
176
     0
 90
        2
176
     1
  1
strokes_ogs.tif
176
     1
290
     0
176
     1
 40
1.0
176
     1
 40
1.0
176
     1
  0
VISUALSTYLE
  5
30
102
{ACAD_REACTORS
330
2A
102
}
330
2A
100
AcDbVisualStyle
  2
Wireframe
 70
     5
177
     3
291
     0
 70
    58
 90
        0
176
     1
 90
        2
176
     1
 90
        0
176
     1
 90
        0
176
     1
 40
0.6
176
     1
 40
30.0
176
     1
 62
     7
420
 16777215
176
     1
 90
        1
176
     1
 90
        4
176
     1
 62
     7
176
     1
 62
   257
176
     1
 90
        1
176
     1
 90
        1
176
     1
 40
1.0
176
     1
 90
        0
176
     1
 62
   257
176
     1
 40
1.0
176
     1
 90
        1
176
     1
 90
        6
176
     1
 90
        2
176
     1
 62
     7
176
     1
 90
        3
176
     1
 90
        0
176
     1
 90
        0
176
     1
290
     0
176
     1
 90
        1
176
     1
 40
0.0
176
     1
 90
        0
176
     1
290
     0
176
     1
290
     1
176
     1
290
     1
176
     1
290
     0
176
     1
290
     0
176
     1
290
     0
176
     1
290
     0
176
     1
290
     0
176
     1
290
     0
176
     1
 90
       50
176
     1
 40
0.0
176
     1
 40
1.0
176
     1
 90
        0
176
     1
 62
    18
420
        0
176
     1
 90
       50
176
     1
 90
        3
176
     1
 62
     5
420
      255
176
     1
290
     0
176
     1
 90
       50
176
     1
 90
       50
176
     1
 90
       50
176
     1
290
     0
176
     1
 90
       50
176
     1
 62
   256
176
     0
 40
1.0
176
     0
 90
        2
176
     1
  1
strokes_ogs.tif
176
     1
290
     0
176
     1
 40
1.0
176
     1
 40
1.0
176
     1
  0
VISUALSTYLE
  5
40
102
{ACAD_REACTORS
330
2A
102
}
330
2A
100
AcDbVisualStyle
  2
X-Ray
 70
    25
177
     3
291
     0
 70
    58
 90
        2
176
     1
 90
        2
176
     1
 90
        1
176
     1
 90
        1
176
     1
 40
0.5
176
     1
 40
30.0
176
     1
 62
     7
420
 16777215
176
     1
 90
        1
176
     1
 90
        0
176
     1
 62
     7
176
     1
 62
   257
176
     1
 90
        1
176
     1
 90
        1
176
     1
 40
1.0
176
     1
 90
        8
176
     1
 62
     7
176
     1
 40
1.0
176
     1
 90
        1
176
     1
 90
        6
176
     1
 90
        2
176
     1
 62
     7
176
     1
 90
        3
176
     1
 90
        0
176
     1
 90
        0
176
     1
290
     0
176
     1
 90
       13
176
     1
 40
0.0
176
     1
 90
        0
176
     1
290
     0
176
     1
290
     1
176
     1
290
     1
176
     1
290
     0
176
     1
290
     0
176
     1
290
     0
176
     1
290
     0
176
     1
290
     0
176
     1
290
     0
176
     1
 90
       50
176
     1
 40
0.0
176
     1
 40
1.0
176
     1
 90
        0
176
     1
 62
    18
420
        0
176
     1
 90
       50
176
     1
 90
        3
176
     1
 62
     5
420
      255
176
     1
290
     0
176
     1
 90
       50
176
     1
 90
       50
176
     1
 90
       50
176
     1
290
     0
176
     1
 90
       50
176
     1
 62
   256
176
     0
 40
1.0
176
     0
 90
        2
176
     1
  1
strokes_ogs.tif
176
     1
290
     0
176
     1
 40
1.0
176
     1
 40
1.0
176
     1
  0
DICTIONARYVAR
  5
275
102
{ACAD_REACTORS
330
274
102
}
330
274
100
DictionaryVariables
280
     0
  1
1:1
  0
DICTIONARYVAR
  5
27A
102
{ACAD_REACTORS
330
274
102
}
330
274
100
DictionaryVariables
280
     0
  1
Standard
  0
DICTIONARYVAR
  5
279
102
{ACAD_REACTORS
330
274
102
}
330
274
100
DictionaryVariables
280
     0
  1
Standard
  0
DICTIONARY
  5
276
330
6A
100
AcDbDictionary
280
     1
281
     1
  3
ACAD_ROUNDTRIP_2008_TABLESTYLE_CELLSTYLEMAP
360
277
  0
CELLSTYLEMAP
  5
277
102
{ACAD_REACTORS
330
276
102
}
330
276
100
AcDbCellStyleMap
 90
        3
300
CELLSTYLE
  1
TABLEFORMAT_BEGIN
 90
        5
170
     1
 91
        0
 92
    32768
 62
   257
 93
        1
300
CONTENTFORMAT
  1
CONTENTFORMAT_BEGIN
 90
        0
 91
        0
 92
        4
 93
        0
300

 40
0.0
140
1.0
 94
        5
 62
     0
340
11
144
0.25
309
CONTENTFORMAT_END
171
     1
301
MARGIN
  1
CELLMARGIN_BEGIN
 40
0.06
 40
0.06
 40
0.06
 40
0.06
 40
0.06
 40
0.06
309
CELLMARGIN_END
 94
        6
 95
        1
302
GRIDFORMAT
  1
GRIDFORMAT_BEGIN
 90
        0
 91
        1
 62
     0
 92
       -2
340
14
 93
        0
 40
0.045
309
GRIDFORMAT_END
 95
        2
302
GRIDFORMAT
  1
GRIDFORMAT_BEGIN
 90
        0
 91
        1
 62
     0
 92
       -2
340
14
 93
        0
 40
0.045
309
GRIDFORMAT_END
 95
        4
302
GRIDFORMAT
  1
GRIDFORMAT_BEGIN
 90
        0
 91
        1
 62
     0
 92
       -2
340
14
 93
        0
 40
0.045
309
GRIDFORMAT_END
 95
        8
302
GRIDFORMAT
  1
GRIDFORMAT_BEGIN
 90
        0
 91
        1
 62
     0
 92
       -2
340
14
 93
        0
 40
0.045
309
GRIDFORMAT_END
 95
       16
302
GRIDFORMAT
  1
GRIDFORMAT_BEGIN
 90
        0
 91
        1
 62
     0
 92
       -2
340
14
 93
        0
 40
0.045
309
GRIDFORMAT_END
 95
       32
302
GRIDFORMAT
  1
GRIDFORMAT_BEGIN
 90
        0
 91
        1
 62
     0
 92
       -2
340
14
 93
        0
 40
0.045
309
GRIDFORMAT_END
309
TABLEFORMAT_END
  1
CELLSTYLE_BEGIN
 90
        1
 91
        1
300
_TITLE
309
CELLSTYLE_END
300
CELLSTYLE
  1
TABLEFORMAT_BEGIN
 90
        5
170
     1
 91
        0
 92
        0
 62
   257
 93
        1
300
CONTENTFORMAT
  1
CONTENTFORMAT_BEGIN
 90
        0
 91
        0
 92
        4
 93
        0
300

 40
0.0
140
1.0
 94
        5
 62
     0
340
11
144
0.18
309
CONTENTFORMAT_END
171
     1
301
MARGIN
  1
CELLMARGIN_BEGIN
 40
0.06
 40
0.06
 40
0.06
 40
0.06
 40
0.06
 40
0.06
309
CELLMARGIN_END
 94
        6
 95
        1
302
GRIDFORMAT
  1
GRIDFORMAT_BEGIN
 90
        0
 91
        1
 62
     0
 92
       -2
340
14
 93
        0
 40
0.045
309
GRIDFORMAT_END
 95
        2
302
GRIDFORMAT
  1
GRIDFORMAT_BEGIN
 90
        0
 91
        1
 62
     0
 92
       -2
340
14
 93
        0
 40
0.045
309
GRIDFORMAT_END
 95
        4
302
GRIDFORMAT
  1
GRIDFORMAT_BEGIN
 90
        0
 91
        1
 62
     0
 92
       -2
340
14
 93
        0
 40
0.045
309
GRIDFORMAT_END
 95
        8
302
GRIDFORMAT
  1
GRIDFORMAT_BEGIN
 90
        0
 91
        1
 62
     0
 92
       -2
340
14
 93
        0
 40
0.045
309
GRIDFORMAT_END
 95
       16
302
GRIDFORMAT
  1
GRIDFORMAT_BEGIN
 90
        0
 91
        1
 62
     0
 92
       -2
340
14
 93
        0
 40
0.045
309
GRIDFORMAT_END
 95
       32
302
GRIDFORMAT
  1
GRIDFORMAT_BEGIN
 90
        0
 91
        1
 62
     0
 92
       -2
340
14
 93
        0
 40
0.045
309
GRIDFORMAT_END
309
TABLEFORMAT_END
  1
CELLSTYLE_BEGIN
 90
        2
 91
        1
300
_HEADER
309
CELLSTYLE_END
300
CELLSTYLE
  1
TABLEFORMAT_BEGIN
 90
        5
170
     1
 91
        0
 92
        0
 62
   257
 93
        1
300
CONTENTFORMAT
  1
CONTENTFORMAT_BEGIN
 90
        0
 91
        0
 92
        4
 93
        0
300

 40
0.0
140
1.0
 94
        2
 62
     0
340
11
144
0.18
309
CONTENTFORMAT_END
171
     1
301
MARGIN
  1
CELLMARGIN_BEGIN
 40
0.06
 40
0.06
 40
0.06
 40
0.06
 40
0.06
 40
0.06
309
CELLMARGIN_END
 94
        6
 95
        1
302
GRIDFORMAT
  1
GRIDFORMAT_BEGIN
 90
        0
 91
        1
 62
     0
 92
       -2
340
14
 93
        0
 40
0.045
309
GRIDFORMAT_END
 95
        2
302
GRIDFORMAT
  1
GRIDFORMAT_BEGIN
 90
        0
 91
        1
 62
     0
 92
       -2
340
14
 93
        0
 40
0.045
309
GRIDFORMAT_END
 95
        4
302
GRIDFORMAT
  1
GRIDFORMAT_BEGIN
 90
        0
 91
        1
 62
     0
 92
       -2
340
14
 93
        0
 40
0.045
309
GRIDFORMAT_END
 95
        8
302
GRIDFORMAT
  1
GRIDFORMAT_BEGIN
 90
        0
 91
        1
 62
     0
 92
       -2
340
14
 93
        0
 40
0.045
309
GRIDFORMAT_END
 95
       16
302
GRIDFORMAT
  1
GRIDFORMAT_BEGIN
 90
        0
 91
        1
 62
     0
 92
       -2
340
14
 93
        0
 40
0.045
309
GRIDFORMAT_END
 95
       32
302
GRIDFORMAT
  1
GRIDFORMAT_BEGIN
 90
        0
 91
        1
 62
     0
 92
       -2
340
14
 93
        0
 40
0.045
309
GRIDFORMAT_END
309
TABLEFORMAT_END
  1
CELLSTYLE_BEGIN
 90
        3
 91
        2
300
_DATA
309
CELLSTYLE_END
  0
ENDSEC
  0
EOF