0
SECTION
  2
HEADER
  9
$ACADVER
  1
AC1027
  9
$ACADMAINTVER
 70
     8
  9
$DWGCODEPAGE
  3
ANSI_1252
  9
$REQUIREDVERSIONS
160
                 0
  9
$COMMENTS
  1
File was created by Cadenas
  9
$CUSTOMPROPERTYTAG
  1
NN
  9
$CUSTOMPROPERTY
  1
Imperial - IP Pillow Block with Type E Dimensions 2-1/4 thru 7 inch 4-Bolt Labyrinth Seal Expansion
  9
$CUSTOMPROPERTYTAG
  1
NT
  9
$CUSTOMPROPERTY
  1
Imperial/E 4 Bolt Piliow Block Bearings
  9
$CUSTOMPROPERTYTAG
  1
NB
  9
$CUSTOMPROPERTY
  1
071238
  9
$CUSTOMPROPERTYTAG
  1
NBSYN
  9
$CUSTOMPROPERTY
  1
$PN.
  9
$CUSTOMPROPERTYTAG
  1
LINA
  9
$CUSTOMPROPERTY
  1
071238
  9
$CUSTOMPROPERTYTAG
  1
SS
  9
$CUSTOMPROPERTY
  1
2-1/4
  9
$CUSTOMPROPERTYTAG
  1
TYPE
  9
$CUSTOMPROPERTY
  1
Non-Expansion
  9
$CUSTOMPROPERTYTAG
  1
PN
  9
$CUSTOMPROPERTY
  1
071238
  9
$CUSTOMPROPERTYTAG
  1
DESCRIPTION
  9
$CUSTOMPROPERTY
  1
EP4B-IP-204L
  9
$CUSTOMPROPERTYTAG
  1
ST
  9
$CUSTOMPROPERTY
  1
Labyrinth Seal
  9
$CUSTOMPROPERTYTAG
  1
A
  9
$CUSTOMPROPERTY
  1
3.42
  9
$CUSTOMPROPERTYTAG
  1
B
  9
$CUSTOMPROPERTY
  1
10.5
  9
$CUSTOMPROPERTYTAG
  1
C
  9
$CUSTOMPROPERTY
  1
3.49
  9
$CUSTOMPROPERTYTAG
  1
DMIN
  9
$CUSTOMPROPERTY
  1
8.31
  9
$CUSTOMPROPERTYTAG
  1
DMAX
  9
$CUSTOMPROPERTY
  1
8.69
  9
$CUSTOMPROPERTYTAG
  1
E
  9
$CUSTOMPROPERTY
  1
1.87
  9
$CUSTOMPROPERTYTAG
  1
F
  9
$CUSTOMPROPERTY
  1
5/8
  9
$CUSTOMPROPERTYTAG
  1
G
  9
$CUSTOMPROPERTY
  1
0.87
  9
$CUSTOMPROPERTYTAG
  1
H
  9
$CUSTOMPROPERTY
  1
1.63
  9
$CUSTOMPROPERTYTAG
  1
J
  9
$CUSTOMPROPERTY
  1
5.72
  9
$CUSTOMPROPERTYTAG
  1
L
  9
$CUSTOMPROPERTY
  1
3.88
  9
$CUSTOMPROPERTYTAG
  1
M
  9
$CUSTOMPROPERTY
  1
2.75
  9
$CUSTOMPROPERTYTAG
  1
R
  9
$CUSTOMPROPERTY
  1
1.21
  9
$CUSTOMPROPERTYTAG
  1
S
  9
$CUSTOMPROPERTY
  1
2.21
  9
$CUSTOMPROPERTYTAG
  1
X
  9
$CUSTOMPROPERTY
  1
0.25
  9
$CUSTOMPROPERTYTAG
  1
Y
  9
$CUSTOMPROPERTY
  1
0.025
  9
$CUSTOMPROPERTYTAG
  1
Z
  9
$CUSTOMPROPERTY
  1
2.94
  9
$CUSTOMPROPERTYTAG
  1
COMPANY
  9
$CUSTOMPROPERTY
  1
baldor
  9
$INSBASE
 10
0.0
 20
0.0
 30
0.0
  9
$EXTMIN
 10
1.000000000000000E+20
 20
1.000000000000000E+20
 30
1.000000000000000E+20
  9
$EXTMAX
 10
-1.000000000000000E+20
 20
-1.000000000000000E+20
 30
-1.000000000000000E+20
  9
$LIMMIN
 10
0.0
 20
0.0
  9
$LIMMAX
 10
12.0
 20
9.0
  9
$ORTHOMODE
 70
     0
  9
$REGENMODE
 70
     1
  9
$FILLMODE
 70
     1
  9
$QTEXTMODE
 70
     0
  9
$MIRRTEXT
 70
     1
  9
$LTSCALE
 40
1.0
  9
$ATTMODE
 70
     1
  9
$TEXTSIZE
 40
0.2
  9
$TRACEWID
 40
0.05
  9
$TEXTSTYLE
  7
Standard
  9
$CLAYER
  8
0
  9
$CELTYPE
  6
ByLayer
  9
$CECOLOR
 62
   256
  9
$CELTSCALE
 40
1.0
  9
$DISPSILH
 70
     0
  9
$DIMSCALE
 40
1.0
  9
$DIMASZ
 40
0.18
  9
$DIMEXO
 40
0.0625
  9
$DIMDLI
 40
0.38
  9
$DIMRND
 40
0.0
  9
$DIMDLE
 40
0.0
  9
$DIMEXE
 40
0.18
  9
$DIMTP
 40
0.0
  9
$DIMTM
 40
0.0
  9
$DIMTXT
 40
0.18
  9
$DIMCEN
 40
0.09
  9
$DIMTSZ
 40
0.0
  9
$DIMTOL
 70
     0
  9
$DIMLIM
 70
     0
  9
$DIMTIH
 70
     1
  9
$DIMTOH
 70
     1
  9
$DIMSE1
 70
     0
  9
$DIMSE2
 70
     0
  9
$DIMTAD
 70
     0
  9
$DIMZIN
 70
     0
  9
$DIMBLK
  1

  9
$DIMASO
 70
     1
  9
$DIMSHO
 70
     1
  9
$DIMPOST
  1

  9
$DIMAPOST
  1

  9
$DIMALT
 70
     0
  9
$DIMALTD
 70
     2
  9
$DIMALTF
 40
25.4
  9
$DIMLFAC
 40
1.0
  9
$DIMTOFL
 70
     0
  9
$DIMTVP
 40
0.0
  9
$DIMTIX
 70
     0
  9
$DIMSOXD
 70
     0
  9
$DIMSAH
 70
     0
  9
$DIMBLK1
  1

  9
$DIMBLK2
  1

  9
$DIMSTYLE
  2
Standard
  9
$DIMCLRD
 70
     0
  9
$DIMCLRE
 70
     0
  9
$DIMCLRT
 70
     0
  9
$DIMTFAC
 40
1.0
  9
$DIMGAP
 40
0.09
  9
$DIMJUST
 70
     0
  9
$DIMSD1
 70
     0
  9
$DIMSD2
 70
     0
  9
$DIMTOLJ
 70
     1
  9
$DIMTZIN
 70
     0
  9
$DIMALTZ
 70
     0
  9
$DIMALTTZ
 70
     0
  9
$DIMUPT
 70
     0
  9
$DIMDEC
 70
     4
  9
$DIMTDEC
 70
     4
  9
$DIMALTU
 70
     2
  9
$DIMALTTD
 70
     2
  9
$DIMTXSTY
  7
Standard
  9
$DIMAUNIT
 70
     0
  9
$DIMADEC
 70
     0
  9
$DIMALTRND
 40
0.0
  9
$DIMAZIN
 70
     0
  9
$DIMDSEP
 70
    46
  9
$DIMATFIT
 70
     3
  9
$DIMFRAC
 70
     0
  9
$DIMLDRBLK
  1

  9
$DIMLUNIT
 70
     2
  9
$DIMLWD
 70
    -2
  9
$DIMLWE
 70
    -2
  9
$DIMTMOVE
 70
     0
  9
$DIMFXL
 40
1.0
  9
$DIMFXLON
 70
     0
  9
$DIMJOGANG
 40
0.7853981633974483
  9
$DIMTFILL
 70
     0
  9
$DIMTFILLCLR
 70
     0
  9
$DIMARCSYM
 70
     0
  9
$DIMLTYPE
  6

  9
$DIMLTEX1
  6

  9
$DIMLTEX2
  6

  9
$DIMTXTDIRECTION
 70
     0
  9
$LUNITS
 70
     2
  9
$LUPREC
 70
     4
  9
$SKETCHINC
 40
0.1
  9
$FILLETRAD
 40
0.5
  9
$AUNITS
 70
     0
  9
$AUPREC
 70
     0
  9
$MENU
  1
.
  9
$ELEVATION
 40
0.0
  9
$PELEVATION
 40
0.0
  9
$THICKNESS
 40
0.0
  9
$LIMCHECK
 70
     0
  9
$CHAMFERA
 40
0.0
  9
$CHAMFERB
 40
0.0
  9
$CHAMFERC
 40
0.0
  9
$CHAMFERD
 40
0.0
  9
$SKPOLY
 70
     0
  9
$TDCREATE
 40
2458168.982613889
  9
$TDUCREATE
 40
2458168.940947222
  9
$TDUPDATE
 40
2458168.982614063
  9
$TDUUPDATE
 40
2458168.940947396
  9
$TDINDWG
 40
0.0000000116
  9
$TDUSRTIMER
 40
0.0000000116
  9
$USRTIMER
 70
     1
  9
$ANGBASE
 50
0.0
  9
$ANGDIR
 70
     0
  9
$PDMODE
 70
     0
  9
$PDSIZE
 40
0.0
  9
$PLINEWID
 40
0.0
  9
$SPLFRAME
 70
     0
  9
$SPLINETYPE
 70
     6
  9
$SPLINESEGS
 70
     8
  9
$HANDSEED
  5
239
  9
$SURFTAB1
 70
     6
  9
$SURFTAB2
 70
     6
  9
$SURFTYPE
 70
     6
  9
$SURFU
 70
     6
  9
$SURFV
 70
     6
  9
$UCSBASE
  2

  9
$UCSNAME
  2

  9
$UCSORG
 10
0.0
 20
0.0
 30
0.0
  9
$UCSXDIR
 10
1.0
 20
0.0
 30
0.0
  9
$UCSYDIR
 10
0.0
 20
1.0
 30
0.0
  9
$UCSORTHOREF
  2

  9
$UCSORTHOVIEW
 70
     0
  9
$UCSORGTOP
 10
0.0
 20
0.0
 30
0.0
  9
$UCSORGBOTTOM
 10
0.0
 20
0.0
 30
0.0
  9
$UCSORGLEFT
 10
0.0
 20
0.0
 30
0.0
  9
$UCSORGRIGHT
 10
0.0
 20
0.0
 30
0.0
  9
$UCSORGFRONT
 10
0.0
 20
0.0
 30
0.0
  9
$UCSORGBACK
 10
0.0
 20
0.0
 30
0.0
  9
$PUCSBASE
  2

  9
$PUCSNAME
  2

  9
$PUCSORG
 10
0.0
 20
0.0
 30
0.0
  9
$PUCSXDIR
 10
1.0
 20
0.0
 30
0.0
  9
$PUCSYDIR
 10
0.0
 20
1.0
 30
0.0
  9
$PUCSORTHOREF
  2

  9
$PUCSORTHOVIEW
 70
     0
  9
$PUCSORGTOP
 10
0.0
 20
0.0
 30
0.0
  9
$PUCSORGBOTTOM
 10
0.0
 20
0.0
 30
0.0
  9
$PUCSORGLEFT
 10
0.0
 20
0.0
 30
0.0
  9
$PUCSORGRIGHT
 10
0.0
 20
0.0
 30
0.0
  9
$PUCSORGFRONT
 10
0.0
 20
0.0
 30
0.0
  9
$PUCSORGBACK
 10
0.0
 20
0.0
 30
0.0
  9
$USERI1
 70
     0
  9
$USERI2
 70
     0
  9
$USERI3
 70
     0
  9
$USERI4
 70
     0
  9
$USERI5
 70
     0
  9
$USERR1
 40
0.0
  9
$USERR2
 40
0.0
  9
$USERR3
 40
0.0
  9
$USERR4
 40
0.0
  9
$USERR5
 40
0.0
  9
$WORLDVIEW
 70
     1
  9
$SHADEDGE
 70
     3
  9
$SHADEDIF
 70
    70
  9
$TILEMODE
 70
     1
  9
$MAXACTVP
 70
    64
  9
$PINSBASE
 10
0.0
 20
0.0
 30
0.0
  9
$PLIMCHECK
 70
     0
  9
$PEXTMIN
 10
1.000000000000000E+20
 20
1.000000000000000E+20
 30
1.000000000000000E+20
  9
$PEXTMAX
 10
-1.000000000000000E+20
 20
-1.000000000000000E+20
 30
-1.000000000000000E+20
  9
$PLIMMIN
 10
0.0
 20
0.0
  9
$PLIMMAX
 10
12.0
 20
9.0
  9
$UNITMODE
 70
     0
  9
$VISRETAIN
 70
     1
  9
$PLINEGEN
 70
     0
  9
$PSLTSCALE
 70
     1
  9
$TREEDEPTH
 70
  3020
  9
$CMLSTYLE
  2
Standard
  9
$CMLJUST
 70
     0
  9
$CMLSCALE
 40
1.0
  9
$PROXYGRAPHICS
 70
     1
  9
$MEASUREMENT
 70
     0
  9
$CELWEIGHT
370
    -1
  9
$ENDCAPS
280
     0
  9
$JOINSTYLE
280
     0
  9
$LWDISPLAY
290
     0
  9
$INSUNITS
 70
     1
  9
$HYPERLINKBASE
  1

  9
$STYLESHEET
  1

  9
$XEDIT
290
     1
  9
$CEPSNTYPE
380
     0
  9
$PSTYLEMODE
290
     1
  9
$FINGERPRINTGUID
  2
{23DD6A17-8C27-4DAA-A9EB-DFD48D77DC9C}
  9
$VERSIONGUID
  2
{FAEB1C32-E019-11D5-929B-00C0DF256EC4}
  9
$EXTNAMES
290
     1
  9
$PSVPSCALE
 40
0.0
  9
$OLESTARTUP
290
     0
  9
$SORTENTS
280
   127
  9
$INDEXCTL
280
     0
  9
$HIDETEXT
280
     1
  9
$XCLIPFRAME
280
     2
  9
$HALOGAP
280
     0
  9
$OBSCOLOR
 70
   257
  9
$OBSLTYPE
280
     0
  9
$INTERSECTIONDISPLAY
280
     0
  9
$INTERSECTIONCOLOR
 70
   257
  9
$DIMASSOC
280
     2
  9
$PROJECTNAME
  1

  9
$CAMERADISPLAY
290
     0
  9
$LENSLENGTH
 40
50.0
  9
$CAMERAHEIGHT
 40
0.0
  9
$STEPSPERSEC
 40
2.0
  9
$STEPSIZE
 40
6.0
  9
$3DDWFPREC
 40
2.0
  9
$PSOLWIDTH
 40
0.25
  9
$PSOLHEIGHT
 40
4.0
  9
$LOFTANG1
 40
1.570796326794897
  9
$LOFTANG2
 40
1.570796326794897
  9
$LOFTMAG1
 40
0.0
  9
$LOFTMAG2
 40
0.0
  9
$LOFTPARAM
 70
     7
  9
$LOFTNORMALS
280
     1
  9
$LATITUDE
 40
37.795
  9
$LONGITUDE
 40
-122.394
  9
$NORTHDIRECTION
 40
0.0
  9
$TIMEZONE
 70
 -8000
  9
$LIGHTGLYPHDISPLAY
280
     1
  9
$TILEMODELIGHTSYNCH
280
     1
  9
$CMATERIAL
347
44
  9
$SOLIDHIST
280
     0
  9
$SHOWHIST
280
     1
  9
$DWFFRAME
280
     2
  9
$DGNFRAME
280
     2
  9
$REALWORLDSCALE
290
     1
  9
$INTERFERECOLOR
 62
   256
  9
$CSHADOW
280
     0
  9
$SHADOWPLANELOCATION
 40
0.0
  0
ENDSEC
  0
SECTION
  2
CLASSES
  0
CLASS
  1
ACDBDICTIONARYWDFLT
  2
AcDbDictionaryWithDefault
  3
ObjectDBX Classes
 90
        0
 91
        4
280
     0
281
     0
  0
CLASS
  1
VISUALSTYLE
  2
AcDbVisualStyle
  3
ObjectDBX Classes
 90
     4095
 91
        4
280
     0
281
     0
  0
CLASS
  1
MATERIAL
  2
AcDbMaterial
  3
ObjectDBX Classes
 90
     1153
 91
        4
280
     0
281
     0
  0
CLASS
  1
SCALE
  2
AcDbScale
  3
ObjectDBX Classes
 90
     1153
 91
        4
280
     0
281
     0
  0
CLASS
  1
TABLESTYLE
  2
AcDbTableStyle
  3
ObjectDBX Classes
 90
     4095
 91
        4
280
     0
281
     0
  0
CLASS
  1
MLEADERSTYLE
  2
AcDbMLeaderStyle
  3
ACDB_MLEADERSTYLE_CLASS
 90
     4095
 91
        4
280
     0
281
     0
  0
CLASS
  1
SUN
  2
AcDbSun
  3
SCENEOE
 90
     1153
 91
        4
280
     0
281
     0
  0
CLASS
  1
DICTIONARYVAR
  2
AcDbDictionaryVar
  3
ObjectDBX Classes
 90
        0
 91
        4
280
     0
281
     0
  0
CLASS
  1
CELLSTYLEMAP
  2
AcDbCellStyleMap
  3
ObjectDBX Classes
 90
     1152
 91
        4
280
     0
281
     0
  0
ENDSEC
  0
SECTION
  2
TABLES
  0
TABLE
  2
VPORT
  5
8
330
0
100
AcDbSymbolTable
 70
     1
  0
VPORT
  5
29
330
8
100
AcDbSymbolTableRecord
100
AcDbViewportTableRecord
  2
*Active
 70
     0
 10
0.0
 20
0.0
 11
1.0
 21
1.0
 12
0.0
 22
0.1423982335019929
 13
0.0
 23
0.0
 14
0.5
 24
0.5
 15
0.5
 25
0.5
 16
0.0
 26
0.0
 36
1.0
 17
0.0
 27
0.0
 37
0.0
 40
5.900492396344066
 41
1.815102754244018
 42
50.0
 43
0.0
 44
0.0
 50
0.0
 51
0.0
 71
     0
 72
   100
 73
     1
 74
     3
 75
     0
 76
     0
 77
     0
 78
     0
281
     0
 65
     1
110
0.0
120
0.0
130
0.0
111
1.0
121
0.0
131
0.0
112
0.0
122
1.0
132
0.0
 79
     0
146
0.0
348
2F
 60
     3
 61
     5
292
     1
282
     1
141
0.0
142
0.0
 63
   250
361
6D
  0
ENDTAB
  0
TABLE
  2
LTYPE
  5
5
330
0
100
AcDbSymbolTable
 70
     3
  0
LTYPE
  5
14
330
5
100
AcDbSymbolTableRecord
100
AcDbLinetypeTableRecord
  2
ByBlock
 70
     0
  3

 72
    65
 73
     0
 40
0.0
  0
LTYPE
  5
15
330
5
100
AcDbSymbolTableRecord
100
AcDbLinetypeTableRecord
  2
ByLayer
 70
     0
  3

 72
    65
 73
     0
 40
0.0
  0
LTYPE
  5
16
330
5
100
AcDbSymbolTableRecord
100
AcDbLinetypeTableRecord
  2
Continuous
 70
     0
  3
Solid line
 72
    65
 73
     0
 40
0.0
  0
LTYPE
  5
9B
330
5
100
AcDbSymbolTableRecord
100
AcDbLinetypeTableRecord
  2
Dashed
 70
     0
  3

 72
    65
 73
     2
 40
2.0
 49
1.0
 74
     0
 49
-1.0
 74
     0
  0
LTYPE
  5
D9
330
5
100
AcDbSymbolTableRecord
100
AcDbLinetypeTableRecord
  2
Center
 70
     0
  3

 72
    65
 73
     4
 40
1.5
 49
0.45
 74
     0
 49
-0.5
 74
     0
 49
0.05
 74
     0
 49
-0.5
 74
     0
  0
ENDTAB
  0
TABLE
  2
LAYER
  5
2
330
0
100
AcDbSymbolTable
 70
     7
  0
LAYER
  5
10
330
2
100
AcDbSymbolTableRecord
100
AcDbLayerTableRecord
  2
0
 70
     0
 62
     7
  6
Continuous
370
    -3
390
F
347
46
348
0
  0
LAYER
  5
72
330
2
100
AcDbSymbolTableRecord
100
AcDbLayerTableRecord
  2
AM_6
 70
     0
 62
    -2
  6
Continuous
370
    35
390
F
347
46
348
0
  0
LAYER
  5
9C
330
2
100
AcDbSymbolTableRecord
100
AcDbLayerTableRecord
  2
AM_9
 70
     0
 62
     6
  6
Dashed
370
    25
390
F
347
46
348
0
  0
LAYER
  5
A3
330
2
100
AcDbSymbolTableRecord
100
AcDbLayerTableRecord
  2
AM_5
 70
     0
 62
     3
  6
Continuous
370
    25
390
F
347
46
348
0
  0
LAYER
  5
A9
330
2
100
AcDbSymbolTableRecord
100
AcDbLayerTableRecord
  2
AM_4
 70
     0
 62
     7
  6
Continuous
370
    50
390
F
347
46
348
0
  0
LAYER
  5
DA
330
2
100
AcDbSymbolTableRecord
100
AcDbLayerTableRecord
  2
AM_7
 70
     0
 62
     7
  6
Center
370
    25
390
F
347
46
348
0
  0
LAYER
  5
224
330
2
100
AcDbSymbolTableRecord
100
AcDbLayerTableRecord
  2
ConnectionPoints
 70
     0
 62
     7
  6
Continuous
370
    50
390
F
347
46
348
0
  0
ENDTAB
  0
TABLE
  2
STYLE
  5
3
330
0
100
AcDbSymbolTable
 70
     1
  0
STYLE
  5
11
330
3
100
AcDbSymbolTableRecord
100
AcDbTextStyleTableRecord
  2
Standard
 70
     0
 40
0.0
 41
1.0
 50
0.0
 71
     0
 42
0.2
  3
txt
  4

  0
ENDTAB
  0
TABLE
  2
VIEW
  5
6
330
0
100
AcDbSymbolTable
 70
     0
  0
ENDTAB
  0
TABLE
  2
UCS
  5
7
330
0
100
AcDbSymbolTable
 70
     0
  0
ENDTAB
  0
TABLE
  2
APPID
  5
9
330
0
100
AcDbSymbolTable
 70
     1
  0
APPID
  5
12
330
9
100
AcDbSymbolTableRecord
100
AcDbRegAppTableRecord
  2
ACAD
 70
     0
  0
ENDTAB
  0
TABLE
  2
DIMSTYLE
  5
A
330
0
100
AcDbSymbolTable
 70
     1
100
AcDbDimStyleTable
  0
DIMSTYLE
105
27
330
A
100
AcDbSymbolTableRecord
100
AcDbDimStyleTableRecord
  2
Standard
 70
     0
178
     0
340
11
  0
ENDTAB
  0
TABLE
  2
BLOCK_RECORD
  5
1
330
0
100
AcDbSymbolTable
 70
     8
  0
BLOCK_RECORD
  5
1F
330
1
100
AcDbSymbolTableRecord
100
AcDbBlockTableRecord
  2
*Model_Space
340
22
 70
     0
280
     1
281
     0
  0
BLOCK_RECORD
  5
1B
330
1
100
AcDbSymbolTableRecord
100
AcDbBlockTableRecord
  2
*Paper_Space
340
1E
 70
     0
280
     1
281
     0
  0
BLOCK_RECORD
  5
23
330
1
100
AcDbSymbolTableRecord
100
AcDbBlockTableRecord
  2
*Paper_Space0
340
26
 70
     0
280
     1
281
     0
  0
BLOCK_RECORD
  5
6E
330
1
100
AcDbSymbolTableRecord
100
AcDbBlockTableRecord
  2
1_071238_0
340
0
102
{BLKREFS
331
6F
102
}
 70
     0
280
     1
281
     0
  0
BLOCK_RECORD
  5
8F
330
1
100
AcDbSymbolTableRecord
100
AcDbBlockTableRecord
  2
2_405015E_Inch_0_in_071238_0
340
0
102
{BLKREFS
331
90
102
}
 70
     0
280
     1
281
     0
  0
BLOCK_RECORD
  5
C8
330
1
100
AcDbSymbolTableRecord
100
AcDbBlockTableRecord
  2
3_ASME_B18_3_10_1_0_in_071238_0
340
0
102
{BLKREFS
331
C9
102
}
 70
     0
280
     1
281
     0
  0
BLOCK_RECORD
  5
E6
330
1
100
AcDbSymbolTableRecord
100
AcDbBlockTableRecord
  2
4_ASME_B18_3_10_2_0_in_071238_0
340
0
102
{BLKREFS
331
E7
102
}
 70
     0
280
     1
281
     0
  0
BLOCK_RECORD
  5
103
330
1
100
AcDbSymbolTableRecord
100
AcDbBlockTableRecord
  2
5_070893LWE_0_in_071238_0
340
0
102
{BLKREFS
331
104
102
}
 70
     0
280
     1
281
     0
  0
BLOCK_RECORD
  5
151
330
1
100
AcDbSymbolTableRecord
100
AcDbBlockTableRecord
  2
6_070893EL_0_in_071238_0
340
0
102
{BLKREFS
331
152
102
}
 70
     0
280
     1
281
     0
  0
BLOCK_RECORD
  5
1AD
330
1
100
AcDbSymbolTableRecord
100
AcDbBlockTableRecord
  2
7_071238H_0_in_071238_0
340
0
102
{BLKREFS
331
1AE
102
}
 70
     0
280
     1
281
     0
  0
ENDTAB
  0
ENDSEC
  0
SECTION
  2
BLOCKS
  0
BLOCK
  5
20
330
1F
100
AcDbEntity
  8
0
100
AcDbBlockBegin
  2
*Model_Space
 70
     0
 10
0.0
 20
0.0
 30
0.0
  3
*Model_Space
  1

  0
ENDBLK
  5
21
330
1F
100
AcDbEntity
  8
0
100
AcDbBlockEnd
  0
BLOCK
  5
1C
330
1B
100
AcDbEntity
 67
     1
  8
0
100
AcDbBlockBegin
  2
*Paper_Space
 70
     0
 10
0.0
 20
0.0
 30
0.0
  3
*Paper_Space
  1

  0
ENDBLK
  5
1D
330
1B
100
AcDbEntity
 67
     1
  8
0
100
AcDbBlockEnd
  0
BLOCK
  5
24
330
23
100
AcDbEntity
  8
0
100
AcDbBlockBegin
  2
*Paper_Space0
 70
     0
 10
0.0
 20
0.0
 30
0.0
  3
*Paper_Space0
  1

  0
ENDBLK
  5
25
330
23
100
AcDbEntity
  8
0
100
AcDbBlockEnd
  0
BLOCK
  5
70
330
6E
100
AcDbEntity
  8
0
100
AcDbBlockBegin
  2
1_071238_0
 70
     2
 10
0.0
 20
0.0
 30
0.0
  3
1_071238_0
  1

  0
ATTDEF
  5
73
330
6E
100
AcDbEntity
  8
AM_6
100
AcDbText
 10
10.25
 20
3.034796467003985
 30
0.0
 40
0.5
  1
Imperial - IP Pillow Block with Type E Dimensions 2-1/4 thru 7 inch 4-Bolt Labyrinth Seal Expansion
100
AcDbAttributeDefinition
  3

  2
NN
 70
     8
280
     0
  0
ATTDEF
  5
74
330
6E
100
AcDbEntity
  8
AM_6
100
AcDbText
 10
10.25
 20
2.534796467003985
 30
0.0
 40
0.5
  1
Imperial/E 4 Bolt Piliow Block Bearings
100
AcDbAttributeDefinition
  3

  2
NT
 70
     8
280
     0
  0
ATTDEF
  5
75
330
6E
100
AcDbEntity
  8
AM_6
100
AcDbText
 10
10.25
 20
2.034796467003985
 30
0.0
 40
0.5
  1
071238
100
AcDbAttributeDefinition
  3

  2
NB
 70
     8
280
     0
  0
ATTDEF
  5
76
330
6E
100
AcDbEntity
  8
AM_6
100
AcDbText
 10
10.25
 20
1.534796467003985
 30
0.0
 40
0.5
  1
$PN.
100
AcDbAttributeDefinition
  3

  2
NBSYN
 70
     8
280
     0
  0
ATTDEF
  5
77
330
6E
100
AcDbEntity
  8
AM_6
100
AcDbText
 10
10.25
 20
1.034796467003985
 30
0.0
 40
0.5
  1
071238
100
AcDbAttributeDefinition
  3

  2
LINA
 70
     8
280
     0
  0
ATTDEF
  5
78
330
6E
100
AcDbEntity
  8
AM_6
100
AcDbText
 10
10.25
 20
0.5347964670039849
 30
0.0
 40
0.5
  1
2-1/4
100
AcDbAttributeDefinition
  3

  2
SS
 70
     8
280
     0
  0
ATTDEF
  5
79
330
6E
100
AcDbEntity
  8
AM_6
100
AcDbText
 10
10.25
 20
0.0347964670039849
 30
0.0
 40
0.5
  1
Non-Expansion
100
AcDbAttributeDefinition
  3

  2
TYPE
 70
     8
280
     0
  0
ATTDEF
  5
7A
330
6E
100
AcDbEntity
  8
AM_6
100
AcDbText
 10
10.25
 20
-0.4652035329960151
 30
0.0
 40
0.5
  1
071238
100
AcDbAttributeDefinition
  3

  2
PN
 70
     8
280
     0
  0
ATTDEF
  5
7B
330
6E
100
AcDbEntity
  8
AM_6
100
AcDbText
 10
10.25
 20
-0.9652035329960151
 30
0.0
 40
0.5
  1
EP4B-IP-204L
100
AcDbAttributeDefinition
  3

  2
DESCRIPTION
 70
     8
280
     0
  0
ATTDEF
  5
7C
330
6E
100
AcDbEntity
  8
AM_6
100
AcDbText
 10
10.25
 20
-1.465203532996015
 30
0.0
 40
0.5
  1
Labyrinth Seal
100
AcDbAttributeDefinition
  3

  2
ST
 70
     8
280
     0
  0
ATTDEF
  5
7D
330
6E
100
AcDbEntity
  8
AM_6
100
AcDbText
 10
10.25
 20
-1.965203532996015
 30
0.0
 40
0.5
  1
3.42
100
AcDbAttributeDefinition
  3

  2
A
 70
     8
280
     0
  0
ATTDEF
  5
7E
330
6E
100
AcDbEntity
  8
AM_6
100
AcDbText
 10
10.25
 20
-2.465203532996015
 30
0.0
 40
0.5
  1
10.5
100
AcDbAttributeDefinition
  3

  2
B
 70
     8
280
     0
  0
ATTDEF
  5
7F
330
6E
100
AcDbEntity
  8
AM_6
100
AcDbText
 10
10.25
 20
-2.965203532996015
 30
0.0
 40
0.5
  1
3.49
100
AcDbAttributeDefinition
  3

  2
C
 70
     8
280
     0
  0
ATTDEF
  5
80
330
6E
100
AcDbEntity
  8
AM_6
100
AcDbText
 10
10.25
 20
-3.465203532996015
 30
0.0
 40
0.5
  1
8.31
100
AcDbAttributeDefinition
  3

  2
DMIN
 70
     8
280
     0
  0
ATTDEF
  5
81
330
6E
100
AcDbEntity
  8
AM_6
100
AcDbText
 10
10.25
 20
-3.965203532996015
 30
0.0
 40
0.5
  1
8.69
100
AcDbAttributeDefinition
  3

  2
DMAX
 70
     8
280
     0
  0
ATTDEF
  5
82
330
6E
100
AcDbEntity
  8
AM_6
100
AcDbText
 10
10.25
 20
-4.465203532996015
 30
0.0
 40
0.5
  1
1.87
100
AcDbAttributeDefinition
  3

  2
E
 70
     8
280
     0
  0
ATTDEF
  5
83
330
6E
100
AcDbEntity
  8
AM_6
100
AcDbText
 10
10.25
 20
-4.965203532996015
 30
0.0
 40
0.5
  1
5/8
100
AcDbAttributeDefinition
  3

  2
F
 70
     8
280
     0
  0
ATTDEF
  5
84
330
6E
100
AcDbEntity
  8
AM_6
100
AcDbText
 10
10.25
 20
-5.465203532996015
 30
0.0
 40
0.5
  1
0.87
100
AcDbAttributeDefinition
  3

  2
G
 70
     8
280
     0
  0
ATTDEF
  5
85
330
6E
100
AcDbEntity
  8
AM_6
100
AcDbText
 10
10.25
 20
-5.965203532996015
 30
0.0
 40
0.5
  1
1.63
100
AcDbAttributeDefinition
  3

  2
H
 70
     8
280
     0
  0
ATTDEF
  5
86
330
6E
100
AcDbEntity
  8
AM_6
100
AcDbText
 10
10.25
 20
-6.465203532996015
 30
0.0
 40
0.5
  1
5.72
100
AcDbAttributeDefinition
  3

  2
J
 70
     8
280
     0
  0
ATTDEF
  5
87
330
6E
100
AcDbEntity
  8
AM_6
100
AcDbText
 10
10.25
 20
-6.965203532996015
 30
0.0
 40
0.5
  1
3.88
100
AcDbAttributeDefinition
  3

  2
L
 70
     8
280
     0
  0
ATTDEF
  5
88
330
6E
100
AcDbEntity
  8
AM_6
100
AcDbText
 10
10.25
 20
-7.465203532996015
 30
0.0
 40
0.5
  1
2.75
100
AcDbAttributeDefinition
  3

  2
M
 70
     8
280
     0
  0
ATTDEF
  5
89
330
6E
100
AcDbEntity
  8
AM_6
100
AcDbText
 10
10.25
 20
-7.965203532996015
 30
0.0
 40
0.5
  1
1.21
100
AcDbAttributeDefinition
  3

  2
R
 70
     8
280
     0
  0
ATTDEF
  5
8A
330
6E
100
AcDbEntity
  8
AM_6
100
AcDbText
 10
10.25
 20
-8.465203532996014
 30
0.0
 40
0.5
  1
2.21
100
AcDbAttributeDefinition
  3

  2
S
 70
     8
280
     0
  0
ATTDEF
  5
8B
330
6E
100
AcDbEntity
  8
AM_6
100
AcDbText
 10
10.25
 20
-8.965203532996014
 30
0.0
 40
0.5
  1
0.25
100
AcDbAttributeDefinition
  3

  2
X
 70
     8
280
     0
  0
ATTDEF
  5
8C
330
6E
100
AcDbEntity
  8
AM_6
100
AcDbText
 10
10.25
 20
-9.465203532996014
 30
0.0
 40
0.5
  1
0.025
100
AcDbAttributeDefinition
  3

  2
Y
 70
     8
280
     0
  0
ATTDEF
  5
8D
330
6E
100
AcDbEntity
  8
AM_6
100
AcDbText
 10
10.25
 20
-9.965203532996014
 30
0.0
 40
0.5
  1
2.94
100
AcDbAttributeDefinition
  3

  2
Z
 70
     8
280
     0
  0
ATTDEF
  5
8E
330
6E
100
AcDbEntity
  8
AM_6
100
AcDbText
 10
10.25
 20
-10.46520353299601
 30
0.0
 40
0.5
  1
baldor
100
AcDbAttributeDefinition
  3

  2
COMPANY
 70
     8
280
     0
  0
INSERT
  5
90
330
6E
100
AcDbEntity
  8
0
100
AcDbBlockReference
  2
2_405015E_Inch_0_in_071238_0
 10
0.0
 20
0.0
 30
0.0
  0
INSERT
  5
C9
330
6E
100
AcDbEntity
  8
0
100
AcDbBlockReference
  2
3_ASME_B18_3_10_1_0_in_071238_0
 10
0.0
 20
0.0
 30
0.0
  0
INSERT
  5
E7
330
6E
100
AcDbEntity
  8
0
100
AcDbBlockReference
  2
4_ASME_B18_3_10_2_0_in_071238_0
 10
0.0
 20
0.0
 30
0.0
  0
INSERT
  5
104
330
6E
100
AcDbEntity
  8
0
100
AcDbBlockReference
  2
5_070893LWE_0_in_071238_0
 10
0.0
 20
0.0
 30
0.0
  0
INSERT
  5
152
330
6E
100
AcDbEntity
  8
0
100
AcDbBlockReference
  2
6_070893EL_0_in_071238_0
 10
0.0
 20
0.0
 30
0.0
  0
INSERT
  5
1AE
330
6E
100
AcDbEntity
  8
0
100
AcDbBlockReference
  2
7_071238H_0_in_071238_0
 10
0.0
 20
0.0
 30
0.0
  0
ENDBLK
  5
71
330
6E
100
AcDbEntity
  8
0
100
AcDbBlockEnd
  0
BLOCK
  5
91
330
8F
100
AcDbEntity
  8
0
100
AcDbBlockBegin
  2
2_405015E_Inch_0_in_071238_0
 70
     2
 10
0.0
 20
0.0
 30
0.0
  3
2_405015E_Inch_0_in_071238_0
  1

  0
ATTDEF
  5
93
330
8F
100
AcDbEntity
  8
AM_6
100
AcDbText
 10
3.751150533277436
 20
3.034796467003985
 30
0.0
 40
0.5
  1
405015E -Inch
100
AcDbAttributeDefinition
  3

  2
NN
 70
     8
280
     0
  0
ATTDEF
  5
94
330
8F
100
AcDbEntity
  8
AM_6
100
AcDbText
 10
3.751150533277436
 20
2.534796467003985
 30
0.0
 40
0.5
  1
Grease Fitting
100
AcDbAttributeDefinition
  3

  2
NT
 70
     8
280
     0
  0
ATTDEF
  5
95
330
8F
100
AcDbEntity
  8
AM_6
100
AcDbText
 10
3.751150533277436
 20
2.034796467003985
 30
0.0
 40
0.5
  1
405015E-Inch
100
AcDbAttributeDefinition
  3

  2
NB
 70
     8
280
     0
  0
ATTDEF
  5
96
330
8F
100
AcDbEntity
  8
AM_6
100
AcDbText
 10
3.751150533277436
 20
1.534796467003985
 30
0.0
 40
0.5
  1
$MN.-Inch
100
AcDbAttributeDefinition
  3

  2
NBSYN
 70
     8
280
     0
  0
ATTDEF
  5
97
330
8F
100
AcDbEntity
  8
AM_6
100
AcDbText
 10
3.751150533277436
 20
1.034796467003985
 30
0.0
 40
0.5
  1
405015E
100
AcDbAttributeDefinition
  3

  2
LINA
 70
     8
280
     0
  0
ATTDEF
  5
98
330
8F
100
AcDbEntity
  8
AM_6
100
AcDbText
 10
3.751150533277436
 20
0.5347964670039849
 30
0.0
 40
0.5
  1
405015E
100
AcDbAttributeDefinition
  3

  2
MN
 70
     8
280
     0
  0
ATTDEF
  5
99
330
8F
100
AcDbEntity
  8
AM_6
100
AcDbText
 10
3.751150533277436
 20
0.0347964670039849
 30
0.0
 40
0.5
  1
1/8 x 27PTF
100
AcDbAttributeDefinition
  3

  2
T
 70
     8
280
     0
  0
ATTDEF
  5
9A
330
8F
100
AcDbEntity
  8
AM_6
100
AcDbText
 10
3.751150533277436
 20
-0.4652035329960151
 30
0.0
 40
0.5
  1
baldor
100
AcDbAttributeDefinition
  3

  2
COMPANY
 70
     8
280
     0
  0
LINE
  5
9D
330
8F
100
AcDbEntity
  8
AM_9
100
AcDbLine
 10
-1.262287999493342
 20
2.510152693851485
 30
0.0
 11
-1.248849466722564
 21
2.56030598093121
 31
0.0
  0
LINE
  5
9E
330
8F
100
AcDbEntity
  8
AM_9
100
AcDbLine
 10
-1.592865287586382
 20
2.361688354149995
 30
0.0
 11
-1.542712000506657
 21
2.348249821379216
 31
0.0
  0
LINE
  5
9F
330
8F
100
AcDbEntity
  8
AM_9
100
AcDbLine
 10
-1.542712000506657
 20
2.348249821379216
 30
0.0
 11
-1.262287999493342
 21
2.510152693851485
 31
0.0
  0
LINE
  5
A0
330
8F
100
AcDbEntity
  8
AM_9
100
AcDbLine
 10
-1.248849466722564
 20
2.56030598093121
 30
0.0
 11
-1.356813630127977
 21
2.761573938229762
 31
0.0
  0
LINE
  5
A1
330
8F
100
AcDbEntity
  8
AM_9
100
AcDbLine
 10
-1.713186369872023
 20
2.555822041006691
 30
0.0
 11
-1.592865287586382
 21
2.361688354149995
 31
0.0
  0
LINE
  5
A2
330
8F
100
AcDbEntity
  8
AM_9
100
AcDbLine
 10
-1.592865287586382
 20
2.361688354149995
 30
0.0
 11
-1.248849466722564
 21
2.56030598093121
 31
0.0
  0
LINE
  5
A4
330
8F
100
AcDbEntity
  8
AM_5
100
AcDbLine
 10
-1.356813630127977
 20
2.686368393488318
 30
0.0
 11
-1.262287999493342
 21
2.510152693851485
 31
0.0
  0
LINE
  5
A5
330
8F
100
AcDbEntity
  8
AM_5
100
AcDbLine
 10
-1.356813630127977
 20
2.761573938229761
 30
0.0
 11
-1.356813630127977
 21
2.686368393488318
 31
0.0
  0
LINE
  5
A6
330
8F
100
AcDbEntity
  8
AM_5
100
AcDbLine
 10
-1.67885869570477
 20
2.500435588186366
 30
0.0
 11
-1.326011392043692
 21
2.704152073937923
 31
0.0
  0
LINE
  5
A7
330
8F
100
AcDbEntity
  8
AM_5
100
AcDbLine
 10
-1.648056457620486
 20
2.518219268635971
 30
0.0
 11
-1.542712000506657
 21
2.348249821379216
 31
0.0
  0
LINE
  5
A8
330
8F
100
AcDbEntity
  8
AM_5
100
AcDbLine
 10
-1.713186369872022
 20
2.555822041006691
 30
0.0
 11
-1.648056457620486
 21
2.518219268635971
 31
0.0
  0
LINE
  5
AA
330
8F
100
AcDbEntity
  8
AM_4
100
AcDbLine
 10
-1.546567332602633
 20
2.888733197394037
 30
0.0
 11
-1.561567332602634
 21
2.91471395950757
 31
0.0
  0
LINE
  5
AB
330
8F
100
AcDbEntity
  8
AM_4
100
AcDbLine
 10
-1.743432667397366
 20
2.80971395950757
 30
0.0
 11
-1.728432667397366
 21
2.783733197394036
 31
0.0
  0
LINE
  5
AC
330
8F
100
AcDbEntity
  8
AM_4
100
AcDbLine
 10
-1.728432667397366
 20
2.783733197394036
 30
0.0
 11
-1.724277777865679
 21
2.748896536155524
 31
0.0
  0
LINE
  5
AD
330
8F
100
AcDbEntity
  8
AM_4
100
AcDbLine
 10
-1.518475343752892
 20
2.867716626890422
 30
0.0
 11
-1.546567332602633
 21
2.888733197394037
 31
0.0
  0
LINE
  5
AE
330
8F
100
AcDbEntity
  8
AM_4
100
AcDbLine
 10
-1.728432667397366
 20
2.783733197394036
 30
0.0
 11
-1.546567332602633
 21
2.888733197394037
 31
0.0
  0
LINE
  5
AF
330
8F
100
AcDbEntity
  8
AM_4
100
AcDbLine
 10
-1.561567332602634
 20
2.91471395950757
 30
0.0
 11
-1.565586570489101
 21
2.981675483734636
 31
0.0
  0
LINE
  5
B0
330
8F
100
AcDbEntity
  8
AM_4
100
AcDbLine
 10
-1.799413429510899
 20
2.846675483734636
 30
0.0
 11
-1.743432667397366
 21
2.80971395950757
 31
0.0
  0
LINE
  5
B1
330
8F
100
AcDbEntity
  8
AM_4
100
AcDbLine
 10
-1.743432667397366
 20
2.80971395950757
 30
0.0
 11
-1.561567332602634
 21
2.91471395950757
 31
0.0
  0
LINE
  5
B2
330
8F
100
AcDbEntity
  8
AM_4
100
AcDbLine
 10
-1.811421671481427
 20
2.932118565070798
 30
0.0
 11
-1.799413429510899
 21
2.846675483734636
 31
0.0
  0
LINE
  5
B3
330
8F
100
AcDbEntity
  8
AM_4
100
AcDbLine
 10
-1.565586570489101
 20
2.981675483734636
 30
0.0
 11
-1.633578328518572
 21
3.034796467003985
 31
0.0
  0
LINE
  5
B4
330
8F
100
AcDbEntity
  8
AM_4
100
AcDbLine
 10
-1.811421671481427
 20
2.932118565070798
 30
0.0
 11
-1.633578328518572
 21
3.034796467003985
 31
0.0
  0
LINE
  5
B5
330
8F
100
AcDbEntity
  8
AM_4
100
AcDbLine
 10
-1.799413429510899
 20
2.846675483734636
 30
0.0
 11
-1.565586570489101
 21
2.981675483734636
 31
0.0
  0
LINE
  5
B6
330
8F
100
AcDbEntity
  8
AM_4
100
AcDbLine
 10
-1.724277777865679
 20
2.748896536155524
 30
0.0
 11
-1.74357797243143
 21
2.674897528643133
 31
0.0
  0
LINE
  5
B7
330
8F
100
AcDbEntity
  8
AM_4
100
AcDbLine
 10
-1.444740226109451
 20
2.847431581926149
 30
0.0
 11
-1.518475343752892
 21
2.867716626890422
 31
0.0
  0
LINE
  5
B8
330
8F
100
AcDbEntity
  8
AM_4
100
AcDbLine
 10
-1.724277777865679
 20
2.748896536155524
 30
0.0
 11
-1.518475343752892
 21
2.867716626890422
 31
0.0
  0
LINE
  5
B9
330
8F
100
AcDbEntity
  8
AM_4
100
AcDbLine
 10
-1.774443057077846
 20
2.63592552999667
 30
0.0
 11
-1.395556942922154
 21
2.85467552999667
 31
0.0
  0
LINE
  5
BA
330
8F
100
AcDbEntity
  8
AM_4
100
AcDbLine
 10
-1.774443057077846
 20
2.63592552999667
 30
0.0
 11
-1.724443057077846
 21
2.549322989618227
 31
0.0
  0
LINE
  5
BB
330
8F
100
AcDbEntity
  8
AM_4
100
AcDbLine
 10
-1.345556942922154
 20
2.768072989618227
 30
0.0
 11
-1.395556942922154
 21
2.85467552999667
 31
0.0
  0
LINE
  5
BC
330
8F
100
AcDbEntity
  8
AM_4
100
AcDbLine
 10
-1.74357797243143
 20
2.674897528643133
 30
0.0
 11
-1.770112930058924
 21
2.63842552999667
 31
0.0
  0
LINE
  5
BD
330
8F
100
AcDbEntity
  8
AM_4
100
AcDbLine
 10
-1.399887069941076
 20
2.852175529996671
 30
0.0
 11
-1.444740226109451
 21
2.847431581926149
 31
0.0
  0
LINE
  5
BE
330
8F
100
AcDbEntity
  8
AM_4
100
AcDbLine
 10
-1.74357797243143
 20
2.674897528643133
 30
0.0
 11
-1.444740226109451
 21
2.847431581926149
 31
0.0
  0
LWPOLYLINE
  5
BF
330
8F
100
AcDbEntity
  8
AM_4
100
AcDbPolyline
 90
        3
 70
     0
 43
0.0
 10
-1.679721528538922
 20
2.69061302999667
 10
-1.631164073876944
 20
2.715884051435901
 10
-1.580466200151692
 20
2.737447758308054
  0
LWPOLYLINE
  5
C0
330
8F
100
AcDbEntity
  8
AM_4
100
AcDbPolyline
 90
        3
 70
     0
 43
0.0
 10
-1.769909257229538
 20
2.628072758308054
 10
-1.72608797708269
 20
2.661055295189303
 10
-1.679721528538922
 20
2.69061302999667
  0
LWPOLYLINE
  5
C1
330
8F
100
AcDbEntity
  8
AM_4
100
AcDbPolyline
 90
        3
 70
     0
 43
0.0
 10
-1.629721528538922
 20
2.604010489618227
 10
-1.678278983200901
 20
2.578739468178996
 10
-1.728976856926153
 20
2.557175761306843
  0
LWPOLYLINE
  5
C2
330
8F
100
AcDbEntity
  8
AM_4
100
AcDbPolyline
 90
        3
 70
     0
 43
0.0
 10
-1.539533799848307
 20
2.666550761306843
 10
-1.583355079995155
 20
2.633568224425594
 10
-1.629721528538922
 20
2.604010489618227
  0
LWPOLYLINE
  5
C3
330
8F
100
AcDbEntity
  8
AM_4
100
AcDbPolyline
 90
        3
 70
     0
 43
0.0
 10
-1.490278471461077
 20
2.799988029996671
 10
-1.441721016799098
 20
2.825259051435901
 10
-1.391023143073846
 20
2.846822758308055
  0
LWPOLYLINE
  5
C4
330
8F
100
AcDbEntity
  8
AM_4
100
AcDbPolyline
 90
        3
 70
     0
 43
0.0
 10
-1.580466200151692
 20
2.737447758308054
 10
-1.536644920004844
 20
2.770430295189303
 10
-1.490278471461077
 20
2.799988029996671
  0
LINE
  5
C5
330
8F
100
AcDbEntity
  8
AM_4
100
AcDbLine
 10
-1.580466200151692
 20
2.737447758308054
 30
0.0
 11
-1.539533799848307
 21
2.666550761306843
 31
0.0
  0
LWPOLYLINE
  5
C6
330
8F
100
AcDbEntity
  8
AM_4
100
AcDbPolyline
 90
        3
 70
     0
 43
0.0
 10
-1.440278471461077
 20
2.713385489618227
 10
-1.488835926123055
 20
2.688114468178996
 10
-1.539533799848307
 20
2.666550761306843
  0
LWPOLYLINE
  5
C7
330
8F
100
AcDbEntity
  8
AM_4
100
AcDbPolyline
 90
        3
 70
     0
 43
0.0
 10
-1.350090742770461
 20
2.775925761306843
 10
-1.393912022917309
 20
2.742943224425594
 10
-1.440278471461077
 20
2.713385489618227
  0
ENDBLK
  5
92
330
8F
100
AcDbEntity
  8
0
100
AcDbBlockEnd
  0
BLOCK
  5
CA
330
C8
100
AcDbEntity
  8
0
100
AcDbBlockBegin
  2
3_ASME_B18_3_10_1_0_in_071238_0
 70
     2
 10
0.0
 20
0.0
 30
0.0
  3
3_ASME_B18_3_10_1_0_in_071238_0
  1

  0
ATTDEF
  5
CC
330
C8
100
AcDbEntity
  8
AM_6
100
AcDbText
 10
5.189525
 20
-1.3195
 30
0.0
 40
0.5
  1
ANSI/ASME B18.3-1998
100
AcDbAttributeDefinition
  3

  2
NN
 70
     8
280
     0
  0
ATTDEF
  5
CD
330
C8
100
AcDbEntity
  8
AM_6
100
AcDbText
 10
5.189525
 20
-1.8195
 30
0.0
 40
0.5
  1
Socket Button Head Cap Screws
100
AcDbAttributeDefinition
  3

  2
NT
 70
     8
280
     0
  0
ATTDEF
  5
CE
330
C8
100
AcDbEntity
  8
AM_6
100
AcDbText
 10
5.189525
 20
-2.3195
 30
0.0
 40
0.5
  1
ASME B18.3-10
100
AcDbAttributeDefinition
  3

  2
NB
 70
     8
280
     0
  0
ATTDEF
  5
CF
330
C8
100
AcDbEntity
  8
AM_6
100
AcDbText
 10
5.189525
 20
-2.8195
 30
0.0
 40
0.5
  1
ASME B18.3-$NS.
100
AcDbAttributeDefinition
  3

  2
NBSYN
 70
     8
280
     0
  0
ATTDEF
  5
D0
330
C8
100
AcDbEntity
  8
AM_6
100
AcDbText
 10
5.189525
 20
-3.3195
 30
0.0
 40
0.5
  1
ASME B18.3-10
100
AcDbAttributeDefinition
  3

  2
LINA
 70
     8
280
     0
  0
ATTDEF
  5
D1
330
C8
100
AcDbEntity
  8
AM_6
100
AcDbText
 10
5.189525
 20
-3.8195
 30
0.0
 40
0.5
  1
10
100
AcDbAttributeDefinition
  3

  2
NS
 70
     8
280
     0
  0
ATTDEF
  5
D2
330
C8
100
AcDbEntity
  8
AM_6
100
AcDbText
 10
5.189525
 20
-4.3195
 30
0.0
 40
0.5
  1
0.361
100
AcDbAttributeDefinition
  3

  2
A
 70
     8
280
     0
  0
ATTDEF
  5
D3
330
C8
100
AcDbEntity
  8
AM_6
100
AcDbText
 10
5.189525
 20
-4.8195
 30
0.0
 40
0.5
  1
0.101
100
AcDbAttributeDefinition
  3

  2
H
 70
     8
280
     0
  0
ATTDEF
  5
D4
330
C8
100
AcDbEntity
  8
AM_6
100
AcDbText
 10
5.189525
 20
-5.3195
 30
0.0
 40
0.5
  1
0.800
100
AcDbAttributeDefinition
  3

  2
L
 70
     8
280
     0
  0
ATTDEF
  5
D5
330
C8
100
AcDbEntity
  8
AM_6
100
AcDbText
 10
5.189525
 20
-5.8195
 30
0.0
 40
0.5
  1
0.020
100
AcDbAttributeDefinition
  3

  2
S
 70
     8
280
     0
  0
ATTDEF
  5
D6
330
C8
100
AcDbEntity
  8
AM_6
100
AcDbText
 10
5.189525
 20
-6.3195
 30
0.0
 40
0.5
  1
0.125000
100
AcDbAttributeDefinition
  3

  2
J
 70
     8
280
     0
  0
ATTDEF
  5
D7
330
C8
100
AcDbEntity
  8
AM_6
100
AcDbText
 10
5.189525
 20
-6.8195
 30
0.0
 40
0.5
  1
baldor
100
AcDbAttributeDefinition
  3

  2
COMPANY
 70
     8
280
     0
  0
ARC
  5
D8
330
C8
100
AcDbEntity
  8
AM_5
100
AcDbCircle
 10
0.0000000000000001
 20
-1.5
 30
0.0
 40
0.0702000000000001
100
AcDbArc
 50
75.00000000000006
 51
15.00000000000019
  0
LINE
  5
DB
330
C8
100
AcDbEntity
  8
AM_7
100
AcDbLine
 10
-0.1895249999999999
 20
-1.5
 30
0.0
 11
0.1895249999999999
 21
-1.5
 31
0.0
  0
LINE
  5
DC
330
C8
100
AcDbEntity
  8
AM_4
100
AcDbLine
 10
0.0
 20
-1.572168783648703
 30
0.0
 11
-0.0625
 21
-1.536084391824351
 31
0.0
  0
LINE
  5
DD
330
C8
100
AcDbEntity
  8
AM_4
100
AcDbLine
 10
0.0
 20
-1.427831216351297
 30
0.0
 11
0.0625
 21
-1.463915608175648
 31
0.0
  0
CIRCLE
  5
DE
330
C8
100
AcDbEntity
  8
AM_4
100
AcDbCircle
 10
0.0
 20
-1.5
 30
0.0
 40
0.0995
  0
LINE
  5
DF
330
C8
100
AcDbEntity
  8
AM_4
100
AcDbLine
 10
-0.0625
 20
-1.536084391824351
 30
0.0
 11
-0.0625
 21
-1.463915608175648
 31
0.0
  0
LINE
  5
E0
330
C8
100
AcDbEntity
  8
AM_4
100
AcDbLine
 10
-0.0625
 20
-1.463915608175648
 30
0.0
 11
0.0
 21
-1.427831216351297
 31
0.0
  0
LINE
  5
E1
330
C8
100
AcDbEntity
  8
AM_4
100
AcDbLine
 10
0.0625
 20
-1.463915608175648
 30
0.0
 11
0.0625
 21
-1.536084391824351
 31
0.0
  0
LINE
  5
E2
330
C8
100
AcDbEntity
  8
AM_4
100
AcDbLine
 10
0.0625
 20
-1.536084391824351
 30
0.0
 11
0.0
 21
-1.572168783648703
 31
0.0
  0
ARC
  5
E3
330
C8
100
AcDbEntity
  8
AM_5
100
AcDbCircle
 10
0.0
 20
-1.5
 30
0.0
 40
0.0702
100
AcDbArc
 50
344.9999999999998
 51
284.9999999999999
  0
CIRCLE
  5
E4
330
C8
100
AcDbEntity
  8
AM_4
100
AcDbCircle
 10
0.0
 20
-1.5
 30
0.0
 40
0.1804999999999999
  0
CIRCLE
  5
E5
330
C8
100
AcDbEntity
  8
AM_5
100
AcDbCircle
 10
0.0
 20
-1.5
 30
0.0
 40
0.0764
  0
ENDBLK
  5
CB
330
C8
100
AcDbEntity
  8
0
100
AcDbBlockEnd
  0
BLOCK
  5
E8
330
E6
100
AcDbEntity
  8
0
100
AcDbBlockBegin
  2
4_ASME_B18_3_10_2_0_in_071238_0
 70
     2
 10
0.0
 20
0.0
 30
0.0
  3
4_ASME_B18_3_10_2_0_in_071238_0
  1

  0
ATTDEF
  5
EA
330
E6
100
AcDbEntity
  8
AM_6
100
AcDbText
 10
5.189525
 20
1.6805
 30
0.0
 40
0.5
  1
ANSI/ASME B18.3-1998
100
AcDbAttributeDefinition
  3

  2
NN
 70
     8
280
     0
  0
ATTDEF
  5
EB
330
E6
100
AcDbEntity
  8
AM_6
100
AcDbText
 10
5.189525
 20
1.1805
 30
0.0
 40
0.5
  1
Socket Button Head Cap Screws
100
AcDbAttributeDefinition
  3

  2
NT
 70
     8
280
     0
  0
ATTDEF
  5
EC
330
E6
100
AcDbEntity
  8
AM_6
100
AcDbText
 10
5.189525
 20
0.6804999999999997
 30
0.0
 40
0.5
  1
ASME B18.3-10
100
AcDbAttributeDefinition
  3

  2
NB
 70
     8
280
     0
  0
ATTDEF
  5
ED
330
E6
100
AcDbEntity
  8
AM_6
100
AcDbText
 10
5.189525
 20
0.1804999999999997
 30
0.0
 40
0.5
  1
ASME B18.3-$NS.
100
AcDbAttributeDefinition
  3

  2
NBSYN
 70
     8
280
     0
  0
ATTDEF
  5
EE
330
E6
100
AcDbEntity
  8
AM_6
100
AcDbText
 10
5.189525
 20
-0.3195000000000003
 30
0.0
 40
0.5
  1
ASME B18.3-10
100
AcDbAttributeDefinition
  3

  2
LINA
 70
     8
280
     0
  0
ATTDEF
  5
EF
330
E6
100
AcDbEntity
  8
AM_6
100
AcDbText
 10
5.189525
 20
-0.8195000000000003
 30
0.0
 40
0.5
  1
10
100
AcDbAttributeDefinition
  3

  2
NS
 70
     8
280
     0
  0
ATTDEF
  5
F0
330
E6
100
AcDbEntity
  8
AM_6
100
AcDbText
 10
5.189525
 20
-1.3195
 30
0.0
 40
0.5
  1
0.361
100
AcDbAttributeDefinition
  3

  2
A
 70
     8
280
     0
  0
ATTDEF
  5
F1
330
E6
100
AcDbEntity
  8
AM_6
100
AcDbText
 10
5.189525
 20
-1.8195
 30
0.0
 40
0.5
  1
0.101
100
AcDbAttributeDefinition
  3

  2
H
 70
     8
280
     0
  0
ATTDEF
  5
F2
330
E6
100
AcDbEntity
  8
AM_6
100
AcDbText
 10
5.189525
 20
-2.319500000000001
 30
0.0
 40
0.5
  1
0.800
100
AcDbAttributeDefinition
  3

  2
L
 70
     8
280
     0
  0
ATTDEF
  5
F3
330
E6
100
AcDbEntity
  8
AM_6
100
AcDbText
 10
5.189525
 20
-2.819500000000001
 30
0.0
 40
0.5
  1
0.020
100
AcDbAttributeDefinition
  3

  2
S
 70
     8
280
     0
  0
ATTDEF
  5
F4
330
E6
100
AcDbEntity
  8
AM_6
100
AcDbText
 10
5.189525
 20
-3.319500000000001
 30
0.0
 40
0.5
  1
0.125000
100
AcDbAttributeDefinition
  3

  2
J
 70
     8
280
     0
  0
ATTDEF
  5
F5
330
E6
100
AcDbEntity
  8
AM_6
100
AcDbText
 10
5.189525
 20
-3.819500000000001
 30
0.0
 40
0.5
  1
baldor
100
AcDbAttributeDefinition
  3

  2
COMPANY
 70
     8
280
     0
  0
ARC
  5
F6
330
E6
100
AcDbEntity
  8
AM_5
100
AcDbCircle
 10
-0.0000000000000001
 20
1.5
 30
0.0
 40
0.0702000000000003
100
AcDbArc
 50
75.0000000000001
 51
15.00000000000019
  0
LINE
  5
F7
330
E6
100
AcDbEntity
  8
AM_7
100
AcDbLine
 10
-0.1895249999999999
 20
1.5
 30
0.0
 11
0.1895249999999999
 21
1.5
 31
0.0
  0
LINE
  5
F8
330
E6
100
AcDbEntity
  8
AM_4
100
AcDbLine
 10
0.0
 20
1.427831216351297
 30
0.0
 11
-0.0625
 21
1.463915608175648
 31
0.0
  0
CIRCLE
  5
F9
330
E6
100
AcDbEntity
  8
AM_4
100
AcDbCircle
 10
0.0
 20
1.5
 30
0.0
 40
0.0995
  0
LINE
  5
FA
330
E6
100
AcDbEntity
  8
AM_4
100
AcDbLine
 10
-0.0625
 20
1.463915608175648
 30
0.0
 11
-0.0625
 21
1.536084391824351
 31
0.0
  0
LINE
  5
FB
330
E6
100
AcDbEntity
  8
AM_4
100
AcDbLine
 10
-0.0625
 20
1.536084391824351
 30
0.0
 11
0.0
 21
1.572168783648703
 31
0.0
  0
LINE
  5
FC
330
E6
100
AcDbEntity
  8
AM_4
100
AcDbLine
 10
0.0
 20
1.572168783648703
 30
0.0
 11
0.0625
 21
1.536084391824351
 31
0.0
  0
LINE
  5
FD
330
E6
100
AcDbEntity
  8
AM_4
100
AcDbLine
 10
0.0625
 20
1.536084391824351
 30
0.0
 11
0.0625
 21
1.463915608175648
 31
0.0
  0
LINE
  5
FE
330
E6
100
AcDbEntity
  8
AM_4
100
AcDbLine
 10
0.0625
 20
1.463915608175648
 30
0.0
 11
0.0
 21
1.427831216351297
 31
0.0
  0
ARC
  5
FF
330
E6
100
AcDbEntity
  8
AM_5
100
AcDbCircle
 10
0.0000000000000001
 20
1.5
 30
0.0
 40
0.0763999999999999
100
AcDbArc
 50
75.00000000000006
 51
14.9999999999999
  0
ARC
  5
100
330
E6
100
AcDbEntity
  8
AM_5
100
AcDbCircle
 10
-0.0000000000000001
 20
1.5
 30
0.0
 40
0.0764
100
AcDbArc
 50
14.99999999999987
 51
195.0000000000001
  0
ARC
  5
101
330
E6
100
AcDbEntity
  8
AM_5
100
AcDbCircle
 10
0.0
 20
1.5
 30
0.0
 40
0.0702
100
AcDbArc
 50
344.9999999999998
 51
284.9999999999999
  0
CIRCLE
  5
102
330
E6
100
AcDbEntity
  8
AM_4
100
AcDbCircle
 10
0.0
 20
1.5
 30
0.0
 40
0.1804999999999999
  0
ENDBLK
  5
E9
330
E6
100
AcDbEntity
  8
0
100
AcDbBlockEnd
  0
BLOCK
  5
105
330
103
100
AcDbEntity
  8
0
100
AcDbBlockBegin
  2
5_070893LWE_0_in_071238_0
 70
     2
 10
0.0
 20
0.0
 30
0.0
  3
5_070893LWE_0_in_071238_0
  1

  0
ATTDEF
  5
107
330
103
100
AcDbEntity
  8
AM_6
100
AcDbText
 10
6.75
 20
1.75
 30
0.0
 40
0.5
  1
Imperial/E Insert Lockwasher -Inch
100
AcDbAttributeDefinition
  3

  2
NN
 70
     8
280
     0
  0
ATTDEF
  5
108
330
103
100
AcDbEntity
  8
AM_6
100
AcDbText
 10
6.75
 20
1.25
 30
0.0
 40
0.5
  1
Imperial/E Bearings
100
AcDbAttributeDefinition
  3

  2
NT
 70
     8
280
     0
  0
ATTDEF
  5
109
330
103
100
AcDbEntity
  8
AM_6
100
AcDbText
 10
6.75
 20
0.75
 30
0.0
 40
0.5
  1
070893LWE
100
AcDbAttributeDefinition
  3

  2
NB
 70
     8
280
     0
  0
ATTDEF
  5
10A
330
103
100
AcDbEntity
  8
AM_6
100
AcDbText
 10
6.75
 20
0.25
 30
0.0
 40
0.5
  1
$PN.LWE
100
AcDbAttributeDefinition
  3

  2
NBSYN
 70
     8
280
     0
  0
ATTDEF
  5
10B
330
103
100
AcDbEntity
  8
AM_6
100
AcDbText
 10
6.75
 20
-0.25
 30
0.0
 40
0.5
  1
070893
100
AcDbAttributeDefinition
  3

  2
LINA
 70
     8
280
     0
  0
ATTDEF
  5
10C
330
103
100
AcDbEntity
  8
AM_6
100
AcDbText
 10
6.75
 20
-0.75
 30
0.0
 40
0.5
  1
2-1/4
100
AcDbAttributeDefinition
  3

  2
SS
 70
     8
280
     0
  0
ATTDEF
  5
10D
330
103
100
AcDbEntity
  8
AM_6
100
AcDbText
 10
6.75
 20
-1.25
 30
0.0
 40
0.5
  1
3.500000
100
AcDbAttributeDefinition
  3

  2
E1
 70
     8
280
     0
  0
ATTDEF
  5
10E
330
103
100
AcDbEntity
  8
AM_6
100
AcDbText
 10
6.75
 20
-1.75
 30
0.0
 40
0.5
  1
2.250000
100
AcDbAttributeDefinition
  3

  2
SS1
 70
     8
280
     0
  0
ATTDEF
  5
10F
330
103
100
AcDbEntity
  8
AM_6
100
AcDbText
 10
6.75
 20
-2.25
 30
0.0
 40
0.5
  1
070893
100
AcDbAttributeDefinition
  3

  2
PN
 70
     8
280
     0
  0
ATTDEF
  5
110
330
103
100
AcDbEntity
  8
AM_6
100
AcDbText
 10
6.75
 20
-2.75
 30
0.0
 40
0.5
  1
INS-IP-204R
100
AcDbAttributeDefinition
  3

  2
DESCRIPTION
 70
     8
280
     0
  0
ATTDEF
  5
111
330
103
100
AcDbEntity
  8
AM_6
100
AcDbText
 10
6.75
 20
-3.25
 30
0.0
 40
0.5
  1
3.9370
100
AcDbAttributeDefinition
  3

  2
A
 70
     8
280
     0
  0
ATTDEF
  5
112
330
103
100
AcDbEntity
  8
AM_6
100
AcDbText
 10
6.75
 20
-3.75
 30
0.0
 40
0.5
  1
1-3/64
100
AcDbAttributeDefinition
  3

  2
B
 70
     8
280
     0
  0
ATTDEF
  5
113
330
103
100
AcDbEntity
  8
AM_6
100
AcDbText
 10
6.75
 20
-4.25
 30
0.0
 40
0.5
  1
1.046875
100
AcDbAttributeDefinition
  3

  2
B1
 70
     8
280
     0
  0
ATTDEF
  5
114
330
103
100
AcDbEntity
  8
AM_6
100
AcDbText
 10
6.75
 20
-4.75
 30
0.0
 40
0.5
  1
3-1/32
100
AcDbAttributeDefinition
  3

  2
C
 70
     8
280
     0
  0
ATTDEF
  5
115
330
103
100
AcDbEntity
  8
AM_6
100
AcDbText
 10
6.75
 20
-5.25
 30
0.0
 40
0.5
  1
3.031250
100
AcDbAttributeDefinition
  3

  2
C1
 70
     8
280
     0
  0
ATTDEF
  5
116
330
103
100
AcDbEntity
  8
AM_6
100
AcDbText
 10
6.75
 20
-5.75
 30
0.0
 40
0.5
  1
1.050
100
AcDbAttributeDefinition
  3

  2
D
 70
     8
280
     0
  0
ATTDEF
  5
117
330
103
100
AcDbEntity
  8
AM_6
100
AcDbText
 10
6.75
 20
-6.25
 30
0.0
 40
0.5
  1
3-1/2
100
AcDbAttributeDefinition
  3

  2
E
 70
     8
280
     0
  0
ATTDEF
  5
118
330
103
100
AcDbEntity
  8
AM_6
100
AcDbText
 10
6.75
 20
-6.75
 30
0.0
 40
0.5
  1
0.1900
100
AcDbAttributeDefinition
  3

  2
NDM
 70
     8
280
     0
  0
ATTDEF
  5
119
330
103
100
AcDbEntity
  8
AM_6
100
AcDbText
 10
6.75
 20
-7.25
 30
0.0
 40
0.5
  1
0.1450
100
AcDbAttributeDefinition
  3

  2
KDM
 70
     8
280
     0
  0
ATTDEF
  5
11A
330
103
100
AcDbEntity
  8
AM_6
100
AcDbText
 10
6.75
 20
-7.75
 30
0.0
 40
0.5
  1
2.92
100
AcDbAttributeDefinition
  3

  2
AL
 70
     8
280
     0
  0
ATTDEF
  5
11B
330
103
100
AcDbEntity
  8
AM_6
100
AcDbText
 10
6.75
 20
-8.25
 30
0.0
 40
0.5
  1
0.50
100
AcDbAttributeDefinition
  3

  2
BL
 70
     8
280
     0
  0
ATTDEF
  5
11C
330
103
100
AcDbEntity
  8
AM_6
100
AcDbText
 10
6.75
 20
-8.75
 30
0.0
 40
0.5
  1
0.07
100
AcDbAttributeDefinition
  3

  2
CL
 70
     8
280
     0
  0
ATTDEF
  5
11D
330
103
100
AcDbEntity
  8
AM_6
100
AcDbText
 10
6.75
 20
-9.25
 30
0.0
 40
0.5
  1
0.44
100
AcDbAttributeDefinition
  3

  2
DL
 70
     8
280
     0
  0
ATTDEF
  5
11E
330
103
100
AcDbEntity
  8
AM_6
100
AcDbText
 10
6.75
 20
-9.75
 30
0.0
 40
0.5
  1
baldor
100
AcDbAttributeDefinition
  3

  2
COMPANY
 70
     8
280
     0
  0
ARC
  5
11F
330
103
100
AcDbEntity
  8
AM_9
100
AcDbCircle
 10
0.0000000000000212
 20
-0.000000000000054
 30
0.0
 40
1.184210526315848
100
AcDbArc
 50
106.4408245728698
 51
118.5591754271301
  0
LINE
  5
120
330
103
100
AcDbEntity
  8
AM_9
100
AcDbLine
 10
0.0950000000000002
 20
1.5
 30
0.0
 11
0.0950000000000001
 21
1.346522802996667
 31
0.0
  0
LINE
  5
121
330
103
100
AcDbEntity
  8
AM_9
100
AcDbLine
 10
-0.0949999999999999
 20
1.346522802996666
 30
0.0
 11
-0.0949999999999998
 21
1.5
 31
0.0
  0
LINE
  5
122
330
103
100
AcDbEntity
  8
AM_9
100
AcDbLine
 10
0.0950000000000005
 20
-1.346522802996667
 30
0.0
 11
0.0950000000000006
 21
-1.5
 31
0.0
  0
LINE
  5
123
330
103
100
AcDbEntity
  8
AM_9
100
AcDbLine
 10
-0.0949999999999997
 20
-1.5
 30
0.0
 11
-0.0949999999999996
 21
-1.346522802996666
 31
0.0
  0
LINE
  5
124
330
103
100
AcDbEntity
  8
AM_7
100
AcDbLine
 10
0.9609438908510434
 20
1.060693903426992
 30
0.0
 11
1.160443916002941
 21
1.060693903426992
 31
0.0
  0
LINE
  5
125
330
103
100
AcDbEntity
  8
AM_7
100
AcDbLine
 10
1.060693903426992
 20
0.9609438908510434
 30
0.0
 11
1.060693903426992
 21
1.160443916002941
 31
0.0
  0
LINE
  5
126
330
103
100
AcDbEntity
  8
AM_7
100
AcDbLine
 10
0.9609438908510436
 20
-1.060693903426992
 30
0.0
 11
1.160443916002941
 21
-1.060693903426992
 31
0.0
  0
LINE
  5
127
330
103
100
AcDbEntity
  8
AM_7
100
AcDbLine
 10
1.060693903426992
 20
-1.160443916002941
 30
0.0
 11
1.060693903426992
 21
-0.9609438908510431
 31
0.0
  0
LINE
  5
128
330
103
100
AcDbEntity
  8
AM_7
100
AcDbLine
 10
1.500047703752911
 20
-0.0997500125759488
 30
0.0
 11
1.500047703752911
 21
0.099750012575949
 31
0.0
  0
LINE
  5
129
330
103
100
AcDbEntity
  8
AM_7
100
AcDbLine
 10
-1.160443916002941
 20
-1.060693903426993
 30
0.0
 11
-0.9609438908510429
 21
-1.060693903426993
 31
0.0
  0
LINE
  5
12A
330
103
100
AcDbEntity
  8
AM_7
100
AcDbLine
 10
-1.060693903426992
 20
-1.160443916002942
 30
0.0
 11
-1.060693903426992
 21
-0.960943890851044
 31
0.0
  0
LINE
  5
12B
330
103
100
AcDbEntity
  8
AM_7
100
AcDbLine
 10
-1.50004770375291
 20
-0.0997500125759495
 30
0.0
 11
-1.50004770375291
 21
0.0997500125759483
 31
0.0
  0
LINE
  5
12C
330
103
100
AcDbEntity
  8
AM_7
100
AcDbLine
 10
-1.160443916002941
 20
1.060693903426992
 30
0.0
 11
-0.9609438908510429
 21
1.060693903426992
 31
0.0
  0
LINE
  5
12D
330
103
100
AcDbEntity
  8
AM_7
100
AcDbLine
 10
-1.060693903426992
 20
0.9609438908510431
 30
0.0
 11
-1.060693903426992
 21
1.160443916002941
 31
0.0
  0
LINE
  5
12E
330
103
100
AcDbEntity
  8
AM_4
100
AcDbLine
 10
-0.7901920130155259
 20
-0.9245423014409679
 30
0.0
 11
-0.9934850275670988
 21
-1.127835315992544
 31
0.0
  0
ARC
  5
12F
330
103
100
AcDbEntity
  8
AM_4
100
AcDbCircle
 10
-0.0000000000000037
 20
-0.0000000000000091
 30
0.0
 40
1.216216216216226
100
AcDbArc
 50
49.48000057201715
 51
85.51999942798282
  0
LINE
  5
130
330
103
100
AcDbEntity
  8
AM_4
100
AcDbLine
 10
0.0950000000000001
 20
1.346522802996667
 30
0.0
 11
0.0950000000000002
 21
1.212500261685452
 31
0.0
  0
ARC
  5
131
330
103
100
AcDbEntity
  8
AM_4
100
AcDbCircle
 10
-0.0000000000000021
 20
-0.0000000000000044
 30
0.0
 40
1.216216216216212
100
AcDbArc
 50
229.4800005720169
 51
265.5199994279831
  0
ARC
  5
132
330
103
100
AcDbEntity
  8
AM_4
100
AcDbCircle
 10
-1.060693903426992
 20
-1.060693903426993
 30
0.0
 40
0.0950000119770942
100
AcDbArc
 50
134.9712292265372
 51
315.0287707734629
  0
LINE
  5
133
330
103
100
AcDbEntity
  8
AM_4
100
AcDbLine
 10
-0.0950000000000003
 20
1.212500261685452
 30
0.0
 11
-0.0949999999999999
 21
1.346522802996666
 31
0.0
  0
ARC
  5
134
330
103
100
AcDbEntity
  8
AM_4
100
AcDbCircle
 10
-1.50004770375291
 20
-0.0000000000000007
 30
0.0
 40
0.0950000119770941
100
AcDbArc
 50
89.97122922653759
 51
270.0287707734628
  0
LINE
  5
135
330
103
100
AcDbEntity
  8
AM_4
100
AcDbLine
 10
0.0950000000000012
 20
-1.212500261685452
 30
0.0
 11
0.0950000000000005
 21
-1.346522802996667
 31
0.0
  0
ARC
  5
136
330
103
100
AcDbEntity
  8
AM_4
100
AcDbCircle
 10
-0.0000000000000027
 20
0.0000000000000071
 30
0.0
 40
1.216216216216223
100
AcDbArc
 50
274.4800005720171
 51
310.5199994279829
  0
LINE
  5
137
330
103
100
AcDbEntity
  8
AM_4
100
AcDbLine
 10
0.9934850275670962
 20
-1.12783531599254
 30
0.0
 11
0.7901920130155248
 21
-0.9245423014409685
 31
0.0
  0
ARC
  5
138
330
103
100
AcDbEntity
  8
AM_4
100
AcDbCircle
 10
1.060693903426992
 20
-1.060693903426992
 30
0.0
 40
0.0950000119770941
100
AcDbArc
 50
224.9712292265343
 51
45.02877077346301
  0
LINE
  5
139
330
103
100
AcDbEntity
  8
AM_4
100
AcDbLine
 10
0.9245423014409686
 20
-0.7901920130155249
 30
0.0
 11
1.127835315992543
 21
-0.993485027567099
 31
0.0
  0
ARC
  5
13A
330
103
100
AcDbEntity
  8
AM_4
100
AcDbCircle
 10
-0.0000000000000002
 20
0.0000000000000002
 30
0.0
 40
1.216216216216217
100
AcDbArc
 50
319.480000572017
 51
355.519999427983
  0
LINE
  5
13B
330
103
100
AcDbEntity
  8
AM_4
100
AcDbLine
 10
1.5
 20
-0.0949999999999998
 30
0.0
 11
1.212500261685452
 21
-0.0949999999999999
 31
0.0
  0
ARC
  5
13C
330
103
100
AcDbEntity
  8
AM_4
100
AcDbCircle
 10
1.500047703752911
 20
0.0000000000000003
 30
0.0
 40
0.0950000119770943
100
AcDbArc
 50
269.9712292265372
 51
90.0287707734627
  0
LINE
  5
13D
330
103
100
AcDbEntity
  8
AM_4
100
AcDbLine
 10
1.212500261685452
 20
0.095000000000001
 30
0.0
 11
1.5
 21
0.0950000000000002
 31
0.0
  0
ARC
  5
13E
330
103
100
AcDbEntity
  8
AM_4
100
AcDbCircle
 10
-0.0000000000000067
 20
-0.0000000000000034
 30
0.0
 40
1.216216216216223
100
AcDbArc
 50
4.480000572017199
 51
40.51999942798287
  0
LINE
  5
13F
330
103
100
AcDbEntity
  8
AM_4
100
AcDbLine
 10
1.127835315992543
 20
0.9934850275670992
 30
0.0
 11
0.9245423014409686
 21
0.7901920130155246
 31
0.0
  0
ARC
  5
140
330
103
100
AcDbEntity
  8
AM_4
100
AcDbCircle
 10
0.0000000000000044
 20
-0.0000000000000018
 30
0.0
 40
1.216216216216221
100
AcDbArc
 50
139.4800005720171
 51
175.5199994279829
  0
LINE
  5
141
330
103
100
AcDbEntity
  8
AM_4
100
AcDbLine
 10
-0.0949999999999996
 20
-1.346522802996666
 30
0.0
 11
-0.0949999999999996
 21
-1.212500261685452
 31
0.0
  0
ARC
  5
142
330
103
100
AcDbEntity
  8
AM_4
100
AcDbCircle
 10
-0.0000000000000047
 20
0.0000000000000233
 30
0.0
 40
1.216216216216192
100
AcDbArc
 50
94.48000057201693
 51
106.6008501316068
  0
LINE
  5
143
330
103
100
AcDbEntity
  8
AM_4
100
AcDbLine
 10
-0.3351610878026545
 20
1.135791184971983
 30
0.0
 11
-0.3474761188090754
 21
1.165522299848729
 31
0.0
  0
ARC
  5
144
330
103
100
AcDbEntity
  8
AM_4
100
AcDbCircle
 10
0.0000000000000056
 20
-0.0000000000000118
 30
0.0
 40
1.125000000000013
100
AcDbArc
 50
106.1206297915573
 51
118.8793702084428
  0
LINE
  5
145
330
103
100
AcDbEntity
  8
AM_4
100
AcDbLine
 10
-0.578446001936897
 20
1.069851441757457
 30
0.0
 11
-0.5661309709304763
 21
1.04012032688071
 31
0.0
  0
LINE
  5
146
330
103
100
AcDbEntity
  8
AM_4
100
AcDbLine
 10
0.7901920130155256
 20
0.9245423014409679
 30
0.0
 11
0.9934850275670993
 21
1.127835315992543
 31
0.0
  0
ARC
  5
147
330
103
100
AcDbEntity
  8
AM_4
100
AcDbCircle
 10
1.060693903426992
 20
1.060693903426992
 30
0.0
 40
0.0950000119770943
100
AcDbArc
 50
314.9712292265372
 51
135.0287707734629
  0
LINE
  5
148
330
103
100
AcDbEntity
  8
AM_4
100
AcDbLine
 10
-1.127835315992543
 20
-0.9934850275671
 30
0.0
 11
-0.9245423014409687
 21
-0.790192013015525
 31
0.0
  0
ARC
  5
149
330
103
100
AcDbEntity
  8
AM_4
100
AcDbCircle
 10
0.0000000000000007
 20
0.0000000000000002
 30
0.0
 40
1.216216216216217
100
AcDbArc
 50
184.480000572017
 51
220.519999427983
  0
LINE
  5
14A
330
103
100
AcDbEntity
  8
AM_4
100
AcDbLine
 10
-1.212500261685452
 20
-0.0950000000000004
 30
0.0
 11
-1.5
 21
-0.0950000000000006
 31
0.0
  0
LINE
  5
14B
330
103
100
AcDbEntity
  8
AM_4
100
AcDbLine
 10
-1.5
 20
0.0949999999999993
 30
0.0
 11
-1.212500261685452
 21
0.0949999999999997
 31
0.0
  0
LINE
  5
14C
330
103
100
AcDbEntity
  8
AM_4
100
AcDbLine
 10
-0.9245423014409687
 20
0.7901920130155249
 30
0.0
 11
-1.127835315992543
 21
0.9934850275670994
 31
0.0
  0
ARC
  5
14D
330
103
100
AcDbEntity
  8
AM_4
100
AcDbCircle
 10
-1.060693903426992
 20
1.060693903426992
 30
0.0
 40
0.0950000119770942
100
AcDbArc
 50
44.9712292265344
 51
225.0287707734629
  0
LINE
  5
14E
330
103
100
AcDbEntity
  8
AM_4
100
AcDbLine
 10
-0.993485027567096
 20
1.12783531599254
 30
0.0
 11
-0.7901920130155244
 21
0.9245423014409687
 31
0.0
  0
ARC
  5
14F
330
103
100
AcDbEntity
  8
AM_4
100
AcDbCircle
 10
-0.000000000000023
 20
0.000000000000036
 30
0.0
 40
1.216216216216174
100
AcDbArc
 50
118.3991498683931
 51
130.5199994279832
  0
CIRCLE
  5
150
330
103
100
AcDbEntity
  8
AM_4
100
AcDbCircle
 10
0.0
 20
0.0
 30
0.0
 40
1.75
  0
ENDBLK
  5
106
330
103
100
AcDbEntity
  8
0
100
AcDbBlockEnd
  0
BLOCK
  5
153
330
151
100
AcDbEntity
  8
0
100
AcDbBlockBegin
  2
6_070893EL_0_in_071238_0
 70
     2
 10
0.0
 20
0.0
 30
0.0
  3
6_070893EL_0_in_071238_0
  1

  0
ATTDEF
  5
155
330
151
100
AcDbEntity
  8
AM_6
100
AcDbText
 10
6.958499999999999
 20
1.958499999999999
 30
0.0
 40
0.5
  1
Imperial/E Insert -Inch
100
AcDbAttributeDefinition
  3

  2
NN
 70
     8
280
     0
  0
ATTDEF
  5
156
330
151
100
AcDbEntity
  8
AM_6
100
AcDbText
 10
6.958499999999999
 20
1.458499999999999
 30
0.0
 40
0.5
  1
Imperial Bearings
100
AcDbAttributeDefinition
  3

  2
NT
 70
     8
280
     0
  0
ATTDEF
  5
157
330
151
100
AcDbEntity
  8
AM_6
100
AcDbText
 10
6.958499999999999
 20
0.9584999999999992
 30
0.0
 40
0.5
  1
070893EL
100
AcDbAttributeDefinition
  3

  2
NB
 70
     8
280
     0
  0
ATTDEF
  5
158
330
151
100
AcDbEntity
  8
AM_6
100
AcDbText
 10
6.958499999999999
 20
0.4584999999999992
 30
0.0
 40
0.5
  1
$PN.
100
AcDbAttributeDefinition
  3

  2
NBSYN
 70
     8
280
     0
  0
ATTDEF
  5
159
330
151
100
AcDbEntity
  8
AM_6
100
AcDbText
 10
6.958499999999999
 20
-0.0415000000000008
 30
0.0
 40
0.5
  1
070893EL
100
AcDbAttributeDefinition
  3

  2
LINA
 70
     8
280
     0
  0
ATTDEF
  5
15A
330
151
100
AcDbEntity
  8
AM_6
100
AcDbText
 10
6.958499999999999
 20
-0.5415000000000008
 30
0.0
 40
0.5
  1
2-1/4
100
AcDbAttributeDefinition
  3

  2
SS
 70
     8
280
     0
  0
ATTDEF
  5
15B
330
151
100
AcDbEntity
  8
AM_6
100
AcDbText
 10
6.958499999999999
 20
-1.041500000000001
 30
0.0
 40
0.5
  1
2.250000
100
AcDbAttributeDefinition
  3

  2
SS1
 70
     8
280
     0
  0
ATTDEF
  5
15C
330
151
100
AcDbEntity
  8
AM_6
100
AcDbText
 10
6.958499999999999
 20
-1.541500000000001
 30
0.0
 40
0.5
  1
070893EL
100
AcDbAttributeDefinition
  3

  2
PN
 70
     8
280
     0
  0
ATTDEF
  5
15D
330
151
100
AcDbEntity
  8
AM_6
100
AcDbText
 10
6.958499999999999
 20
-2.041500000000001
 30
0.0
 40
0.5
  1
INS-IP-204R
100
AcDbAttributeDefinition
  3

  2
DESCRIPTION
 70
     8
280
     0
  0
ATTDEF
  5
15E
330
151
100
AcDbEntity
  8
AM_6
100
AcDbText
 10
6.958499999999999
 20
-2.541500000000001
 30
0.0
 40
0.5
  1
Labyrinth Seal
100
AcDbAttributeDefinition
  3

  2
ST
 70
     8
280
     0
  0
ATTDEF
  5
15F
330
151
100
AcDbEntity
  8
AM_6
100
AcDbText
 10
6.958499999999999
 20
-3.041500000000001
 30
0.0
 40
0.5
  1
1
100
AcDbAttributeDefinition
  3

  2
ST1
 70
     8
280
     0
  0
ATTDEF
  5
160
330
151
100
AcDbEntity
  8
AM_6
100
AcDbText
 10
6.958499999999999
 20
-3.541500000000001
 30
0.0
 40
0.5
  1
3.9370
100
AcDbAttributeDefinition
  3

  2
A
 70
     8
280
     0
  0
ATTDEF
  5
161
330
151
100
AcDbEntity
  8
AM_6
100
AcDbText
 10
6.958499999999999
 20
-4.041500000000001
 30
0.0
 40
0.5
  1
1-3/64
100
AcDbAttributeDefinition
  3

  2
B
 70
     8
280
     0
  0
ATTDEF
  5
162
330
151
100
AcDbEntity
  8
AM_6
100
AcDbText
 10
6.958499999999999
 20
-4.541500000000001
 30
0.0
 40
0.5
  1
1.046875
100
AcDbAttributeDefinition
  3

  2
B1
 70
     8
280
     0
  0
ATTDEF
  5
163
330
151
100
AcDbEntity
  8
AM_6
100
AcDbText
 10
6.958499999999999
 20
-5.041500000000001
 30
0.0
 40
0.5
  1
3-1/32
100
AcDbAttributeDefinition
  3

  2
C
 70
     8
280
     0
  0
ATTDEF
  5
164
330
151
100
AcDbEntity
  8
AM_6
100
AcDbText
 10
6.958499999999999
 20
-5.541500000000001
 30
0.0
 40
0.5
  1
3.420000
100
AcDbAttributeDefinition
  3

  2
C1
 70
     8
280
     0
  0
ATTDEF
  5
165
330
151
100
AcDbEntity
  8
AM_6
100
AcDbText
 10
6.958499999999999
 20
-6.041500000000001
 30
0.0
 40
0.5
  1
4.41000
100
AcDbAttributeDefinition
  3

  2
CR
 70
     8
280
     0
  0
ATTDEF
  5
166
330
151
100
AcDbEntity
  8
AM_6
100
AcDbText
 10
6.958499999999999
 20
-6.541500000000001
 30
0.0
 40
0.5
  1
1.050
100
AcDbAttributeDefinition
  3

  2
D
 70
     8
280
     0
  0
ATTDEF
  5
167
330
151
100
AcDbEntity
  8
AM_6
100
AcDbText
 10
6.958499999999999
 20
-7.041500000000001
 30
0.0
 40
0.5
  1
3-1/2
100
AcDbAttributeDefinition
  3

  2
E
 70
     8
280
     0
  0
ATTDEF
  5
168
330
151
100
AcDbEntity
  8
AM_6
100
AcDbText
 10
6.958499999999999
 20
-7.541500000000001
 30
0.0
 40
0.5
  1
3.500000
100
AcDbAttributeDefinition
  3

  2
E1
 70
     8
280
     0
  0
ATTDEF
  5
169
330
151
100
AcDbEntity
  8
AM_6
100
AcDbText
 10
6.958499999999999
 20
-8.041500000000001
 30
0.0
 40
0.5
  1
0.1900
100
AcDbAttributeDefinition
  3

  2
NDM
 70
     8
280
     0
  0
ATTDEF
  5
16A
330
151
100
AcDbEntity
  8
AM_6
100
AcDbText
 10
6.958499999999999
 20
-8.541500000000001
 30
0.0
 40
0.5
  1
0.1450
100
AcDbAttributeDefinition
  3

  2
KDM
 70
     8
280
     0
  0
ATTDEF
  5
16B
330
151
100
AcDbEntity
  8
AM_6
100
AcDbText
 10
6.958499999999999
 20
-9.041500000000001
 30
0.0
 40
0.5
  1
2.92
100
AcDbAttributeDefinition
  3

  2
AL
 70
     8
280
     0
  0
ATTDEF
  5
16C
330
151
100
AcDbEntity
  8
AM_6
100
AcDbText
 10
6.958499999999999
 20
-9.541500000000001
 30
0.0
 40
0.5
  1
0.50
100
AcDbAttributeDefinition
  3

  2
BL
 70
     8
280
     0
  0
ATTDEF
  5
16D
330
151
100
AcDbEntity
  8
AM_6
100
AcDbText
 10
6.958499999999999
 20
-10.0415
 30
0.0
 40
0.5
  1
0.07
100
AcDbAttributeDefinition
  3

  2
CL
 70
     8
280
     0
  0
ATTDEF
  5
16E
330
151
100
AcDbEntity
  8
AM_6
100
AcDbText
 10
6.958499999999999
 20
-10.5415
 30
0.0
 40
0.5
  1
0.44
100
AcDbAttributeDefinition
  3

  2
DL
 70
     8
280
     0
  0
ATTDEF
  5
16F
330
151
100
AcDbEntity
  8
AM_6
100
AcDbText
 10
6.958499999999999
 20
-11.0415
 30
0.0
 40
0.5
  1
0.8000
100
AcDbAttributeDefinition
  3

  2
LL
 70
     8
280
     0
  0
ATTDEF
  5
170
330
151
100
AcDbEntity
  8
AM_6
100
AcDbText
 10
6.958499999999999
 20
-11.5415
 30
0.0
 40
0.5
  1
0.025
100
AcDbAttributeDefinition
  3

  2
Y
 70
     8
280
     0
  0
ATTDEF
  5
171
330
151
100
AcDbEntity
  8
AM_6
100
AcDbText
 10
6.958499999999999
 20
-12.0415
 30
0.0
 40
0.5
  1
0.025000
100
AcDbAttributeDefinition
  3

  2
Y1
 70
     8
280
     0
  0
ATTDEF
  5
172
330
151
100
AcDbEntity
  8
AM_6
100
AcDbText
 10
6.958499999999999
 20
-12.5415
 30
0.0
 40
0.5
  1
2-19/32
100
AcDbAttributeDefinition
  3

  2
Z
 70
     8
280
     0
  0
ATTDEF
  5
173
330
151
100
AcDbEntity
  8
AM_6
100
AcDbText
 10
6.958499999999999
 20
-13.0415
 30
0.0
 40
0.5
  1
2.593750
100
AcDbAttributeDefinition
  3

  2
Z1
 70
     8
280
     0
  0
ATTDEF
  5
174
330
151
100
AcDbEntity
  8
AM_6
100
AcDbText
 10
6.958499999999999
 20
-13.5415
 30
0.0
 40
0.5
  1
0.99000
100
AcDbAttributeDefinition
  3

  2
P1
 70
     8
280
     0
  0
ATTDEF
  5
175
330
151
100
AcDbEntity
  8
AM_6
100
AcDbText
 10
6.958499999999999
 20
-14.0415
 30
0.0
 40
0.5
  1
1.50000
100
AcDbAttributeDefinition
  3

  2
H1
 70
     8
280
     0
  0
ATTDEF
  5
176
330
151
100
AcDbEntity
  8
AM_6
100
AcDbText
 10
6.958499999999999
 20
-14.5415
 30
0.0
 40
0.5
  1
1.04000
100
AcDbAttributeDefinition
  3

  2
G1
 70
     8
280
     0
  0
ATTDEF
  5
177
330
151
100
AcDbEntity
  8
AM_6
100
AcDbText
 10
6.958499999999999
 20
-15.0415
 30
0.0
 40
0.5
  1
0.10100
100
AcDbAttributeDefinition
  3

  2
CW
 70
     8
280
     0
  0
ATTDEF
  5
178
330
151
100
AcDbEntity
  8
AM_6
100
AcDbText
 10
6.958499999999999
 20
-15.5415
 30
0.0
 40
0.5
  1
3.88000
100
AcDbAttributeDefinition
  3

  2
L1
 70
     8
280
     0
  0
ATTDEF
  5
179
330
151
100
AcDbEntity
  8
AM_6
100
AcDbText
 10
6.958499999999999
 20
-16.0415
 30
0.0
 40
0.5
  1
baldor
100
AcDbAttributeDefinition
  3

  2
COMPANY
 70
     8
280
     0
  0
CIRCLE
  5
17A
330
151
100
AcDbEntity
  8
AM_9
100
AcDbCircle
 10
0.0
 20
0.0
 30
0.0
 40
1.296875
  0
CIRCLE
  5
17B
330
151
100
AcDbEntity
  8
AM_9
100
AcDbCircle
 10
0.0
 20
0.0
 30
0.0
 40
1.676484800847903
  0
CIRCLE
  5
17C
330
151
100
AcDbEntity
  8
AM_9
100
AcDbCircle
 10
0.0
 20
0.0
 30
0.0
 40
1.7685
  0
CIRCLE
  5
17D
330
151
100
AcDbEntity
  8
AM_9
100
AcDbCircle
 10
0.0
 20
0.0
 30
0.0
 40
1.9185
  0
CIRCLE
  5
17E
330
151
100
AcDbEntity
  8
AM_9
100
AcDbCircle
 10
0.0
 20
0.0
 30
0.0
 40
1.91615625
  0
CIRCLE
  5
17F
330
151
100
AcDbEntity
  8
AM_9
100
AcDbCircle
 10
0.0
 20
-1.5
 30
0.0
 40
0.0724499999999999
  0
LINE
  5
180
330
151
100
AcDbEntity
  8
AM_9
100
AcDbLine
 10
0.9652007563196375
 20
1.099551044745081
 30
0.0
 11
0.8555992052357232
 21
1.209152595828995
 31
0.0
  0
LINE
  5
181
330
151
100
AcDbEntity
  8
AM_9
100
AcDbLine
 10
1.209152595828997
 20
0.8555992052357221
 30
0.0
 11
1.099551044745081
 21
0.9652007563196373
 31
0.0
  0
ARC
  5
182
330
151
100
AcDbEntity
  8
AM_9
100
AcDbCircle
 10
-0.0000000000000005
 20
0.0000000000000004
 30
0.0
 40
1.187335092348284
100
AcDbArc
 50
106.4568292430074
 51
118.5431707569926
  0
LINE
  5
183
330
151
100
AcDbEntity
  8
AM_9
100
AcDbLine
 10
-1.099551044745081
 20
0.9652007563196374
 30
0.0
 11
-1.209152595828996
 21
0.8555992052357225
 31
0.0
  0
LINE
  5
184
330
151
100
AcDbEntity
  8
AM_9
100
AcDbLine
 10
-0.8555992052357224
 20
1.209152595828996
 30
0.0
 11
-0.9652007563196371
 21
1.099551044745081
 31
0.0
  0
LINE
  5
185
330
151
100
AcDbEntity
  8
AM_9
100
AcDbLine
 10
-1.209152595828996
 20
0.8555992052357225
 30
0.0
 11
-1.401521566688227
 21
1.047968176094953
 31
0.0
  0
LINE
  5
186
330
151
100
AcDbEntity
  8
AM_9
100
AcDbLine
 10
-1.047968176094953
 20
1.401521566688227
 30
0.0
 11
-0.8555992052357224
 21
1.209152595828996
 31
0.0
  0
LINE
  5
187
330
151
100
AcDbEntity
  8
AM_9
100
AcDbLine
 10
1.209152595828996
 20
-0.8555992052357224
 30
0.0
 11
1.401521566688227
 21
-1.047968176094953
 31
0.0
  0
LINE
  5
188
330
151
100
AcDbEntity
  8
AM_9
100
AcDbLine
 10
-0.9652007563196369
 20
-1.099551044745081
 30
0.0
 11
-0.8555992052357225
 21
-1.209152595828996
 31
0.0
  0
LINE
  5
189
330
151
100
AcDbEntity
  8
AM_9
100
AcDbLine
 10
-1.209152595828996
 20
-0.8555992052357226
 30
0.0
 11
-1.099551044745081
 21
-0.9652007563196376
 31
0.0
  0
LINE
  5
18A
330
151
100
AcDbEntity
  8
AM_9
100
AcDbLine
 10
1.099551044745081
 20
-0.9652007563196371
 30
0.0
 11
1.209152595828996
 21
-0.8555992052357224
 31
0.0
  0
LINE
  5
18B
330
151
100
AcDbEntity
  8
AM_9
100
AcDbLine
 10
0.8555992052357224
 20
-1.209152595828996
 30
0.0
 11
0.9652007563196374
 21
-1.099551044745081
 31
0.0
  0
LINE
  5
18C
330
151
100
AcDbEntity
  8
AM_9
100
AcDbLine
 10
1.047968176094953
 20
-1.401521566688227
 30
0.0
 11
0.8555992052357224
 21
-1.209152595828996
 31
0.0
  0
LINE
  5
18D
330
151
100
AcDbEntity
  8
AM_9
100
AcDbLine
 10
1.401521566688227
 20
1.047968176094953
 30
0.0
 11
1.209152595828997
 21
0.8555992052357221
 31
0.0
  0
LINE
  5
18E
330
151
100
AcDbEntity
  8
AM_9
100
AcDbLine
 10
0.8555992052357232
 20
1.209152595828995
 30
0.0
 11
1.047968176094954
 21
1.401521566688226
 31
0.0
  0
LINE
  5
18F
330
151
100
AcDbEntity
  8
AM_9
100
AcDbLine
 10
-0.8555992052357225
 20
-1.209152595828996
 30
0.0
 11
-1.047968176094953
 21
-1.401521566688227
 31
0.0
  0
LINE
  5
190
330
151
100
AcDbEntity
  8
AM_9
100
AcDbLine
 10
-1.401521566688227
 20
-1.047968176094954
 30
0.0
 11
-1.209152595828996
 21
-0.8555992052357226
 31
0.0
  0
CIRCLE
  5
191
330
151
100
AcDbEntity
  8
AM_9
100
AcDbCircle
 10
0.0
 20
1.5
 30
0.0
 40
0.0724499999999999
  0
CIRCLE
  5
192
330
151
100
AcDbEntity
  8
AM_9
100
AcDbCircle
 10
0.00000000000006
 20
0.0000000000000531
 30
0.0
 40
1.589882260469379
  0
CIRCLE
  5
193
330
151
100
AcDbEntity
  8
AM_9
100
AcDbCircle
 10
0.0000000000000001
 20
-0.0000000000000002
 30
0.0
 40
1.729166666666667
  0
CIRCLE
  5
194
330
151
100
AcDbEntity
  8
AM_4
100
AcDbCircle
 10
0.0
 20
0.0
 30
0.0
 40
1.958499999999999
  0
CIRCLE
  5
195
330
151
100
AcDbEntity
  8
AM_4
100
AcDbCircle
 10
0.0
 20
0.0
 30
0.0
 40
1.827090240579884
  0
LINE
  5
196
330
151
100
AcDbEntity
  8
AM_4
100
AcDbLine
 10
1.099551044745081
 20
0.9652007563196373
 30
0.0
 11
0.9652007563196375
 21
1.099551044745081
 31
0.0
  0
LINE
  5
197
330
151
100
AcDbEntity
  8
AM_4
100
AcDbLine
 10
-0.9652007563196371
 20
1.099551044745081
 30
0.0
 11
-1.099551044745081
 21
0.9652007563196374
 31
0.0
  0
LINE
  5
198
330
151
100
AcDbEntity
  8
AM_4
100
AcDbLine
 10
-1.099551044745081
 20
-0.9652007563196376
 30
0.0
 11
-0.9652007563196369
 21
-1.099551044745081
 31
0.0
  0
LINE
  5
199
330
151
100
AcDbEntity
  8
AM_4
100
AcDbLine
 10
0.9652007563196374
 20
-1.099551044745081
 30
0.0
 11
1.099551044745081
 21
-0.9652007563196371
 31
0.0
  0
LINE
  5
19A
330
151
100
AcDbEntity
  8
AM_4
100
AcDbLine
 10
-1.401521566688227
 20
1.047968176094953
 30
0.0
 11
-1.407008337285316
 21
1.053454946692042
 31
0.0
  0
LINE
  5
19B
330
151
100
AcDbEntity
  8
AM_4
100
AcDbLine
 10
-1.053454946692042
 20
1.407008337285316
 30
0.0
 11
-1.047968176094953
 21
1.401521566688227
 31
0.0
  0
LINE
  5
19C
330
151
100
AcDbEntity
  8
AM_4
100
AcDbLine
 10
1.401521566688227
 20
-1.047968176094953
 30
0.0
 11
1.407008337285316
 21
-1.053454946692042
 31
0.0
  0
LINE
  5
19D
330
151
100
AcDbEntity
  8
AM_4
100
AcDbLine
 10
1.053454946692042
 20
-1.407008337285316
 30
0.0
 11
1.047968176094953
 21
-1.401521566688227
 31
0.0
  0
LINE
  5
19E
330
151
100
AcDbEntity
  8
AM_4
100
AcDbLine
 10
1.407008337285316
 20
1.053454946692042
 30
0.0
 11
1.401521566688227
 21
1.047968176094953
 31
0.0
  0
LINE
  5
19F
330
151
100
AcDbEntity
  8
AM_4
100
AcDbLine
 10
1.047968176094954
 20
1.401521566688226
 30
0.0
 11
1.053454946692043
 21
1.407008337285315
 31
0.0
  0
LINE
  5
1A0
330
151
100
AcDbEntity
  8
AM_4
100
AcDbLine
 10
-1.047968176094953
 20
-1.401521566688227
 30
0.0
 11
-1.053454946692042
 21
-1.407008337285316
 31
0.0
  0
CIRCLE
  5
1A1
330
151
100
AcDbEntity
  8
AM_4
100
AcDbCircle
 10
0.0
 20
0.0
 30
0.0
 40
1.777097855822064
  0
ARC
  5
1A2
330
151
100
AcDbEntity
  8
AM_4
100
AcDbCircle
 10
-0.0000000000000155
 20
0.0000000000000147
 30
0.0
 40
1.757680228568438
100
AcDbArc
 50
306.8229233410178
 51
323.1770766589822
  0
ARC
  5
1A3
330
151
100
AcDbEntity
  8
AM_4
100
AcDbCircle
 10
0.0000000000000164
 20
0.0000000000000178
 30
0.0
 40
1.757680228568441
100
AcDbArc
 50
216.8229233410179
 51
233.1770766589822
  0
LINE
  5
1A4
330
151
100
AcDbEntity
  8
AM_4
100
AcDbLine
 10
-1.407008337285316
 20
-1.053454946692043
 30
0.0
 11
-1.401521566688227
 21
-1.047968176094954
 31
0.0
  0
ARC
  5
1A5
330
151
100
AcDbEntity
  8
AM_4
100
AcDbCircle
 10
0.0000000000000158
 20
-0.0000000000000149
 30
0.0
 40
1.757680228568438
100
AcDbArc
 50
126.8229233410178
 51
143.1770766589822
  0
ARC
  5
1A6
330
151
100
AcDbEntity
  8
AM_4
100
AcDbCircle
 10
-0.0000000000000018
 20
-0.000000000000002
 30
0.0
 40
1.75768022856842
100
AcDbArc
 50
36.82292334101773
 51
53.17707665898224
  0
ARC
  5
1A7
330
151
100
AcDbEntity
  8
AM_4
100
AcDbCircle
 10
0.0000000000000021
 20
0.0000000000000008
 30
0.0
 40
1.18421052631579
100
AcDbArc
 50
118.5591754271305
 51
106.4408245728697
  0
ARC
  5
1A8
330
151
100
AcDbEntity
  8
AM_4
100
AcDbCircle
 10
-0.0000000000000001
 20
0.0
 30
0.0
 40
1.125
100
AcDbArc
 50
118.8793702084428
 51
106.1206297915572
  0
LINE
  5
1A9
330
151
100
AcDbEntity
  8
AM_4
100
AcDbLine
 10
-0.3123681427517311
 20
1.080764147903618
 30
0.0
 11
-0.3351610878026547
 21
1.135791184971983
 31
0.0
  0
LINE
  5
1AA
330
151
100
AcDbEntity
  8
AM_4
100
AcDbLine
 10
-0.5661309709304763
 20
1.04012032688071
 30
0.0
 11
-0.5433380258795528
 21
0.9850932898123459
 31
0.0
  0
CIRCLE
  5
1AB
330
151
100
AcDbEntity
  8
AM_5
100
AcDbCircle
 10
0.0
 20
1.5
 30
0.0
 40
0.0950000000000001
  0
CIRCLE
  5
1AC
330
151
100
AcDbEntity
  8
AM_5
100
AcDbCircle
 10
0.0
 20
-1.5
 30
0.0
 40
0.0950000000000001
  0
ENDBLK
  5
154
330
151
100
AcDbEntity
  8
0
100
AcDbBlockEnd
  0
BLOCK
  5
1AF
330
1AD
100
AcDbEntity
  8
0
100
AcDbBlockBegin
  2
7_071238H_0_in_071238_0
 70
     2
 10
0.0
 20
0.0
 30
0.0
  3
7_071238H_0_in_071238_0
  1

  0
ATTDEF
  5
1B1
330
1AD
100
AcDbEntity
  8
AM_6
100
AcDbText
 10
10.25
 20
3.011170328958493
 30
0.0
 40
0.5
  1
EP4B-IP -(Labyrinth Seal)-Housing -Inch
100
AcDbAttributeDefinition
  3

  2
NN
 70
     8
280
     0
  0
ATTDEF
  5
1B2
330
1AD
100
AcDbEntity
  8
AM_6
100
AcDbText
 10
10.25
 20
2.511170328958493
 30
0.0
 40
0.5
  1
Imperial/E 4 Bolt Piliow Block Bearings
100
AcDbAttributeDefinition
  3

  2
NT
 70
     8
280
     0
  0
ATTDEF
  5
1B3
330
1AD
100
AcDbEntity
  8
AM_6
100
AcDbText
 10
10.25
 20
2.011170328958493
 30
0.0
 40
0.5
  1
071238H
100
AcDbAttributeDefinition
  3

  2
NB
 70
     8
280
     0
  0
ATTDEF
  5
1B4
330
1AD
100
AcDbEntity
  8
AM_6
100
AcDbText
 10
10.25
 20
1.511170328958493
 30
0.0
 40
0.5
  1
$PN.H
100
AcDbAttributeDefinition
  3

  2
NBSYN
 70
     8
280
     0
  0
ATTDEF
  5
1B5
330
1AD
100
AcDbEntity
  8
AM_6
100
AcDbText
 10
10.25
 20
1.011170328958493
 30
0.0
 40
0.5
  1
071238
100
AcDbAttributeDefinition
  3

  2
LINA
 70
     8
280
     0
  0
ATTDEF
  5
1B6
330
1AD
100
AcDbEntity
  8
AM_6
100
AcDbText
 10
10.25
 20
0.5111703289584932
 30
0.0
 40
0.5
  1
2-1/4
100
AcDbAttributeDefinition
  3

  2
SS
 70
     8
280
     0
  0
ATTDEF
  5
1B7
330
1AD
100
AcDbEntity
  8
AM_6
100
AcDbText
 10
10.25
 20
0.0111703289584932
 30
0.0
 40
0.5
  1
2.375000
100
AcDbAttributeDefinition
  3

  2
SS1
 70
     8
280
     0
  0
ATTDEF
  5
1B8
330
1AD
100
AcDbEntity
  8
AM_6
100
AcDbText
 10
10.25
 20
-0.4888296710415068
 30
0.0
 40
0.5
  1
Non-Expansion
100
AcDbAttributeDefinition
  3

  2
TYPE
 70
     8
280
     0
  0
ATTDEF
  5
1B9
330
1AD
100
AcDbEntity
  8
AM_6
100
AcDbText
 10
10.25
 20
-0.9888296710415068
 30
0.0
 40
0.5
  1
071238
100
AcDbAttributeDefinition
  3

  2
PN1
 70
     8
280
     0
  0
ATTDEF
  5
1BA
330
1AD
100
AcDbEntity
  8
AM_6
100
AcDbText
 10
10.25
 20
-1.488829671041507
 30
0.0
 40
0.5
  1
071255
100
AcDbAttributeDefinition
  3

  2
PN2
 70
     8
280
     0
  0
ATTDEF
  5
1BB
330
1AD
100
AcDbEntity
  8
AM_6
100
AcDbText
 10
10.25
 20
-1.988829671041507
 30
0.0
 40
0.5
  1
EP4B-IP-204L
100
AcDbAttributeDefinition
  3

  2
DESCRIPTION
 70
     8
280
     0
  0
ATTDEF
  5
1BC
330
1AD
100
AcDbEntity
  8
AM_6
100
AcDbText
 10
10.25
 20
-2.488829671041507
 30
0.0
 40
0.5
  1
Non-Expansion Type
100
AcDbAttributeDefinition
  3

  2
EF
 70
     8
280
     0
  0
ATTDEF
  5
1BD
330
1AD
100
AcDbEntity
  8
AM_6
100
AcDbText
 10
10.25
 20
-2.988829671041507
 30
0.0
 40
0.5
  1
1
100
AcDbAttributeDefinition
  3

  2
EF1
 70
     8
280
     0
  0
ATTDEF
  5
1BE
330
1AD
100
AcDbEntity
  8
AM_6
100
AcDbText
 10
10.25
 20
-3.488829671041507
 30
0.0
 40
0.5
  1
Labyrinth Seal
100
AcDbAttributeDefinition
  3

  2
ST
 70
     8
280
     0
  0
ATTDEF
  5
1BF
330
1AD
100
AcDbEntity
  8
AM_6
100
AcDbText
 10
10.25
 20
-3.988829671041507
 30
0.0
 40
0.5
  1
1
100
AcDbAttributeDefinition
  3

  2
ST1
 70
     8
280
     0
  0
ATTDEF
  5
1C0
330
1AD
100
AcDbEntity
  8
AM_6
100
AcDbText
 10
10.25
 20
-4.488829671041507
 30
0.0
 40
0.5
  1
3.42
100
AcDbAttributeDefinition
  3

  2
A
 70
     8
280
     0
  0
ATTDEF
  5
1C1
330
1AD
100
AcDbEntity
  8
AM_6
100
AcDbText
 10
10.25
 20
-4.988829671041507
 30
0.0
 40
0.5
  1
3.4200000
100
AcDbAttributeDefinition
  3

  2
A1
 70
     8
280
     0
  0
ATTDEF
  5
1C2
330
1AD
100
AcDbEntity
  8
AM_6
100
AcDbText
 10
10.25
 20
-5.488829671041507
 30
0.0
 40
0.5
  1
10.5
100
AcDbAttributeDefinition
  3

  2
B
 70
     8
280
     0
  0
ATTDEF
  5
1C3
330
1AD
100
AcDbEntity
  8
AM_6
100
AcDbText
 10
10.25
 20
-5.988829671041507
 30
0.0
 40
0.5
  1
10.5000000
100
AcDbAttributeDefinition
  3

  2
B1
 70
     8
280
     0
  0
ATTDEF
  5
1C4
330
1AD
100
AcDbEntity
  8
AM_6
100
AcDbText
 10
10.25
 20
-6.488829671041507
 30
0.0
 40
0.5
  1
3.49
100
AcDbAttributeDefinition
  3

  2
C
 70
     8
280
     0
  0
ATTDEF
  5
1C5
330
1AD
100
AcDbEntity
  8
AM_6
100
AcDbText
 10
10.25
 20
-6.988829671041507
 30
0.0
 40
0.5
  1
3.4900000
100
AcDbAttributeDefinition
  3

  2
C1
 70
     8
280
     0
  0
ATTDEF
  5
1C6
330
1AD
100
AcDbEntity
  8
AM_6
100
AcDbText
 10
10.25
 20
-7.488829671041507
 30
0.0
 40
0.5
  1
8.31
100
AcDbAttributeDefinition
  3

  2
DMIN
 70
     8
280
     0
  0
ATTDEF
  5
1C7
330
1AD
100
AcDbEntity
  8
AM_6
100
AcDbText
 10
10.25
 20
-7.988829671041507
 30
0.0
 40
0.5
  1
8.3100000
100
AcDbAttributeDefinition
  3

  2
DMIN1
 70
     8
280
     0
  0
ATTDEF
  5
1C8
330
1AD
100
AcDbEntity
  8
AM_6
100
AcDbText
 10
10.25
 20
-8.488829671041508
 30
0.0
 40
0.5
  1
8.69
100
AcDbAttributeDefinition
  3

  2
DMAX
 70
     8
280
     0
  0
ATTDEF
  5
1C9
330
1AD
100
AcDbEntity
  8
AM_6
100
AcDbText
 10
10.25
 20
-8.988829671041508
 30
0.0
 40
0.5
  1
8.6900000
100
AcDbAttributeDefinition
  3

  2
DMAX1
 70
     8
280
     0
  0
ATTDEF
  5
1CA
330
1AD
100
AcDbEntity
  8
AM_6
100
AcDbText
 10
10.25
 20
-9.488829671041508
 30
0.0
 40
0.5
  1
1.87
100
AcDbAttributeDefinition
  3

  2
E
 70
     8
280
     0
  0
ATTDEF
  5
1CB
330
1AD
100
AcDbEntity
  8
AM_6
100
AcDbText
 10
10.25
 20
-9.988829671041508
 30
0.0
 40
0.5
  1
1.870000
100
AcDbAttributeDefinition
  3

  2
E1
 70
     8
280
     0
  0
ATTDEF
  5
1CC
330
1AD
100
AcDbEntity
  8
AM_6
100
AcDbText
 10
10.25
 20
-10.48882967104151
 30
0.0
 40
0.5
  1
5/8
100
AcDbAttributeDefinition
  3

  2
F
 70
     8
280
     0
  0
ATTDEF
  5
1CD
330
1AD
100
AcDbEntity
  8
AM_6
100
AcDbText
 10
10.25
 20
-10.98882967104151
 30
0.0
 40
0.5
  1
0.6250000
100
AcDbAttributeDefinition
  3

  2
F1
 70
     8
280
     0
  0
ATTDEF
  5
1CE
330
1AD
100
AcDbEntity
  8
AM_6
100
AcDbText
 10
10.25
 20
-11.48882967104151
 30
0.0
 40
0.5
  1
0.87
100
AcDbAttributeDefinition
  3

  2
G
 70
     8
280
     0
  0
ATTDEF
  5
1CF
330
1AD
100
AcDbEntity
  8
AM_6
100
AcDbText
 10
10.25
 20
-11.98882967104151
 30
0.0
 40
0.5
  1
0.870000
100
AcDbAttributeDefinition
  3

  2
G1
 70
     8
280
     0
  0
ATTDEF
  5
1D0
330
1AD
100
AcDbEntity
  8
AM_6
100
AcDbText
 10
10.25
 20
-12.48882967104151
 30
0.0
 40
0.5
  1
1.63
100
AcDbAttributeDefinition
  3

  2
H
 70
     8
280
     0
  0
ATTDEF
  5
1D1
330
1AD
100
AcDbEntity
  8
AM_6
100
AcDbText
 10
10.25
 20
-12.98882967104151
 30
0.0
 40
0.5
  1
1.6300000
100
AcDbAttributeDefinition
  3

  2
H1
 70
     8
280
     0
  0
ATTDEF
  5
1D2
330
1AD
100
AcDbEntity
  8
AM_6
100
AcDbText
 10
10.25
 20
-13.48882967104151
 30
0.0
 40
0.5
  1
5.72
100
AcDbAttributeDefinition
  3

  2
J
 70
     8
280
     0
  0
ATTDEF
  5
1D3
330
1AD
100
AcDbEntity
  8
AM_6
100
AcDbText
 10
10.25
 20
-13.98882967104151
 30
0.0
 40
0.5
  1
5.720000
100
AcDbAttributeDefinition
  3

  2
J1
 70
     8
280
     0
  0
ATTDEF
  5
1D4
330
1AD
100
AcDbEntity
  8
AM_6
100
AcDbText
 10
10.25
 20
-14.48882967104151
 30
0.0
 40
0.5
  1
3.88
100
AcDbAttributeDefinition
  3

  2
L
 70
     8
280
     0
  0
ATTDEF
  5
1D5
330
1AD
100
AcDbEntity
  8
AM_6
100
AcDbText
 10
10.25
 20
-14.98882967104151
 30
0.0
 40
0.5
  1
3.8800000
100
AcDbAttributeDefinition
  3

  2
L1
 70
     8
280
     0
  0
ATTDEF
  5
1D6
330
1AD
100
AcDbEntity
  8
AM_6
100
AcDbText
 10
10.25
 20
-15.48882967104151
 30
0.0
 40
0.5
  1
2.75
100
AcDbAttributeDefinition
  3

  2
M
 70
     8
280
     0
  0
ATTDEF
  5
1D7
330
1AD
100
AcDbEntity
  8
AM_6
100
AcDbText
 10
10.25
 20
-15.98882967104151
 30
0.0
 40
0.5
  1
2.750000
100
AcDbAttributeDefinition
  3

  2
M1
 70
     8
280
     0
  0
ATTDEF
  5
1D8
330
1AD
100
AcDbEntity
  8
AM_6
100
AcDbText
 10
10.25
 20
-16.48882967104151
 30
0.0
 40
0.5
  1
1.21
100
AcDbAttributeDefinition
  3

  2
R
 70
     8
280
     0
  0
ATTDEF
  5
1D9
330
1AD
100
AcDbEntity
  8
AM_6
100
AcDbText
 10
10.25
 20
-16.98882967104151
 30
0.0
 40
0.5
  1
1.210000
100
AcDbAttributeDefinition
  3

  2
R1
 70
     8
280
     0
  0
ATTDEF
  5
1DA
330
1AD
100
AcDbEntity
  8
AM_6
100
AcDbText
 10
10.25
 20
-17.48882967104151
 30
0.0
 40
0.5
  1
2.21
100
AcDbAttributeDefinition
  3

  2
S
 70
     8
280
     0
  0
ATTDEF
  5
1DB
330
1AD
100
AcDbEntity
  8
AM_6
100
AcDbText
 10
10.25
 20
-17.98882967104151
 30
0.0
 40
0.5
  1
2.210000
100
AcDbAttributeDefinition
  3

  2
S1
 70
     8
280
     0
  0
ATTDEF
  5
1DC
330
1AD
100
AcDbEntity
  8
AM_6
100
AcDbText
 10
10.25
 20
-18.48882967104151
 30
0.0
 40
0.5
  1
0.25
100
AcDbAttributeDefinition
  3

  2
X
 70
     8
280
     0
  0
ATTDEF
  5
1DD
330
1AD
100
AcDbEntity
  8
AM_6
100
AcDbText
 10
10.25
 20
-18.98882967104151
 30
0.0
 40
0.5
  1
0.250000
100
AcDbAttributeDefinition
  3

  2
X1
 70
     8
280
     0
  0
ATTDEF
  5
1DE
330
1AD
100
AcDbEntity
  8
AM_6
100
AcDbText
 10
10.25
 20
-19.48882967104151
 30
0.0
 40
0.5
  1
0.025
100
AcDbAttributeDefinition
  3

  2
Y
 70
     8
280
     0
  0
ATTDEF
  5
1DF
330
1AD
100
AcDbEntity
  8
AM_6
100
AcDbText
 10
10.25
 20
-19.98882967104151
 30
0.0
 40
0.5
  1
2.94
100
AcDbAttributeDefinition
  3

  2
Z
 70
     8
280
     0
  0
ATTDEF
  5
1E0
330
1AD
100
AcDbEntity
  8
AM_6
100
AcDbText
 10
10.25
 20
-20.48882967104151
 30
0.0
 40
0.5
  1
2.940000
100
AcDbAttributeDefinition
  3

  2
Z1
 70
     8
280
     0
  0
ATTDEF
  5
1E1
330
1AD
100
AcDbEntity
  8
AM_6
100
AcDbText
 10
10.25
 20
-20.98882967104151
 30
0.0
 40
0.5
  1
3.9370
100
AcDbAttributeDefinition
  3

  2
BORE
 70
     8
280
     0
  0
ATTDEF
  5
1E2
330
1AD
100
AcDbEntity
  8
AM_6
100
AcDbText
 10
10.25
 20
-21.48882967104151
 30
0.0
 40
0.5
  1
0.07000
100
AcDbAttributeDefinition
  3

  2
CR
 70
     8
280
     0
  0
ATTDEF
  5
1E3
330
1AD
100
AcDbEntity
  8
AM_6
100
AcDbText
 10
10.25
 20
-21.98882967104151
 30
0.0
 40
0.5
  1
baldor
100
AcDbAttributeDefinition
  3

  2
COMPANY
 70
     8
280
     0
  0
LINE
  5
1E4
330
1AD
100
AcDbEntity
  8
AM_9
100
AcDbLine
 10
-3.276904361245803
 20
-1.120000000000002
 30
0.0
 11
-3.0189
 21
-1.120000000000002
 31
0.0
  0
LINE
  5
1E5
330
1AD
100
AcDbEntity
  8
AM_9
100
AcDbLine
 10
-2.9374
 20
-1.038500000000002
 30
0.0
 11
-2.9374
 21
0.4388407911760246
 31
0.0
  0
ARC
  5
1E6
330
1AD
100
AcDbEntity
  8
AM_9
100
AcDbCircle
 10
-3.0189
 20
-1.038500000000002
 30
0.0
 40
0.0814999999999995
100
AcDbArc
 50
270.0
 51
0.0
  0
ARC
  5
1E7
330
1AD
100
AcDbEntity
  8
AM_9
100
AcDbCircle
 10
3.0189
 20
-1.0385
 30
0.0
 40
0.0815000000000001
100
AcDbArc
 50
180.0
 51
270.0
  0
LINE
  5
1E8
330
1AD
100
AcDbEntity
  8
AM_9
100
AcDbLine
 10
3.0189
 20
-1.12
 30
0.0
 11
3.276904361245802
 21
-1.12
 31
0.0
  0
LINE
  5
1E9
330
1AD
100
AcDbEntity
  8
AM_9
100
AcDbLine
 10
2.9374
 20
0.4388407911760264
 30
0.0
 11
2.9374
 21
-1.0385
 31
0.0
  0
LINE
  5
1EA
330
1AD
100
AcDbEntity
  8
AM_9
100
AcDbLine
 10
4.155
 20
-1.12
 30
0.0
 11
4.155
 21
-1.772
 31
0.0
  0
LINE
  5
1EB
330
1AD
100
AcDbEntity
  8
AM_9
100
AcDbLine
 10
3.815
 20
-1.12
 30
0.0
 11
3.815
 21
-1.772
 31
0.0
  0
LINE
  5
1EC
330
1AD
100
AcDbEntity
  8
AM_9
100
AcDbLine
 10
-2.249482607178816
 20
-1.772
 30
0.0
 11
-4.685
 21
-1.772
 31
0.0
  0
LINE
  5
1ED
330
1AD
100
AcDbEntity
  8
AM_9
100
AcDbLine
 10
-4.344999999999999
 20
-1.12
 30
0.0
 11
-4.344999999999999
 21
-2.75
 31
0.0
  0
LINE
  5
1EE
330
1AD
100
AcDbEntity
  8
AM_9
100
AcDbLine
 10
-4.684999999999999
 20
-1.12
 30
0.0
 11
-4.685
 21
-2.75
 31
0.0
  0
ARC
  5
1EF
330
1AD
100
AcDbEntity
  8
AM_9
100
AcDbCircle
 10
-2.249482607178815
 20
-2.098000000000001
 30
0.0
 40
0.3260000000000003
100
AcDbArc
 50
43.00440739610874
 51
90.0
  0
LINE
  5
1F0
330
1AD
100
AcDbEntity
  8
AM_9
100
AcDbLine
 10
-0.8150000000000003
 20
-2.75
 30
0.0
 11
-0.815
 21
-2.62645673865
 31
0.0
  0
ARC
  5
1F1
330
1AD
100
AcDbEntity
  8
AM_9
100
AcDbCircle
 10
-0.0000000000000029
 20
-0.0000000000000009
 30
0.0
 40
2.749999999999998
100
AcDbArc
 50
223.0044073961085
 51
252.7606749986727
  0
LINE
  5
1F2
330
1AD
100
AcDbEntity
  8
AM_9
100
AcDbLine
 10
-4.155
 20
-1.12
 30
0.0
 11
-4.155
 21
-1.772
 31
0.0
  0
LINE
  5
1F3
330
1AD
100
AcDbEntity
  8
AM_9
100
AcDbLine
 10
-3.815
 20
-1.772
 30
0.0
 11
-3.815
 21
-1.12
 31
0.0
  0
ARC
  5
1F4
330
1AD
100
AcDbEntity
  8
AM_9
100
AcDbCircle
 10
0.0000000000000098
 20
-0.000000000000012
 30
0.0
 40
2.749999999999985
100
AcDbArc
 50
287.2393250013273
 51
316.9955926038915
  0
LINE
  5
1F5
330
1AD
100
AcDbEntity
  8
AM_9
100
AcDbLine
 10
4.685
 20
-1.772
 30
0.0
 11
2.249482607178815
 21
-1.772
 31
0.0
  0
LINE
  5
1F6
330
1AD
100
AcDbEntity
  8
AM_9
100
AcDbLine
 10
0.8150000000000007
 20
-2.62645673865
 30
0.0
 11
0.8150000000000003
 21
-2.75
 31
0.0
  0
ARC
  5
1F7
330
1AD
100
AcDbEntity
  8
AM_9
100
AcDbCircle
 10
2.249482607178816
 20
-2.098000000000001
 30
0.0
 40
0.3260000000000012
100
AcDbArc
 50
90.0
 51
136.9955926038915
  0
LINE
  5
1F8
330
1AD
100
AcDbEntity
  8
AM_9
100
AcDbLine
 10
4.684999999999999
 20
-1.12
 30
0.0
 11
4.685
 21
-2.75
 31
0.0
  0
LINE
  5
1F9
330
1AD
100
AcDbEntity
  8
AM_9
100
AcDbLine
 10
4.345
 20
-2.75
 30
0.0
 11
4.345
 21
-1.12
 31
0.0
  0
LINE
  5
1FA
330
1AD
100
AcDbEntity
  8
AM_7
100
AcDbLine
 10
-2.066925
 20
0.0
 30
0.0
 11
2.066925
 21
0.0
 31
0.0
  0
LINE
  5
1FB
330
1AD
100
AcDbEntity
  8
AM_7
100
AcDbLine
 10
0.0
 20
-2.066925
 30
0.0
 11
0.0
 21
2.066925
 31
0.0
  0
LINE
  5
1FC
330
1AD
100
AcDbEntity
  8
AM_7
100
AcDbLine
 10
-1.7385
 20
3.011170328958493
 30
0.0
 11
-1.206379513350589
 21
2.089510610333437
 31
0.0
  0
LINE
  5
1FD
330
1AD
100
AcDbEntity
  8
AM_4
100
AcDbLine
 10
-1.030921008624795
 20
2.785607565528298
 30
0.0
 11
-1.05198729810778
 21
2.822095449239782
 31
0.0
  0
LINE
  5
1FE
330
1AD
100
AcDbEntity
  8
AM_4
100
AcDbLine
 10
-1.918012701892219
 20
2.322095449239783
 30
0.0
 11
-1.05198729810778
 21
2.822095449239782
 31
0.0
  0
LINE
  5
1FF
330
1AD
100
AcDbEntity
  8
AM_4
100
AcDbLine
 10
-1.881410161513775
 20
2.458697989618227
 30
0.0
 11
-1.188589838503696
 21
2.858697989608139
 31
0.0
  0
ARC
  5
200
330
1AD
100
AcDbEntity
  8
AM_4
100
AcDbCircle
 10
-1.138589838486224
 20
2.772095449239781
 30
0.0
 40
0.1000000000000009
100
AcDbArc
 50
30.00000000000045
 51
119.9999999999993
  0
ARC
  5
201
330
1AD
100
AcDbEntity
  8
AM_4
100
AcDbCircle
 10
-1.831410161513775
 20
2.372095449239782
 30
0.0
 40
0.1000000000000005
100
AcDbArc
 50
120.0
 51
209.9999999999999
  0
LINE
  5
202
330
1AD
100
AcDbEntity
  8
AM_4
100
AcDbLine
 10
-1.918012701892219
 20
2.322095449239783
 30
0.0
 11
-1.896817675240786
 21
2.285384586211725
 31
0.0
  0
ARC
  5
203
330
1AD
100
AcDbEntity
  8
AM_4
100
AcDbCircle
 10
3.276904361245805
 20
-0.9570000000000004
 30
0.0
 40
0.1630000000000024
100
AcDbArc
 50
187.1207257768255
 51
208.01204948134
  0
ARC
  5
204
330
1AD
100
AcDbEntity
  8
AM_4
100
AcDbCircle
 10
-3.276904361245784
 20
-0.9570000000000024
 30
0.0
 40
0.162999999999982
100
AcDbArc
 50
331.9879505186542
 51
352.8792742231745
  0
LINE
  5
205
330
1AD
100
AcDbEntity
  8
AM_4
100
AcDbLine
 10
0.6561666666666667
 20
2.888500000000001
 30
0.0
 11
0.6561666666666667
 21
2.896609277337133
 31
0.0
  0
LINE
  5
206
330
1AD
100
AcDbEntity
  8
AM_4
100
AcDbLine
 10
-3.115161553803269
 20
-0.9772055497477268
 30
0.0
 11
-2.947092871805652
 21
0.3681624708634921
 31
0.0
  0
CIRCLE
  5
207
330
1AD
100
AcDbEntity
  8
AM_4
100
AcDbCircle
 10
0.0
 20
0.0
 30
0.0
 40
1.9685
  0
ARC
  5
208
330
1AD
100
AcDbEntity
  8
AM_4
100
AcDbCircle
 10
0.5746666666666671
 20
2.8885
 30
0.0
 40
0.0814999999999996
100
AcDbArc
 50
0.0
 51
90.0
  0
ARC
  5
209
330
1AD
100
AcDbEntity
  8
AM_4
100
AcDbCircle
 10
0.0000000000000018
 20
-0.0000000000000018
 30
0.0
 40
2.970000000000002
100
AcDbArc
 50
102.7637525602296
 51
172.8792742231743
  0
LINE
  5
20A
330
1AD
100
AcDbEntity
  8
AM_4
100
AcDbLine
 10
2.947092871805652
 20
0.3681624708634912
 30
0.0
 11
3.11516155380327
 21
-0.9772055497477271
 31
0.0
  0
ARC
  5
20B
330
1AD
100
AcDbEntity
  8
AM_4
100
AcDbCircle
 10
0.0000000000000022
 20
0.0000000000000016
 30
0.0
 40
2.969999999999997
100
AcDbArc
 50
7.1207257768255
 51
77.23624743977044
  0
LINE
  5
20C
330
1AD
100
AcDbEntity
  8
AM_4
100
AcDbLine
 10
-0.5746666666666664
 20
2.97
 30
0.0
 11
0.5746666666666664
 21
2.97
 31
0.0
  0
ARC
  5
20D
330
1AD
100
AcDbEntity
  8
AM_4
100
AcDbCircle
 10
-0.5746666666666672
 20
2.8885
 30
0.0
 40
0.0814999999999997
100
AcDbArc
 50
90.0
 51
179.9999991462263
  0
LINE
  5
20E
330
1AD
100
AcDbEntity
  8
AM_4
100
AcDbLine
 10
-0.6561666666666667
 20
2.896609277337134
 30
0.0
 11
-0.6561666666666667
 21
2.888499999999999
 31
0.0
  0
LINE
  5
20F
330
1AD
100
AcDbEntity
  8
AM_4
100
AcDbLine
 10
-5.086999999999999
 20
-1.12
 30
0.0
 11
-3.276904361245803
 21
-1.12
 31
0.0
  0
LWPOLYLINE
  5
210
330
1AD
100
AcDbEntity
  8
AM_4
100
AcDbPolyline
 90
        6
 70
     0
 43
0.0
 10
-5.087
 20
-1.12
 10
-5.107095630529908
 20
-1.121243498944848
 10
-5.123360656780828
 20
-1.124107260586058
 10
-5.145139722518714
 20
-1.130721397874006
 10
-5.149479090267173
 20
-1.132431497002572
 10
-5.149999999999999
 20
-1.132667036216271
  0
LINE
  5
211
330
1AD
100
AcDbEntity
  8
AM_4
100
AcDbLine
 10
-5.15
 20
-1.132428368471377
 30
0.0
 11
-5.15
 21
-1.935
 31
0.0
  0
LINE
  5
212
330
1AD
100
AcDbEntity
  8
AM_4
100
AcDbLine
 10
5.149999999999999
 20
-1.935
 30
0.0
 11
5.149999999999999
 21
-1.132428368471375
 31
0.0
  0
LWPOLYLINE
  5
213
330
1AD
100
AcDbEntity
  8
AM_4
100
AcDbPolyline
 90
        6
 70
     0
 43
0.0
 10
5.149999999999997
 20
-1.13266703621627
 10
5.14941945794042
 20
-1.132425064268902
 10
5.143477337865936
 20
-1.130065753206185
 10
5.131121886464802
 20
-1.126085185100999
 10
5.112278757722459
 20
-1.12194488366259
 10
5.086999999999999
 20
-1.119999999999999
  0
LINE
  5
214
330
1AD
100
AcDbEntity
  8
AM_4
100
AcDbLine
 10
-3.133
 20
-1.033554129963298
 30
0.0
 11
-3.133
 21
-2.75
 31
0.0
  0
LWPOLYLINE
  5
215
330
1AD
100
AcDbEntity
  8
AM_4
100
AcDbPolyline
 90
       14
 70
     0
 43
0.0
 10
-3.133
 20
-1.0335541299633
 10
-3.140219731597807
 20
-1.04580490987547
 10
-3.148479715759672
 20
-1.057379830801619
 10
-3.157717089018606
 20
-1.068190800604367
 10
-3.167861549386432
 20
-1.078155541275676
 10
-3.178835891394358
 20
-1.087198215122161
 10
-3.190556593673215
 20
-1.095250001935734
 10
-3.202934454601507
 20
-1.102249622756942
 10
-3.215875271183612
 20
-1.108143806244851
 10
-3.229280555991463
 20
-1.11288769410411
 10
-3.243048286713339
 20
-1.116445182483675
 10
-3.257073682605264
 20
-1.118789196748904
 10
-3.271250001935735
 20
-1.119901897535887
 10
-3.276904361245803
 20
-1.12
  0
LINE
  5
216
330
1AD
100
AcDbEntity
  8
AM_4
100
AcDbLine
 10
-4.933416640946791
 20
-1.935
 30
0.0
 11
-4.933416640946791
 21
-1.12
 31
0.0
  0
LINE
  5
217
330
1AD
100
AcDbEntity
  8
AM_4
100
AcDbLine
 10
-5.25
 20
-1.935
 30
0.0
 11
-4.933416640946791
 21
-1.935
 31
0.0
  0
LINE
  5
218
330
1AD
100
AcDbEntity
  8
AM_4
100
AcDbLine
 10
-5.25
 20
-1.935
 30
0.0
 11
-5.25
 21
-2.75
 31
0.0
  0
LINE
  5
219
330
1AD
100
AcDbEntity
  8
AM_4
100
AcDbLine
 10
3.276904361245802
 20
-1.12
 30
0.0
 11
5.086999999999999
 21
-1.12
 31
0.0
  0
LINE
  5
21A
330
1AD
100
AcDbEntity
  8
AM_4
100
AcDbLine
 10
3.3075
 20
-2.75
 30
0.0
 11
3.3075
 21
-1.119999999999999
 31
0.0
  0
LWPOLYLINE
  5
21B
330
1AD
100
AcDbEntity
  8
AM_4
100
AcDbPolyline
 90
       14
 70
     0
 43
0.0
 10
3.276904361245802
 20
-1.12
 10
3.262697975177934
 20
-1.119379735788955
 10
3.248599708286092
 20
-1.11752366374099
 10
3.234716856894091
 20
-1.114445909685118
 10
3.221155077883719
 20
-1.110169897188103
 10
3.208017584582068
 20
-1.104728169286974
 10
3.195404361245803
 20
-1.098162140816864
 10
3.183411402120582
 20
-1.090521783219106
 10
3.172129980866897
 20
-1.081865244228394
 10
3.161645955912395
 20
-1.072258405333407
 10
3.152039117017409
 20
-1.061774380378906
 10
3.143382578026697
 20
-1.050492959125221
 10
3.135742220428939
 20
-1.0385
 10
3.132999999999997
 20
-1.033554129963292
  0
LINE
  5
21C
330
1AD
100
AcDbEntity
  8
AM_4
100
AcDbLine
 10
3.132999999999996
 20
-1.033554129963291
 30
0.0
 11
3.132999999999996
 21
-2.75
 31
0.0
  0
LINE
  5
21D
330
1AD
100
AcDbEntity
  8
AM_4
100
AcDbLine
 10
-3.307500000000001
 20
-1.12
 30
0.0
 11
-3.3075
 21
-2.75
 31
0.0
  0
LINE
  5
21E
330
1AD
100
AcDbEntity
  8
AM_4
100
AcDbLine
 10
-4.901
 20
-2.75
 30
0.0
 11
-4.901
 21
-1.12
 31
0.0
  0
LINE
  5
21F
330
1AD
100
AcDbEntity
  8
AM_4
100
AcDbLine
 10
4.933416640946788
 20
-1.12
 30
0.0
 11
4.933416640946788
 21
-1.935
 31
0.0
  0
LINE
  5
220
330
1AD
100
AcDbEntity
  8
AM_4
100
AcDbLine
 10
4.901
 20
-1.12
 30
0.0
 11
4.901
 21
-2.75
 31
0.0
  0
LINE
  5
221
330
1AD
100
AcDbEntity
  8
AM_4
100
AcDbLine
 10
5.25
 20
-2.75
 30
0.0
 11
-5.25
 21
-2.75
 31
0.0
  0
LINE
  5
222
330
1AD
100
AcDbEntity
  8
AM_4
100
AcDbLine
 10
5.25
 20
-1.935
 30
0.0
 11
5.25
 21
-2.75
 31
0.0
  0
LINE
  5
223
330
1AD
100
AcDbEntity
  8
AM_4
100
AcDbLine
 10
4.933416640946788
 20
-1.935
 30
0.0
 11
5.25
 21
-1.935
 31
0.0
  0
ENDBLK
  5
1B0
330
1AD
100
AcDbEntity
  8
0
100
AcDbBlockEnd
  0
ENDSEC
  0
SECTION
  2
ENTITIES
  0
INSERT
  5
6F
330
1F
100
AcDbEntity
  8
0
100
AcDbBlockReference
  2
1_071238_0
 10
0.0
 20
0.0
 30
0.0
  0
POINT
  5
225
330
1F
100
AcDbEntity
  8
ConnectionPoints
100
AcDbPoint
 10
0.0
 20
-1.5
 30
2.035
  0
POINT
  5
226
330
1F
100
AcDbEntity
  8
ConnectionPoints
100
AcDbPoint
 10
0.0
 20
1.5
 30
2.035
  0
POINT
  5
227
330
1F
100
AcDbEntity
  8
ConnectionPoints
100
AcDbPoint
 10
0.0
 20
0.0
 30
1.965
  0
POINT
  5
228
330
1F
100
AcDbEntity
  8
ConnectionPoints
100
AcDbPoint
 10
0.0
 20
0.0
 30
2.21
  0
POINT
  5
229
330
1F
100
AcDbEntity
  8
ConnectionPoints
100
AcDbPoint
 10
0.0
 20
0.0
 30
2.164
  0
POINT
  5
22A
330
1F
100
AcDbEntity
  8
ConnectionPoints
100
AcDbPoint
 10
0.0
 20
1.5
 30
1.965
  0
POINT
  5
22B
330
1F
100
AcDbEntity
  8
ConnectionPoints
100
AcDbPoint
 10
0.0
 20
-1.5
 30
1.965
  0
POINT
  5
22C
330
1F
100
AcDbEntity
  8
ConnectionPoints
100
AcDbPoint
 10
0.0
 20
0.0
 30
1.965
  0
POINT
  5
22D
330
1F
100
AcDbEntity
  8
ConnectionPoints
100
AcDbPoint
 10
-1.535
 20
2.658697989618227
 30
0.0
  0
POINT
  5
22E
330
1F
100
AcDbEntity
  8
ConnectionPoints
100
AcDbPoint
 10
0.0
 20
0.0
 30
1.96
  0
POINT
  5
22F
330
1F
100
AcDbEntity
  8
ConnectionPoints
100
AcDbPoint
 10
0.0
 20
0.0
 30
2.21
  0
ENDSEC
  0
SECTION
  2
OBJECTS
  0
DICTIONARY
  5
C
330
0
100
AcDbDictionary
281
     1
  3
ACAD_DETAILVIEWSTYLE
350
237
  3
ACAD_GROUP
350
D
  3
ACAD_LAYOUT
350
1A
  3
ACAD_MATERIAL
350
43
  3
ACAD_MLEADERSTYLE
350
6B
  3
ACAD_MLINESTYLE
350
17
  3
ACAD_PLOTSETTINGS
350
19
  3
ACAD_PLOTSTYLENAME
350
E
  3
ACAD_SCALELIST
350
47
  3
ACAD_SECTIONVIEWSTYLE
350
238
  3
ACAD_TABLESTYLE
350
69
  3
ACAD_VISUALSTYLE
350
2A
  3
ACDB_RECOMPOSE_DATA
350
234
  3
AcDbVariableDictionary
350
230
  0
SUN
  5
6D
330
29
100
AcDbSun
 90
        1
290
     0
 63
     7
421
 16777215
 40
1.0
291
     1
 91
  2455826
 92
 54000000
292
     0
 70
     2
 71
   256
280
     1
  0
DICTIONARY
  5
237
102
{ACAD_REACTORS
330
C
102
}
330
C
100
AcDbDictionary
281
     1
  0
DICTIONARY
  5
D
102
{ACAD_REACTORS
330
C
102
}
330
C
100
AcDbDictionary
281
     1
  0
DICTIONARY
  5
1A
102
{ACAD_REACTORS
330
C
102
}
330
C
100
AcDbDictionary
281
     1
  3
Layout1
350
1E
  3
Layout2
350
26
  3
Model
350
22
  0
DICTIONARY
  5
43
102
{ACAD_REACTORS
330
C
102
}
330
C
100
AcDbDictionary
281
     1
  3
ByBlock
350
45
  3
ByLayer
350
44
  3
Global
350
46
  0
DICTIONARY
  5
6B
102
{ACAD_REACTORS
330
C
102
}
330
C
100
AcDbDictionary
281
     1
  3
Standard
350
6C
  0
DICTIONARY
  5
17
102
{ACAD_REACTORS
330
C
102
}
330
C
100
AcDbDictionary
281
     1
  3
Standard
350
18
  0
DICTIONARY
  5
19
102
{ACAD_REACTORS
330
C
102
}
330
C
100
AcDbDictionary
281
     1
  0
ACDBDICTIONARYWDFLT
  5
E
102
{ACAD_REACTORS
330
C
102
}
330
C
100
AcDbDictionary
281
     1
  3
Normal
350
F
100
AcDbDictionaryWithDefault
340
F
  0
DICTIONARY
  5
47
102
{ACAD_REACTORS
330
C
102
}
330
C
100
AcDbDictionary
281
     1
  3
A0
350
48
  3
A1
350
49
  3
A2
350
4A
  3
A3
350
4B
  3
A4
350
4C
  3
A5
350
4D
  3
A6
350
4E
  3
A7
350
4F
  3
A8
350
50
  3
A9
350
51
  3
B0
350
52
  3
B1
350
53
  3
B2
350
54
  3
B3
350
55
  3
B4
350
56
  3
B5
350
57
  3
B6
350
58
  3
B7
350
59
  3
B8
350
5A
  3
B9
350
5B
  3
C0
350
5C
  3
C1
350
5D
  3
C2
350
5E
  3
C3
350
5F
  3
C4
350
60
  3
C5
350
61
  3
C6
350
62
  3
C7
350
63
  3
C8
350
64
  3
C9
350
65
  3
D0
350
66
  3
D1
350
67
  3
D2
350
68
  0
DICTIONARY
  5
238
102
{ACAD_REACTORS
330
C
102
}
330
C
100
AcDbDictionary
281
     1
  0
DICTIONARY
  5
69
102
{ACAD_REACTORS
330
C
102
}
330
C
100
AcDbDictionary
281
     1
  3
Standard
350
6A
  0
DICTIONARY
  5
2A
102
{ACAD_REACTORS
330
C
102
}
330
C
100
AcDbDictionary
281
     1
  3
2dWireframe
350
2F
  3
Basic
350
32
  3
Brighten
350
36
  3
ColorChange
350
3A
  3
Conceptual
350
34
  3
Dim
350
35
  3
EdgeColorOff
350
3D
  3
Facepattern
350
39
  3
Flat
350
2B
  3
FlatWithEdges
350
2C
  3
Gouraud
350
2D
  3
GouraudWithEdges
350
2E
  3
Hidden
350
31
  3
JitterOff
350
3B
  3
Linepattern
350
38
  3
OverhangOff
350
3C
  3
Realistic
350
33
  3
Shaded
350
42
  3
Shaded with edges
350
41
  3
Shades of Gray
350
3E
  3
Sketchy
350
3F
  3
Thicken
350
37
  3
Wireframe
350
30
  3
X-Ray
350
40
  0
XRECORD
  5
234
102
{ACAD_REACTORS
330
C
102
}
330
C
100
AcDbXrecord
280
     1
 90
        1
330
6A
  0
DICTIONARY
  5
230
102
{ACAD_REACTORS
330
C
102
}
330
C
100
AcDbDictionary
281
     1
  3
CANNOSCALE
350
231
  3
CMLEADERSTYLE
350
236
  3
CTABLESTYLE
350
235
  0
LAYOUT
  5
1E
102
{ACAD_REACTORS
330
1A
102
}
330
1A
100
AcDbPlotSettings
  1

  2
none_device
  4

  6

 40
0.0
 41
0.0
 42
0.0
 43
0.0
 44
0.0
 45
0.0
 46
0.0
 47
0.0
 48
0.0
 49
0.0
140
0.0
141
0.0
142
1.0
143
1.0
 70
   688
 72
     0
 73
     0
 74
     5
  7

 75
    16
 76
     0
 77
     2
 78
   300
147
1.0
148
0.0
149
0.0
100
AcDbLayout
  1
Layout1
 70
     1
 71
     1
 10
0.0
 20
0.0
 11
12.0
 21
9.0
 12
0.0
 22
0.0
 32
0.0
 14
1.000000000000000E+20
 24
1.000000000000000E+20
 34
1.000000000000000E+20
 15
-1.000000000000000E+20
 25
-1.000000000000000E+20
 35
-1.000000000000000E+20
146
0.0
 13
0.0
 23
0.0
 33
0.0
 16
1.0
 26
0.0
 36
0.0
 17
0.0
 27
1.0
 37
0.0
 76
     0
330
1B
  0
LAYOUT
  5
26
102
{ACAD_REACTORS
330
1A
102
}
330
1A
100
AcDbPlotSettings
  1

  2
none_device
  4

  6

 40
0.0
 41
0.0
 42
0.0
 43
0.0
 44
0.0
 45
0.0
 46
0.0
 47
0.0
 48
0.0
 49
0.0
140
0.0
141
0.0
142
1.0
143
1.0
 70
   688
 72
     0
 73
     0
 74
     5
  7

 75
    16
 76
     0
 77
     2
 78
   300
147
1.0
148
0.0
149
0.0
100
AcDbLayout
  1
Layout2
 70
     1
 71
     2
 10
0.0
 20
0.0
 11
0.0
 21
0.0
 12
0.0
 22
0.0
 32
0.0
 14
0.0
 24
0.0
 34
0.0
 15
0.0
 25
0.0
 35
0.0
146
0.0
 13
0.0
 23
0.0
 33
0.0
 16
1.0
 26
0.0
 36
0.0
 17
0.0
 27
1.0
 37
0.0
 76
     0
330
23
  0
LAYOUT
  5
22
102
{ACAD_REACTORS
330
1A
102
}
330
1A
100
AcDbPlotSettings
  1

  2
none_device
  4
Letter_(8.50_x_11.00_Inches)
  6

 40
6.35
 41
6.35
 42
6.35000508
 43
6.35000508
 44
215.9
 45
279.4
 46
0.0
 47
0.0
 48
0.0
 49
0.0
140
0.0
141
0.0
142
1.0
143
1.0
 70
  1712
 72
     0
 73
     0
 74
     0
  7

 75
     0
 76
     0
 77
     2
 78
   300
147
1.0
148
0.0
149
0.0
100
AcDbLayout
  1
Model
 70
     1
 71
     0
 10
0.0
 20
0.0
 11
12.0
 21
9.0
 12
0.0
 22
0.0
 32
0.0
 14
1.000000000000000E+20
 24
1.000000000000000E+20
 34
1.000000000000000E+20
 15
-1.000000000000000E+20
 25
-1.000000000000000E+20
 35
-1.000000000000000E+20
146
0.0
 13
0.0
 23
0.0
 33
0.0
 16
1.0
 26
0.0
 36
0.0
 17
0.0
 27
1.0
 37
0.0
 76
     0
330
1F
331
29
  0
MATERIAL
  5
45
102
{ACAD_REACTORS
330
43
102
}
330
43
100
AcDbMaterial
  1
ByBlock
 72
     1
 94
      127
  0
MATERIAL
  5
44
102
{ACAD_REACTORS
330
43
102
}
330
43
100
AcDbMaterial
  1
ByLayer
 72
     1
 94
      127
  0
MATERIAL
  5
46
102
{ACAD_REACTORS
330
43
102
}
330
43
100
AcDbMaterial
  1
Global
 72
     1
 94
      127
  0
MLEADERSTYLE
  5
6C
102
{ACAD_REACTORS
330
6B
102
}
330
6B
100
AcDbMLeaderStyle
179
     2
170
     2
171
     1
172
     0
 90
        2
 40
0.0
 41
0.0
173
     1
 91
-1056964608
340
14
 92
       -2
290
     1
 42
0.09
291
     1
 43
0.36
  3
Standard
341
0
 44
0.18
300

342
11
174
     1
178
     6
175
     1
176
     0
 93
-1056964608
 45
0.18
292
     0
297
     0
 46
0.18
343
0
 94
-1056964608
 47
1.0
 49
1.0
140
1.0
293
     1
141
0.0
294
     1
177
     0
142
1.0
295
     0
296
     0
143
0.125
271
     0
272
     9
273
     9
298
     0
  0
MLINESTYLE
  5
18
102
{ACAD_REACTORS
330
17
102
}
330
17
100
AcDbMlineStyle
  2
Standard
 70
     0
  3

 62
   256
 51
90.0
 52
90.0
 71
     2
 49
0.5
 62
   256
  6
BYLAYER
 49
-0.5
 62
   256
  6
BYLAYER
  0
ACDBPLACEHOLDER
  5
F
102
{ACAD_REACTORS
330
E
102
}
330
E
  0
SCALE
  5
48
102
{ACAD_REACTORS
330
47
102
}
330
47
100
AcDbScale
 70
     0
300
1:1
140
1.0
141
1.0
290
     1
  0
SCALE
  5
49
102
{ACAD_REACTORS
330
47
102
}
330
47
100
AcDbScale
 70
     0
300
1:2
140
1.0
141
2.0
290
     0
  0
SCALE
  5
4A
102
{ACAD_REACTORS
330
47
102
}
330
47
100
AcDbScale
 70
     0
300
1:4
140
1.0
141
4.0
290
     0
  0
SCALE
  5
4B
102
{ACAD_REACTORS
330
47
102
}
330
47
100
AcDbScale
 70
     0
300
1:5
140
1.0
141
5.0
290
     0
  0
SCALE
  5
4C
102
{ACAD_REACTORS
330
47
102
}
330
47
100
AcDbScale
 70
     0
300
1:8
140
1.0
141
8.0
290
     0
  0
SCALE
  5
4D
102
{ACAD_REACTORS
330
47
102
}
330
47
100
AcDbScale
 70
     0
300
1:10
140
1.0
141
10.0
290
     0
  0
SCALE
  5
4E
102
{ACAD_REACTORS
330
47
102
}
330
47
100
AcDbScale
 70
     0
300
1:16
140
1.0
141
16.0
290
     0
  0
SCALE
  5
4F
102
{ACAD_REACTORS
330
47
102
}
330
47
100
AcDbScale
 70
     0
300
1:20
140
1.0
141
20.0
290
     0
  0
SCALE
  5
50
102
{ACAD_REACTORS
330
47
102
}
330
47
100
AcDbScale
 70
     0
300
1:30
140
1.0
141
30.0
290
     0
  0
SCALE
  5
51
102
{ACAD_REACTORS
330
47
102
}
330
47
100
AcDbScale
 70
     0
300
1:40
140
1.0
141
40.0
290
     0
  0
SCALE
  5
52
102
{ACAD_REACTORS
330
47
102
}
330
47
100
AcDbScale
 70
     0
300
1:50
140
1.0
141
50.0
290
     0
  0
SCALE
  5
53
102
{ACAD_REACTORS
330
47
102
}
330
47
100
AcDbScale
 70
     0
300
1:100
140
1.0
141
100.0
290
     0
  0
SCALE
  5
54
102
{ACAD_REACTORS
330
47
102
}
330
47
100
AcDbScale
 70
     0
300
2:1
140
2.0
141
1.0
290
     0
  0
SCALE
  5
55
102
{ACAD_REACTORS
330
47
102
}
330
47
100
AcDbScale
 70
     0
300
4:1
140
4.0
141
1.0
290
     0
  0
SCALE
  5
56
102
{ACAD_REACTORS
330
47
102
}
330
47
100
AcDbScale
 70
     0
300
8:1
140
8.0
141
1.0
290
     0
  0
SCALE
  5
57
102
{ACAD_REACTORS
330
47
102
}
330
47
100
AcDbScale
 70
     0
300
10:1
140
10.0
141
1.0
290
     0
  0
SCALE
  5
58
102
{ACAD_REACTORS
330
47
102
}
330
47
100
AcDbScale
 70
     0
300
100:1
140
100.0
141
1.0
290
     0
  0
SCALE
  5
59
102
{ACAD_REACTORS
330
47
102
}
330
47
100
AcDbScale
 70
     0
300
1/128" = 1'-0"
140
0.0078125
141
12.0
290
     0
  0
SCALE
  5
5A
102
{ACAD_REACTORS
330
47
102
}
330
47
100
AcDbScale
 70
     0
300
1/64" = 1'-0"
140
0.015625
141
12.0
290
     0
  0
SCALE
  5
5B
102
{ACAD_REACTORS
330
47
102
}
330
47
100
AcDbScale
 70
     0
300
1/32" = 1'-0"
140
0.03125
141
12.0
290
     0
  0
SCALE
  5
5C
102
{ACAD_REACTORS
330
47
102
}
330
47
100
AcDbScale
 70
     0
300
1/16" = 1'-0"
140
0.0625
141
12.0
290
     0
  0
SCALE
  5
5D
102
{ACAD_REACTORS
330
47
102
}
330
47
100
AcDbScale
 70
     0
300
3/32" = 1'-0"
140
0.09375
141
12.0
290
     0
  0
SCALE
  5
5E
102
{ACAD_REACTORS
330
47
102
}
330
47
100
AcDbScale
 70
     0
300
1/8" = 1'-0"
140
0.125
141
12.0
290
     0
  0
SCALE
  5
5F
102
{ACAD_REACTORS
330
47
102
}
330
47
100
AcDbScale
 70
     0
300
3/16" = 1'-0"
140
0.1875
141
12.0
290
     0
  0
SCALE
  5
60
102
{ACAD_REACTORS
330
47
102
}
330
47
100
AcDbScale
 70
     0
300
1/4" = 1'-0"
140
0.25
141
12.0
290
     0
  0
SCALE
  5
61
102
{ACAD_REACTORS
330
47
102
}
330
47
100
AcDbScale
 70
     0
300
3/8" = 1'-0"
140
0.375
141
12.0
290
     0
  0
SCALE
  5
62
102
{ACAD_REACTORS
330
47
102
}
330
47
100
AcDbScale
 70
     0
300
1/2" = 1'-0"
140
0.5
141
12.0
290
     0
  0
SCALE
  5
63
102
{ACAD_REACTORS
330
47
102
}
330
47
100
AcDbScale
 70
     0
300
3/4" = 1'-0"
140
0.75
141
12.0
290
     0
  0
SCALE
  5
64
102
{ACAD_REACTORS
330
47
102
}
330
47
100
AcDbScale
 70
     0
300
1" = 1'-0"
140
1.0
141
12.0
290
     0
  0
SCALE
  5
65
102
{ACAD_REACTORS
330
47
102
}
330
47
100
AcDbScale
 70
     0
300
1-1/2" = 1'-0"
140
1.5
141
12.0
290
     0
  0
SCALE
  5
66
102
{ACAD_REACTORS
330
47
102
}
330
47
100
AcDbScale
 70
     0
300
3" = 1'-0"
140
3.0
141
12.0
290
     0
  0
SCALE
  5
67
102
{ACAD_REACTORS
330
47
102
}
330
47
100
AcDbScale
 70
     0
300
6" = 1'-0"
140
6.0
141
12.0
290
     0
  0
SCALE
  5
68
102
{ACAD_REACTORS
330
47
102
}
330
47
100
AcDbScale
 70
     0
300
1'-0" = 1'-0"
140
12.0
141
12.0
290
     0
  0
TABLESTYLE
  5
6A
102
{ACAD_REACTORS
330
69
102
}
102
{ACAD_XDICTIONARY
360
232
102
}
330
69
100
AcDbTableStyle
  3
Standard
 70
     0
 71
     0
 40
0.06
 41
0.06
280
     0
281
     0
  7
Standard
140
0.18
170
     2
 62
     0
 63
   257
283
     0
 90
        4
 91
        0
  1

274
    -2
284
     1
 64
     0
275
    -2
285
     1
 65
     0
276
    -2
286
     1
 66
     0
277
    -2
287
     1
 67
     0
278
    -2
288
     1
 68
     0
279
    -2
289
     1
 69
     0
  7
Standard
140
0.25
170
     5
 62
     0
 63
   257
283
     0
 90
        4
 91
        0
  1

274
    -2
284
     1
 64
     0
275
    -2
285
     1
 65
     0
276
    -2
286
     1
 66
     0
277
    -2
287
     1
 67
     0
278
    -2
288
     1
 68
     0
279
    -2
289
     1
 69
     0
  7
Standard
140
0.18
170
     5
 62
     0
 63
   257
283
     0
 90
        4
 91
        0
  1

274
    -2
284
     1
 64
     0
275
    -2
285
     1
 65
     0
276
    -2
286
     1
 66
     0
277
    -2
287
     1
 67
     0
278
    -2
288
     1
 68
     0
279
    -2
289
     1
 69
     0
  0
VISUALSTYLE
  5
2F
102
{ACAD_REACTORS
330
2A
102
}
330
2A
100
AcDbVisualStyle
  2
2dWireframe
 70
     4
177
     3
291
     0
 70
    58
 90
        0
176
     1
 90
        2
176
     1
 90
        0
176
     1
 90
        0
176
     1
 40
0.6
176
     1
 40
30.0
176
     1
 62
     7
420
 16777215
176
     1
 90
        1
176
     1
 90
        4
176
     1
 62
     7
176
     1
 62
   257
176
     1
 90
        1
176
     1
 90
        1
176
     1
 40
1.0
176
     1
 90
        0
176
     1
 62
   257
176
     1
 40
1.0
176
     1
 90
        1
176
     1
 90
        6
176
     1
 90
        2
176
     1
 62
     7
176
     1
 90
        5
176
     1
 90
        0
176
     1
 90
        0
176
     1
290
     0
176
     1
 90
        1
176
     1
 40
0.0
176
     1
 90
        0
176
     1
290
     1
176
     1
290
     1
176
     1
290
     0
176
     1
290
     0
176
     1
290
     0
176
     1
290
     0
176
     1
290
     0
176
     1
290
     0
176
     1
290
     0
176
     1
 90
       50
176
     1
 40
0.0
176
     1
 40
1.0
176
     1
 90
        0
176
     1
 62
    18
420
        0
176
     1
 90
       50
176
     1
 90
        3
176
     1
 62
     5
420
      255
176
     1
290
     0
176
     1
 90
       50
176
     1
 90
       50
176
     1
 90
       50
176
     1
290
     0
176
     1
 90
       50
176
     1
 62
   256
176
     0
 40
1.0
176
     0
 90
        2
176
     1
  1
strokes_ogs.tif
176
     1
290
     0
176
     1
 40
1.0
176
     1
 40
1.0
176
     1
  0
VISUALSTYLE
  5
32
102
{ACAD_REACTORS
330
2A
102
}
330
2A
100
AcDbVisualStyle
  2
Basic
 70
     7
177
     3
291
     1
 70
    58
 90
        1
176
     1
 90
        0
176
     1
 90
        1
176
     1
 90
        0
176
     1
 40
0.6
176
     1
 40
30.0
176
     1
 62
     7
420
 16777215
176
     1
 90
        0
176
     1
 90
        4
176
     1
 62
     7
176
     1
 62
   257
176
     1
 90
        1
176
     1
 90
        1
176
     1
 40
1.0
176
     1
 90
        8
176
     1
 62
     7
176
     1
 40
1.0
176
     1
 90
        1
176
     1
 90
        6
176
     1
 90
        2
176
     1
 62
     7
176
     1
 90
        5
176
     1
 90
        0
176
     1
 90
        0
176
     1
290
     0
176
     1
 90
        1
176
     1
 40
0.0
176
     1
 90
        0
176
     1
290
     0
176
     1
290
     1
176
     1
290
     1
176
     1
290
     0
176
     1
290
     0
176
     1
290
     0
176
     1
290
     0
176
     1
290
     0
176
     1
290
     0
176
     1
 90
       50
176
     1
 40
0.0
176
     1
 40
1.0
176
     1
 90
        0
176
     1
 62
    18
420
        0
176
     1
 90
       50
176
     1
 90
        3
176
     1
 62
     5
420
      255
176
     1
290
     0
176
     1
 90
       50
176
     1
 90
       50
176
     1
 90
       50
176
     1
290
     0
176
     1
 90
       50
176
     1
 62
   256
176
     0
 40
1.0
176
     0
 90
        2
176
     1
  1
strokes_ogs.tif
176
     1
290
     0
176
     1
 40
1.0
176
     1
 40
1.0
176
     1
  0
VISUALSTYLE
  5
36
102
{ACAD_REACTORS
330
2A
102
}
330
2A
100
AcDbVisualStyle
  2
Brighten
 70
    12
177
     3
291
     1
 70
    58
 90
        2
176
     1
 90
        2
176
     1
 90
        0
176
     1
 90
        0
176
     1
 40
0.6
176
     1
 40
30.0
176
     1
 62
     7
420
 16777215
176
     1
 90
        1
176
     1
 90
        4
176
     1
 62
     7
176
     1
 62
   257
176
     1
 90
        1
176
     1
 90
        1
176
     1
 40
1.0
176
     1
 90
        8
176
     1
 62
     7
176
     1
 40
1.0
176
     1
 90
        1
176
     1
 90
        6
176
     1
 90
        2
176
     1
 62
     7
176
     1
 90
        5
176
     1
 90
        0
176
     1
 90
        0
176
     1
290
     0
176
     1
 90
        1
176
     1
 40
50.0
176
     1
 90
        0
176
     1
290
     0
176
     1
290
     1
176
     1
290
     1
176
     1
290
     0
176
     1
290
     0
176
     1
290
     0
176
     1
290
     0
176
     1
290
     0
176
     1
290
     0
176
     1
 90
       50
176
     1
 40
0.0
176
     1
 40
1.0
176
     1
 90
        0
176
     1
 62
    18
420
        0
176
     1
 90
       50
176
     1
 90
        3
176
     1
 62
     5
420
      255
176
     1
290
     0
176
     1
 90
       50
176
     1
 90
       50
176
     1
 90
       50
176
     1
290
     0
176
     1
 90
       50
176
     1
 62
   256
176
     0
 40
1.0
176
     0
 90
        2
176
     1
  1
strokes_ogs.tif
176
     1
290
     0
176
     1
 40
1.0
176
     1
 40
1.0
176
     1
  0
VISUALSTYLE
  5
3A
102
{ACAD_REACTORS
330
2A
102
}
330
2A
100
AcDbVisualStyle
  2
ColorChange
 70
    16
177
     3
291
     1
 70
    58
 90
        2
176
     1
 90
        2
176
     1
 90
        3
176
     1
 90
        0
176
     1
 40
0.6
176
     1
 40
30.0
176
     1
 62
     8
420
  8421504
176
     1
 90
        1
176
     1
 90
        4
176
     1
 62
     7
176
     1
 62
   257
176
     1
 90
        1
176
     1
 90
        1
176
     1
 40
1.0
176
     1
 90
        8
176
     1
 62
     8
420
  8421504
176
     1
 40
1.0
176
     1
 90
        1
176
     1
 90
        6
176
     1
 90
        2
176
     1
 62
     7
176
     1
 90
        5
176
     1
 90
        0
176
     1
 90
        0
176
     1
290
     0
176
     1
 90
        1
176
     1
 40
0.0
176
     1
 90
        0
176
     1
290
     0
176
     1
290
     1
176
     1
290
     1
176
     1
290
     0
176
     1
290
     0
176
     1
290
     0
176
     1
290
     0
176
     1
290
     0
176
     1
290
     0
176
     1
 90
       50
176
     1
 40
0.0
176
     1
 40
1.0
176
     1
 90
        0
176
     1
 62
    18
420
        0
176
     1
 90
       50
176
     1
 90
        3
176
     1
 62
     5
420
      255
176
     1
290
     0
176
     1
 90
       50
176
     1
 90
       50
176
     1
 90
       50
176
     1
290
     0
176
     1
 90
       50
176
     1
 62
   256
176
     0
 40
1.0
176
     0
 90
        2
176
     1
  1
strokes_ogs.tif
176
     1
290
     0
176
     1
 40
1.0
176
     1
 40
1.0
176
     1
  0
VISUALSTYLE
  5
34
102
{ACAD_REACTORS
330
2A
102
}
330
2A
100
AcDbVisualStyle
  2
Conceptual
 70
     9
177
     3
291
     0
 70
    58
 90
        3
176
     1
 90
        2
176
     1
 90
        0
176
     1
 90
        0
176
     1
 40
0.6
176
     1
 40
30.0
176
     1
 62
     7
420
 16777215
176
     1
 90
        2
176
     1
 90
        2
176
     1
 62
     7
176
     1
 62
   257
176
     1
 90
        1
176
     1
 90
        1
176
     1
 40
179.0
176
     1
 90
        8
176
     1
 62
     7
176
     1
 40
1.0
176
     1
 90
        1
176
     1
 90
        6
176
     1
 90
        2
176
     1
 62
     7
176
     1
 90
        3
176
     1
 90
        0
176
     1
 90
        0
176
     1
290
     0
176
     1
 90
        1
176
     1
 40
0.0
176
     1
 90
        0
176
     1
290
     0
176
     1
290
     1
176
     1
290
     1
176
     1
290
     0
176
     1
290
     0
176
     1
290
     0
176
     1
290
     0
176
     1
290
     0
176
     1
290
     0
176
     1
 90
       50
176
     1
 40
0.0
176
     1
 40
1.0
176
     1
 90
        0
176
     1
 62
    18
420
        0
176
     1
 90
       50
176
     1
 90
        3
176
     1
 62
     5
420
      255
176
     1
290
     0
176
     1
 90
       50
176
     1
 90
       50
176
     1
 90
       50
176
     1
290
     0
176
     1
 90
       50
176
     1
 62
   256
176
     0
 40
1.0
176
     0
 90
        2
176
     1
  1
strokes_ogs.tif
176
     1
290
     0
176
     1
 40
1.0
176
     1
 40
1.0
176
     1
  0
VISUALSTYLE
  5
35
102
{ACAD_REACTORS
330
2A
102
}
330
2A
100
AcDbVisualStyle
  2
Dim
 70
    11
177
     3
291
     1
 70
    58
 90
        2
176
     1
 90
        2
176
     1
 90
        0
176
     1
 90
        0
176
     1
 40
0.6
176
     1
 40
30.0
176
     1
 62
     7
420
 16777215
176
     1
 90
        1
176
     1
 90
        4
176
     1
 62
     7
176
     1
 62
   257
176
     1
 90
        1
176
     1
 90
        1
176
     1
 40
1.0
176
     1
 90
        8
176
     1
 62
     7
176
     1
 40
1.0
176
     1
 90
        1
176
     1
 90
        6
176
     1
 90
        2
176
     1
 62
     7
176
     1
 90
        5
176
     1
 90
        0
176
     1
 90
        0
176
     1
290
     0
176
     1
 90
        1
176
     1
 40
-50.0
176
     1
 90
        0
176
     1
290
     0
176
     1
290
     1
176
     1
290
     1
176
     1
290
     0
176
     1
290
     0
176
     1
290
     0
176
     1
290
     0
176
     1
290
     0
176
     1
290
     0
176
     1
 90
       50
176
     1
 40
0.0
176
     1
 40
1.0
176
     1
 90
        0
176
     1
 62
    18
420
        0
176
     1
 90
       50
176
     1
 90
        3
176
     1
 62
     5
420
      255
176
     1
290
     0
176
     1
 90
       50
176
     1
 90
       50
176
     1
 90
       50
176
     1
290
     0
176
     1
 90
       50
176
     1
 62
   256
176
     0
 40
1.0
176
     0
 90
        2
176
     1
  1
strokes_ogs.tif
176
     1
290
     0
176
     1
 40
1.0
176
     1
 40
1.0
176
     1
  0
VISUALSTYLE
  5
3D
102
{ACAD_REACTORS
330
2A
102
}
330
2A
100
AcDbVisualStyle
  2
EdgeColorOff
 70
    22
177
     3
291
     1
 70
    58
 90
        2
176
     0
 90
        2
176
     0
 90
        0
176
     0
 90
        0
176
     0
 40
0.6
176
     0
 40
30.0
176
     0
 62
     7
420
 16777215
176
     0
 90
        1
176
     0
 90
        4
176
     0
 62
     7
176
     0
 62
   257
176
     0
 90
        1
176
     0
 90
        1
176
     0
 40
1.0
176
     0
 90
        8
176
     2
 62
     7
176
     0
 40
1.0
176
     0
 90
        1
176
     0
 90
        6
176
     0
 90
        2
176
     0
 62
     7
176
     0
 90
        5
176
     0
 90
        0
176
     0
 90
        0
176
     0
290
     0
176
     0
 90
        1
176
     0
 40
0.0
176
     0
 90
        0
176
     0
290
     0
176
     0
290
     1
176
     0
290
     1
176
     0
290
     0
176
     0
290
     0
176
     0
290
     0
176
     0
290
     0
176
     0
290
     0
176
     0
290
     0
176
     0
 90
       50
176
     0
 40
0.0
176
     0
 40
1.0
176
     0
 90
        0
176
     0
 62
    18
420
        0
176
     0
 90
       50
176
     0
 90
        3
176
     0
 62
     5
420
      255
176
     0
290
     0
176
     0
 90
       50
176
     0
 90
       50
176
     0
 90
       50
176
     0
290
     0
176
     0
 90
       50
176
     0
 62
   256
176
     0
 40
1.0
176
     0
 90
        2
176
     0
  1
strokes_ogs.tif
176
     0
290
     0
176
     0
 40
1.0
176
     0
 40
1.0
176
     0
  0
VISUALSTYLE
  5
39
102
{ACAD_REACTORS
330
2A
102
}
330
2A
100
AcDbVisualStyle
  2
Facepattern
 70
    15
177
     3
291
     1
 70
    58
 90
        2
176
     1
 90
        2
176
     1
 90
        0
176
     1
 90
        0
176
     1
 40
0.6
176
     1
 40
30.0
176
     1
 62
     7
420
 16777215
176
     1
 90
        1
176
     1
 90
        4
176
     1
 62
     7
176
     1
 62
   257
176
     1
 90
        1
176
     1
 90
        1
176
     1
 40
1.0
176
     1
 90
        8
176
     1
 62
     7
176
     1
 40
1.0
176
     1
 90
        1
176
     1
 90
        6
176
     1
 90
        2
176
     1
 62
     7
176
     1
 90
        5
176
     1
 90
        0
176
     1
 90
        0
176
     1
290
     0
176
     1
 90
        1
176
     1
 40
0.0
176
     1
 90
        0
176
     1
290
     0
176
     1
290
     1
176
     1
290
     1
176
     1
290
     0
176
     1
290
     0
176
     1
290
     0
176
     1
290
     0
176
     1
290
     0
176
     1
290
     0
176
     1
 90
       50
176
     1
 40
0.0
176
     1
 40
1.0
176
     1
 90
        0
176
     1
 62
    18
420
        0
176
     1
 90
       50
176
     1
 90
        3
176
     1
 62
     5
420
      255
176
     1
290
     0
176
     1
 90
       50
176
     1
 90
       50
176
     1
 90
       50
176
     1
290
     0
176
     1
 90
       50
176
     1
 62
   256
176
     0
 40
1.0
176
     0
 90
        2
176
     1
  1
strokes_ogs.tif
176
     1
290
     0
176
     1
 40
1.0
176
     1
 40
1.0
176
     1
  0
VISUALSTYLE
  5
2B
102
{ACAD_REACTORS
330
2A
102
}
330
2A
100
AcDbVisualStyle
  2
Flat
 70
     0
177
     3
291
     1
 70
    58
 90
        2
176
     1
 90
        1
176
     1
 90
        1
176
     1
 90
        2
176
     1
 40
0.6
176
     1
 40
30.0
176
     1
 62
     7
420
 16777215
176
     1
 90
        0
176
     1
 90
        0
176
     1
 62
     7
176
     1
 62
   257
176
     1
 90
        1
176
     1
 90
        1
176
     1
 40
1.0
176
     1
 90
        8
176
     1
 62
     7
176
     1
 40
1.0
176
     1
 90
        1
176
     1
 90
        6
176
     1
 90
        2
176
     1
 62
     7
176
     1
 90
        5
176
     1
 90
        0
176
     1
 90
        0
176
     1
290
     0
176
     1
 90
       13
176
     1
 40
0.0
176
     1
 90
        0
176
     1
290
     0
176
     1
290
     1
176
     1
290
     1
176
     1
290
     0
176
     1
290
     0
176
     1
290
     0
176
     1
290
     0
176
     1
290
     0
176
     1
290
     0
176
     1
 90
       50
176
     1
 40
0.0
176
     1
 40
1.0
176
     1
 90
        0
176
     1
 62
    18
420
        0
176
     1
 90
       50
176
     1
 90
        3
176
     1
 62
     5
420
      255
176
     1
290
     0
176
     1
 90
       50
176
     1
 90
       50
176
     1
 90
       50
176
     1
290
     0
176
     1
 90
       50
176
     1
 62
   256
176
     0
 40
1.0
176
     0
 90
        2
176
     1
  1
strokes_ogs.tif
176
     1
290
     0
176
     1
 40
1.0
176
     1
 40
1.0
176
     1
  0
VISUALSTYLE
  5
2C
102
{ACAD_REACTORS
330
2A
102
}
330
2A
100
AcDbVisualStyle
  2
FlatWithEdges
 70
     1
177
     3
291
     1
 70
    58
 90
        2
176
     1
 90
        1
176
     1
 90
        1
176
     1
 90
        2
176
     1
 40
0.6
176
     1
 40
30.0
176
     1
 62
     7
420
 16777215
176
     1
 90
        1
176
     1
 90
        0
176
     1
 62
     7
176
     1
 62
   257
176
     1
 90
        1
176
     1
 90
        1
176
     1
 40
1.0
176
     1
 90
        0
176
     1
 62
   257
176
     1
 40
1.0
176
     1
 90
        1
176
     1
 90
        6
176
     1
 90
        2
176
     1
 62
     7
176
     1
 90
        5
176
     1
 90
        0
176
     1
 90
        0
176
     1
290
     0
176
     1
 90
       13
176
     1
 40
0.0
176
     1
 90
        0
176
     1
290
     0
176
     1
290
     1
176
     1
290
     1
176
     1
290
     0
176
     1
290
     0
176
     1
290
     0
176
     1
290
     0
176
     1
290
     0
176
     1
290
     0
176
     1
 90
       50
176
     1
 40
0.0
176
     1
 40
1.0
176
     1
 90
        0
176
     1
 62
    18
420
        0
176
     1
 90
       50
176
     1
 90
        3
176
     1
 62
     5
420
      255
176
     1
290
     0
176
     1
 90
       50
176
     1
 90
       50
176
     1
 90
       50
176
     1
290
     0
176
     1
 90
       50
176
     1
 62
   256
176
     0
 40
1.0
176
     0
 90
        2
176
     1
  1
strokes_ogs.tif
176
     1
290
     0
176
     1
 40
1.0
176
     1
 40
1.0
176
     1
  0
VISUALSTYLE
  5
2D
102
{ACAD_REACTORS
330
2A
102
}
330
2A
100
AcDbVisualStyle
  2
Gouraud
 70
     2
177
     3
291
     1
 70
    58
 90
        2
176
     1
 90
        2
176
     1
 90
        1
176
     1
 90
        2
176
     1
 40
0.6
176
     1
 40
30.0
176
     1
 62
     7
420
 16777215
176
     1
 90
        0
176
     1
 90
        0
176
     1
 62
     7
176
     1
 62
   257
176
     1
 90
        1
176
     1
 90
        1
176
     1
 40
1.0
176
     1
 90
        0
176
     1
 62
     7
176
     1
 40
1.0
176
     1
 90
        1
176
     1
 90
        6
176
     1
 90
        2
176
     1
 62
     7
176
     1
 90
        5
176
     1
 90
        0
176
     1
 90
        0
176
     1
290
     0
176
     1
 90
       13
176
     1
 40
0.0
176
     1
 90
        0
176
     1
290
     0
176
     1
290
     1
176
     1
290
     1
176
     1
290
     0
176
     1
290
     0
176
     1
290
     0
176
     1
290
     0
176
     1
290
     0
176
     1
290
     0
176
     1
 90
       50
176
     1
 40
0.0
176
     1
 40
1.0
176
     1
 90
        0
176
     1
 62
    18
420
        0
176
     1
 90
       50
176
     1
 90
        3
176
     1
 62
     5
420
      255
176
     1
290
     0
176
     1
 90
       50
176
     1
 90
       50
176
     1
 90
       50
176
     1
290
     0
176
     1
 90
       50
176
     1
 62
   256
176
     0
 40
1.0
176
     0
 90
        2
176
     1
  1
strokes_ogs.tif
176
     1
290
     0
176
     1
 40
1.0
176
     1
 40
1.0
176
     1
  0
VISUALSTYLE
  5
2E
102
{ACAD_REACTORS
330
2A
102
}
330
2A
100
AcDbVisualStyle
  2
GouraudWithEdges
 70
     3
177
     3
291
     1
 70
    58
 90
        2
176
     1
 90
        2
176
     1
 90
        1
176
     1
 90
        2
176
     1
 40
0.6
176
     1
 40
30.0
176
     1
 62
     7
420
 16777215
176
     1
 90
        1
176
     1
 90
        0
176
     1
 62
     7
176
     1
 62
   257
176
     1
 90
        1
176
     1
 90
        1
176
     1
 40
1.0
176
     1
 90
        0
176
     1
 62
   257
176
     1
 40
1.0
176
     1
 90
        1
176
     1
 90
        6
176
     1
 90
        2
176
     1
 62
     7
176
     1
 90
        5
176
     1
 90
        0
176
     1
 90
        0
176
     1
290
     0
176
     1
 90
       13
176
     1
 40
0.0
176
     1
 90
        0
176
     1
290
     0
176
     1
290
     1
176
     1
290
     1
176
     1
290
     0
176
     1
290
     0
176
     1
290
     0
176
     1
290
     0
176
     1
290
     0
176
     1
290
     0
176
     1
 90
       50
176
     1
 40
0.0
176
     1
 40
1.0
176
     1
 90
        0
176
     1
 62
    18
420
        0
176
     1
 90
       50
176
     1
 90
        3
176
     1
 62
     5
420
      255
176
     1
290
     0
176
     1
 90
       50
176
     1
 90
       50
176
     1
 90
       50
176
     1
290
     0
176
     1
 90
       50
176
     1
 62
   256
176
     0
 40
1.0
176
     0
 90
        2
176
     1
  1
strokes_ogs.tif
176
     1
290
     0
176
     1
 40
1.0
176
     1
 40
1.0
176
     1
  0
VISUALSTYLE
  5
31
102
{ACAD_REACTORS
330
2A
102
}
330
2A
100
AcDbVisualStyle
  2
Hidden
 70
     6
177
     3
291
     0
 70
    58
 90
        1
176
     1
 90
        2
176
     1
 90
        2
176
     1
 90
        0
176
     1
 40
0.6
176
     1
 40
30.0
176
     1
 62
     7
420
 16777215
176
     1
 90
        2
176
     1
 90
        2
176
     1
 62
     7
176
     1
 62
   257
176
     1
 90
        2
176
     1
 90
        1
176
     1
 40
40.0
176
     1
 90
        0
176
     1
 62
   257
176
     1
 40
1.0
176
     1
 90
        1
176
     1
 90
        6
176
     1
 90
        2
176
     1
 62
     7
176
     1
 90
        3
176
     1
 90
        0
176
     1
 90
        0
176
     1
290
     0
176
     1
 90
        1
176
     1
 40
0.0
176
     1
 90
        0
176
     1
290
     0
176
     1
290
     1
176
     1
290
     1
176
     1
290
     0
176
     1
290
     0
176
     1
290
     0
176
     1
290
     0
176
     1
290
     0
176
     1
290
     0
176
     1
 90
       50
176
     1
 40
0.0
176
     1
 40
1.0
176
     1
 90
        0
176
     1
 62
    18
420
        0
176
     1
 90
       50
176
     1
 90
        3
176
     1
 62
     5
420
      255
176
     1
290
     0
176
     1
 90
       50
176
     1
 90
       50
176
     1
 90
       50
176
     1
290
     0
176
     1
 90
       50
176
     1
 62
   256
176
     0
 40
1.0
176
     0
 90
        2
176
     1
  1
strokes_ogs.tif
176
     1
290
     0
176
     1
 40
1.0
176
     1
 40
1.0
176
     1
  0
VISUALSTYLE
  5
3B
102
{ACAD_REACTORS
330
2A
102
}
330
2A
100
AcDbVisualStyle
  2
JitterOff
 70
    20
177
     3
291
     1
 70
    58
 90
        2
176
     0
 90
        2
176
     0
 90
        0
176
     0
 90
        0
176
     0
 40
0.6
176
     0
 40
30.0
176
     0
 62
     7
420
 16777215
176
     0
 90
        1
176
     0
 90
        4
176
     0
 62
     7
176
     0
 62
   257
176
     0
 90
        1
176
     0
 90
        1
176
     0
 40
1.0
176
     0
 90
       10
176
     2
 62
     7
176
     0
 40
1.0
176
     0
 90
        1
176
     0
 90
        6
176
     0
 90
        2
176
     0
 62
     7
176
     0
 90
        5
176
     0
 90
        0
176
     0
 90
        0
176
     0
290
     0
176
     0
 90
        1
176
     0
 40
0.0
176
     0
 90
        0
176
     0
290
     0
176
     0
290
     1
176
     0
290
     1
176
     0
290
     0
176
     0
290
     0
176
     0
290
     0
176
     0
290
     0
176
     0
290
     0
176
     0
290
     0
176
     0
 90
       50
176
     0
 40
0.0
176
     0
 40
1.0
176
     0
 90
        0
176
     0
 62
    18
420
        0
176
     0
 90
       50
176
     0
 90
        3
176
     0
 62
     5
420
      255
176
     0
290
     0
176
     0
 90
       50
176
     0
 90
       50
176
     0
 90
       50
176
     0
290
     0
176
     0
 90
       50
176
     0
 62
   256
176
     0
 40
1.0
176
     0
 90
        2
176
     0
  1
strokes_ogs.tif
176
     0
290
     0
176
     0
 40
1.0
176
     0
 40
1.0
176
     0
  0
VISUALSTYLE
  5
38
102
{ACAD_REACTORS
330
2A
102
}
330
2A
100
AcDbVisualStyle
  2
Linepattern
 70
    14
177
     3
291
     1
 70
    58
 90
        2
176
     1
 90
        2
176
     1
 90
        0
176
     1
 90
        0
176
     1
 40
0.6
176
     1
 40
30.0
176
     1
 62
     7
420
 16777215
176
     1
 90
        1
176
     1
 90
        4
176
     1
 62
     7
176
     1
 62
   257
176
     1
 90
        7
176
     1
 90
        7
176
     1
 40
1.0
176
     1
 90
        8
176
     1
 62
     7
176
     1
 40
1.0
176
     1
 90
        1
176
     1
 90
        6
176
     1
 90
        2
176
     1
 62
     7
176
     1
 90
        5
176
     1
 90
        0
176
     1
 90
        0
176
     1
290
     0
176
     1
 90
        1
176
     1
 40
0.0
176
     1
 90
        0
176
     1
290
     0
176
     1
290
     1
176
     1
290
     1
176
     1
290
     0
176
     1
290
     0
176
     1
290
     0
176
     1
290
     0
176
     1
290
     0
176
     1
290
     0
176
     1
 90
       50
176
     1
 40
0.0
176
     1
 40
1.0
176
     1
 90
        0
176
     1
 62
    18
420
        0
176
     1
 90
       50
176
     1
 90
        3
176
     1
 62
     5
420
      255
176
     1
290
     0
176
     1
 90
       50
176
     1
 90
       50
176
     1
 90
       50
176
     1
290
     0
176
     1
 90
       50
176
     1
 62
   256
176
     0
 40
1.0
176
     0
 90
        2
176
     1
  1
strokes_ogs.tif
176
     1
290
     0
176
     1
 40
1.0
176
     1
 40
1.0
176
     1
  0
VISUALSTYLE
  5
3C
102
{ACAD_REACTORS
330
2A
102
}
330
2A
100
AcDbVisualStyle
  2
OverhangOff
 70
    21
177
     3
291
     1
 70
    58
 90
        2
176
     0
 90
        2
176
     0
 90
        0
176
     0
 90
        0
176
     0
 40
0.6
176
     0
 40
30.0
176
     0
 62
     7
420
 16777215
176
     0
 90
        1
176
     0
 90
        4
176
     0
 62
     7
176
     0
 62
   257
176
     0
 90
        1
176
     0
 90
        1
176
     0
 40
1.0
176
     0
 90
        9
176
     2
 62
     7
176
     0
 40
1.0
176
     0
 90
        1
176
     0
 90
        6
176
     0
 90
        2
176
     0
 62
     7
176
     0
 90
        5
176
     0
 90
        0
176
     0
 90
        0
176
     0
290
     0
176
     0
 90
        1
176
     0
 40
0.0
176
     0
 90
        0
176
     0
290
     0
176
     0
290
     1
176
     0
290
     1
176
     0
290
     0
176
     0
290
     0
176
     0
290
     0
176
     0
290
     0
176
     0
290
     0
176
     0
290
     0
176
     0
 90
       50
176
     0
 40
0.0
176
     0
 40
1.0
176
     0
 90
        0
176
     0
 62
    18
420
        0
176
     0
 90
       50
176
     0
 90
        3
176
     0
 62
     5
420
      255
176
     0
290
     0
176
     0
 90
       50
176
     0
 90
       50
176
     0
 90
       50
176
     0
290
     0
176
     0
 90
       50
176
     0
 62
   256
176
     0
 40
1.0
176
     0
 90
        2
176
     0
  1
strokes_ogs.tif
176
     0
290
     0
176
     0
 40
1.0
176
     0
 40
1.0
176
     0
  0
VISUALSTYLE
  5
33
102
{ACAD_REACTORS
330
2A
102
}
330
2A
100
AcDbVisualStyle
  2
Realistic
 70
     8
177
     3
291
     0
 70
    58
 90
        2
176
     1
 90
        3
176
     1
 90
        0
176
     1
 90
        2
176
     1
 40
0.6
176
     1
 40
30.0
176
     1
 62
     7
420
 16777215
176
     1
 90
        0
176
     1
 90
        0
176
     1
 62
     7
176
     1
 62
   257
176
     1
 90
        1
176
     1
 90
        1
176
     1
 40
1.0
176
     1
 90
        8
176
     1
 62
   257
176
     1
 40
1.0
176
     1
 90
        1
176
     1
 90
        6
176
     1
 90
        2
176
     1
 62
     7
176
     1
 90
        3
176
     1
 90
        0
176
     1
 90
        0
176
     1
290
     0
176
     1
 90
       13
176
     1
 40
0.0
176
     1
 90
        0
176
     1
290
     0
176
     1
290
     1
176
     1
290
     1
176
     1
290
     0
176
     1
290
     0
176
     1
290
     0
176
     1
290
     0
176
     1
290
     0
176
     1
290
     0
176
     1
 90
       50
176
     1
 40
0.0
176
     1
 40
1.0
176
     1
 90
        0
176
     1
 62
    18
420
        0
176
     1
 90
       50
176
     1
 90
        3
176
     1
 62
     5
420
      255
176
     1
290
     0
176
     1
 90
       50
176
     1
 90
       50
176
     1
 90
       50
176
     1
290
     0
176
     1
 90
       50
176
     1
 62
   256
176
     0
 40
1.0
176
     0
 90
        2
176
     1
  1
strokes_ogs.tif
176
     1
290
     0
176
     1
 40
1.0
176
     1
 40
1.0
176
     1
  0
VISUALSTYLE
  5
42
102
{ACAD_REACTORS
330
2A
102
}
330
2A
100
AcDbVisualStyle
  2
Shaded
 70
    27
177
     3
291
     0
 70
    58
 90
        2
176
     1
 90
        2
176
     1
 90
        1
176
     1
 90
        2
176
     1
 40
0.6
176
     1
 40
30.0
176
     1
 62
     7
420
 16777215
176
     1
 90
        0
176
     1
 90
        4
176
     1
 62
     7
176
     1
 62
   257
176
     1
 90
        1
176
     1
 90
        1
176
     1
 40
1.0
176
     1
 90
        8
176
     1
 62
   257
176
     1
 40
1.0
176
     1
 90
        1
176
     1
 90
        6
176
     1
 90
        2
176
     1
 62
     8
420
  7895160
176
     1
 90
        3
176
     1
 90
        0
176
     1
 90
        0
176
     1
290
     0
176
     1
 90
        5
176
     1
 40
0.0
176
     1
 90
        0
176
     1
290
     0
176
     1
290
     1
176
     1
290
     1
176
     1
290
     0
176
     1
290
     0
176
     1
290
     0
176
     1
290
     0
176
     1
290
     0
176
     1
290
     0
176
     1
 90
       50
176
     1
 40
0.0
176
     1
 40
1.0
176
     1
 90
        0
176
     1
 62
    18
420
        0
176
     1
 90
       50
176
     1
 90
        3
176
     1
 62
     5
420
      255
176
     1
290
     0
176
     1
 90
       50
176
     1
 90
       50
176
     1
 90
       50
176
     1
290
     0
176
     1
 90
       50
176
     1
 62
   256
176
     0
 40
1.0
176
     0
 90
        2
176
     1
  1
strokes_ogs.tif
176
     1
290
     0
176
     1
 40
1.0
176
     1
 40
1.0
176
     1
  0
VISUALSTYLE
  5
41
102
{ACAD_REACTORS
330
2A
102
}
330
2A
100
AcDbVisualStyle
  2
Shaded with edges
 70
    26
177
     3
291
     0
 70
    58
 90
        2
176
     1
 90
        2
176
     1
 90
        1
176
     1
 90
        2
176
     1
 40
0.6
176
     1
 40
30.0
176
     1
 62
     7
420
 16777215
176
     1
 90
        1
176
     1
 90
       10
176
     1
 62
     7
176
     1
 62
   257
176
     1
 90
        2
176
     1
 90
        1
176
     1
 40
1.0
176
     1
 90
        8
176
     1
 62
   257
176
     1
 40
1.0
176
     1
 90
        1
176
     1
 90
        6
176
     1
 90
        2
176
     1
 62
     7
176
     1
 90
        3
176
     1
 90
        0
176
     1
 90
        0
176
     1
290
     0
176
     1
 90
        5
176
     1
 40
0.0
176
     1
 90
        0
176
     1
290
     0
176
     1
290
     1
176
     1
290
     1
176
     1
290
     0
176
     1
290
     0
176
     1
290
     0
176
     1
290
     0
176
     1
290
     0
176
     1
290
     0
176
     1
 90
       50
176
     1
 40
0.0
176
     1
 40
1.0
176
     1
 90
        0
176
     1
 62
    18
420
        0
176
     1
 90
       50
176
     1
 90
        3
176
     1
 62
     5
420
      255
176
     1
290
     0
176
     1
 90
       50
176
     1
 90
       50
176
     1
 90
       50
176
     1
290
     0
176
     1
 90
       50
176
     1
 62
   256
176
     0
 40
1.0
176
     0
 90
        2
176
     1
  1
strokes_ogs.tif
176
     1
290
     0
176
     1
 40
1.0
176
     1
 40
1.0
176
     1
  0
VISUALSTYLE
  5
3E
102
{ACAD_REACTORS
330
2A
102
}
330
2A
100
AcDbVisualStyle
  2
Shades of Gray
 70
    23
177
     3
291
     0
 70
    58
 90
        2
176
     1
 90
        2
176
     1
 90
        3
176
     1
 90
        0
176
     1
 40
0.6
176
     1
 40
30.0
176
     1
 62
     7
420
 16777215
176
     1
 90
        2
176
     1
 90
        2
176
     1
 62
     7
176
     1
 62
     7
176
     1
 90
        1
176
     1
 90
        1
176
     1
 40
40.0
176
     1
 90
        8
176
     1
 62
     7
176
     1
 40
1.0
176
     1
 90
        1
176
     1
 90
        6
176
     1
 90
        2
176
     1
 62
     7
176
     1
 90
        3
176
     1
 90
        0
176
     1
 90
        0
176
     1
290
     0
176
     1
 90
        1
176
     1
 40
0.0
176
     1
 90
        0
176
     1
290
     0
176
     1
290
     1
176
     1
290
     1
176
     1
290
     0
176
     1
290
     0
176
     1
290
     0
176
     1
290
     0
176
     1
290
     0
176
     1
290
     0
176
     1
 90
       50
176
     1
 40
0.0
176
     1
 40
1.0
176
     1
 90
        0
176
     1
 62
    18
420
        0
176
     1
 90
       50
176
     1
 90
        3
176
     1
 62
     5
420
      255
176
     1
290
     0
176
     1
 90
       50
176
     1
 90
       50
176
     1
 90
       50
176
     1
290
     0
176
     1
 90
       50
176
     1
 62
   256
176
     0
 40
1.0
176
     0
 90
        2
176
     1
  1
strokes_ogs.tif
176
     1
290
     0
176
     1
 40
1.0
176
     1
 40
1.0
176
     1
  0
VISUALSTYLE
  5
3F
102
{ACAD_REACTORS
330
2A
102
}
330
2A
100
AcDbVisualStyle
  2
Sketchy
 70
    24
177
     3
291
     0
 70
    58
 90
        1
176
     1
 90
        2
176
     1
 90
        2
176
     1
 90
        0
176
     1
 40
0.6
176
     1
 40
30.0
176
     1
 62
     7
420
 16777215
176
     1
 90
        2
176
     1
 90
        2
176
     1
 62
     7
176
     1
 62
     7
176
     1
 90
        1
176
     1
 90
        1
176
     1
 40
40.0
176
     1
 90
       11
176
     1
 62
     7
176
     1
 40
1.0
176
     1
 90
        1
176
     1
 90
        6
176
     1
 90
        2
176
     1
 62
     7
176
     1
 90
        6
176
     1
 90
        0
176
     1
 90
        0
176
     1
290
     0
176
     1
 90
        1
176
     1
 40
0.0
176
     1
 90
        0
176
     1
290
     0
176
     1
290
     1
176
     1
290
     1
176
     1
290
     0
176
     1
290
     0
176
     1
290
     0
176
     1
290
     0
176
     1
290
     0
176
     1
290
     0
176
     1
 90
       50
176
     1
 40
0.0
176
     1
 40
1.0
176
     1
 90
        0
176
     1
 62
    18
420
        0
176
     1
 90
       50
176
     1
 90
        3
176
     1
 62
     5
420
      255
176
     1
290
     0
176
     1
 90
       50
176
     1
 90
       50
176
     1
 90
       50
176
     1
290
     0
176
     1
 90
       50
176
     1
 62
   256
176
     0
 40
1.0
176
     0
 90
        2
176
     1
  1
strokes_ogs.tif
176
     1
290
     0
176
     1
 40
1.0
176
     1
 40
1.0
176
     1
  0
VISUALSTYLE
  5
37
102
{ACAD_REACTORS
330
2A
102
}
330
2A
100
AcDbVisualStyle
  2
Thicken
 70
    13
177
     3
291
     1
 70
    58
 90
        2
176
     1
 90
        2
176
     1
 90
        0
176
     1
 90
        0
176
     1
 40
0.6
176
     1
 40
30.0
176
     1
 62
     7
420
 16777215
176
     1
 90
        1
176
     1
 90
        4
176
     1
 62
     7
176
     1
 62
   257
176
     1
 90
        1
176
     1
 90
        1
176
     1
 40
1.0
176
     1
 90
       12
176
     1
 62
     7
176
     1
 40
1.0
176
     1
 90
        1
176
     1
 90
        6
176
     1
 90
        2
176
     1
 62
     7
176
     1
 90
        5
176
     1
 90
        0
176
     1
 90
        0
176
     1
290
     0
176
     1
 90
        1
176
     1
 40
0.0
176
     1
 90
        0
176
     1
290
     0
176
     1
290
     1
176
     1
290
     1
176
     1
290
     0
176
     1
290
     0
176
     1
290
     0
176
     1
290
     0
176
     1
290
     0
176
     1
290
     0
176
     1
 90
       50
176
     1
 40
0.0
176
     1
 40
1.0
176
     1
 90
        0
176
     1
 62
    18
420
        0
176
     1
 90
       50
176
     1
 90
        3
176
     1
 62
     5
420
      255
176
     1
290
     0
176
     1
 90
       50
176
     1
 90
       50
176
     1
 90
       50
176
     1
290
     0
176
     1
 90
       50
176
     1
 62
   256
176
     0
 40
1.0
176
     0
 90
        2
176
     1
  1
strokes_ogs.tif
176
     1
290
     0
176
     1
 40
1.0
176
     1
 40
1.0
176
     1
  0
VISUALSTYLE
  5
30
102
{ACAD_REACTORS
330
2A
102
}
330
2A
100
AcDbVisualStyle
  2
Wireframe
 70
     5
177
     3
291
     0
 70
    58
 90
        0
176
     1
 90
        2
176
     1
 90
        0
176
     1
 90
        0
176
     1
 40
0.6
176
     1
 40
30.0
176
     1
 62
     7
420
 16777215
176
     1
 90
        1
176
     1
 90
        4
176
     1
 62
     7
176
     1
 62
   257
176
     1
 90
        1
176
     1
 90
        1
176
     1
 40
1.0
176
     1
 90
        0
176
     1
 62
   257
176
     1
 40
1.0
176
     1
 90
        1
176
     1
 90
        6
176
     1
 90
        2
176
     1
 62
     7
176
     1
 90
        3
176
     1
 90
        0
176
     1
 90
        0
176
     1
290
     0
176
     1
 90
        1
176
     1
 40
0.0
176
     1
 90
        0
176
     1
290
     0
176
     1
290
     1
176
     1
290
     1
176
     1
290
     0
176
     1
290
     0
176
     1
290
     0
176
     1
290
     0
176
     1
290
     0
176
     1
290
     0
176
     1
 90
       50
176
     1
 40
0.0
176
     1
 40
1.0
176
     1
 90
        0
176
     1
 62
    18
420
        0
176
     1
 90
       50
176
     1
 90
        3
176
     1
 62
     5
420
      255
176
     1
290
     0
176
     1
 90
       50
176
     1
 90
       50
176
     1
 90
       50
176
     1
290
     0
176
     1
 90
       50
176
     1
 62
   256
176
     0
 40
1.0
176
     0
 90
        2
176
     1
  1
strokes_ogs.tif
176
     1
290
     0
176
     1
 40
1.0
176
     1
 40
1.0
176
     1
  0
VISUALSTYLE
  5
40
102
{ACAD_REACTORS
330
2A
102
}
330
2A
100
AcDbVisualStyle
  2
X-Ray
 70
    25
177
     3
291
     0
 70
    58
 90
        2
176
     1
 90
        2
176
     1
 90
        1
176
     1
 90
        1
176
     1
 40
0.5
176
     1
 40
30.0
176
     1
 62
     7
420
 16777215
176
     1
 90
        1
176
     1
 90
        0
176
     1
 62
     7
176
     1
 62
   257
176
     1
 90
        1
176
     1
 90
        1
176
     1
 40
1.0
176
     1
 90
        8
176
     1
 62
     7
176
     1
 40
1.0
176
     1
 90
        1
176
     1
 90
        6
176
     1
 90
        2
176
     1
 62
     7
176
     1
 90
        3
176
     1
 90
        0
176
     1
 90
        0
176
     1
290
     0
176
     1
 90
       13
176
     1
 40
0.0
176
     1
 90
        0
176
     1
290
     0
176
     1
290
     1
176
     1
290
     1
176
     1
290
     0
176
     1
290
     0
176
     1
290
     0
176
     1
290
     0
176
     1
290
     0
176
     1
290
     0
176
     1
 90
       50
176
     1
 40
0.0
176
     1
 40
1.0
176
     1
 90
        0
176
     1
 62
    18
420
        0
176
     1
 90
       50
176
     1
 90
        3
176
     1
 62
     5
420
      255
176
     1
290
     0
176
     1
 90
       50
176
     1
 90
       50
176
     1
 90
       50
176
     1
290
     0
176
     1
 90
       50
176
     1
 62
   256
176
     0
 40
1.0
176
     0
 90
        2
176
     1
  1
strokes_ogs.tif
176
     1
290
     0
176
     1
 40
1.0
176
     1
 40
1.0
176
     1
  0
DICTIONARYVAR
  5
231
102
{ACAD_REACTORS
330
230
102
}
330
230
100
DictionaryVariables
280
     0
  1
1:1
  0
DICTIONARYVAR
  5
236
102
{ACAD_REACTORS
330
230
102
}
330
230
100
DictionaryVariables
280
     0
  1
Standard
  0
DICTIONARYVAR
  5
235
102
{ACAD_REACTORS
330
230
102
}
330
230
100
DictionaryVariables
280
     0
  1
Standard
  0
DICTIONARY
  5
232
330
6A
100
AcDbDictionary
280
     1
281
     1
  3
ACAD_ROUNDTRIP_2008_TABLESTYLE_CELLSTYLEMAP
360
233
  0
CELLSTYLEMAP
  5
233
102
{ACAD_REACTORS
330
232
102
}
330
232
100
AcDbCellStyleMap
 90
        3
300
CELLSTYLE
  1
TABLEFORMAT_BEGIN
 90
        5
170
     1
 91
        0
 92
    32768
 62
   257
 93
        1
300
CONTENTFORMAT
  1
CONTENTFORMAT_BEGIN
 90
        0
 91
        0
 92
        4
 93
        0
300

 40
0.0
140
1.0
 94
        5
 62
     0
340
11
144
0.25
309
CONTENTFORMAT_END
171
     1
301
MARGIN
  1
CELLMARGIN_BEGIN
 40
0.06
 40
0.06
 40
0.06
 40
0.06
 40
0.06
 40
0.06
309
CELLMARGIN_END
 94
        6
 95
        1
302
GRIDFORMAT
  1
GRIDFORMAT_BEGIN
 90
        0
 91
        1
 62
     0
 92
       -2
340
14
 93
        0
 40
0.045
309
GRIDFORMAT_END
 95
        2
302
GRIDFORMAT
  1
GRIDFORMAT_BEGIN
 90
        0
 91
        1
 62
     0
 92
       -2
340
14
 93
        0
 40
0.045
309
GRIDFORMAT_END
 95
        4
302
GRIDFORMAT
  1
GRIDFORMAT_BEGIN
 90
        0
 91
        1
 62
     0
 92
       -2
340
14
 93
        0
 40
0.045
309
GRIDFORMAT_END
 95
        8
302
GRIDFORMAT
  1
GRIDFORMAT_BEGIN
 90
        0
 91
        1
 62
     0
 92
       -2
340
14
 93
        0
 40
0.045
309
GRIDFORMAT_END
 95
       16
302
GRIDFORMAT
  1
GRIDFORMAT_BEGIN
 90
        0
 91
        1
 62
     0
 92
       -2
340
14
 93
        0
 40
0.045
309
GRIDFORMAT_END
 95
       32
302
GRIDFORMAT
  1
GRIDFORMAT_BEGIN
 90
        0
 91
        1
 62
     0
 92
       -2
340
14
 93
        0
 40
0.045
309
GRIDFORMAT_END
309
TABLEFORMAT_END
  1
CELLSTYLE_BEGIN
 90
        1
 91
        1
300
_TITLE
309
CELLSTYLE_END
300
CELLSTYLE
  1
TABLEFORMAT_BEGIN
 90
        5
170
     1
 91
        0
 92
        0
 62
   257
 93
        1
300
CONTENTFORMAT
  1
CONTENTFORMAT_BEGIN
 90
        0
 91
        0
 92
        4
 93
        0
300

 40
0.0
140
1.0
 94
        5
 62
     0
340
11
144
0.18
309
CONTENTFORMAT_END
171
     1
301
MARGIN
  1
CELLMARGIN_BEGIN
 40
0.06
 40
0.06
 40
0.06
 40
0.06
 40
0.06
 40
0.06
309
CELLMARGIN_END
 94
        6
 95
        1
302
GRIDFORMAT
  1
GRIDFORMAT_BEGIN
 90
        0
 91
        1
 62
     0
 92
       -2
340
14
 93
        0
 40
0.045
309
GRIDFORMAT_END
 95
        2
302
GRIDFORMAT
  1
GRIDFORMAT_BEGIN
 90
        0
 91
        1
 62
     0
 92
       -2
340
14
 93
        0
 40
0.045
309
GRIDFORMAT_END
 95
        4
302
GRIDFORMAT
  1
GRIDFORMAT_BEGIN
 90
        0
 91
        1
 62
     0
 92
       -2
340
14
 93
        0
 40
0.045
309
GRIDFORMAT_END
 95
        8
302
GRIDFORMAT
  1
GRIDFORMAT_BEGIN
 90
        0
 91
        1
 62
     0
 92
       -2
340
14
 93
        0
 40
0.045
309
GRIDFORMAT_END
 95
       16
302
GRIDFORMAT
  1
GRIDFORMAT_BEGIN
 90
        0
 91
        1
 62
     0
 92
       -2
340
14
 93
        0
 40
0.045
309
GRIDFORMAT_END
 95
       32
302
GRIDFORMAT
  1
GRIDFORMAT_BEGIN
 90
        0
 91
        1
 62
     0
 92
       -2
340
14
 93
        0
 40
0.045
309
GRIDFORMAT_END
309
TABLEFORMAT_END
  1
CELLSTYLE_BEGIN
 90
        2
 91
        1
300
_HEADER
309
CELLSTYLE_END
300
CELLSTYLE
  1
TABLEFORMAT_BEGIN
 90
        5
170
     1
 91
        0
 92
        0
 62
   257
 93
        1
300
CONTENTFORMAT
  1
CONTENTFORMAT_BEGIN
 90
        0
 91
        0
 92
        4
 93
        0
300

 40
0.0
140
1.0
 94
        2
 62
     0
340
11
144
0.18
309
CONTENTFORMAT_END
171
     1
301
MARGIN
  1
CELLMARGIN_BEGIN
 40
0.06
 40
0.06
 40
0.06
 40
0.06
 40
0.06
 40
0.06
309
CELLMARGIN_END
 94
        6
 95
        1
302
GRIDFORMAT
  1
GRIDFORMAT_BEGIN
 90
        0
 91
        1
 62
     0
 92
       -2
340
14
 93
        0
 40
0.045
309
GRIDFORMAT_END
 95
        2
302
GRIDFORMAT
  1
GRIDFORMAT_BEGIN
 90
        0
 91
        1
 62
     0
 92
       -2
340
14
 93
        0
 40
0.045
309
GRIDFORMAT_END
 95
        4
302
GRIDFORMAT
  1
GRIDFORMAT_BEGIN
 90
        0
 91
        1
 62
     0
 92
       -2
340
14
 93
        0
 40
0.045
309
GRIDFORMAT_END
 95
        8
302
GRIDFORMAT
  1
GRIDFORMAT_BEGIN
 90
        0
 91
        1
 62
     0
 92
       -2
340
14
 93
        0
 40
0.045
309
GRIDFORMAT_END
 95
       16
302
GRIDFORMAT
  1
GRIDFORMAT_BEGIN
 90
        0
 91
        1
 62
     0
 92
       -2
340
14
 93
        0
 40
0.045
309
GRIDFORMAT_END
 95
       32
302
GRIDFORMAT
  1
GRIDFORMAT_BEGIN
 90
        0
 91
        1
 62
     0
 92
       -2
340
14
 93
        0
 40
0.045
309
GRIDFORMAT_END
309
TABLEFORMAT_END
  1
CELLSTYLE_BEGIN
 90
        3
 91
        2
300
_DATA
309
CELLSTYLE_END
  0
ENDSEC
  0
EOF