0
SECTION
  2
HEADER
  9
$ACADVER
  1
AC1027
  9
$ACADMAINTVER
 70
     8
  9
$DWGCODEPAGE
  3
ANSI_1252
  9
$REQUIREDVERSIONS
160
                 0
  9
$COMMENTS
  1
File was created by Cadenas
  9
$CUSTOMPROPERTYTAG
  1
NN
  9
$CUSTOMPROPERTY
  1
Imperial - IP Pillow Block with Type E Dimensions 2-1/4 thru 7 inch 4-Bolt Trident Seal Expansion
  9
$CUSTOMPROPERTYTAG
  1
NT
  9
$CUSTOMPROPERTY
  1
Imperial/E 4 Bolt Piliow Block Bearings
  9
$CUSTOMPROPERTYTAG
  1
NB
  9
$CUSTOMPROPERTY
  1
071230
  9
$CUSTOMPROPERTYTAG
  1
NBSYN
  9
$CUSTOMPROPERTY
  1
$PN.
  9
$CUSTOMPROPERTYTAG
  1
LINA
  9
$CUSTOMPROPERTY
  1
071230
  9
$CUSTOMPROPERTYTAG
  1
SS
  9
$CUSTOMPROPERTY
  1
3-7/16
  9
$CUSTOMPROPERTYTAG
  1
TYPE
  9
$CUSTOMPROPERTY
  1
Expansion
  9
$CUSTOMPROPERTYTAG
  1
PN
  9
$CUSTOMPROPERTY
  1
071230
  9
$CUSTOMPROPERTYTAG
  1
DESCRIPTION
  9
$CUSTOMPROPERTY
  1
EP4B-IP-307RE
  9
$CUSTOMPROPERTYTAG
  1
ST
  9
$CUSTOMPROPERTY
  1
Contact Seal
  9
$CUSTOMPROPERTYTAG
  1
A
  9
$CUSTOMPROPERTY
  1
4.17
  9
$CUSTOMPROPERTYTAG
  1
B
  9
$CUSTOMPROPERTY
  1
13.5
  9
$CUSTOMPROPERTYTAG
  1
C
  9
$CUSTOMPROPERTY
  1
4.49
  9
$CUSTOMPROPERTYTAG
  1
DMIN
  9
$CUSTOMPROPERTY
  1
10.75
  9
$CUSTOMPROPERTYTAG
  1
DMAX
  9
$CUSTOMPROPERTY
  1
11.25
  9
$CUSTOMPROPERTYTAG
  1
E
  9
$CUSTOMPROPERTY
  1
2.37
  9
$CUSTOMPROPERTYTAG
  1
F
  9
$CUSTOMPROPERTY
  1
3/4
  9
$CUSTOMPROPERTYTAG
  1
G
  9
$CUSTOMPROPERTY
  1
1.13
  9
$CUSTOMPROPERTYTAG
  1
H
  9
$CUSTOMPROPERTY
  1
2.25
  9
$CUSTOMPROPERTYTAG
  1
J
  9
$CUSTOMPROPERTY
  1
7.69
  9
$CUSTOMPROPERTYTAG
  1
L
  9
$CUSTOMPROPERTY
  1
5
  9
$CUSTOMPROPERTYTAG
  1
M
  9
$CUSTOMPROPERTY
  1
3.75
  9
$CUSTOMPROPERTYTAG
  1
R
  9
$CUSTOMPROPERTY
  1
1.54
  9
$CUSTOMPROPERTYTAG
  1
S
  9
$CUSTOMPROPERTY
  1
2.63
  9
$CUSTOMPROPERTYTAG
  1
X
  9
$CUSTOMPROPERTY
  1
0.25
  9
$CUSTOMPROPERTYTAG
  1
Y
  9
$CUSTOMPROPERTY
  1
0.025
  9
$CUSTOMPROPERTYTAG
  1
Z
  9
$CUSTOMPROPERTY
  1
4.05
  9
$CUSTOMPROPERTYTAG
  1
COMPANY
  9
$CUSTOMPROPERTY
  1
baldor
  9
$INSBASE
 10
0.0
 20
0.0
 30
0.0
  9
$EXTMIN
 10
1.000000000000000E+20
 20
1.000000000000000E+20
 30
1.000000000000000E+20
  9
$EXTMAX
 10
-1.000000000000000E+20
 20
-1.000000000000000E+20
 30
-1.000000000000000E+20
  9
$LIMMIN
 10
0.0
 20
0.0
  9
$LIMMAX
 10
12.0
 20
9.0
  9
$ORTHOMODE
 70
     0
  9
$REGENMODE
 70
     1
  9
$FILLMODE
 70
     1
  9
$QTEXTMODE
 70
     0
  9
$MIRRTEXT
 70
     1
  9
$LTSCALE
 40
1.0
  9
$ATTMODE
 70
     1
  9
$TEXTSIZE
 40
0.2
  9
$TRACEWID
 40
0.05
  9
$TEXTSTYLE
  7
Standard
  9
$CLAYER
  8
0
  9
$CELTYPE
  6
ByLayer
  9
$CECOLOR
 62
   256
  9
$CELTSCALE
 40
1.0
  9
$DISPSILH
 70
     0
  9
$DIMSCALE
 40
1.0
  9
$DIMASZ
 40
0.18
  9
$DIMEXO
 40
0.0625
  9
$DIMDLI
 40
0.38
  9
$DIMRND
 40
0.0
  9
$DIMDLE
 40
0.0
  9
$DIMEXE
 40
0.18
  9
$DIMTP
 40
0.0
  9
$DIMTM
 40
0.0
  9
$DIMTXT
 40
0.18
  9
$DIMCEN
 40
0.09
  9
$DIMTSZ
 40
0.0
  9
$DIMTOL
 70
     0
  9
$DIMLIM
 70
     0
  9
$DIMTIH
 70
     1
  9
$DIMTOH
 70
     1
  9
$DIMSE1
 70
     0
  9
$DIMSE2
 70
     0
  9
$DIMTAD
 70
     0
  9
$DIMZIN
 70
     0
  9
$DIMBLK
  1

  9
$DIMASO
 70
     1
  9
$DIMSHO
 70
     1
  9
$DIMPOST
  1

  9
$DIMAPOST
  1

  9
$DIMALT
 70
     0
  9
$DIMALTD
 70
     2
  9
$DIMALTF
 40
25.4
  9
$DIMLFAC
 40
1.0
  9
$DIMTOFL
 70
     0
  9
$DIMTVP
 40
0.0
  9
$DIMTIX
 70
     0
  9
$DIMSOXD
 70
     0
  9
$DIMSAH
 70
     0
  9
$DIMBLK1
  1

  9
$DIMBLK2
  1

  9
$DIMSTYLE
  2
Standard
  9
$DIMCLRD
 70
     0
  9
$DIMCLRE
 70
     0
  9
$DIMCLRT
 70
     0
  9
$DIMTFAC
 40
1.0
  9
$DIMGAP
 40
0.09
  9
$DIMJUST
 70
     0
  9
$DIMSD1
 70
     0
  9
$DIMSD2
 70
     0
  9
$DIMTOLJ
 70
     1
  9
$DIMTZIN
 70
     0
  9
$DIMALTZ
 70
     0
  9
$DIMALTTZ
 70
     0
  9
$DIMUPT
 70
     0
  9
$DIMDEC
 70
     4
  9
$DIMTDEC
 70
     4
  9
$DIMALTU
 70
     2
  9
$DIMALTTD
 70
     2
  9
$DIMTXSTY
  7
Standard
  9
$DIMAUNIT
 70
     0
  9
$DIMADEC
 70
     0
  9
$DIMALTRND
 40
0.0
  9
$DIMAZIN
 70
     0
  9
$DIMDSEP
 70
    46
  9
$DIMATFIT
 70
     3
  9
$DIMFRAC
 70
     0
  9
$DIMLDRBLK
  1

  9
$DIMLUNIT
 70
     2
  9
$DIMLWD
 70
    -2
  9
$DIMLWE
 70
    -2
  9
$DIMTMOVE
 70
     0
  9
$DIMFXL
 40
1.0
  9
$DIMFXLON
 70
     0
  9
$DIMJOGANG
 40
0.7853981633974483
  9
$DIMTFILL
 70
     0
  9
$DIMTFILLCLR
 70
     0
  9
$DIMARCSYM
 70
     0
  9
$DIMLTYPE
  6

  9
$DIMLTEX1
  6

  9
$DIMLTEX2
  6

  9
$DIMTXTDIRECTION
 70
     0
  9
$LUNITS
 70
     2
  9
$LUPREC
 70
     4
  9
$SKETCHINC
 40
0.1
  9
$FILLETRAD
 40
0.5
  9
$AUNITS
 70
     0
  9
$AUPREC
 70
     0
  9
$MENU
  1
.
  9
$ELEVATION
 40
0.0
  9
$PELEVATION
 40
0.0
  9
$THICKNESS
 40
0.0
  9
$LIMCHECK
 70
     0
  9
$CHAMFERA
 40
0.0
  9
$CHAMFERB
 40
0.0
  9
$CHAMFERC
 40
0.0
  9
$CHAMFERD
 40
0.0
  9
$SKPOLY
 70
     0
  9
$TDCREATE
 40
2458168.982385532
  9
$TDUCREATE
 40
2458168.940718866
  9
$TDUPDATE
 40
2458168.982385706
  9
$TDUUPDATE
 40
2458168.940719039
  9
$TDINDWG
 40
0.0000000116
  9
$TDUSRTIMER
 40
0.0000000116
  9
$USRTIMER
 70
     1
  9
$ANGBASE
 50
0.0
  9
$ANGDIR
 70
     0
  9
$PDMODE
 70
     0
  9
$PDSIZE
 40
0.0
  9
$PLINEWID
 40
0.0
  9
$SPLFRAME
 70
     0
  9
$SPLINETYPE
 70
     6
  9
$SPLINESEGS
 70
     8
  9
$HANDSEED
  5
279
  9
$SURFTAB1
 70
     6
  9
$SURFTAB2
 70
     6
  9
$SURFTYPE
 70
     6
  9
$SURFU
 70
     6
  9
$SURFV
 70
     6
  9
$UCSBASE
  2

  9
$UCSNAME
  2

  9
$UCSORG
 10
0.0
 20
0.0
 30
0.0
  9
$UCSXDIR
 10
1.0
 20
0.0
 30
0.0
  9
$UCSYDIR
 10
0.0
 20
1.0
 30
0.0
  9
$UCSORTHOREF
  2

  9
$UCSORTHOVIEW
 70
     0
  9
$UCSORGTOP
 10
0.0
 20
0.0
 30
0.0
  9
$UCSORGBOTTOM
 10
0.0
 20
0.0
 30
0.0
  9
$UCSORGLEFT
 10
0.0
 20
0.0
 30
0.0
  9
$UCSORGRIGHT
 10
0.0
 20
0.0
 30
0.0
  9
$UCSORGFRONT
 10
0.0
 20
0.0
 30
0.0
  9
$UCSORGBACK
 10
0.0
 20
0.0
 30
0.0
  9
$PUCSBASE
  2

  9
$PUCSNAME
  2

  9
$PUCSORG
 10
0.0
 20
0.0
 30
0.0
  9
$PUCSXDIR
 10
1.0
 20
0.0
 30
0.0
  9
$PUCSYDIR
 10
0.0
 20
1.0
 30
0.0
  9
$PUCSORTHOREF
  2

  9
$PUCSORTHOVIEW
 70
     0
  9
$PUCSORGTOP
 10
0.0
 20
0.0
 30
0.0
  9
$PUCSORGBOTTOM
 10
0.0
 20
0.0
 30
0.0
  9
$PUCSORGLEFT
 10
0.0
 20
0.0
 30
0.0
  9
$PUCSORGRIGHT
 10
0.0
 20
0.0
 30
0.0
  9
$PUCSORGFRONT
 10
0.0
 20
0.0
 30
0.0
  9
$PUCSORGBACK
 10
0.0
 20
0.0
 30
0.0
  9
$USERI1
 70
     0
  9
$USERI2
 70
     0
  9
$USERI3
 70
     0
  9
$USERI4
 70
     0
  9
$USERI5
 70
     0
  9
$USERR1
 40
0.0
  9
$USERR2
 40
0.0
  9
$USERR3
 40
0.0
  9
$USERR4
 40
0.0
  9
$USERR5
 40
0.0
  9
$WORLDVIEW
 70
     1
  9
$SHADEDGE
 70
     3
  9
$SHADEDIF
 70
    70
  9
$TILEMODE
 70
     1
  9
$MAXACTVP
 70
    64
  9
$PINSBASE
 10
0.0
 20
0.0
 30
0.0
  9
$PLIMCHECK
 70
     0
  9
$PEXTMIN
 10
1.000000000000000E+20
 20
1.000000000000000E+20
 30
1.000000000000000E+20
  9
$PEXTMAX
 10
-1.000000000000000E+20
 20
-1.000000000000000E+20
 30
-1.000000000000000E+20
  9
$PLIMMIN
 10
0.0
 20
0.0
  9
$PLIMMAX
 10
12.0
 20
9.0
  9
$UNITMODE
 70
     0
  9
$VISRETAIN
 70
     1
  9
$PLINEGEN
 70
     0
  9
$PSLTSCALE
 70
     1
  9
$TREEDEPTH
 70
  3020
  9
$CMLSTYLE
  2
Standard
  9
$CMLJUST
 70
     0
  9
$CMLSCALE
 40
1.0
  9
$PROXYGRAPHICS
 70
     1
  9
$MEASUREMENT
 70
     0
  9
$CELWEIGHT
370
    -1
  9
$ENDCAPS
280
     0
  9
$JOINSTYLE
280
     0
  9
$LWDISPLAY
290
     0
  9
$INSUNITS
 70
     1
  9
$HYPERLINKBASE
  1

  9
$STYLESHEET
  1

  9
$XEDIT
290
     1
  9
$CEPSNTYPE
380
     0
  9
$PSTYLEMODE
290
     1
  9
$FINGERPRINTGUID
  2
{0FE378BF-F3DE-4E4B-8F86-2063C0A41650}
  9
$VERSIONGUID
  2
{FAEB1C32-E019-11D5-929B-00C0DF256EC4}
  9
$EXTNAMES
290
     1
  9
$PSVPSCALE
 40
0.0
  9
$OLESTARTUP
290
     0
  9
$SORTENTS
280
   127
  9
$INDEXCTL
280
     0
  9
$HIDETEXT
280
     1
  9
$XCLIPFRAME
280
     2
  9
$HALOGAP
280
     0
  9
$OBSCOLOR
 70
   257
  9
$OBSLTYPE
280
     0
  9
$INTERSECTIONDISPLAY
280
     0
  9
$INTERSECTIONCOLOR
 70
   257
  9
$DIMASSOC
280
     2
  9
$PROJECTNAME
  1

  9
$CAMERADISPLAY
290
     0
  9
$LENSLENGTH
 40
50.0
  9
$CAMERAHEIGHT
 40
0.0
  9
$STEPSPERSEC
 40
2.0
  9
$STEPSIZE
 40
6.0
  9
$3DDWFPREC
 40
2.0
  9
$PSOLWIDTH
 40
0.25
  9
$PSOLHEIGHT
 40
4.0
  9
$LOFTANG1
 40
1.570796326794897
  9
$LOFTANG2
 40
1.570796326794897
  9
$LOFTMAG1
 40
0.0
  9
$LOFTMAG2
 40
0.0
  9
$LOFTPARAM
 70
     7
  9
$LOFTNORMALS
280
     1
  9
$LATITUDE
 40
37.795
  9
$LONGITUDE
 40
-122.394
  9
$NORTHDIRECTION
 40
0.0
  9
$TIMEZONE
 70
 -8000
  9
$LIGHTGLYPHDISPLAY
280
     1
  9
$TILEMODELIGHTSYNCH
280
     1
  9
$CMATERIAL
347
44
  9
$SOLIDHIST
280
     0
  9
$SHOWHIST
280
     1
  9
$DWFFRAME
280
     2
  9
$DGNFRAME
280
     2
  9
$REALWORLDSCALE
290
     1
  9
$INTERFERECOLOR
 62
   256
  9
$CSHADOW
280
     0
  9
$SHADOWPLANELOCATION
 40
0.0
  0
ENDSEC
  0
SECTION
  2
CLASSES
  0
CLASS
  1
ACDBDICTIONARYWDFLT
  2
AcDbDictionaryWithDefault
  3
ObjectDBX Classes
 90
        0
 91
        4
280
     0
281
     0
  0
CLASS
  1
VISUALSTYLE
  2
AcDbVisualStyle
  3
ObjectDBX Classes
 90
     4095
 91
        4
280
     0
281
     0
  0
CLASS
  1
MATERIAL
  2
AcDbMaterial
  3
ObjectDBX Classes
 90
     1153
 91
        4
280
     0
281
     0
  0
CLASS
  1
SCALE
  2
AcDbScale
  3
ObjectDBX Classes
 90
     1153
 91
        4
280
     0
281
     0
  0
CLASS
  1
TABLESTYLE
  2
AcDbTableStyle
  3
ObjectDBX Classes
 90
     4095
 91
        4
280
     0
281
     0
  0
CLASS
  1
MLEADERSTYLE
  2
AcDbMLeaderStyle
  3
ACDB_MLEADERSTYLE_CLASS
 90
     4095
 91
        4
280
     0
281
     0
  0
CLASS
  1
SUN
  2
AcDbSun
  3
SCENEOE
 90
     1153
 91
        4
280
     0
281
     0
  0
CLASS
  1
DICTIONARYVAR
  2
AcDbDictionaryVar
  3
ObjectDBX Classes
 90
        0
 91
        4
280
     0
281
     0
  0
CLASS
  1
CELLSTYLEMAP
  2
AcDbCellStyleMap
  3
ObjectDBX Classes
 90
     1152
 91
        4
280
     0
281
     0
  0
ENDSEC
  0
SECTION
  2
TABLES
  0
TABLE
  2
VPORT
  5
8
330
0
100
AcDbSymbolTable
 70
     1
  0
VPORT
  5
29
330
8
100
AcDbSymbolTableRecord
100
AcDbViewportTableRecord
  2
*Active
 70
     0
 10
0.0
 20
0.0
 11
1.0
 21
1.0
 12
-0.0802499999999995
 22
0.0950000000000006
 13
0.0
 23
0.0
 14
0.5
 24
0.5
 15
0.5
 25
0.5
 16
0.0
 26
0.0
 36
1.0
 17
0.0
 27
0.0
 37
0.0
 40
7.843800000000001
 41
0.6631339401820544
 42
50.0
 43
0.0
 44
0.0
 50
0.0
 51
0.0
 71
     0
 72
   100
 73
     1
 74
     3
 75
     0
 76
     0
 77
     0
 78
     0
281
     0
 65
     1
110
0.0
120
0.0
130
0.0
111
1.0
121
0.0
131
0.0
112
0.0
122
1.0
132
0.0
 79
     0
146
0.0
348
2F
 60
     3
 61
     5
292
     1
282
     1
141
0.0
142
0.0
 63
   250
361
6D
  0
ENDTAB
  0
TABLE
  2
LTYPE
  5
5
330
0
100
AcDbSymbolTable
 70
     3
  0
LTYPE
  5
14
330
5
100
AcDbSymbolTableRecord
100
AcDbLinetypeTableRecord
  2
ByBlock
 70
     0
  3

 72
    65
 73
     0
 40
0.0
  0
LTYPE
  5
15
330
5
100
AcDbSymbolTableRecord
100
AcDbLinetypeTableRecord
  2
ByLayer
 70
     0
  3

 72
    65
 73
     0
 40
0.0
  0
LTYPE
  5
16
330
5
100
AcDbSymbolTableRecord
100
AcDbLinetypeTableRecord
  2
Continuous
 70
     0
  3
Solid line
 72
    65
 73
     0
 40
0.0
  0
LTYPE
  5
9B
330
5
100
AcDbSymbolTableRecord
100
AcDbLinetypeTableRecord
  2
Dashed
 70
     0
  3

 72
    65
 73
     2
 40
2.0
 49
1.0
 74
     0
 49
-1.0
 74
     0
  0
LTYPE
  5
1E9
330
5
100
AcDbSymbolTableRecord
100
AcDbLinetypeTableRecord
  2
Center
 70
     0
  3

 72
    65
 73
     4
 40
1.5
 49
0.45
 74
     0
 49
-0.5
 74
     0
 49
0.05
 74
     0
 49
-0.5
 74
     0
  0
ENDTAB
  0
TABLE
  2
LAYER
  5
2
330
0
100
AcDbSymbolTable
 70
     7
  0
LAYER
  5
10
330
2
100
AcDbSymbolTableRecord
100
AcDbLayerTableRecord
  2
0
 70
     0
 62
     7
  6
Continuous
370
    -3
390
F
347
46
348
0
  0
LAYER
  5
72
330
2
100
AcDbSymbolTableRecord
100
AcDbLayerTableRecord
  2
AM_6
 70
     0
 62
    -2
  6
Continuous
370
    35
390
F
347
46
348
0
  0
LAYER
  5
9C
330
2
100
AcDbSymbolTableRecord
100
AcDbLayerTableRecord
  2
AM_9
 70
     0
 62
     6
  6
Dashed
370
    25
390
F
347
46
348
0
  0
LAYER
  5
102
330
2
100
AcDbSymbolTableRecord
100
AcDbLayerTableRecord
  2
AM_5
 70
     0
 62
     3
  6
Continuous
370
    25
390
F
347
46
348
0
  0
LAYER
  5
106
330
2
100
AcDbSymbolTableRecord
100
AcDbLayerTableRecord
  2
AM_4
 70
     0
 62
     7
  6
Continuous
370
    50
390
F
347
46
348
0
  0
LAYER
  5
1EA
330
2
100
AcDbSymbolTableRecord
100
AcDbLayerTableRecord
  2
AM_7
 70
     0
 62
     7
  6
Center
370
    25
390
F
347
46
348
0
  0
LAYER
  5
264
330
2
100
AcDbSymbolTableRecord
100
AcDbLayerTableRecord
  2
ConnectionPoints
 70
     0
 62
     7
  6
Continuous
370
    50
390
F
347
46
348
0
  0
ENDTAB
  0
TABLE
  2
STYLE
  5
3
330
0
100
AcDbSymbolTable
 70
     1
  0
STYLE
  5
11
330
3
100
AcDbSymbolTableRecord
100
AcDbTextStyleTableRecord
  2
Standard
 70
     0
 40
0.0
 41
1.0
 50
0.0
 71
     0
 42
0.2
  3
txt
  4

  0
ENDTAB
  0
TABLE
  2
VIEW
  5
6
330
0
100
AcDbSymbolTable
 70
     0
  0
ENDTAB
  0
TABLE
  2
UCS
  5
7
330
0
100
AcDbSymbolTable
 70
     0
  0
ENDTAB
  0
TABLE
  2
APPID
  5
9
330
0
100
AcDbSymbolTable
 70
     1
  0
APPID
  5
12
330
9
100
AcDbSymbolTableRecord
100
AcDbRegAppTableRecord
  2
ACAD
 70
     0
  0
ENDTAB
  0
TABLE
  2
DIMSTYLE
  5
A
330
0
100
AcDbSymbolTable
 70
     1
100
AcDbDimStyleTable
  0
DIMSTYLE
105
27
330
A
100
AcDbSymbolTableRecord
100
AcDbDimStyleTableRecord
  2
Standard
 70
     0
178
     0
340
11
  0
ENDTAB
  0
TABLE
  2
BLOCK_RECORD
  5
1
330
0
100
AcDbSymbolTable
 70
     8
  0
BLOCK_RECORD
  5
1F
330
1
100
AcDbSymbolTableRecord
100
AcDbBlockTableRecord
  2
*Model_Space
340
22
 70
     0
280
     1
281
     0
  0
BLOCK_RECORD
  5
1B
330
1
100
AcDbSymbolTableRecord
100
AcDbBlockTableRecord
  2
*Paper_Space
340
1E
 70
     0
280
     1
281
     0
  0
BLOCK_RECORD
  5
23
330
1
100
AcDbSymbolTableRecord
100
AcDbBlockTableRecord
  2
*Paper_Space0
340
26
 70
     0
280
     1
281
     0
  0
BLOCK_RECORD
  5
6E
330
1
100
AcDbSymbolTableRecord
100
AcDbBlockTableRecord
  2
1_071230_2
340
0
102
{BLKREFS
331
6F
102
}
 70
     0
280
     1
281
     0
  0
BLOCK_RECORD
  5
8F
330
1
100
AcDbSymbolTableRecord
100
AcDbBlockTableRecord
  2
2_405015E_Inch_0_in_071230_2
340
0
102
{BLKREFS
331
90
102
}
 70
     0
280
     1
281
     0
  0
BLOCK_RECORD
  5
E2
330
1
100
AcDbSymbolTableRecord
100
AcDbBlockTableRecord
  2
3_ASME_B18_3_1_4_1_0_in_071230_2
340
0
102
{BLKREFS
331
E3
102
}
 70
     0
280
     1
281
     0
  0
BLOCK_RECORD
  5
10A
330
1
100
AcDbSymbolTableRecord
100
AcDbBlockTableRecord
  2
4_ASME_B18_3_1_4_2_0_in_071230_2
340
0
102
{BLKREFS
331
10B
102
}
 70
     0
280
     1
281
     0
  0
BLOCK_RECORD
  5
12E
330
1
100
AcDbSymbolTableRecord
100
AcDbBlockTableRecord
  2
5_070903LWE_0_in_071230_2
340
0
102
{BLKREFS
331
12F
102
}
 70
     0
280
     1
281
     0
  0
BLOCK_RECORD
  5
169
330
1
100
AcDbSymbolTableRecord
100
AcDbBlockTableRecord
  2
6_070903E_0_in_071230_2
340
0
102
{BLKREFS
331
16A
102
}
 70
     0
280
     1
281
     0
  0
BLOCK_RECORD
  5
1F6
330
1
100
AcDbSymbolTableRecord
100
AcDbBlockTableRecord
  2
7_071230H_0_in_071230_2
340
0
102
{BLKREFS
331
1F7
102
}
 70
     0
280
     1
281
     0
  0
ENDTAB
  0
ENDSEC
  0
SECTION
  2
BLOCKS
  0
BLOCK
  5
20
330
1F
100
AcDbEntity
  8
0
100
AcDbBlockBegin
  2
*Model_Space
 70
     0
 10
0.0
 20
0.0
 30
0.0
  3
*Model_Space
  1

  0
ENDBLK
  5
21
330
1F
100
AcDbEntity
  8
0
100
AcDbBlockEnd
  0
BLOCK
  5
1C
330
1B
100
AcDbEntity
 67
     1
  8
0
100
AcDbBlockBegin
  2
*Paper_Space
 70
     0
 10
0.0
 20
0.0
 30
0.0
  3
*Paper_Space
  1

  0
ENDBLK
  5
1D
330
1B
100
AcDbEntity
 67
     1
  8
0
100
AcDbBlockEnd
  0
BLOCK
  5
24
330
23
100
AcDbEntity
  8
0
100
AcDbBlockBegin
  2
*Paper_Space0
 70
     0
 10
0.0
 20
0.0
 30
0.0
  3
*Paper_Space0
  1

  0
ENDBLK
  5
25
330
23
100
AcDbEntity
  8
0
100
AcDbBlockEnd
  0
BLOCK
  5
70
330
6E
100
AcDbEntity
  8
0
100
AcDbBlockBegin
  2
1_071230_2
 70
     2
 10
0.0
 20
0.0
 30
0.0
  3
1_071230_2
  1

  0
ATTDEF
  5
73
330
6E
100
AcDbEntity
  8
AM_6
100
AcDbText
 10
7.4695
 20
3.94
 30
0.0
 40
0.5
  1
Imperial - IP Pillow Block with Type E Dimensions 2-1/4 thru 7 inch 4-Bolt Trident Seal Expansion
100
AcDbAttributeDefinition
  3

  2
NN
 70
     8
280
     0
  0
ATTDEF
  5
74
330
6E
100
AcDbEntity
  8
AM_6
100
AcDbText
 10
7.4695
 20
3.44
 30
0.0
 40
0.5
  1
Imperial/E 4 Bolt Piliow Block Bearings
100
AcDbAttributeDefinition
  3

  2
NT
 70
     8
280
     0
  0
ATTDEF
  5
75
330
6E
100
AcDbEntity
  8
AM_6
100
AcDbText
 10
7.4695
 20
2.94
 30
0.0
 40
0.5
  1
071230
100
AcDbAttributeDefinition
  3

  2
NB
 70
     8
280
     0
  0
ATTDEF
  5
76
330
6E
100
AcDbEntity
  8
AM_6
100
AcDbText
 10
7.4695
 20
2.44
 30
0.0
 40
0.5
  1
$PN.
100
AcDbAttributeDefinition
  3

  2
NBSYN
 70
     8
280
     0
  0
ATTDEF
  5
77
330
6E
100
AcDbEntity
  8
AM_6
100
AcDbText
 10
7.4695
 20
1.94
 30
0.0
 40
0.5
  1
071230
100
AcDbAttributeDefinition
  3

  2
LINA
 70
     8
280
     0
  0
ATTDEF
  5
78
330
6E
100
AcDbEntity
  8
AM_6
100
AcDbText
 10
7.4695
 20
1.44
 30
0.0
 40
0.5
  1
3-7/16
100
AcDbAttributeDefinition
  3

  2
SS
 70
     8
280
     0
  0
ATTDEF
  5
79
330
6E
100
AcDbEntity
  8
AM_6
100
AcDbText
 10
7.4695
 20
0.9400000000000004
 30
0.0
 40
0.5
  1
Expansion
100
AcDbAttributeDefinition
  3

  2
TYPE
 70
     8
280
     0
  0
ATTDEF
  5
7A
330
6E
100
AcDbEntity
  8
AM_6
100
AcDbText
 10
7.4695
 20
0.4400000000000004
 30
0.0
 40
0.5
  1
071230
100
AcDbAttributeDefinition
  3

  2
PN
 70
     8
280
     0
  0
ATTDEF
  5
7B
330
6E
100
AcDbEntity
  8
AM_6
100
AcDbText
 10
7.4695
 20
-0.0599999999999996
 30
0.0
 40
0.5
  1
EP4B-IP-307RE
100
AcDbAttributeDefinition
  3

  2
DESCRIPTION
 70
     8
280
     0
  0
ATTDEF
  5
7C
330
6E
100
AcDbEntity
  8
AM_6
100
AcDbText
 10
7.4695
 20
-0.5599999999999996
 30
0.0
 40
0.5
  1
Contact Seal
100
AcDbAttributeDefinition
  3

  2
ST
 70
     8
280
     0
  0
ATTDEF
  5
7D
330
6E
100
AcDbEntity
  8
AM_6
100
AcDbText
 10
7.4695
 20
-1.06
 30
0.0
 40
0.5
  1
4.17
100
AcDbAttributeDefinition
  3

  2
A
 70
     8
280
     0
  0
ATTDEF
  5
7E
330
6E
100
AcDbEntity
  8
AM_6
100
AcDbText
 10
7.4695
 20
-1.56
 30
0.0
 40
0.5
  1
13.5
100
AcDbAttributeDefinition
  3

  2
B
 70
     8
280
     0
  0
ATTDEF
  5
7F
330
6E
100
AcDbEntity
  8
AM_6
100
AcDbText
 10
7.4695
 20
-2.06
 30
0.0
 40
0.5
  1
4.49
100
AcDbAttributeDefinition
  3

  2
C
 70
     8
280
     0
  0
ATTDEF
  5
80
330
6E
100
AcDbEntity
  8
AM_6
100
AcDbText
 10
7.4695
 20
-2.56
 30
0.0
 40
0.5
  1
10.75
100
AcDbAttributeDefinition
  3

  2
DMIN
 70
     8
280
     0
  0
ATTDEF
  5
81
330
6E
100
AcDbEntity
  8
AM_6
100
AcDbText
 10
7.4695
 20
-3.06
 30
0.0
 40
0.5
  1
11.25
100
AcDbAttributeDefinition
  3

  2
DMAX
 70
     8
280
     0
  0
ATTDEF
  5
82
330
6E
100
AcDbEntity
  8
AM_6
100
AcDbText
 10
7.4695
 20
-3.56
 30
0.0
 40
0.5
  1
2.37
100
AcDbAttributeDefinition
  3

  2
E
 70
     8
280
     0
  0
ATTDEF
  5
83
330
6E
100
AcDbEntity
  8
AM_6
100
AcDbText
 10
7.4695
 20
-4.06
 30
0.0
 40
0.5
  1
3/4
100
AcDbAttributeDefinition
  3

  2
F
 70
     8
280
     0
  0
ATTDEF
  5
84
330
6E
100
AcDbEntity
  8
AM_6
100
AcDbText
 10
7.4695
 20
-4.56
 30
0.0
 40
0.5
  1
1.13
100
AcDbAttributeDefinition
  3

  2
G
 70
     8
280
     0
  0
ATTDEF
  5
85
330
6E
100
AcDbEntity
  8
AM_6
100
AcDbText
 10
7.4695
 20
-5.06
 30
0.0
 40
0.5
  1
2.25
100
AcDbAttributeDefinition
  3

  2
H
 70
     8
280
     0
  0
ATTDEF
  5
86
330
6E
100
AcDbEntity
  8
AM_6
100
AcDbText
 10
7.4695
 20
-5.56
 30
0.0
 40
0.5
  1
7.69
100
AcDbAttributeDefinition
  3

  2
J
 70
     8
280
     0
  0
ATTDEF
  5
87
330
6E
100
AcDbEntity
  8
AM_6
100
AcDbText
 10
7.4695
 20
-6.06
 30
0.0
 40
0.5
  1
5
100
AcDbAttributeDefinition
  3

  2
L
 70
     8
280
     0
  0
ATTDEF
  5
88
330
6E
100
AcDbEntity
  8
AM_6
100
AcDbText
 10
7.4695
 20
-6.56
 30
0.0
 40
0.5
  1
3.75
100
AcDbAttributeDefinition
  3

  2
M
 70
     8
280
     0
  0
ATTDEF
  5
89
330
6E
100
AcDbEntity
  8
AM_6
100
AcDbText
 10
7.4695
 20
-7.06
 30
0.0
 40
0.5
  1
1.54
100
AcDbAttributeDefinition
  3

  2
R
 70
     8
280
     0
  0
ATTDEF
  5
8A
330
6E
100
AcDbEntity
  8
AM_6
100
AcDbText
 10
7.4695
 20
-7.56
 30
0.0
 40
0.5
  1
2.63
100
AcDbAttributeDefinition
  3

  2
S
 70
     8
280
     0
  0
ATTDEF
  5
8B
330
6E
100
AcDbEntity
  8
AM_6
100
AcDbText
 10
7.4695
 20
-8.059999999999999
 30
0.0
 40
0.5
  1
0.25
100
AcDbAttributeDefinition
  3

  2
X
 70
     8
280
     0
  0
ATTDEF
  5
8C
330
6E
100
AcDbEntity
  8
AM_6
100
AcDbText
 10
7.4695
 20
-8.559999999999999
 30
0.0
 40
0.5
  1
0.025
100
AcDbAttributeDefinition
  3

  2
Y
 70
     8
280
     0
  0
ATTDEF
  5
8D
330
6E
100
AcDbEntity
  8
AM_6
100
AcDbText
 10
7.4695
 20
-9.059999999999999
 30
0.0
 40
0.5
  1
4.05
100
AcDbAttributeDefinition
  3

  2
Z
 70
     8
280
     0
  0
ATTDEF
  5
8E
330
6E
100
AcDbEntity
  8
AM_6
100
AcDbText
 10
7.4695
 20
-9.559999999999999
 30
0.0
 40
0.5
  1
baldor
100
AcDbAttributeDefinition
  3

  2
COMPANY
 70
     8
280
     0
  0
INSERT
  5
90
330
6E
100
AcDbEntity
  8
0
100
AcDbBlockReference
  2
2_405015E_Inch_0_in_071230_2
 10
0.0
 20
0.0
 30
0.0
  0
INSERT
  5
E3
330
6E
100
AcDbEntity
  8
0
100
AcDbBlockReference
  2
3_ASME_B18_3_1_4_1_0_in_071230_2
 10
0.0
 20
0.0
 30
0.0
  0
INSERT
  5
10B
330
6E
100
AcDbEntity
  8
0
100
AcDbBlockReference
  2
4_ASME_B18_3_1_4_2_0_in_071230_2
 10
0.0
 20
0.0
 30
0.0
  0
INSERT
  5
12F
330
6E
100
AcDbEntity
  8
0
100
AcDbBlockReference
  2
5_070903LWE_0_in_071230_2
 10
0.0
 20
0.0
 30
0.0
  0
INSERT
  5
16A
330
6E
100
AcDbEntity
  8
0
100
AcDbBlockReference
  2
6_070903E_0_in_071230_2
 10
0.0
 20
0.0
 30
0.0
  0
INSERT
  5
1F7
330
6E
100
AcDbEntity
  8
0
100
AcDbBlockReference
  2
7_071230H_0_in_071230_2
 10
0.0
 20
0.0
 30
0.0
  0
ENDBLK
  5
71
330
6E
100
AcDbEntity
  8
0
100
AcDbBlockEnd
  0
BLOCK
  5
91
330
8F
100
AcDbEntity
  8
0
100
AcDbBlockBegin
  2
2_405015E_Inch_0_in_071230_2
 70
     2
 10
0.0
 20
0.0
 30
0.0
  3
2_405015E_Inch_0_in_071230_2
  1

  0
ATTDEF
  5
93
330
8F
100
AcDbEntity
  8
AM_6
100
AcDbText
 10
5.252590742770461
 20
3.87484110867489
 30
0.0
 40
0.5
  1
405015E -Inch
100
AcDbAttributeDefinition
  3

  2
NN
 70
     8
280
     0
  0
ATTDEF
  5
94
330
8F
100
AcDbEntity
  8
AM_6
100
AcDbText
 10
5.252590742770461
 20
3.37484110867489
 30
0.0
 40
0.5
  1
Grease Fitting
100
AcDbAttributeDefinition
  3

  2
NT
 70
     8
280
     0
  0
ATTDEF
  5
95
330
8F
100
AcDbEntity
  8
AM_6
100
AcDbText
 10
5.252590742770461
 20
2.87484110867489
 30
0.0
 40
0.5
  1
405015E-Inch
100
AcDbAttributeDefinition
  3

  2
NB
 70
     8
280
     0
  0
ATTDEF
  5
96
330
8F
100
AcDbEntity
  8
AM_6
100
AcDbText
 10
5.252590742770461
 20
2.37484110867489
 30
0.0
 40
0.5
  1
$MN.-Inch
100
AcDbAttributeDefinition
  3

  2
NBSYN
 70
     8
280
     0
  0
ATTDEF
  5
97
330
8F
100
AcDbEntity
  8
AM_6
100
AcDbText
 10
5.252590742770461
 20
1.87484110867489
 30
0.0
 40
0.5
  1
405015E
100
AcDbAttributeDefinition
  3

  2
LINA
 70
     8
280
     0
  0
ATTDEF
  5
98
330
8F
100
AcDbEntity
  8
AM_6
100
AcDbText
 10
5.252590742770461
 20
1.37484110867489
 30
0.0
 40
0.5
  1
405015E
100
AcDbAttributeDefinition
  3

  2
MN
 70
     8
280
     0
  0
ATTDEF
  5
99
330
8F
100
AcDbEntity
  8
AM_6
100
AcDbText
 10
5.252590742770461
 20
0.87484110867489
 30
0.0
 40
0.5
  1
1/8 x 27PTF
100
AcDbAttributeDefinition
  3

  2
T
 70
     8
280
     0
  0
ATTDEF
  5
9A
330
8F
100
AcDbEntity
  8
AM_6
100
AcDbText
 10
5.252590742770461
 20
0.37484110867489
 30
0.0
 40
0.5
  1
baldor
100
AcDbAttributeDefinition
  3

  2
COMPANY
 70
     8
280
     0
  0
LINE
  5
9D
330
8F
100
AcDbEntity
  8
AM_9
100
AcDbLine
 10
0.1262953713852305
 20
3.46811739997896
 30
0.0
 11
0.1262953713852305
 21
3.397220402977749
 31
0.0
  0
LINE
  5
9E
330
8F
100
AcDbEntity
  8
AM_9
100
AcDbLine
 10
-0.1262953713852308
 20
3.46811739997896
 30
0.0
 11
-0.1262953713852308
 21
3.397220402977749
 31
0.0
  0
LWPOLYLINE
  5
9F
330
8F
100
AcDbEntity
  8
AM_9
100
AcDbPolyline
 90
        4
 70
     0
 43
0.0
 10
-0.0000000000000001
 20
3.475970171667576
 10
-0.048399816055899
 20
3.474742528075129
 10
-0.0967996321117979
 20
3.471222263153098
 10
-0.1262953713852308
 20
3.46811739997896
  0
LWPOLYLINE
  5
A0
330
8F
100
AcDbEntity
  8
AM_9
100
AcDbPolyline
 90
        3
 70
     0
 43
0.0
 10
0.1262953713852305
 20
3.46811739997896
 10
0.0634316146914366
 20
3.473879131723134
 10
-0.0000000000000001
 20
3.475970171667576
  0
LWPOLYLINE
  5
A1
330
8F
100
AcDbEntity
  8
AM_9
100
AcDbPolyline
 90
        3
 70
     0
 43
0.0
 10
0.1894430570778458
 20
3.530657671667576
 10
0.1578692142315382
 20
3.501241193106807
 10
0.1262953713852305
 20
3.46811739997896
  0
ELLIPSE
  5
A2
330
8F
100
AcDbEntity
  8
AM_9
100
AcDbEllipse
 10
0.0
 20
3.585345171667575
 30
0.0
 11
0.2187500000000004
 21
0.0
 31
0.0
210
0.0
220
0.0
230
1.0
 40
0.499999999999993
 41
3.665191429188088
 42
4.71238898038469
  0
LWPOLYLINE
  5
A3
330
8F
100
AcDbEntity
  8
AM_9
100
AcDbPolyline
 90
        3
 70
     0
 43
0.0
 10
-0.1262953713852308
 20
3.46811739997896
 10
-0.1577272497321277
 20
3.501099936860209
 10
-0.1894430570778461
 20
3.530657671667576
  0
LWPOLYLINE
  5
A4
330
8F
100
AcDbEntity
  8
AM_9
100
AcDbPolyline
 90
        3
 70
     0
 43
0.0
 10
0.1262953713852305
 20
3.397220402977749
 10
0.1577272497321275
 20
3.41867947637065
 10
0.1894430570778458
 20
3.444055131289133
  0
LWPOLYLINE
  5
A5
330
8F
100
AcDbEntity
  8
AM_9
100
AcDbPolyline
 90
        3
 70
     0
 43
0.0
 10
0.0024741941029758
 20
3.389370878112572
 10
0.0631476856926152
 20
3.391440359849902
 10
0.1262953713852305
 20
3.397220402977749
  0
LINE
  5
A6
330
8F
100
AcDbEntity
  8
AM_9
100
AcDbLine
 10
-0.0000000000000001
 20
3.389367631289133
 30
0.0
 11
0.0024741941029758
 21
3.389370878112572
 31
0.0
  0
LWPOLYLINE
  5
A7
330
8F
100
AcDbEntity
  8
AM_9
100
AcDbPolyline
 90
        3
 70
     0
 43
0.0
 10
-0.1894430570778461
 20
3.444055131289133
 10
-0.1578692142315384
 20
3.418784109849902
 10
-0.1262953713852308
 20
3.397220402977749
  0
LWPOLYLINE
  5
A8
330
8F
100
AcDbEntity
  8
AM_9
100
AcDbPolyline
 90
        4
 70
     0
 43
0.0
 10
-0.1262953713852308
 20
3.397220402977749
 10
-0.0967996321117979
 20
3.394115539803611
 10
-0.0485424412477545
 20
3.390602434769066
 10
-0.0000000000000001
 20
3.389367631289133
  0
LINE
  5
A9
330
8F
100
AcDbEntity
  8
AM_9
100
AcDbLine
 10
-0.0998453562378799
 20
3.835477720149495
 30
0.0
 11
-0.131275793898522
 21
3.76996548929712
 31
0.0
  0
LINE
  5
AA
330
8F
100
AcDbEntity
  8
AM_9
100
AcDbLine
 10
0.1312757938985218
 20
3.76996548929712
 30
0.0
 11
0.0998453562378796
 21
3.835477720149495
 31
0.0
  0
LINE
  5
AB
330
8F
100
AcDbEntity
  8
AM_9
100
AcDbLine
 10
0.1049999999999999
 20
3.676897484651833
 30
0.0
 11
0.1049999999999999
 21
3.702258601178476
 31
0.0
  0
LINE
  5
AC
330
8F
100
AcDbEntity
  8
AM_9
100
AcDbLine
 10
-0.1050000000000001
 20
3.702258601178476
 30
0.0
 11
-0.1050000000000001
 21
3.676897484651833
 31
0.0
  0
ELLIPSE
  5
AD
330
8F
100
AcDbEntity
  8
AM_9
100
AcDbEllipse
 10
-0.0000000000000159
 20
3.702258601178376
 30
0.0
 11
0.1050000000000158
 21
0.0
 31
0.0
210
0.0
220
0.0
230
1.0
 40
0.4999999999999946
 41
5.990342535452863
 42
9.350974826168592
  0
ELLIPSE
  5
AE
330
8F
100
AcDbEntity
  8
AM_9
100
AcDbEllipse
 10
-0.0000000000000351
 20
3.702258601178766
 30
0.0
 11
0.104999999999965
 21
0.0
 31
0.0
210
0.0
220
0.0
230
1.0
 40
0.4999999999998728
 41
3.06778951899638
 42
3.141592653589793
  0
ELLIPSE
  5
AF
330
8F
100
AcDbEntity
  8
AM_9
100
AcDbEllipse
 10
-0.0000000000000004
 20
3.676277839064977
 30
0.0
 11
0.1049999999999998
 21
0.0
 31
0.0
210
0.0
220
0.0
230
1.0
 40
0.4999999999999524
 41
2.891559760491608
 42
3.141592653589793
  0
LINE
  5
B0
330
8F
100
AcDbEntity
  8
AM_9
100
AcDbLine
 10
0.1005298463144154
 20
3.687103156612248
 30
0.0
 11
0.1292526595471055
 21
3.734734553820392
 31
0.0
  0
LINE
  5
B1
330
8F
100
AcDbEntity
  8
AM_9
100
AcDbLine
 10
-0.1292526595471058
 20
3.734734553820392
 30
0.0
 11
-0.1005298463144156
 21
3.687103156612248
 31
0.0
  0
ELLIPSE
  5
B2
330
8F
100
AcDbEntity
  8
AM_9
100
AcDbEllipse
 10
-0.0000000000000001
 20
3.702258601178475
 30
0.0
 11
0.1049999999999997
 21
0.0
 31
0.0
210
0.0
220
0.0
230
1.0
 40
0.4999999999999993
 41
3.141592653589793
 42
5.990342535451014
  0
LWPOLYLINE
  5
B3
330
8F
100
AcDbEntity
  8
AM_9
100
AcDbPolyline
 90
        3
 70
     0
 43
0.0
 10
-0.1894430570778461
 20
3.530657671667576
 10
-0.2210168999241537
 20
3.555928693106807
 10
-0.2525907427704613
 20
3.57749239997896
  0
LWPOLYLINE
  5
B4
330
8F
100
AcDbEntity
  8
AM_9
100
AcDbPolyline
 90
        3
 70
     0
 43
0.0
 10
0.2525907427704611
 20
3.57749239997896
 10
0.2211588644235642
 20
3.556033326586059
 10
0.1894430570778458
 20
3.530657671667576
  0
LINE
  5
B5
330
8F
100
AcDbEntity
  8
AM_9
100
AcDbLine
 10
-0.1017349497468792
 20
3.689268220121709
 30
0.0
 11
-0.1151252948555659
 21
3.663051397059078
 31
0.0
  0
LINE
  5
B6
330
8F
100
AcDbEntity
  8
AM_9
100
AcDbLine
 10
0.1151252948555656
 20
3.663051397059078
 30
0.0
 11
0.1017349497468789
 21
3.689268220121709
 31
0.0
  0
ELLIPSE
  5
B7
330
8F
100
AcDbEntity
  8
AM_9
100
AcDbEllipse
 10
0.0000000000000011
 20
3.676277839064957
 30
0.0
 11
0.1049999999999986
 21
0.0
 31
0.0
210
0.0
220
0.0
230
1.0
 40
0.4999999999999539
 41
3.141592653589793
 42
8.767917486828857
  0
ELLIPSE
  5
B8
330
8F
100
AcDbEntity
  8
AM_9
100
AcDbEllipse
 10
-0.0000000000000017
 20
3.676277839064951
 30
0.0
 11
0.1049999999999983
 21
0.0
 31
0.0
210
0.0
220
0.0
230
1.0
 40
0.4999999999999635
 41
2.484732179649163
 42
2.891559760491119
  0
ELLIPSE
  5
B9
330
8F
100
AcDbEntity
  8
AM_9
100
AcDbEllipse
 10
-0.000000000000006
 20
3.648351223193855
 30
0.0
 11
0.1188200907348912
 21
0.0
 31
0.0
210
0.0
220
0.0
230
1.0
 40
0.5000000000000967
 41
2.535447513394435
 42
2.891559760490632
  0
ELLIPSE
  5
BA
330
8F
100
AcDbEntity
  8
AM_9
100
AcDbEllipse
 10
0.0000000000000088
 20
3.648351223193857
 30
0.0
 11
0.1188200907348885
 21
1.770557325108179E-9
 31
0.0
210
0.0
220
0.0
230
1.0
 40
0.5000000000000181
 41
2.891559732056814
 42
6.889330424827214
  0
ELLIPSE
  5
BB
330
8F
100
AcDbEntity
  8
AM_9
100
AcDbEllipse
 10
-0.0000000000000002
 20
3.585345171667576
 30
0.0
 11
0.2187499999999999
 21
0.0
 31
0.0
210
0.0
220
0.0
230
1.0
 40
0.5000000000000022
 41
2.617993877991493
 42
3.66519142918809
  0
LINE
  5
BC
330
8F
100
AcDbEntity
  8
AM_9
100
AcDbLine
 10
-0.0976523208201059
 20
3.682197338926325
 30
0.0
 11
-0.1417971541629019
 21
3.650355831157618
 31
0.0
  0
LINE
  5
BD
330
8F
100
AcDbEntity
  8
AM_9
100
AcDbLine
 10
0.1417971541629016
 20
3.650355831157618
 30
0.0
 11
0.0976523208201056
 21
3.682197338926325
 31
0.0
  0
ELLIPSE
  5
BE
330
8F
100
AcDbEntity
  8
AM_9
100
AcDbEllipse
 10
-0.0000000000000001
 20
3.648351223193879
 30
0.0
 11
0.1188200907348973
 21
0.0
 31
0.0
210
0.0
220
0.0
230
1.0
 40
0.5000000000000075
 41
0.6061451401950819
 42
2.535447513394711
  0
LWPOLYLINE
  5
BF
330
8F
100
AcDbEntity
  8
AM_9
100
AcDbPolyline
 90
        3
 70
     0
 43
0.0
 10
-0.2525907427704613
 20
3.506595402977749
 10
-0.2211588644235644
 20
3.4736128660965
 10
-0.1894430570778461
 20
3.444055131289133
  0
LWPOLYLINE
  5
C0
330
8F
100
AcDbEntity
  8
AM_9
100
AcDbPolyline
 90
        3
 70
     0
 43
0.0
 10
0.1894430570778458
 20
3.444055131289133
 10
0.2210168999241534
 20
3.473471609849902
 10
0.2525907427704611
 20
3.506595402977749
  0
ELLIPSE
  5
C1
330
8F
100
AcDbEntity
  8
AM_9
100
AcDbEllipse
 10
-0.0000000000000001
 20
3.585345171667576
 30
0.0
 11
-0.21375
 21
3.185123231361761E-9
 31
0.0
210
0.0
220
0.0
230
1.0
 40
0.5000000000000003
 41
0.0
 42
6.283185307179586
  0
ELLIPSE
  5
C2
330
8F
100
AcDbEntity
  8
AM_9
100
AcDbEllipse
 10
-0.0000000000000001
 20
3.585345171667577
 30
0.0
 11
0.21875
 21
0.0
 31
0.0
210
0.0
220
0.0
230
1.0
 40
0.4999999999999979
 41
4.71238898038469
 42
7.853981633974483
  0
ELLIPSE
  5
C3
330
8F
100
AcDbEntity
  8
AM_9
100
AcDbEllipse
 10
0.0000000000000104
 20
3.585345171680865
 30
0.0
 11
0.2187500000048426
 21
3.259629011226336E-9
 31
0.0
210
0.0
220
0.0
230
1.0
 40
0.4999999999281858
 41
1.570796326794897
 42
1.580207202491674
  0
ELLIPSE
  5
C4
330
8F
100
AcDbEntity
  8
AM_9
100
AcDbEllipse
 10
0.0000000000000008
 20
3.585345171667579
 30
0.0
 11
0.2187500000000017
 21
0.0
 31
0.0
210
0.0
220
0.0
230
1.0
 40
0.4999999999999859
 41
1.580207209944399
 42
2.617993877991503
  0
LWPOLYLINE
  5
C5
330
8F
100
AcDbEntity
  8
AM_9
100
AcDbPolyline
 90
        3
 70
     0
 43
0.0
 10
-0.0000000000000001
 20
3.694720171667576
 10
0.0631476856926152
 20
3.692647443106807
 10
0.1262953713852305
 20
3.686867399978961
  0
LINE
  5
C6
330
8F
100
AcDbEntity
  8
AM_9
100
AcDbLine
 10
-0.0020498370431238
 20
3.694717943057101
 30
0.0
 11
-0.0000000000000001
 21
3.694720171667576
 31
0.0
  0
LWPOLYLINE
  5
C7
330
8F
100
AcDbEntity
  8
AM_9
100
AcDbPolyline
 90
        4
 70
     0
 43
0.0
 10
-0.1262953713852308
 20
3.686867399978961
 10
-0.0967996321117979
 20
3.689972263153098
 10
-0.0485424412477545
 20
3.693485368187643
 10
-0.0020498370431238
 20
3.694717943057101
  0
LWPOLYLINE
  5
C8
330
8F
100
AcDbEntity
  8
AM_9
100
AcDbPolyline
 90
        4
 70
     0
 43
0.0
 10
-0.0000000000000001
 20
3.608117631289133
 10
-0.048399816055899
 20
3.609345274881581
 10
-0.0967996321117979
 20
3.612865539803611
 10
-0.1262953713852308
 20
3.615970402977749
  0
LINE
  5
C9
330
8F
100
AcDbEntity
  8
AM_9
100
AcDbLine
 10
0.2525907427704611
 20
3.57749239997896
 30
0.0
 11
0.2525907427704611
 21
3.506595402977749
 31
0.0
  0
LWPOLYLINE
  5
CA
330
8F
100
AcDbEntity
  8
AM_9
100
AcDbPolyline
 90
        3
 70
     0
 43
0.0
 10
0.1894430570778458
 20
3.640032671667577
 10
0.2210168999241534
 20
3.610616193106807
 10
0.2525907427704611
 20
3.57749239997896
  0
LWPOLYLINE
  5
CB
330
8F
100
AcDbEntity
  8
AM_9
100
AcDbPolyline
 90
        3
 70
     0
 43
0.0
 10
0.1262953713852305
 20
3.686867399978961
 10
0.1577272497321274
 20
3.66540832658606
 10
0.1894430570778458
 20
3.640032671667577
  0
LINE
  5
CC
330
8F
100
AcDbEntity
  8
AM_9
100
AcDbLine
 10
0.1262953713852305
 20
3.686867399978961
 30
0.0
 11
0.1262953713852305
 21
3.615970402977749
 31
0.0
  0
LWPOLYLINE
  5
CD
330
8F
100
AcDbEntity
  8
AM_9
100
AcDbPolyline
 90
        3
 70
     0
 43
0.0
 10
0.2525907427704611
 20
3.506595402977749
 10
0.2211588644235641
 20
3.52805447637065
 10
0.1894430570778458
 20
3.553430131289133
  0
ELLIPSE
  5
CE
330
8F
100
AcDbEntity
  8
AM_9
100
AcDbEllipse
 10
0.0000000000000003
 20
3.498742631289133
 30
0.0
 11
0.2187500000000005
 21
0.0
 31
0.0
210
0.0
220
0.0
230
1.0
 40
0.4999999999999988
 41
1.570796326794897
 42
5.759586531581287
  0
ELLIPSE
  5
CF
330
8F
100
AcDbEntity
  8
AM_9
100
AcDbEllipse
 10
0.0000000000000014
 20
3.498742631289134
 30
0.0
 11
0.2187499999999985
 21
0.0
 31
0.0
210
0.0
220
0.0
230
1.0
 40
0.4999999999999994
 41
5.759586531581276
 42
7.853981633974483
  0
LWPOLYLINE
  5
D0
330
8F
100
AcDbEntity
  8
AM_9
100
AcDbPolyline
 90
        3
 70
     0
 43
0.0
 10
0.1894430570778458
 20
3.553430131289133
 10
0.1578692142315382
 20
3.582846609849902
 10
0.1262953713852305
 20
3.615970402977749
  0
LWPOLYLINE
  5
D1
330
8F
100
AcDbEntity
  8
AM_9
100
AcDbPolyline
 90
        3
 70
     0
 43
0.0
 10
0.1262953713852305
 20
3.615970402977749
 10
0.0634316146914366
 20
3.610208671233575
 10
-0.0000000000000001
 20
3.608117631289133
  0
LINE
  5
D2
330
8F
100
AcDbEntity
  8
AM_9
100
AcDbLine
 10
-0.1262953713852308
 20
3.686867399978961
 30
0.0
 11
-0.1262953713852308
 21
3.615970402977749
 31
0.0
  0
LWPOLYLINE
  5
D3
330
8F
100
AcDbEntity
  8
AM_9
100
AcDbPolyline
 90
        3
 70
     0
 43
0.0
 10
-0.1894430570778461
 20
3.640032671667577
 10
-0.1578692142315385
 20
3.665303693106807
 10
-0.1262953713852308
 20
3.686867399978961
  0
LWPOLYLINE
  5
D4
330
8F
100
AcDbEntity
  8
AM_9
100
AcDbPolyline
 90
        3
 70
     0
 43
0.0
 10
-0.2525907427704613
 20
3.57749239997896
 10
-0.2211588644235644
 20
3.610474936860209
 10
-0.1894430570778461
 20
3.640032671667577
  0
LINE
  5
D5
330
8F
100
AcDbEntity
  8
AM_9
100
AcDbLine
 10
-0.2525907427704613
 20
3.57749239997896
 30
0.0
 11
-0.2525907427704613
 21
3.506595402977749
 31
0.0
  0
LWPOLYLINE
  5
D6
330
8F
100
AcDbEntity
  8
AM_9
100
AcDbPolyline
 90
        3
 70
     0
 43
0.0
 10
-0.1894430570778461
 20
3.553430131289133
 10
-0.2210168999241537
 20
3.528159109849902
 10
-0.2525907427704613
 20
3.506595402977749
  0
LWPOLYLINE
  5
D7
330
8F
100
AcDbEntity
  8
AM_9
100
AcDbPolyline
 90
        3
 70
     0
 43
0.0
 10
-0.1262953713852308
 20
3.615970402977749
 10
-0.1577272497321277
 20
3.5829878660965
 10
-0.1894430570778461
 20
3.553430131289133
  0
LINE
  5
D8
330
8F
100
AcDbEntity
  8
AM_9
100
AcDbLine
 10
0.1985852938306407
 20
3.299249970602688
 30
0.0
 11
0.2057184028850726
 21
3.496886430511503
 31
0.0
  0
LINE
  5
D9
330
8F
100
AcDbEntity
  8
AM_9
100
AcDbLine
 10
-0.2057184028850729
 20
3.496886430511503
 30
0.0
 11
-0.1985852938306409
 21
3.299249970602688
 31
0.0
  0
LINE
  5
DA
330
8F
100
AcDbEntity
  8
AM_9
100
AcDbLine
 10
0.1321931418159852
 20
3.222508565784037
 30
0.0
 11
0.1621706131788414
 21
3.243705839067538
 31
0.0
  0
LINE
  5
DB
330
8F
100
AcDbEntity
  8
AM_9
100
AcDbLine
 10
-0.1621706131788417
 20
3.243705839067538
 30
0.0
 11
-0.1321931418159854
 21
3.222508565784037
 31
0.0
  0
ELLIPSE
  5
DC
330
8F
100
AcDbEntity
  8
AM_9
100
AcDbEllipse
 10
-0.0000000000000002
 20
3.823502157708297
 30
0.0
 11
0.1026779019331875
 21
0.0
 31
0.0
210
0.0
220
0.0
230
1.0
 40
0.4999999999999876
 41
0.0
 42
6.283185307179586
  0
ELLIPSE
  5
DD
330
8F
100
AcDbEntity
  8
AM_9
100
AcDbEllipse
 10
0.0000000000000059
 20
3.754220125405539
 30
0.0
 11
0.1349999999999939
 21
0.0
 31
0.0
210
0.0
220
0.0
230
1.0
 40
0.4999999999999987
 41
0.0
 42
6.283185307179586
  0
ELLIPSE
  5
DE
330
8F
100
AcDbEntity
  8
AM_9
100
AcDbEllipse
 10
-0.0000000000000002
 20
3.601209196955547
 30
0.0
 11
0.1725340532830155
 21
0.0
 31
0.0
210
0.0
220
0.0
230
1.0
 40
0.5000000000000013
 41
0.0
 42
6.283185307179586
  0
ELLIPSE
  5
DF
330
8F
100
AcDbEntity
  8
AM_9
100
AcDbEllipse
 10
-0.000000000000339
 20
3.498742631287604
 30
0.0
 11
0.2057518972234084
 21
0.0
 31
0.0
210
0.0
220
0.0
230
1.0
 40
0.4999999999999984
 41
0.0
 42
6.283185307179586
  0
ELLIPSE
  5
E0
330
8F
100
AcDbEntity
  8
AM_9
100
AcDbEllipse
 10
0.0
 20
3.301041809211508
 30
0.0
 11
0.1986176267812154
 21
0.0
 31
0.0
210
0.0
220
0.0
230
1.0
 40
0.4999999999999697
 41
0.0
 42
6.283185307179586
  0
ELLIPSE
  5
E1
330
8F
100
AcDbEntity
  8
AM_9
100
AcDbEllipse
 10
0.0000000000000032
 20
3.269245899286259
 30
0.0
 11
0.1619028724722657
 21
0.0
 31
0.0
210
0.0
220
0.0
230
1.0
 40
0.5000000000000078
 41
0.0
 42
6.283185307179586
  0
ENDBLK
  5
92
330
8F
100
AcDbEntity
  8
0
100
AcDbBlockEnd
  0
BLOCK
  5
E4
330
E2
100
AcDbEntity
  8
0
100
AcDbBlockBegin
  2
3_ASME_B18_3_1_4_1_0_in_071230_2
 70
     2
 10
0.0
 20
0.0
 30
0.0
  3
3_ASME_B18_3_1_4_1_0_in_071230_2
  1

  0
ATTDEF
  5
E6
330
E2
100
AcDbEntity
  8
AM_6
100
AcDbText
 10
3.667166666666667
 20
-1.986361111111111
 30
0.0
 40
0.5
  1
ANSI/ASME B18.3-1998
100
AcDbAttributeDefinition
  3

  2
NN
 70
     8
280
     0
  0
ATTDEF
  5
E7
330
E2
100
AcDbEntity
  8
AM_6
100
AcDbText
 10
3.667166666666667
 20
-2.486361111111111
 30
0.0
 40
0.5
  1
Socket Button Head Cap Screws
100
AcDbAttributeDefinition
  3

  2
NT
 70
     8
280
     0
  0
ATTDEF
  5
E8
330
E2
100
AcDbEntity
  8
AM_6
100
AcDbText
 10
3.667166666666667
 20
-2.986361111111111
 30
0.0
 40
0.5
  1
ASME B18.3-1/4
100
AcDbAttributeDefinition
  3

  2
NB
 70
     8
280
     0
  0
ATTDEF
  5
E9
330
E2
100
AcDbEntity
  8
AM_6
100
AcDbText
 10
3.667166666666667
 20
-3.486361111111111
 30
0.0
 40
0.5
  1
ASME B18.3-$NS.
100
AcDbAttributeDefinition
  3

  2
NBSYN
 70
     8
280
     0
  0
ATTDEF
  5
EA
330
E2
100
AcDbEntity
  8
AM_6
100
AcDbText
 10
3.667166666666667
 20
-3.986361111111111
 30
0.0
 40
0.5
  1
ASME B18.3-1/4
100
AcDbAttributeDefinition
  3

  2
LINA
 70
     8
280
     0
  0
ATTDEF
  5
EB
330
E2
100
AcDbEntity
  8
AM_6
100
AcDbText
 10
3.667166666666667
 20
-4.486361111111111
 30
0.0
 40
0.5
  1
1/4
100
AcDbAttributeDefinition
  3

  2
NS
 70
     8
280
     0
  0
ATTDEF
  5
EC
330
E2
100
AcDbEntity
  8
AM_6
100
AcDbText
 10
3.667166666666667
 20
-4.986361111111111
 30
0.0
 40
0.5
  1
0.437
100
AcDbAttributeDefinition
  3

  2
A
 70
     8
280
     0
  0
ATTDEF
  5
ED
330
E2
100
AcDbEntity
  8
AM_6
100
AcDbText
 10
3.667166666666667
 20
-5.486361111111111
 30
0.0
 40
0.5
  1
0.132
100
AcDbAttributeDefinition
  3

  2
H
 70
     8
280
     0
  0
ATTDEF
  5
EE
330
E2
100
AcDbEntity
  8
AM_6
100
AcDbText
 10
3.667166666666667
 20
-5.986361111111111
 30
0.0
 40
0.5
  1
0.800
100
AcDbAttributeDefinition
  3

  2
L
 70
     8
280
     0
  0
ATTDEF
  5
EF
330
E2
100
AcDbEntity
  8
AM_6
100
AcDbText
 10
3.667166666666667
 20
-6.486361111111111
 30
0.0
 40
0.5
  1
0.031
100
AcDbAttributeDefinition
  3

  2
S
 70
     8
280
     0
  0
ATTDEF
  5
F0
330
E2
100
AcDbEntity
  8
AM_6
100
AcDbText
 10
3.667166666666667
 20
-6.986361111111111
 30
0.0
 40
0.5
  1
0.156250
100
AcDbAttributeDefinition
  3

  2
J
 70
     8
280
     0
  0
ATTDEF
  5
F1
330
E2
100
AcDbEntity
  8
AM_6
100
AcDbText
 10
3.667166666666667
 20
-7.486361111111111
 30
0.0
 40
0.5
  1
baldor
100
AcDbAttributeDefinition
  3

  2
COMPANY
 70
     8
280
     0
  0
LINE
  5
F2
330
E2
100
AcDbEntity
  8
AM_9
100
AcDbLine
 10
-2.194833333333333
 20
-2.29507209067199
 30
0.0
 11
-2.264833333333333
 21
-2.29507209067199
 31
0.0
  0
LINE
  5
F3
330
E2
100
AcDbEntity
  8
AM_9
100
AcDbLine
 10
-2.194833333333333
 20
-2.114650131550232
 30
0.0
 11
-2.264833333333333
 21
-2.114650131550232
 31
0.0
  0
LINE
  5
F4
330
E2
100
AcDbEntity
  8
AM_9
100
AcDbLine
 10
-2.194833333333333
 20
-2.249966600891551
 30
0.0
 11
-2.264833333333333
 21
-2.249966600891551
 31
0.0
  0
LINE
  5
F5
330
E2
100
AcDbEntity
  8
AM_9
100
AcDbLine
 10
-2.194833333333333
 20
-2.159755621330671
 30
0.0
 11
-2.264833333333333
 21
-2.159755621330671
 31
0.0
  0
LINE
  5
F6
330
E2
100
AcDbEntity
  8
AM_9
100
AcDbLine
 10
-2.194833333333333
 20
-2.114650131550232
 30
0.0
 11
-2.194833333333333
 21
-2.29507209067199
 31
0.0
  0
LINE
  5
F7
330
E2
100
AcDbEntity
  8
AM_9
100
AcDbLine
 10
-1.332833333333333
 20
-2.098461111111111
 30
0.0
 11
-1.332833333333333
 21
-2.311261111111111
 31
0.0
  0
LINE
  5
F8
330
E2
100
AcDbEntity
  8
AM_9
100
AcDbLine
 10
-1.332833333333333
 20
-2.098461111111111
 30
0.0
 11
-1.351433333333333
 21
-2.079861111111111
 31
0.0
  0
LINE
  5
F9
330
E2
100
AcDbEntity
  8
AM_9
100
AcDbLine
 10
-1.351433333333333
 20
-2.329861111111111
 30
0.0
 11
-1.332833333333333
 21
-2.311261111111111
 31
0.0
  0
LINE
  5
FA
330
E2
100
AcDbEntity
  8
AM_9
100
AcDbLine
 10
-1.351433333333333
 20
-2.079861111111111
 30
0.0
 11
-1.351433333333333
 21
-2.329861111111111
 31
0.0
  0
LINE
  5
FB
330
E2
100
AcDbEntity
  8
AM_9
100
AcDbLine
 10
-2.132833333333333
 20
-2.329861111111111
 30
0.0
 11
-1.351433333333333
 21
-2.329861111111111
 31
0.0
  0
LINE
  5
FC
330
E2
100
AcDbEntity
  8
AM_9
100
AcDbLine
 10
-1.351433333333333
 20
-2.079861111111111
 30
0.0
 11
-2.132833333333333
 21
-2.079861111111111
 31
0.0
  0
LINE
  5
FD
330
E2
100
AcDbEntity
  8
AM_9
100
AcDbLine
 10
-2.163833333333333
 20
-2.423361111111111
 30
0.0
 11
-2.132833333333333
 21
-2.423361111111111
 31
0.0
  0
LINE
  5
FE
330
E2
100
AcDbEntity
  8
AM_9
100
AcDbLine
 10
-2.132833333333333
 20
-1.986361111111111
 30
0.0
 11
-2.163833333333333
 21
-1.986361111111111
 31
0.0
  0
LINE
  5
FF
330
E2
100
AcDbEntity
  8
AM_9
100
AcDbLine
 10
-2.163833333333333
 20
-1.986361111111111
 30
0.0
 11
-2.163833333333333
 21
-2.423361111111111
 31
0.0
  0
ARC
  5
100
330
E2
100
AcDbEntity
  8
AM_9
100
AcDbCircle
 10
-2.163833333333332
 20
-2.32236111111111
 30
0.0
 40
0.1010000000000014
100
AcDbArc
 50
216.5218115692985
 51
270.0
  0
ARC
  5
101
330
E2
100
AcDbEntity
  8
AM_9
100
AcDbCircle
 10
-2.163833333333331
 20
-2.087361111111113
 30
0.0
 40
0.101000000000002
100
AcDbArc
 50
90.0
 51
143.4781884307013
  0
LINE
  5
103
330
E2
100
AcDbEntity
  8
AM_5
100
AcDbLine
 10
-2.052833333333333
 20
-2.311261111111111
 30
0.0
 11
-2.085049478354114
 21
-2.329861111111111
 31
0.0
  0
LINE
  5
104
330
E2
100
AcDbEntity
  8
AM_5
100
AcDbLine
 10
-2.052833333333333
 20
-2.079861111111111
 30
0.0
 11
-2.052833333333333
 21
-2.329861111111109
 31
0.0
  0
LINE
  5
105
330
E2
100
AcDbEntity
  8
AM_5
100
AcDbLine
 10
-2.052833333333333
 20
-2.098461111111111
 30
0.0
 11
-2.085049478354114
 21
-2.079861111111111
 31
0.0
  0
LINE
  5
107
330
E2
100
AcDbEntity
  8
AM_4
100
AcDbLine
 10
-2.264833333333333
 20
-2.087361111111111
 30
0.0
 11
-2.264833333333333
 21
-2.322361111111111
 31
0.0
  0
ARC
  5
108
330
E2
100
AcDbEntity
  8
AM_4
100
AcDbCircle
 10
-2.163833333333331
 20
-2.32236111111111
 30
0.0
 40
0.1010000000000026
100
AcDbArc
 50
180.0
 51
216.5218115692982
  0
ARC
  5
109
330
E2
100
AcDbEntity
  8
AM_4
100
AcDbCircle
 10
-2.163833333333332
 20
-2.087361111111112
 30
0.0
 40
0.1010000000000014
100
AcDbArc
 50
143.4781884307015
 51
180.0
  0
ENDBLK
  5
E5
330
E2
100
AcDbEntity
  8
0
100
AcDbBlockEnd
  0
BLOCK
  5
10C
330
10A
100
AcDbEntity
  8
0
100
AcDbBlockBegin
  2
4_ASME_B18_3_1_4_2_0_in_071230_2
 70
     2
 10
0.0
 20
0.0
 30
0.0
  3
4_ASME_B18_3_1_4_2_0_in_071230_2
  1

  0
ATTDEF
  5
10E
330
10A
100
AcDbEntity
  8
AM_6
100
AcDbText
 10
3.667166666666667
 20
2.423361111111111
 30
0.0
 40
0.5
  1
ANSI/ASME B18.3-1998
100
AcDbAttributeDefinition
  3

  2
NN
 70
     8
280
     0
  0
ATTDEF
  5
10F
330
10A
100
AcDbEntity
  8
AM_6
100
AcDbText
 10
3.667166666666667
 20
1.923361111111111
 30
0.0
 40
0.5
  1
Socket Button Head Cap Screws
100
AcDbAttributeDefinition
  3

  2
NT
 70
     8
280
     0
  0
ATTDEF
  5
110
330
10A
100
AcDbEntity
  8
AM_6
100
AcDbText
 10
3.667166666666667
 20
1.423361111111111
 30
0.0
 40
0.5
  1
ASME B18.3-1/4
100
AcDbAttributeDefinition
  3

  2
NB
 70
     8
280
     0
  0
ATTDEF
  5
111
330
10A
100
AcDbEntity
  8
AM_6
100
AcDbText
 10
3.667166666666667
 20
0.9233611111111113
 30
0.0
 40
0.5
  1
ASME B18.3-$NS.
100
AcDbAttributeDefinition
  3

  2
NBSYN
 70
     8
280
     0
  0
ATTDEF
  5
112
330
10A
100
AcDbEntity
  8
AM_6
100
AcDbText
 10
3.667166666666667
 20
0.4233611111111113
 30
0.0
 40
0.5
  1
ASME B18.3-1/4
100
AcDbAttributeDefinition
  3

  2
LINA
 70
     8
280
     0
  0
ATTDEF
  5
113
330
10A
100
AcDbEntity
  8
AM_6
100
AcDbText
 10
3.667166666666667
 20
-0.0766388888888887
 30
0.0
 40
0.5
  1
1/4
100
AcDbAttributeDefinition
  3

  2
NS
 70
     8
280
     0
  0
ATTDEF
  5
114
330
10A
100
AcDbEntity
  8
AM_6
100
AcDbText
 10
3.667166666666667
 20
-0.5766388888888887
 30
0.0
 40
0.5
  1
0.437
100
AcDbAttributeDefinition
  3

  2
A
 70
     8
280
     0
  0
ATTDEF
  5
115
330
10A
100
AcDbEntity
  8
AM_6
100
AcDbText
 10
3.667166666666667
 20
-1.076638888888889
 30
0.0
 40
0.5
  1
0.132
100
AcDbAttributeDefinition
  3

  2
H
 70
     8
280
     0
  0
ATTDEF
  5
116
330
10A
100
AcDbEntity
  8
AM_6
100
AcDbText
 10
3.667166666666667
 20
-1.576638888888889
 30
0.0
 40
0.5
  1
0.800
100
AcDbAttributeDefinition
  3

  2
L
 70
     8
280
     0
  0
ATTDEF
  5
117
330
10A
100
AcDbEntity
  8
AM_6
100
AcDbText
 10
3.667166666666667
 20
-2.076638888888889
 30
0.0
 40
0.5
  1
0.031
100
AcDbAttributeDefinition
  3

  2
S
 70
     8
280
     0
  0
ATTDEF
  5
118
330
10A
100
AcDbEntity
  8
AM_6
100
AcDbText
 10
3.667166666666667
 20
-2.576638888888889
 30
0.0
 40
0.5
  1
0.156250
100
AcDbAttributeDefinition
  3

  2
J
 70
     8
280
     0
  0
ATTDEF
  5
119
330
10A
100
AcDbEntity
  8
AM_6
100
AcDbText
 10
3.667166666666667
 20
-3.076638888888889
 30
0.0
 40
0.5
  1
baldor
100
AcDbAttributeDefinition
  3

  2
COMPANY
 70
     8
280
     0
  0
LINE
  5
11A
330
10A
100
AcDbEntity
  8
AM_9
100
AcDbLine
 10
-2.194833333333333
 20
2.29507209067199
 30
0.0
 11
-2.264833333333333
 21
2.29507209067199
 31
0.0
  0
LINE
  5
11B
330
10A
100
AcDbEntity
  8
AM_9
100
AcDbLine
 10
-2.194833333333333
 20
2.114650131550232
 30
0.0
 11
-2.264833333333333
 21
2.114650131550232
 31
0.0
  0
LINE
  5
11C
330
10A
100
AcDbEntity
  8
AM_9
100
AcDbLine
 10
-2.194833333333333
 20
2.249966600891551
 30
0.0
 11
-2.264833333333333
 21
2.249966600891551
 31
0.0
  0
LINE
  5
11D
330
10A
100
AcDbEntity
  8
AM_9
100
AcDbLine
 10
-2.194833333333333
 20
2.29507209067199
 30
0.0
 11
-2.194833333333333
 21
2.114650131550232
 31
0.0
  0
LINE
  5
11E
330
10A
100
AcDbEntity
  8
AM_9
100
AcDbLine
 10
-2.194833333333333
 20
2.159755621330671
 30
0.0
 11
-2.264833333333333
 21
2.159755621330671
 31
0.0
  0
LINE
  5
11F
330
10A
100
AcDbEntity
  8
AM_9
100
AcDbLine
 10
-1.332833333333333
 20
2.311261111111111
 30
0.0
 11
-1.332833333333333
 21
2.098461111111111
 31
0.0
  0
LINE
  5
120
330
10A
100
AcDbEntity
  8
AM_9
100
AcDbLine
 10
-1.332833333333333
 20
2.311261111111111
 30
0.0
 11
-1.351433333333333
 21
2.329861111111111
 31
0.0
  0
LINE
  5
121
330
10A
100
AcDbEntity
  8
AM_9
100
AcDbLine
 10
-1.351433333333333
 20
2.079861111111111
 30
0.0
 11
-1.332833333333333
 21
2.098461111111111
 31
0.0
  0
LINE
  5
122
330
10A
100
AcDbEntity
  8
AM_9
100
AcDbLine
 10
-1.351433333333333
 20
2.329861111111111
 30
0.0
 11
-1.351433333333333
 21
2.079861111111111
 31
0.0
  0
LINE
  5
123
330
10A
100
AcDbEntity
  8
AM_9
100
AcDbLine
 10
-2.132833333333333
 20
2.079861111111111
 30
0.0
 11
-1.351433333333333
 21
2.079861111111111
 31
0.0
  0
LINE
  5
124
330
10A
100
AcDbEntity
  8
AM_9
100
AcDbLine
 10
-1.351433333333333
 20
2.329861111111111
 30
0.0
 11
-2.132833333333333
 21
2.329861111111111
 31
0.0
  0
LINE
  5
125
330
10A
100
AcDbEntity
  8
AM_5
100
AcDbLine
 10
-2.052833333333333
 20
2.098461111111111
 30
0.0
 11
-2.085049478354114
 21
2.079861111111111
 31
0.0
  0
LINE
  5
126
330
10A
100
AcDbEntity
  8
AM_5
100
AcDbLine
 10
-2.052833333333333
 20
2.32986111111111
 30
0.0
 11
-2.052833333333333
 21
2.079861111111111
 31
0.0
  0
LINE
  5
127
330
10A
100
AcDbEntity
  8
AM_5
100
AcDbLine
 10
-2.052833333333333
 20
2.311261111111111
 30
0.0
 11
-2.085049478354114
 21
2.329861111111111
 31
0.0
  0
LINE
  5
128
330
10A
100
AcDbEntity
  8
AM_4
100
AcDbLine
 10
-2.163833333333333
 20
1.986361111111111
 30
0.0
 11
-2.132833333333333
 21
1.986361111111111
 31
0.0
  0
LINE
  5
129
330
10A
100
AcDbEntity
  8
AM_4
100
AcDbLine
 10
-2.132833333333333
 20
2.423361111111111
 30
0.0
 11
-2.163833333333333
 21
2.423361111111111
 31
0.0
  0
LINE
  5
12A
330
10A
100
AcDbEntity
  8
AM_4
100
AcDbLine
 10
-2.264833333333333
 20
2.322361111111111
 30
0.0
 11
-2.264833333333333
 21
2.087361111111111
 31
0.0
  0
LINE
  5
12B
330
10A
100
AcDbEntity
  8
AM_4
100
AcDbLine
 10
-2.163833333333333
 20
2.423361111111111
 30
0.0
 11
-2.163833333333333
 21
1.986361111111111
 31
0.0
  0
ARC
  5
12C
330
10A
100
AcDbEntity
  8
AM_4
100
AcDbCircle
 10
-2.163833333333333
 20
2.087361111111111
 30
0.0
 40
0.1010000000000004
100
AcDbArc
 50
180.0
 51
270.0
  0
ARC
  5
12D
330
10A
100
AcDbEntity
  8
AM_4
100
AcDbCircle
 10
-2.163833333333332
 20
2.32236111111111
 30
0.0
 40
0.1010000000000013
100
AcDbArc
 50
90.0
 51
180.0
  0
ENDBLK
  5
10D
330
10A
100
AcDbEntity
  8
0
100
AcDbBlockEnd
  0
BLOCK
  5
130
330
12E
100
AcDbEntity
  8
0
100
AcDbBlockBegin
  2
5_070903LWE_0_in_071230_2
 70
     2
 10
0.0
 20
0.0
 30
0.0
  3
5_070903LWE_0_in_071230_2
  1

  0
ATTDEF
  5
132
330
12E
100
AcDbEntity
  8
AM_6
100
AcDbText
 10
3.307166666666667
 20
2.5
 30
0.0
 40
0.5
  1
Imperial/E Insert Lockwasher -Inch
100
AcDbAttributeDefinition
  3

  2
NN
 70
     8
280
     0
  0
ATTDEF
  5
133
330
12E
100
AcDbEntity
  8
AM_6
100
AcDbText
 10
3.307166666666667
 20
2.0
 30
0.0
 40
0.5
  1
Imperial/E Bearings
100
AcDbAttributeDefinition
  3

  2
NT
 70
     8
280
     0
  0
ATTDEF
  5
134
330
12E
100
AcDbEntity
  8
AM_6
100
AcDbText
 10
3.307166666666667
 20
1.5
 30
0.0
 40
0.5
  1
070903LWE
100
AcDbAttributeDefinition
  3

  2
NB
 70
     8
280
     0
  0
ATTDEF
  5
135
330
12E
100
AcDbEntity
  8
AM_6
100
AcDbText
 10
3.307166666666667
 20
1.0
 30
0.0
 40
0.5
  1
$PN.LWE
100
AcDbAttributeDefinition
  3

  2
NBSYN
 70
     8
280
     0
  0
ATTDEF
  5
136
330
12E
100
AcDbEntity
  8
AM_6
100
AcDbText
 10
3.307166666666667
 20
0.5
 30
0.0
 40
0.5
  1
070903
100
AcDbAttributeDefinition
  3

  2
LINA
 70
     8
280
     0
  0
ATTDEF
  5
137
330
12E
100
AcDbEntity
  8
AM_6
100
AcDbText
 10
3.307166666666667
 20
0.0
 30
0.0
 40
0.5
  1
3-7/16
100
AcDbAttributeDefinition
  3

  2
SS
 70
     8
280
     0
  0
ATTDEF
  5
138
330
12E
100
AcDbEntity
  8
AM_6
100
AcDbText
 10
3.307166666666667
 20
-0.5
 30
0.0
 40
0.5
  1
5.000000
100
AcDbAttributeDefinition
  3

  2
E1
 70
     8
280
     0
  0
ATTDEF
  5
139
330
12E
100
AcDbEntity
  8
AM_6
100
AcDbText
 10
3.307166666666667
 20
-1.0
 30
0.0
 40
0.5
  1
3.437500
100
AcDbAttributeDefinition
  3

  2
SS1
 70
     8
280
     0
  0
ATTDEF
  5
13A
330
12E
100
AcDbEntity
  8
AM_6
100
AcDbText
 10
3.307166666666667
 20
-1.5
 30
0.0
 40
0.5
  1
070903
100
AcDbAttributeDefinition
  3

  2
PN
 70
     8
280
     0
  0
ATTDEF
  5
13B
330
12E
100
AcDbEntity
  8
AM_6
100
AcDbText
 10
3.307166666666667
 20
-2.0
 30
0.0
 40
0.5
  1
INS-IP-307R
100
AcDbAttributeDefinition
  3

  2
DESCRIPTION
 70
     8
280
     0
  0
ATTDEF
  5
13C
330
12E
100
AcDbEntity
  8
AM_6
100
AcDbText
 10
3.307166666666667
 20
-2.5
 30
0.0
 40
0.5
  1
6.2992
100
AcDbAttributeDefinition
  3

  2
A
 70
     8
280
     0
  0
ATTDEF
  5
13D
330
12E
100
AcDbEntity
  8
AM_6
100
AcDbText
 10
3.307166666666667
 20
-3.0
 30
0.0
 40
0.5
  1
1-5/8
100
AcDbAttributeDefinition
  3

  2
B
 70
     8
280
     0
  0
ATTDEF
  5
13E
330
12E
100
AcDbEntity
  8
AM_6
100
AcDbText
 10
3.307166666666667
 20
-3.5
 30
0.0
 40
0.5
  1
1.625000
100
AcDbAttributeDefinition
  3

  2
B1
 70
     8
280
     0
  0
ATTDEF
  5
13F
330
12E
100
AcDbEntity
  8
AM_6
100
AcDbText
 10
3.307166666666667
 20
-4.0
 30
0.0
 40
0.5
  1
4-11/64
100
AcDbAttributeDefinition
  3

  2
C
 70
     8
280
     0
  0
ATTDEF
  5
140
330
12E
100
AcDbEntity
  8
AM_6
100
AcDbText
 10
3.307166666666667
 20
-4.5
 30
0.0
 40
0.5
  1
4.171875
100
AcDbAttributeDefinition
  3

  2
C1
 70
     8
280
     0
  0
ATTDEF
  5
141
330
12E
100
AcDbEntity
  8
AM_6
100
AcDbText
 10
3.307166666666667
 20
-5.0
 30
0.0
 40
0.5
  1
1.483
100
AcDbAttributeDefinition
  3

  2
D
 70
     8
280
     0
  0
ATTDEF
  5
142
330
12E
100
AcDbEntity
  8
AM_6
100
AcDbText
 10
3.307166666666667
 20
-5.5
 30
0.0
 40
0.5
  1
5
100
AcDbAttributeDefinition
  3

  2
E
 70
     8
280
     0
  0
ATTDEF
  5
143
330
12E
100
AcDbEntity
  8
AM_6
100
AcDbText
 10
3.307166666666667
 20
-6.0
 30
0.0
 40
0.5
  1
0.2500
100
AcDbAttributeDefinition
  3

  2
NDM
 70
     8
280
     0
  0
ATTDEF
  5
144
330
12E
100
AcDbEntity
  8
AM_6
100
AcDbText
 10
3.307166666666667
 20
-6.5
 30
0.0
 40
0.5
  1
0.1960
100
AcDbAttributeDefinition
  3

  2
KDM
 70
     8
280
     0
  0
ATTDEF
  5
145
330
12E
100
AcDbEntity
  8
AM_6
100
AcDbText
 10
3.307166666666667
 20
-7.0
 30
0.0
 40
0.5
  1
4.28
100
AcDbAttributeDefinition
  3

  2
AL
 70
     8
280
     0
  0
ATTDEF
  5
146
330
12E
100
AcDbEntity
  8
AM_6
100
AcDbText
 10
3.307166666666667
 20
-7.5
 30
0.0
 40
0.5
  1
0.50
100
AcDbAttributeDefinition
  3

  2
BL
 70
     8
280
     0
  0
ATTDEF
  5
147
330
12E
100
AcDbEntity
  8
AM_6
100
AcDbText
 10
3.307166666666667
 20
-8.0
 30
0.0
 40
0.5
  1
0.07
100
AcDbAttributeDefinition
  3

  2
CL
 70
     8
280
     0
  0
ATTDEF
  5
148
330
12E
100
AcDbEntity
  8
AM_6
100
AcDbText
 10
3.307166666666667
 20
-8.5
 30
0.0
 40
0.5
  1
0.44
100
AcDbAttributeDefinition
  3

  2
DL
 70
     8
280
     0
  0
ATTDEF
  5
149
330
12E
100
AcDbEntity
  8
AM_6
100
AcDbText
 10
3.307166666666667
 20
-9.0
 30
0.0
 40
0.5
  1
baldor
100
AcDbAttributeDefinition
  3

  2
COMPANY
 70
     8
280
     0
  0
LINE
  5
14A
330
12E
100
AcDbEntity
  8
AM_9
100
AcDbLine
 10
-2.062833333333333
 20
1.664943722831429
 30
0.0
 11
-2.132833333333333
 21
1.664943722831429
 31
0.0
  0
LINE
  5
14B
330
12E
100
AcDbEntity
  8
AM_9
100
AcDbLine
 10
-1.692833333333333
 20
1.619662894025522
 30
0.0
 11
-2.062833333333333
 21
1.619662894025522
 31
0.0
  0
LINE
  5
14C
330
12E
100
AcDbEntity
  8
AM_9
100
AcDbLine
 10
-1.692833333333333
 20
1.535877497308362
 30
0.0
 11
-1.692833333333333
 21
1.715333752116795
 31
0.0
  0
LINE
  5
14D
330
12E
100
AcDbEntity
  8
AM_9
100
AcDbLine
 10
-1.692833333333333
 20
1.535877497308362
 30
0.0
 11
-2.132833333333333
 21
1.535877497308362
 31
0.0
  0
LINE
  5
14E
330
12E
100
AcDbEntity
  8
AM_9
100
AcDbLine
 10
-2.062833333333333
 20
1.715333752116795
 30
0.0
 11
-1.692833333333333
 21
1.715333752116795
 31
0.0
  0
LINE
  5
14F
330
12E
100
AcDbEntity
  8
AM_9
100
AcDbLine
 10
-1.692833333333333
 20
1.631548355399634
 30
0.0
 11
-2.132833333333333
 21
1.631548355399634
 31
0.0
  0
LINE
  5
150
330
12E
100
AcDbEntity
  8
AM_9
100
AcDbLine
 10
-2.062833333333333
 20
1.760614580922702
 30
0.0
 11
-2.132833333333333
 21
1.760614580922702
 31
0.0
  0
LINE
  5
151
330
12E
100
AcDbEntity
  8
AM_9
100
AcDbLine
 10
-2.062833333333333
 20
2.204861111111111
 30
0.0
 11
-2.132833333333333
 21
2.204861111111111
 31
0.0
  0
LINE
  5
152
330
12E
100
AcDbEntity
  8
AM_9
100
AcDbLine
 10
-2.062833333333333
 20
2.329911401963232
 30
0.0
 11
-2.132833333333333
 21
2.329911401963232
 31
0.0
  0
LINE
  5
153
330
12E
100
AcDbEntity
  8
AM_9
100
AcDbLine
 10
-2.062833333333333
 20
-2.204861111111111
 30
0.0
 11
-2.132833333333333
 21
-2.204861111111111
 31
0.0
  0
LINE
  5
154
330
12E
100
AcDbEntity
  8
AM_9
100
AcDbLine
 10
-2.132833333333333
 20
-2.329911401963232
 30
0.0
 11
-2.062833333333333
 21
-2.329911401963232
 31
0.0
  0
LINE
  5
155
330
12E
100
AcDbEntity
  8
AM_9
100
AcDbLine
 10
-2.062833333333333
 20
-1.853898794815158
 30
0.0
 11
-2.132833333333333
 21
-1.853898794815158
 31
0.0
  0
LINE
  5
156
330
12E
100
AcDbEntity
  8
AM_9
100
AcDbLine
 10
-2.062833333333333
 20
1.853898794815157
 30
0.0
 11
-2.132833333333333
 21
1.853898794815157
 31
0.0
  0
LINE
  5
157
330
12E
100
AcDbEntity
  8
AM_9
100
AcDbLine
 10
-2.062833333333333
 20
1.399292757095684
 30
0.0
 11
-2.132833333333333
 21
1.399292757095684
 31
0.0
  0
LINE
  5
158
330
12E
100
AcDbEntity
  8
AM_9
100
AcDbLine
 10
-2.062833333333333
 20
-1.399292757095684
 30
0.0
 11
-2.132833333333333
 21
-1.399292757095684
 31
0.0
  0
LINE
  5
159
330
12E
100
AcDbEntity
  8
AM_9
100
AcDbLine
 10
-2.062833333333333
 20
1.222516061799047
 30
0.0
 11
-2.132833333333333
 21
1.222516061799047
 31
0.0
  0
LINE
  5
15A
330
12E
100
AcDbEntity
  8
AM_9
100
AcDbLine
 10
-2.062833333333333
 20
-1.222516061799047
 30
0.0
 11
-2.132833333333333
 21
-1.222516061799047
 31
0.0
  0
LINE
  5
15B
330
12E
100
AcDbEntity
  8
AM_9
100
AcDbLine
 10
-2.062833333333333
 20
-1.470683895592854
 30
0.0
 11
-2.132833333333333
 21
-1.470683895592854
 31
0.0
  0
LINE
  5
15C
330
12E
100
AcDbEntity
  8
AM_9
100
AcDbLine
 10
-2.062833333333333
 20
-1.647460590889495
 30
0.0
 11
-2.132833333333333
 21
-1.647460590889495
 31
0.0
  0
LINE
  5
15D
330
12E
100
AcDbEntity
  8
AM_9
100
AcDbLine
 10
-2.132833333333333
 20
-1.684107807205653
 30
0.0
 11
-2.062833333333333
 21
-1.684107807205653
 31
0.0
  0
LINE
  5
15E
330
12E
100
AcDbEntity
  8
AM_9
100
AcDbLine
 10
-2.062833333333333
 20
1.647460590889491
 30
0.0
 11
-2.132833333333333
 21
1.647460590889491
 31
0.0
  0
LINE
  5
15F
330
12E
100
AcDbEntity
  8
AM_9
100
AcDbLine
 10
-2.062833333333333
 20
1.470683895592854
 30
0.0
 11
-2.132833333333333
 21
1.470683895592854
 31
0.0
  0
LINE
  5
160
330
12E
100
AcDbEntity
  8
AM_9
100
AcDbLine
 10
-2.062833333333333
 20
1.684107807205654
 30
0.0
 11
-2.132833333333333
 21
1.684107807205654
 31
0.0
  0
LINE
  5
161
330
12E
100
AcDbEntity
  8
AM_9
100
AcDbLine
 10
-2.062833333333333
 20
0.1250000000000003
 30
0.0
 11
-2.132833333333333
 21
0.1250000000000003
 31
0.0
  0
LINE
  5
162
330
12E
100
AcDbEntity
  8
AM_9
100
AcDbLine
 10
-2.062833333333333
 20
-0.1249999999999999
 30
0.0
 11
-2.132833333333333
 21
-0.1249999999999999
 31
0.0
  0
LINE
  5
163
330
12E
100
AcDbEntity
  8
AM_9
100
AcDbLine
 10
-2.132833333333333
 20
-2.5
 30
0.0
 11
-2.062833333333333
 21
-2.5
 31
0.0
  0
LINE
  5
164
330
12E
100
AcDbEntity
  8
AM_9
100
AcDbLine
 10
-2.132833333333333
 20
-1.483073237537881
 30
0.0
 11
-2.132833333333333
 21
-2.5
 31
0.0
  0
LINE
  5
165
330
12E
100
AcDbEntity
  8
AM_9
100
AcDbLine
 10
-2.062833333333333
 20
-1.43750502131319
 30
0.0
 11
-2.062833333333333
 21
-2.5
 31
0.0
  0
LINE
  5
166
330
12E
100
AcDbEntity
  8
AM_4
100
AcDbLine
 10
-2.062833333333333
 20
2.5
 30
0.0
 11
-2.132833333333333
 21
2.5
 31
0.0
  0
LINE
  5
167
330
12E
100
AcDbEntity
  8
AM_4
100
AcDbLine
 10
-2.132833333333333
 20
2.5
 30
0.0
 11
-2.132833333333333
 21
-1.483073237537881
 31
0.0
  0
LINE
  5
168
330
12E
100
AcDbEntity
  8
AM_4
100
AcDbLine
 10
-2.062833333333333
 20
2.5
 30
0.0
 11
-2.062833333333333
 21
-1.43750502131319
 31
0.0
  0
ENDBLK
  5
131
330
12E
100
AcDbEntity
  8
0
100
AcDbBlockEnd
  0
BLOCK
  5
16B
330
169
100
AcDbEntity
  8
0
100
AcDbBlockBegin
  2
6_070903E_0_in_071230_2
 70
     2
 10
0.0
 20
0.0
 30
0.0
  3
6_070903E_0_in_071230_2
  1

  0
ATTDEF
  5
16D
330
169
100
AcDbEntity
  8
AM_6
100
AcDbText
 10
6.815
 20
3.1496
 30
0.0
 40
0.5
  1
Imperial/E Insert -Inch
100
AcDbAttributeDefinition
  3

  2
NN
 70
     8
280
     0
  0
ATTDEF
  5
16E
330
169
100
AcDbEntity
  8
AM_6
100
AcDbText
 10
6.815
 20
2.6496
 30
0.0
 40
0.5
  1
Imperial Bearings
100
AcDbAttributeDefinition
  3

  2
NT
 70
     8
280
     0
  0
ATTDEF
  5
16F
330
169
100
AcDbEntity
  8
AM_6
100
AcDbText
 10
6.815
 20
2.1496
 30
0.0
 40
0.5
  1
070903E
100
AcDbAttributeDefinition
  3

  2
NB
 70
     8
280
     0
  0
ATTDEF
  5
170
330
169
100
AcDbEntity
  8
AM_6
100
AcDbText
 10
6.815
 20
1.6496
 30
0.0
 40
0.5
  1
$PN.
100
AcDbAttributeDefinition
  3

  2
NBSYN
 70
     8
280
     0
  0
ATTDEF
  5
171
330
169
100
AcDbEntity
  8
AM_6
100
AcDbText
 10
6.815
 20
1.1496
 30
0.0
 40
0.5
  1
070903E
100
AcDbAttributeDefinition
  3

  2
LINA
 70
     8
280
     0
  0
ATTDEF
  5
172
330
169
100
AcDbEntity
  8
AM_6
100
AcDbText
 10
6.815
 20
0.6495999999999995
 30
0.0
 40
0.5
  1
3-7/16
100
AcDbAttributeDefinition
  3

  2
SS
 70
     8
280
     0
  0
ATTDEF
  5
173
330
169
100
AcDbEntity
  8
AM_6
100
AcDbText
 10
6.815
 20
0.1495999999999995
 30
0.0
 40
0.5
  1
3.437500
100
AcDbAttributeDefinition
  3

  2
SS1
 70
     8
280
     0
  0
ATTDEF
  5
174
330
169
100
AcDbEntity
  8
AM_6
100
AcDbText
 10
6.815
 20
-0.3504000000000005
 30
0.0
 40
0.5
  1
070903E
100
AcDbAttributeDefinition
  3

  2
PN
 70
     8
280
     0
  0
ATTDEF
  5
175
330
169
100
AcDbEntity
  8
AM_6
100
AcDbText
 10
6.815
 20
-0.8504000000000005
 30
0.0
 40
0.5
  1
INS-IP-307R
100
AcDbAttributeDefinition
  3

  2
DESCRIPTION
 70
     8
280
     0
  0
ATTDEF
  5
176
330
169
100
AcDbEntity
  8
AM_6
100
AcDbText
 10
6.815
 20
-1.3504
 30
0.0
 40
0.5
  1
Contact Seal
100
AcDbAttributeDefinition
  3

  2
ST
 70
     8
280
     0
  0
ATTDEF
  5
177
330
169
100
AcDbEntity
  8
AM_6
100
AcDbText
 10
6.815
 20
-1.8504
 30
0.0
 40
0.5
  1
1
100
AcDbAttributeDefinition
  3

  2
ST1
 70
     8
280
     0
  0
ATTDEF
  5
178
330
169
100
AcDbEntity
  8
AM_6
100
AcDbText
 10
6.815
 20
-2.3504
 30
0.0
 40
0.5
  1
6.2992
100
AcDbAttributeDefinition
  3

  2
A
 70
     8
280
     0
  0
ATTDEF
  5
179
330
169
100
AcDbEntity
  8
AM_6
100
AcDbText
 10
6.815
 20
-2.8504
 30
0.0
 40
0.5
  1
1-5/8
100
AcDbAttributeDefinition
  3

  2
B
 70
     8
280
     0
  0
ATTDEF
  5
17A
330
169
100
AcDbEntity
  8
AM_6
100
AcDbText
 10
6.815
 20
-3.3504
 30
0.0
 40
0.5
  1
1.625000
100
AcDbAttributeDefinition
  3

  2
B1
 70
     8
280
     0
  0
ATTDEF
  5
17B
330
169
100
AcDbEntity
  8
AM_6
100
AcDbText
 10
6.815
 20
-3.8504
 30
0.0
 40
0.5
  1
4-11/64
100
AcDbAttributeDefinition
  3

  2
C
 70
     8
280
     0
  0
ATTDEF
  5
17C
330
169
100
AcDbEntity
  8
AM_6
100
AcDbText
 10
6.815
 20
-4.3504
 30
0.0
 40
0.5
  1
4.170000
100
AcDbAttributeDefinition
  3

  2
C1
 70
     8
280
     0
  0
ATTDEF
  5
17D
330
169
100
AcDbEntity
  8
AM_6
100
AcDbText
 10
6.815
 20
-4.8504
 30
0.0
 40
0.5
  1
5.40000
100
AcDbAttributeDefinition
  3

  2
CR
 70
     8
280
     0
  0
ATTDEF
  5
17E
330
169
100
AcDbEntity
  8
AM_6
100
AcDbText
 10
6.815
 20
-5.3504
 30
0.0
 40
0.5
  1
1.483
100
AcDbAttributeDefinition
  3

  2
D
 70
     8
280
     0
  0
ATTDEF
  5
17F
330
169
100
AcDbEntity
  8
AM_6
100
AcDbText
 10
6.815
 20
-5.8504
 30
0.0
 40
0.5
  1
5
100
AcDbAttributeDefinition
  3

  2
E
 70
     8
280
     0
  0
ATTDEF
  5
180
330
169
100
AcDbEntity
  8
AM_6
100
AcDbText
 10
6.815
 20
-6.3504
 30
0.0
 40
0.5
  1
5.000000
100
AcDbAttributeDefinition
  3

  2
E1
 70
     8
280
     0
  0
ATTDEF
  5
181
330
169
100
AcDbEntity
  8
AM_6
100
AcDbText
 10
6.815
 20
-6.8504
 30
0.0
 40
0.5
  1
0.2500
100
AcDbAttributeDefinition
  3

  2
NDM
 70
     8
280
     0
  0
ATTDEF
  5
182
330
169
100
AcDbEntity
  8
AM_6
100
AcDbText
 10
6.815
 20
-7.3504
 30
0.0
 40
0.5
  1
0.1960
100
AcDbAttributeDefinition
  3

  2
KDM
 70
     8
280
     0
  0
ATTDEF
  5
183
330
169
100
AcDbEntity
  8
AM_6
100
AcDbText
 10
6.815
 20
-7.8504
 30
0.0
 40
0.5
  1
4.28
100
AcDbAttributeDefinition
  3

  2
AL
 70
     8
280
     0
  0
ATTDEF
  5
184
330
169
100
AcDbEntity
  8
AM_6
100
AcDbText
 10
6.815
 20
-8.3504
 30
0.0
 40
0.5
  1
0.50
100
AcDbAttributeDefinition
  3

  2
BL
 70
     8
280
     0
  0
ATTDEF
  5
185
330
169
100
AcDbEntity
  8
AM_6
100
AcDbText
 10
6.815
 20
-8.8504
 30
0.0
 40
0.5
  1
0.07
100
AcDbAttributeDefinition
  3

  2
CL
 70
     8
280
     0
  0
ATTDEF
  5
186
330
169
100
AcDbEntity
  8
AM_6
100
AcDbText
 10
6.815
 20
-9.3504
 30
0.0
 40
0.5
  1
0.44
100
AcDbAttributeDefinition
  3

  2
DL
 70
     8
280
     0
  0
ATTDEF
  5
187
330
169
100
AcDbEntity
  8
AM_6
100
AcDbText
 10
6.815
 20
-9.8504
 30
0.0
 40
0.5
  1
0.8000
100
AcDbAttributeDefinition
  3

  2
LL
 70
     8
280
     0
  0
ATTDEF
  5
188
330
169
100
AcDbEntity
  8
AM_6
100
AcDbText
 10
6.815
 20
-10.3504
 30
0.0
 40
0.5
  1
0.025
100
AcDbAttributeDefinition
  3

  2
Y
 70
     8
280
     0
  0
ATTDEF
  5
189
330
169
100
AcDbEntity
  8
AM_6
100
AcDbText
 10
6.815
 20
-10.8504
 30
0.0
 40
0.5
  1
0.025000
100
AcDbAttributeDefinition
  3

  2
Y1
 70
     8
280
     0
  0
ATTDEF
  5
18A
330
169
100
AcDbEntity
  8
AM_6
100
AcDbText
 10
6.815
 20
-11.3504
 30
0.0
 40
0.5
  1
4-3/64
100
AcDbAttributeDefinition
  3

  2
Z
 70
     8
280
     0
  0
ATTDEF
  5
18B
330
169
100
AcDbEntity
  8
AM_6
100
AcDbText
 10
6.815
 20
-11.8504
 30
0.0
 40
0.5
  1
4.046875
100
AcDbAttributeDefinition
  3

  2
Z1
 70
     8
280
     0
  0
ATTDEF
  5
18C
330
169
100
AcDbEntity
  8
AM_6
100
AcDbText
 10
6.815
 20
-12.3504
 30
0.0
 40
0.5
  1
1.24000
100
AcDbAttributeDefinition
  3

  2
P1
 70
     8
280
     0
  0
ATTDEF
  5
18D
330
169
100
AcDbEntity
  8
AM_6
100
AcDbText
 10
6.815
 20
-12.8504
 30
0.0
 40
0.5
  1
1.88000
100
AcDbAttributeDefinition
  3

  2
H1
 70
     8
280
     0
  0
ATTDEF
  5
18E
330
169
100
AcDbEntity
  8
AM_6
100
AcDbText
 10
6.815
 20
-13.3504
 30
0.0
 40
0.5
  1
1.12000
100
AcDbAttributeDefinition
  3

  2
G1
 70
     8
280
     0
  0
ATTDEF
  5
18F
330
169
100
AcDbEntity
  8
AM_6
100
AcDbText
 10
6.815
 20
-13.8504
 30
0.0
 40
0.5
  1
0.13200
100
AcDbAttributeDefinition
  3

  2
CW
 70
     8
280
     0
  0
ATTDEF
  5
190
330
169
100
AcDbEntity
  8
AM_6
100
AcDbText
 10
6.815
 20
-14.3504
 30
0.0
 40
0.5
  1
5.00000
100
AcDbAttributeDefinition
  3

  2
L1
 70
     8
280
     0
  0
ATTDEF
  5
191
330
169
100
AcDbEntity
  8
AM_6
100
AcDbText
 10
6.815
 20
-14.8504
 30
0.0
 40
0.5
  1
baldor
100
AcDbAttributeDefinition
  3

  2
COMPANY
 70
     8
280
     0
  0
LINE
  5
192
330
169
100
AcDbEntity
  8
AM_9
100
AcDbLine
 10
1.119499999999999
 20
1.719754559032353
 30
0.0
 11
-2.062833333333333
 21
1.719754559032353
 31
0.0
  0
LINE
  5
193
330
169
100
AcDbEntity
  8
AM_9
100
AcDbLine
 10
1.119499999999999
 20
1.624083700941081
 30
0.0
 11
-2.062833333333333
 21
1.624083700941081
 31
0.0
  0
LINE
  5
194
330
169
100
AcDbEntity
  8
AM_9
100
AcDbLine
 10
-1.222833333333339
 20
-2.204861111111111
 30
0.0
 11
-1.279384792200453
 21
-2.106911111111111
 31
0.0
  0
LINE
  5
195
330
169
100
AcDbEntity
  8
AM_9
100
AcDbLine
 10
-1.279384792200453
 20
-2.302811111111111
 30
0.0
 11
-1.222833333333339
 21
-2.204861111111111
 31
0.0
  0
LINE
  5
196
330
169
100
AcDbEntity
  8
AM_9
100
AcDbLine
 10
-1.222833333333333
 20
2.204861111111111
 30
0.0
 11
-1.279384792200457
 21
2.302811111111111
 31
0.0
  0
LINE
  5
197
330
169
100
AcDbEntity
  8
AM_9
100
AcDbLine
 10
-1.279384792200457
 20
2.106911111111111
 30
0.0
 11
-1.222833333333333
 21
2.204861111111111
 31
0.0
  0
LINE
  5
198
330
169
100
AcDbEntity
  8
AM_9
100
AcDbLine
 10
-1.279384792200457
 20
2.106911111111111
 30
0.0
 11
-1.279384792200457
 21
2.302811111111111
 31
0.0
  0
LINE
  5
199
330
169
100
AcDbEntity
  8
AM_9
100
AcDbLine
 10
-1.279384792200457
 20
2.302811111111111
 30
0.0
 11
-2.035783333333333
 21
2.302811111111111
 31
0.0
  0
LINE
  5
19A
330
169
100
AcDbEntity
  8
AM_9
100
AcDbLine
 10
-2.035783333333333
 20
2.106911111111111
 30
0.0
 11
-1.279384792200457
 21
2.106911111111111
 31
0.0
  0
LINE
  5
19B
330
169
100
AcDbEntity
  8
AM_9
100
AcDbLine
 10
-2.035783333333312
 20
-2.302811111111111
 30
0.0
 11
-1.279384792200453
 21
-2.302811111111111
 31
0.0
  0
LINE
  5
19C
330
169
100
AcDbEntity
  8
AM_9
100
AcDbLine
 10
-1.279384792200453
 20
-2.106911111111111
 30
0.0
 11
-2.035783333333312
 21
-2.106911111111111
 31
0.0
  0
LINE
  5
19D
330
169
100
AcDbEntity
  8
AM_9
100
AcDbLine
 10
-1.279384792200453
 20
-2.106911111111111
 30
0.0
 11
-1.279384792200453
 21
-2.302811111111111
 31
0.0
  0
LINE
  5
19E
330
169
100
AcDbEntity
  8
AM_9
100
AcDbLine
 10
-2.035783333333333
 20
2.106911111111111
 30
0.0
 11
-2.035783333333333
 21
2.302811111111111
 31
0.0
  0
LINE
  5
19F
330
169
100
AcDbEntity
  8
AM_9
100
AcDbLine
 10
-2.035783333333333
 20
2.302811111111111
 30
0.0
 11
-2.062833333333333
 21
2.329861111111111
 31
0.0
  0
LINE
  5
1A0
330
169
100
AcDbEntity
  8
AM_9
100
AcDbLine
 10
-2.062833333333333
 20
2.079861111111111
 30
0.0
 11
-2.035783333333333
 21
2.106911111111111
 31
0.0
  0
LINE
  5
1A1
330
169
100
AcDbEntity
  8
AM_9
100
AcDbLine
 10
-2.035783333333312
 20
-2.106911111111111
 30
0.0
 11
-2.062833333333345
 21
-2.079861111111111
 31
0.0
  0
LINE
  5
1A2
330
169
100
AcDbEntity
  8
AM_9
100
AcDbLine
 10
-2.062833333333345
 20
-2.329861111111111
 30
0.0
 11
-2.035783333333312
 21
-2.302811111111111
 31
0.0
  0
LINE
  5
1A3
330
169
100
AcDbEntity
  8
AM_9
100
AcDbLine
 10
-2.035783333333312
 20
-2.106911111111111
 30
0.0
 11
-2.035783333333312
 21
-2.302811111111111
 31
0.0
  0
LINE
  5
1A4
330
169
100
AcDbEntity
  8
AM_9
100
AcDbLine
 10
-1.622833333333333
 20
-1.336431816442575
 30
0.0
 11
-2.062833333333333
 21
-1.336431816442575
 31
0.0
  0
LINE
  5
1A5
330
169
100
AcDbEntity
  8
AM_9
100
AcDbLine
 10
-1.622833333333333
 20
-1.689985207035849
 30
0.0
 11
-2.062833333333333
 21
-1.689985207035849
 31
0.0
  0
LINE
  5
1A6
330
169
100
AcDbEntity
  8
AM_9
100
AcDbLine
 10
-1.622833333333333
 20
1.336431816442574
 30
0.0
 11
-2.062833333333333
 21
1.336431816442574
 31
0.0
  0
LINE
  5
1A7
330
169
100
AcDbEntity
  8
AM_9
100
AcDbLine
 10
-1.622833333333333
 20
1.689985207035848
 30
0.0
 11
-2.0205
 21
1.689985207035848
 31
0.0
  0
LINE
  5
1A8
330
169
100
AcDbEntity
  8
AM_9
100
AcDbLine
 10
1.119499999999999
 20
1.631548355399633
 30
0.0
 11
-2.38
 21
1.631548355399634
 31
0.0
  0
LINE
  5
1A9
330
169
100
AcDbEntity
  8
AM_9
100
AcDbLine
 10
-2.38
 20
1.535877497308361
 30
0.0
 11
1.119499999999999
 21
1.53587749730836
 31
0.0
  0
LINE
  5
1AA
330
169
100
AcDbEntity
  8
AM_9
100
AcDbLine
 10
1.1195
 20
1.718749999999999
 30
0.0
 11
-2.38
 21
1.718749999999999
 31
0.0
  0
LINE
  5
1AB
330
169
100
AcDbEntity
  8
AM_9
100
AcDbLine
 10
-2.38
 20
-1.718749999999999
 30
0.0
 11
1.1195
 21
-1.718749999999999
 31
0.0
  0
LINE
  5
1AC
330
169
100
AcDbEntity
  8
AM_9
100
AcDbLine
 10
1.79
 20
1.80921052631579
 30
0.0
 11
1.1195
 21
1.80921052631579
 31
0.0
  0
LINE
  5
1AD
330
169
100
AcDbEntity
  8
AM_9
100
AcDbLine
 10
1.1195
 20
-1.80921052631579
 30
0.0
 11
1.79
 21
-1.80921052631579
 31
0.0
  0
LINE
  5
1AE
330
169
100
AcDbEntity
  8
AM_9
100
AcDbLine
 10
-2.38
 20
1.715333752116795
 30
0.0
 11
-2.062833333333333
 21
1.715333752116795
 31
0.0
  0
LINE
  5
1AF
330
169
100
AcDbEntity
  8
AM_9
100
AcDbLine
 10
-2.062833333333333
 20
1.619662894025522
 30
0.0
 11
-2.38
 21
1.619662894025522
 31
0.0
  0
LINE
  5
1B0
330
169
100
AcDbEntity
  8
AM_9
100
AcDbLine
 10
-2.062833333333333
 20
1.80921052631579
 30
0.0
 11
-2.132833333333333
 21
1.80921052631579
 31
0.0
  0
LINE
  5
1B1
330
169
100
AcDbEntity
  8
AM_9
100
AcDbLine
 10
-2.245
 20
-1.80921052631579
 30
0.0
 11
-2.062833333333333
 21
-1.80921052631579
 31
0.0
  0
LINE
  5
1B2
330
169
100
AcDbEntity
  8
AM_9
100
AcDbLine
 10
-1.622833333333333
 20
1.941140621581819
 30
0.0
 11
-1.622833333333333
 21
1.336431816442574
 31
0.0
  0
LINE
  5
1B3
330
169
100
AcDbEntity
  8
AM_9
100
AcDbLine
 10
1.79
 20
-2.0234375
 30
0.0
 11
1.79
 21
2.0234375
 31
0.0
  0
LINE
  5
1B4
330
169
100
AcDbEntity
  8
AM_9
100
AcDbLine
 10
1.814999999999999
 20
2.0234375
 30
0.0
 11
1.79
 21
2.0234375
 31
0.0
  0
LINE
  5
1B5
330
169
100
AcDbEntity
  8
AM_9
100
AcDbLine
 10
1.79
 20
-2.0234375
 30
0.0
 11
1.814999999999999
 21
-2.0234375
 31
0.0
  0
LINE
  5
1B6
330
169
100
AcDbEntity
  8
AM_9
100
AcDbLine
 10
-2.062833333333333
 20
-1.582129214637147
 30
0.0
 11
-2.062833333333333
 21
-1.43750502131319
 31
0.0
  0
LINE
  5
1B7
330
169
100
AcDbEntity
  8
AM_9
100
AcDbLine
 10
-2.062833333333333
 20
-1.582129214637147
 30
0.0
 11
-1.622833333333333
 21
-1.587587230988546
 31
0.0
  0
LINE
  5
1B8
330
169
100
AcDbEntity
  8
AM_9
100
AcDbLine
 10
-1.622833333333333
 20
-1.336431816442575
 30
0.0
 11
-1.622833333333333
 21
-1.941140621581819
 31
0.0
  0
LINE
  5
1B9
330
169
100
AcDbEntity
  8
AM_9
100
AcDbLine
 10
-1.622833333333333
 20
-1.941140621581819
 30
0.0
 11
-2.062833333333333
 21
-1.935682605230421
 31
0.0
  0
LINE
  5
1BA
330
169
100
AcDbEntity
  8
AM_9
100
AcDbLine
 10
-2.020500000182018
 20
1.936207739897852
 30
0.0
 11
-1.622833333333333
 21
1.941140621581819
 31
0.0
  0
LINE
  5
1BB
330
169
100
AcDbEntity
  8
AM_9
100
AcDbLine
 10
-1.622833333333333
 20
1.587587230988545
 30
0.0
 11
-2.020500000182018
 21
1.582654349304577
 31
0.0
  0
LINE
  5
1BC
330
169
100
AcDbEntity
  8
AM_9
100
AcDbLine
 10
-2.062833333333333
 20
-2.499999999999997
 30
0.0
 11
-0.5546273796781359
 21
-2.526325832846175
 31
0.0
  0
LINE
  5
1BD
330
169
100
AcDbEntity
  8
AM_9
100
AcDbLine
 10
-0.5546273796781359
 20
2.526325832846175
 30
0.0
 11
-2.0205
 21
2.500738931081959
 31
0.0
  0
LINE
  5
1BE
330
169
100
AcDbEntity
  8
AM_9
100
AcDbLine
 10
-2.062833333333333
 20
-2.499999999999997
 30
0.0
 11
-2.062833333333333
 21
-1.935682605230421
 31
0.0
  0
ARC
  5
1BF
330
169
100
AcDbEntity
  8
AM_9
100
AcDbCircle
 10
-0.5555
 20
2.576318217603994
 30
0.0
 40
0.0499999999999999
100
AcDbArc
 50
270.9999999999999
 51
0.0
  0
ARC
  5
1C0
330
169
100
AcDbEntity
  8
AM_9
100
AcDbCircle
 10
-0.5554999999999999
 20
-2.576318217603994
 30
0.0
 40
0.0499999999999999
100
AcDbArc
 50
0.0
 51
89.00000000000024
  0
LINE
  5
1C1
330
169
100
AcDbEntity
  8
AM_9
100
AcDbLine
 10
-0.5546273796781359
 20
-2.526325832846175
 30
0.0
 11
-0.5546273796781359
 21
2.526325832846175
 31
0.0
  0
LINE
  5
1C2
330
169
100
AcDbEntity
  8
AM_9
100
AcDbLine
 10
1.814999999999999
 20
2.697916666666666
 30
0.0
 11
1.4445
 21
2.697916666666666
 31
0.0
  0
LINE
  5
1C3
330
169
100
AcDbEntity
  8
AM_9
100
AcDbLine
 10
1.4445
 20
-2.697916666666666
 30
0.0
 11
1.814999999999999
 21
-2.697916666666666
 31
0.0
  0
LINE
  5
1C4
330
169
100
AcDbEntity
  8
AM_9
100
AcDbLine
 10
1.814999999999999
 20
-2.697916666666666
 30
0.0
 11
1.814999999999999
 21
2.697916666666666
 31
0.0
  0
LINE
  5
1C5
330
169
100
AcDbEntity
  8
AM_9
100
AcDbLine
 10
1.4445
 20
-2.704226135594408
 30
0.0
 11
1.4445
 21
2.704226135594408
 31
0.0
  0
ARC
  5
1C6
330
169
100
AcDbEntity
  8
AM_9
100
AcDbCircle
 10
1.344499999999998
 20
2.704226135594408
 30
0.0
 40
0.1000000000000019
100
AcDbArc
 50
0.0
 51
59.99999999999946
  0
ARC
  5
1C7
330
169
100
AcDbEntity
  8
AM_9
100
AcDbCircle
 10
1.344499999999998
 20
-2.704226135594408
 30
0.0
 40
0.1000000000000015
100
AcDbArc
 50
300.0000000000005
 51
0.0
  0
LINE
  5
1C8
330
169
100
AcDbEntity
  8
AM_9
100
AcDbLine
 10
1.3945
 20
2.790828675972853
 30
0.0
 11
1.1195
 21
2.9496
 31
0.0
  0
LINE
  5
1C9
330
169
100
AcDbEntity
  8
AM_9
100
AcDbLine
 10
1.1195
 20
-2.9496
 30
0.0
 11
1.3945
 21
-2.790828675972853
 31
0.0
  0
LINE
  5
1CA
330
169
100
AcDbEntity
  8
AM_9
100
AcDbLine
 10
1.3945
 20
-2.790828675972853
 30
0.0
 11
1.3945
 21
2.790828675972853
 31
0.0
  0
LINE
  5
1CB
330
169
100
AcDbEntity
  8
AM_9
100
AcDbLine
 10
0.333909709371657
 20
3.06835
 30
0.0
 11
0.2400902906283432
 21
3.06835
 31
0.0
  0
LINE
  5
1CC
330
169
100
AcDbEntity
  8
AM_9
100
AcDbLine
 10
0.2400902906283432
 20
-3.06835
 30
0.0
 11
0.333909709371657
 21
-3.06835
 31
0.0
  0
LINE
  5
1CD
330
169
100
AcDbEntity
  8
AM_9
100
AcDbLine
 10
-0.5055000000000003
 20
-3.139600000000001
 30
0.0
 11
-0.5055000000000003
 21
3.139600000000001
 31
0.0
  0
ARC
  5
1CE
330
169
100
AcDbEntity
  8
AM_9
100
AcDbCircle
 10
-0.4955000000000018
 20
3.1396
 30
0.0
 40
0.0099999999999989
100
AcDbArc
 50
90.0
 51
179.9999991462263
  0
ARC
  5
1CF
330
169
100
AcDbEntity
  8
AM_9
100
AcDbCircle
 10
-0.4955000000000018
 20
-3.1396
 30
0.0
 40
0.0099999999999985
100
AcDbArc
 50
179.9999991462263
 51
270.0
  0
LINE
  5
1D0
330
169
100
AcDbEntity
  8
AM_9
100
AcDbLine
 10
1.1195
 20
-3.0996
 30
0.0
 11
1.1195
 21
3.0996
 31
0.0
  0
ARC
  5
1D1
330
169
100
AcDbEntity
  8
AM_9
100
AcDbCircle
 10
1.069500000000001
 20
3.099600000000001
 30
0.0
 40
0.0499999999999985
100
AcDbArc
 50
0.0
 51
90.0
  0
ARC
  5
1D2
330
169
100
AcDbEntity
  8
AM_9
100
AcDbCircle
 10
1.069500000000001
 20
-3.0996
 30
0.0
 40
0.0499999999999994
100
AcDbArc
 50
270.0
 51
0.0
  0
LINE
  5
1D3
330
169
100
AcDbEntity
  8
AM_9
100
AcDbLine
 10
0.1931805812566857
 20
3.1496
 30
0.0
 11
-0.4955000000000009
 21
3.1496
 31
0.0
  0
LINE
  5
1D4
330
169
100
AcDbEntity
  8
AM_9
100
AcDbLine
 10
-0.4955000000000009
 20
-3.1496
 30
0.0
 11
0.1931805812566857
 21
-3.1496
 31
0.0
  0
LINE
  5
1D5
330
169
100
AcDbEntity
  8
AM_9
100
AcDbLine
 10
-0.4955000000000009
 20
-3.1496
 30
0.0
 11
-0.4955000000000009
 21
3.1496
 31
0.0
  0
LINE
  5
1D6
330
169
100
AcDbEntity
  8
AM_9
100
AcDbLine
 10
1.0695
 20
3.1496
 30
0.0
 11
0.3808194187433145
 21
3.1496
 31
0.0
  0
LINE
  5
1D7
330
169
100
AcDbEntity
  8
AM_9
100
AcDbLine
 10
0.3808194187433145
 20
-3.1496
 30
0.0
 11
1.0695
 21
-3.1496
 31
0.0
  0
LINE
  5
1D8
330
169
100
AcDbEntity
  8
AM_9
100
AcDbLine
 10
1.0695
 20
-3.1496
 30
0.0
 11
1.0695
 21
3.1496
 31
0.0
  0
LINE
  5
1D9
330
169
100
AcDbEntity
  8
AM_9
100
AcDbLine
 10
0.2400902906283432
 20
3.06835
 30
0.0
 11
0.1931805812566857
 21
3.1496
 31
0.0
  0
LINE
  5
1DA
330
169
100
AcDbEntity
  8
AM_9
100
AcDbLine
 10
0.1931805812566857
 20
-3.1496
 30
0.0
 11
0.2400902906283432
 21
-3.06835
 31
0.0
  0
LINE
  5
1DB
330
169
100
AcDbEntity
  8
AM_9
100
AcDbLine
 10
0.2400902906283432
 20
-3.06835
 30
0.0
 11
0.2400902906283432
 21
3.06835
 31
0.0
  0
LINE
  5
1DC
330
169
100
AcDbEntity
  8
AM_9
100
AcDbLine
 10
0.1931805812566857
 20
-3.1496
 30
0.0
 11
0.1931805812566857
 21
3.1496
 31
0.0
  0
LINE
  5
1DD
330
169
100
AcDbEntity
  8
AM_9
100
AcDbLine
 10
0.333909709371657
 20
-3.06835
 30
0.0
 11
0.3808194187433145
 21
-3.1496
 31
0.0
  0
LINE
  5
1DE
330
169
100
AcDbEntity
  8
AM_9
100
AcDbLine
 10
0.3808194187433145
 20
3.1496
 30
0.0
 11
0.333909709371657
 21
3.06835
 31
0.0
  0
LINE
  5
1DF
330
169
100
AcDbEntity
  8
AM_9
100
AcDbLine
 10
0.3808194187433145
 20
-3.1496
 30
0.0
 11
0.3808194187433145
 21
3.1496
 31
0.0
  0
LINE
  5
1E0
330
169
100
AcDbEntity
  8
AM_9
100
AcDbLine
 10
0.333909709371657
 20
-3.06835
 30
0.0
 11
0.333909709371657
 21
3.06835
 31
0.0
  0
LINE
  5
1E1
330
169
100
AcDbEntity
  8
AM_5
100
AcDbLine
 10
-2.062833333333333
 20
2.329861111111111
 30
0.0
 11
-1.362833333333333
 21
2.329861111111111
 31
0.0
  0
LINE
  5
1E2
330
169
100
AcDbEntity
  8
AM_5
100
AcDbLine
 10
-1.362833333333333
 20
2.329861111111111
 30
0.0
 11
-1.33586064373019
 21
2.314288421507968
 31
0.0
  0
LINE
  5
1E3
330
169
100
AcDbEntity
  8
AM_5
100
AcDbLine
 10
-2.062833333333333
 20
2.079861111111111
 30
0.0
 11
-1.362833333333333
 21
2.079861111111111
 31
0.0
  0
LINE
  5
1E4
330
169
100
AcDbEntity
  8
AM_5
100
AcDbLine
 10
-1.362833333333334
 20
2.079861111111111
 30
0.0
 11
-1.33586064373019
 21
2.095433800714254
 31
0.0
  0
LINE
  5
1E5
330
169
100
AcDbEntity
  8
AM_5
100
AcDbLine
 10
-2.062833333333333
 20
-2.329861111111111
 30
0.0
 11
-1.36283333333334
 21
-2.329861111111111
 31
0.0
  0
LINE
  5
1E6
330
169
100
AcDbEntity
  8
AM_5
100
AcDbLine
 10
-1.36283333333334
 20
-2.329861111111111
 30
0.0
 11
-1.335860643730173
 21
-2.314288421507951
 31
0.0
  0
LINE
  5
1E7
330
169
100
AcDbEntity
  8
AM_5
100
AcDbLine
 10
-2.062833333333333
 20
-2.079861111111111
 30
0.0
 11
-1.36283333333334
 21
-2.079861111111111
 31
0.0
  0
LINE
  5
1E8
330
169
100
AcDbEntity
  8
AM_5
100
AcDbLine
 10
-1.36283333333334
 20
-2.079861111111111
 30
0.0
 11
-1.335860643730173
 21
-2.095433800714271
 31
0.0
  0
LINE
  5
1EB
330
169
100
AcDbEntity
  8
AM_7
100
AcDbLine
 10
-1.180833333333333
 20
2.204861111111111
 30
0.0
 11
-2.311433333333333
 21
2.204861111111111
 31
0.0
  0
LINE
  5
1EC
330
169
100
AcDbEntity
  8
AM_7
100
AcDbLine
 10
-1.180833333333339
 20
-2.204861111111111
 30
0.0
 11
-2.311433333333333
 21
-2.204861111111111
 31
0.0
  0
LINE
  5
1ED
330
169
100
AcDbEntity
  8
AM_4
100
AcDbLine
 10
-2.0205
 20
1.689985207035848
 30
0.0
 11
-2.062833333333333
 21
1.689985207035848
 31
0.0
  0
LINE
  5
1EE
330
169
100
AcDbEntity
  8
AM_4
100
AcDbLine
 10
-2.132833333333333
 20
1.80921052631579
 30
0.0
 11
-2.38
 21
1.80921052631579
 31
0.0
  0
LINE
  5
1EF
330
169
100
AcDbEntity
  8
AM_4
100
AcDbLine
 10
-2.38
 20
-1.80921052631579
 30
0.0
 11
-2.245
 21
-1.80921052631579
 31
0.0
  0
LINE
  5
1F0
330
169
100
AcDbEntity
  8
AM_4
100
AcDbLine
 10
-2.38
 20
-1.80921052631579
 30
0.0
 11
-2.38
 21
1.80921052631579
 31
0.0
  0
LINE
  5
1F1
330
169
100
AcDbEntity
  8
AM_4
100
AcDbLine
 10
-2.062833333333333
 20
-1.43750502131319
 30
0.0
 11
-2.062833333333333
 21
1.582129214637146
 31
0.0
  0
LINE
  5
1F2
330
169
100
AcDbEntity
  8
AM_4
100
AcDbLine
 10
-2.062833333333333
 20
1.935682605230421
 30
0.0
 11
-2.062833333333333
 21
2.499999999999997
 31
0.0
  0
LINE
  5
1F3
330
169
100
AcDbEntity
  8
AM_4
100
AcDbLine
 10
-2.062833333333333
 20
1.935682605230421
 30
0.0
 11
-2.020500000182018
 21
1.936207739897852
 31
0.0
  0
LINE
  5
1F4
330
169
100
AcDbEntity
  8
AM_4
100
AcDbLine
 10
-2.020500000182018
 20
1.582654349304577
 30
0.0
 11
-2.062833333333333
 21
1.582129214637146
 31
0.0
  0
LINE
  5
1F5
330
169
100
AcDbEntity
  8
AM_4
100
AcDbLine
 10
-2.0205
 20
2.500738931081959
 30
0.0
 11
-2.062833333333333
 21
2.499999999999997
 31
0.0
  0
ENDBLK
  5
16C
330
169
100
AcDbEntity
  8
0
100
AcDbBlockEnd
  0
BLOCK
  5
1F8
330
1F6
100
AcDbEntity
  8
0
100
AcDbBlockBegin
  2
7_071230H_0_in_071230_2
 70
     2
 10
0.0
 20
0.0
 30
0.0
  3
7_071230H_0_in_071230_2
  1

  0
ATTDEF
  5
1FA
330
1F6
100
AcDbEntity
  8
AM_6
100
AcDbText
 10
7.4695
 20
3.94
 30
0.0
 40
0.5
  1
EP4B-IP -(Contact Seal)-Housing -Inch
100
AcDbAttributeDefinition
  3

  2
NN
 70
     8
280
     0
  0
ATTDEF
  5
1FB
330
1F6
100
AcDbEntity
  8
AM_6
100
AcDbText
 10
7.4695
 20
3.44
 30
0.0
 40
0.5
  1
Imperial/E 4 Bolt Piliow Block Bearings
100
AcDbAttributeDefinition
  3

  2
NT
 70
     8
280
     0
  0
ATTDEF
  5
1FC
330
1F6
100
AcDbEntity
  8
AM_6
100
AcDbText
 10
7.4695
 20
2.94
 30
0.0
 40
0.5
  1
071230H
100
AcDbAttributeDefinition
  3

  2
NB
 70
     8
280
     0
  0
ATTDEF
  5
1FD
330
1F6
100
AcDbEntity
  8
AM_6
100
AcDbText
 10
7.4695
 20
2.44
 30
0.0
 40
0.5
  1
$PN.H
100
AcDbAttributeDefinition
  3

  2
NBSYN
 70
     8
280
     0
  0
ATTDEF
  5
1FE
330
1F6
100
AcDbEntity
  8
AM_6
100
AcDbText
 10
7.4695
 20
1.94
 30
0.0
 40
0.5
  1
071230
100
AcDbAttributeDefinition
  3

  2
LINA
 70
     8
280
     0
  0
ATTDEF
  5
1FF
330
1F6
100
AcDbEntity
  8
AM_6
100
AcDbText
 10
7.4695
 20
1.44
 30
0.0
 40
0.5
  1
3-7/16
100
AcDbAttributeDefinition
  3

  2
SS
 70
     8
280
     0
  0
ATTDEF
  5
200
330
1F6
100
AcDbEntity
  8
AM_6
100
AcDbText
 10
7.4695
 20
0.9400000000000004
 30
0.0
 40
0.5
  1
3.437500
100
AcDbAttributeDefinition
  3

  2
SS1
 70
     8
280
     0
  0
ATTDEF
  5
201
330
1F6
100
AcDbEntity
  8
AM_6
100
AcDbText
 10
7.4695
 20
0.4400000000000004
 30
0.0
 40
0.5
  1
Expansion
100
AcDbAttributeDefinition
  3

  2
TYPE
 70
     8
280
     0
  0
ATTDEF
  5
202
330
1F6
100
AcDbEntity
  8
AM_6
100
AcDbText
 10
7.4695
 20
-0.0599999999999996
 30
0.0
 40
0.5
  1
071213
100
AcDbAttributeDefinition
  3

  2
PN1
 70
     8
280
     0
  0
ATTDEF
  5
203
330
1F6
100
AcDbEntity
  8
AM_6
100
AcDbText
 10
7.4695
 20
-0.5599999999999996
 30
0.0
 40
0.5
  1
071230
100
AcDbAttributeDefinition
  3

  2
PN2
 70
     8
280
     0
  0
ATTDEF
  5
204
330
1F6
100
AcDbEntity
  8
AM_6
100
AcDbText
 10
7.4695
 20
-1.06
 30
0.0
 40
0.5
  1
EP4B-IP-307R
100
AcDbAttributeDefinition
  3

  2
DESCRIPTION
 70
     8
280
     0
  0
ATTDEF
  5
205
330
1F6
100
AcDbEntity
  8
AM_6
100
AcDbText
 10
7.4695
 20
-1.56
 30
0.0
 40
0.5
  1
Non-Expansion Type
100
AcDbAttributeDefinition
  3

  2
EF
 70
     8
280
     0
  0
ATTDEF
  5
206
330
1F6
100
AcDbEntity
  8
AM_6
100
AcDbText
 10
7.4695
 20
-2.06
 30
0.0
 40
0.5
  1
1
100
AcDbAttributeDefinition
  3

  2
EF1
 70
     8
280
     0
  0
ATTDEF
  5
207
330
1F6
100
AcDbEntity
  8
AM_6
100
AcDbText
 10
7.4695
 20
-2.56
 30
0.0
 40
0.5
  1
Contact Seal
100
AcDbAttributeDefinition
  3

  2
ST
 70
     8
280
     0
  0
ATTDEF
  5
208
330
1F6
100
AcDbEntity
  8
AM_6
100
AcDbText
 10
7.4695
 20
-3.06
 30
0.0
 40
0.5
  1
1
100
AcDbAttributeDefinition
  3

  2
ST1
 70
     8
280
     0
  0
ATTDEF
  5
209
330
1F6
100
AcDbEntity
  8
AM_6
100
AcDbText
 10
7.4695
 20
-3.56
 30
0.0
 40
0.5
  1
4.17
100
AcDbAttributeDefinition
  3

  2
A
 70
     8
280
     0
  0
ATTDEF
  5
20A
330
1F6
100
AcDbEntity
  8
AM_6
100
AcDbText
 10
7.4695
 20
-4.06
 30
0.0
 40
0.5
  1
4.1700000
100
AcDbAttributeDefinition
  3

  2
A1
 70
     8
280
     0
  0
ATTDEF
  5
20B
330
1F6
100
AcDbEntity
  8
AM_6
100
AcDbText
 10
7.4695
 20
-4.56
 30
0.0
 40
0.5
  1
13.5
100
AcDbAttributeDefinition
  3

  2
B
 70
     8
280
     0
  0
ATTDEF
  5
20C
330
1F6
100
AcDbEntity
  8
AM_6
100
AcDbText
 10
7.4695
 20
-5.06
 30
0.0
 40
0.5
  1
13.5000000
100
AcDbAttributeDefinition
  3

  2
B1
 70
     8
280
     0
  0
ATTDEF
  5
20D
330
1F6
100
AcDbEntity
  8
AM_6
100
AcDbText
 10
7.4695
 20
-5.56
 30
0.0
 40
0.5
  1
4.49
100
AcDbAttributeDefinition
  3

  2
C
 70
     8
280
     0
  0
ATTDEF
  5
20E
330
1F6
100
AcDbEntity
  8
AM_6
100
AcDbText
 10
7.4695
 20
-6.06
 30
0.0
 40
0.5
  1
4.4900000
100
AcDbAttributeDefinition
  3

  2
C1
 70
     8
280
     0
  0
ATTDEF
  5
20F
330
1F6
100
AcDbEntity
  8
AM_6
100
AcDbText
 10
7.4695
 20
-6.56
 30
0.0
 40
0.5
  1
10.75
100
AcDbAttributeDefinition
  3

  2
DMIN
 70
     8
280
     0
  0
ATTDEF
  5
210
330
1F6
100
AcDbEntity
  8
AM_6
100
AcDbText
 10
7.4695
 20
-7.06
 30
0.0
 40
0.5
  1
10.7500000
100
AcDbAttributeDefinition
  3

  2
DMIN1
 70
     8
280
     0
  0
ATTDEF
  5
211
330
1F6
100
AcDbEntity
  8
AM_6
100
AcDbText
 10
7.4695
 20
-7.56
 30
0.0
 40
0.5
  1
11.25
100
AcDbAttributeDefinition
  3

  2
DMAX
 70
     8
280
     0
  0
ATTDEF
  5
212
330
1F6
100
AcDbEntity
  8
AM_6
100
AcDbText
 10
7.4695
 20
-8.059999999999999
 30
0.0
 40
0.5
  1
11.2500000
100
AcDbAttributeDefinition
  3

  2
DMAX1
 70
     8
280
     0
  0
ATTDEF
  5
213
330
1F6
100
AcDbEntity
  8
AM_6
100
AcDbText
 10
7.4695
 20
-8.559999999999999
 30
0.0
 40
0.5
  1
2.37
100
AcDbAttributeDefinition
  3

  2
E
 70
     8
280
     0
  0
ATTDEF
  5
214
330
1F6
100
AcDbEntity
  8
AM_6
100
AcDbText
 10
7.4695
 20
-9.059999999999999
 30
0.0
 40
0.5
  1
2.370000
100
AcDbAttributeDefinition
  3

  2
E1
 70
     8
280
     0
  0
ATTDEF
  5
215
330
1F6
100
AcDbEntity
  8
AM_6
100
AcDbText
 10
7.4695
 20
-9.559999999999999
 30
0.0
 40
0.5
  1
3/4
100
AcDbAttributeDefinition
  3

  2
F
 70
     8
280
     0
  0
ATTDEF
  5
216
330
1F6
100
AcDbEntity
  8
AM_6
100
AcDbText
 10
7.4695
 20
-10.06
 30
0.0
 40
0.5
  1
0.7500000
100
AcDbAttributeDefinition
  3

  2
F1
 70
     8
280
     0
  0
ATTDEF
  5
217
330
1F6
100
AcDbEntity
  8
AM_6
100
AcDbText
 10
7.4695
 20
-10.56
 30
0.0
 40
0.5
  1
1.13
100
AcDbAttributeDefinition
  3

  2
G
 70
     8
280
     0
  0
ATTDEF
  5
218
330
1F6
100
AcDbEntity
  8
AM_6
100
AcDbText
 10
7.4695
 20
-11.06
 30
0.0
 40
0.5
  1
1.130000
100
AcDbAttributeDefinition
  3

  2
G1
 70
     8
280
     0
  0
ATTDEF
  5
219
330
1F6
100
AcDbEntity
  8
AM_6
100
AcDbText
 10
7.4695
 20
-11.56
 30
0.0
 40
0.5
  1
2.25
100
AcDbAttributeDefinition
  3

  2
H
 70
     8
280
     0
  0
ATTDEF
  5
21A
330
1F6
100
AcDbEntity
  8
AM_6
100
AcDbText
 10
7.4695
 20
-12.06
 30
0.0
 40
0.5
  1
2.2500000
100
AcDbAttributeDefinition
  3

  2
H1
 70
     8
280
     0
  0
ATTDEF
  5
21B
330
1F6
100
AcDbEntity
  8
AM_6
100
AcDbText
 10
7.4695
 20
-12.56
 30
0.0
 40
0.5
  1
7.69
100
AcDbAttributeDefinition
  3

  2
J
 70
     8
280
     0
  0
ATTDEF
  5
21C
330
1F6
100
AcDbEntity
  8
AM_6
100
AcDbText
 10
7.4695
 20
-13.06
 30
0.0
 40
0.5
  1
7.690000
100
AcDbAttributeDefinition
  3

  2
J1
 70
     8
280
     0
  0
ATTDEF
  5
21D
330
1F6
100
AcDbEntity
  8
AM_6
100
AcDbText
 10
7.4695
 20
-13.56
 30
0.0
 40
0.5
  1
5
100
AcDbAttributeDefinition
  3

  2
L
 70
     8
280
     0
  0
ATTDEF
  5
21E
330
1F6
100
AcDbEntity
  8
AM_6
100
AcDbText
 10
7.4695
 20
-14.06
 30
0.0
 40
0.5
  1
5.0000000
100
AcDbAttributeDefinition
  3

  2
L1
 70
     8
280
     0
  0
ATTDEF
  5
21F
330
1F6
100
AcDbEntity
  8
AM_6
100
AcDbText
 10
7.4695
 20
-14.56
 30
0.0
 40
0.5
  1
3.75
100
AcDbAttributeDefinition
  3

  2
M
 70
     8
280
     0
  0
ATTDEF
  5
220
330
1F6
100
AcDbEntity
  8
AM_6
100
AcDbText
 10
7.4695
 20
-15.06
 30
0.0
 40
0.5
  1
3.750000
100
AcDbAttributeDefinition
  3

  2
M1
 70
     8
280
     0
  0
ATTDEF
  5
221
330
1F6
100
AcDbEntity
  8
AM_6
100
AcDbText
 10
7.4695
 20
-15.56
 30
0.0
 40
0.5
  1
1.54
100
AcDbAttributeDefinition
  3

  2
R
 70
     8
280
     0
  0
ATTDEF
  5
222
330
1F6
100
AcDbEntity
  8
AM_6
100
AcDbText
 10
7.4695
 20
-16.06
 30
0.0
 40
0.5
  1
1.540000
100
AcDbAttributeDefinition
  3

  2
R1
 70
     8
280
     0
  0
ATTDEF
  5
223
330
1F6
100
AcDbEntity
  8
AM_6
100
AcDbText
 10
7.4695
 20
-16.56
 30
0.0
 40
0.5
  1
2.63
100
AcDbAttributeDefinition
  3

  2
S
 70
     8
280
     0
  0
ATTDEF
  5
224
330
1F6
100
AcDbEntity
  8
AM_6
100
AcDbText
 10
7.4695
 20
-17.06
 30
0.0
 40
0.5
  1
2.630000
100
AcDbAttributeDefinition
  3

  2
S1
 70
     8
280
     0
  0
ATTDEF
  5
225
330
1F6
100
AcDbEntity
  8
AM_6
100
AcDbText
 10
7.4695
 20
-17.56
 30
0.0
 40
0.5
  1
0.25
100
AcDbAttributeDefinition
  3

  2
X
 70
     8
280
     0
  0
ATTDEF
  5
226
330
1F6
100
AcDbEntity
  8
AM_6
100
AcDbText
 10
7.4695
 20
-18.06
 30
0.0
 40
0.5
  1
0.250000
100
AcDbAttributeDefinition
  3

  2
X1
 70
     8
280
     0
  0
ATTDEF
  5
227
330
1F6
100
AcDbEntity
  8
AM_6
100
AcDbText
 10
7.4695
 20
-18.56
 30
0.0
 40
0.5
  1
0.025
100
AcDbAttributeDefinition
  3

  2
Y
 70
     8
280
     0
  0
ATTDEF
  5
228
330
1F6
100
AcDbEntity
  8
AM_6
100
AcDbText
 10
7.4695
 20
-19.06
 30
0.0
 40
0.5
  1
4.05
100
AcDbAttributeDefinition
  3

  2
Z
 70
     8
280
     0
  0
ATTDEF
  5
229
330
1F6
100
AcDbEntity
  8
AM_6
100
AcDbText
 10
7.4695
 20
-19.56
 30
0.0
 40
0.5
  1
4.050000
100
AcDbAttributeDefinition
  3

  2
Z1
 70
     8
280
     0
  0
ATTDEF
  5
22A
330
1F6
100
AcDbEntity
  8
AM_6
100
AcDbText
 10
7.4695
 20
-20.06
 30
0.0
 40
0.5
  1
6.2992
100
AcDbAttributeDefinition
  3

  2
BORE
 70
     8
280
     0
  0
ATTDEF
  5
22B
330
1F6
100
AcDbEntity
  8
AM_6
100
AcDbText
 10
7.4695
 20
-20.56
 30
0.0
 40
0.5
  1
0.07000
100
AcDbAttributeDefinition
  3

  2
CR
 70
     8
280
     0
  0
ATTDEF
  5
22C
330
1F6
100
AcDbEntity
  8
AM_6
100
AcDbText
 10
7.4695
 20
-21.06
 30
0.0
 40
0.5
  1
baldor
100
AcDbAttributeDefinition
  3

  2
COMPANY
 70
     8
280
     0
  0
LINE
  5
22D
330
1F6
100
AcDbEntity
  8
AM_9
100
AcDbLine
 10
-0.499010698301928
 20
3.396312668527137
 30
0.0
 11
-0.5000000000000006
 21
3.412140090910685
 31
0.0
  0
LWPOLYLINE
  5
22E
330
1F6
100
AcDbEntity
  8
AM_9
100
AcDbPolyline
 90
       10
 70
     0
 43
0.0
 10
-0.1527005120535024
 20
3.149079719122909
 10
-0.1647462246669792
 20
3.151519448996231
 10
-0.2412058914371699
 20
3.172041823018922
 10
-0.3109082606822846
 20
3.199455638212058
 10
-0.3721062982224878
 20
3.232912525626088
 10
-0.4228543010646049
 20
3.270895487207779
 10
-0.4616801494630993
 20
3.31216755073655
 10
-0.4874409978143708
 20
3.355096394552684
 10
-0.4968395940516619
 20
3.383774018380616
 10
-0.499010698301928
 20
3.396312668527137
  0
LWPOLYLINE
  5
22F
330
1F6
100
AcDbEntity
  8
AM_9
100
AcDbPolyline
 90
        6
 70
     0
 43
0.0
 10
0.150106230115422
 20
3.148580612135669
 10
0.112893682610622
 20
3.142420811762536
 10
0.0568191383963513
 20
3.136538031388597
 10
-0.0000000000000001
 20
3.134553146280909
 10
-0.0835553044051079
 20
3.138878344172388
 10
-0.1527005120535024
 20
3.149079719122909
  0
LWPOLYLINE
  5
230
330
1F6
100
AcDbEntity
  8
AM_9
100
AcDbPolyline
 90
        9
 70
     0
 43
0.0
 10
0.5000000000000003
 20
3.412140090910689
 10
0.4930227252499893
 20
3.36990272410916
 10
0.4724872236504639
 20
3.32741227512571
 10
0.4385899964631137
 20
3.285807956961507
 10
0.3925463582334494
 20
3.2467388142266
 10
0.3350601306358396
 20
3.211442275701079
 10
0.2681520397533506
 20
3.181504531844771
 10
0.1932859052811137
 20
3.158161453486826
 10
0.150106230115422
 20
3.148580612135669
  0
ELLIPSE
  5
231
330
1F6
100
AcDbEntity
  8
AM_9
100
AcDbEllipse
 10
-0.0000000000000634
 20
3.412140090910548
 30
0.0
 11
0.4999999999999371
 21
0.0
 31
0.0
210
0.0
220
0.0
230
1.0
 40
0.5000000000000274
 41
3.141592653589793
 42
3.205352411636363
  0
ELLIPSE
  5
232
330
1F6
100
AcDbEntity
  8
AM_9
100
AcDbEllipse
 10
-0.0000000000000002
 20
3.412140090910688
 30
0.0
 11
0.5000000000000009
 21
0.0
 31
0.0
210
0.0
220
0.0
230
1.0
 40
0.4999999999999636
 41
3.205352411636923
 42
6.283185307179586
  0
ELLIPSE
  5
233
330
1F6
100
AcDbEntity
  8
AM_9
100
AcDbEllipse
 10
-0.0000000000000001
 20
3.498742631289132
 30
0.0
 11
-0.4000000000000005
 21
4.898587196589419E-17
 31
0.0
210
0.0
220
0.0
230
1.0
 40
0.4999999999999998
 41
0.0
 42
6.283185307179586
  0
LINE
  5
234
330
1F6
100
AcDbEntity
  8
AM_9
100
AcDbLine
 10
-0.4999884971229241
 20
3.414285100965218
 30
0.0
 11
-0.4999999964670138
 21
3.412102498428825
 31
0.0
  0
LWPOLYLINE
  5
235
330
1F6
100
AcDbEntity
  8
AM_9
100
AcDbPolyline
 90
       40
 70
     0
 43
0.0
 10
0.4996757949378426
 20
3.423525008817322
 10
0.4993183775557336
 20
3.428643388142941
 10
0.495564829156693
 20
3.454114312161297
 10
0.4886612662722601
 20
3.4788945256623
 10
0.4787108456132105
 20
3.502909321414893
 10
0.4657571108637594
 20
3.526120989303458
 10
0.4497815650336426
 20
3.548507012220619
 10
0.4307235942541743
 20
3.570027586779541
 10
0.4085320435600724
 20
3.590590166625613
 10
0.383240760929447
 20
3.610029745130287
 10
0.355028217334505
 20
3.628127262799246
 10
0.3242104740029876
 20
3.644665228354607
 10
0.2911912699756205
 20
3.659472798639778
 10
0.2563638543698215
 20
3.6724572876572
 10
0.2200228112473812
 20
3.683599968482491
 10
0.1824245232994402
 20
3.692902088753306
 10
0.1438036619832811
 20
3.700370211025763
 10
0.1043857836995958
 20
3.706010123282232
 10
0.0643944226537005
 20
3.709825494802773
 10
0.024054044059173
 20
3.711818437377526
 10
-0.0164095901535084
 20
3.711990448270095
 10
-0.0567705137513111
 20
3.71034302044494
 10
-0.0967895163472913
 20
3.706879232034224
 10
-0.1362448874796225
 20
3.701601935667722
 10
-0.1749222476448516
 20
3.694511391004625
 10
-0.2126140753495801
 20
3.685602666694653
 10
-0.2491193282947652
 20
3.674862180662683
 10
-0.2842403098770971
 20
3.662263912223468
 10
-0.3177748020169594
 20
3.647766769003164
 10
-0.3495008251921907
 20
3.631316678014388
 10
-0.3791521714800776
 20
3.612860529498058
 10
-0.4063561360185731
 20
3.592409527038593
 10
-0.4306431965723312
 20
3.570109677058913
 10
-0.4515682752411121
 20
3.546240220171295
 10
-0.4671242456010923
 20
3.523939150393717
 10
-0.4796455749480017
 20
3.500958196916347
 10
-0.4900110376777881
 20
3.474861043211377
 10
-0.4966730362838161
 20
3.448525436599057
 10
-0.4997436355575082
 20
3.422264551989524
 10
-0.4999884971229241
 20
3.414285100965218
  0
LINE
  5
236
330
1F6
100
AcDbEntity
  8
AM_9
100
AcDbLine
 10
0.4999779421625209
 20
3.415110415961365
 30
0.0
 11
0.4996757949378426
 21
3.423525008817322
 31
0.0
  0
LINE
  5
237
330
1F6
100
AcDbEntity
  8
AM_9
100
AcDbLine
 10
0.4999999974701196
 20
3.412171902108184
 30
0.0
 11
0.4999779421625209
 21
3.415110415961365
 31
0.0
  0
LWPOLYLINE
  5
238
330
1F6
100
AcDbEntity
  8
AM_9
100
AcDbPolyline
 90
        4
 70
     0
 43
0.0
 10
0.4911378058615468
 20
3.458035195145957
 10
0.4926813108462548
 20
3.453802496506737
 10
0.4999991000028068
 20
3.412614332695469
 10
0.5000000000000003
 20
3.412140090910689
  0
LWPOLYLINE
  5
239
330
1F6
100
AcDbEntity
  8
AM_9
100
AcDbPolyline
 90
       17
 70
     0
 43
0.0
 10
-0.4791929714979053
 20
3.481269136847568
 10
-0.4509138500774275
 20
3.515030335716413
 10
-0.4085054622787967
 20
3.547106043725361
 10
-0.3547451361800851
 20
3.574646562439029
 10
-0.2904965988129845
 20
3.597342179560865
 10
-0.2180229198754234
 20
3.614796816124987
 10
-0.139217177181004
 20
3.62679678318016
 10
-0.0564252701769755
 20
3.633308879769634
 10
0.0274227382610361
 20
3.634245719714098
 10
0.1104932555595931
 20
3.629724792065793
 10
0.1901202376455641
 20
3.619759477988165
 10
0.2644329372793619
 20
3.604468143825204
 10
0.3316315656147283
 20
3.583784457788754
 10
0.3895488479113655
 20
3.558050554688268
 10
0.4366792653584879
 20
3.527331561908895
 10
0.4714681814252332
 20
3.492335750446425
 10
0.4911378058615468
 20
3.458035195145957
  0
LWPOLYLINE
  5
23A
330
1F6
100
AcDbEntity
  8
AM_9
100
AcDbPolyline
 90
        4
 70
     0
 43
0.0
 10
-0.5000000000000006
 20
3.412140090910685
 10
-0.4968581995648906
 20
3.439777691502425
 10
-0.4805442958119307
 20
3.479009185417684
 10
-0.4791929714979053
 20
3.481269136847568
  0
ELLIPSE
  5
23B
330
1F6
100
AcDbEntity
  8
AM_9
100
AcDbEllipse
 10
0.0000000000000006
 20
3.41214009091073
 30
0.0
 11
0.4999999999999997
 21
0.0
 31
0.0
210
0.0
220
0.0
230
1.0
 40
0.4999999999999798
 41
0.0
 42
2.860926010326008
  0
ELLIPSE
  5
23C
330
1F6
100
AcDbEntity
  8
AM_9
100
AcDbEllipse
 10
-0.0000000000000118
 20
3.412140090910673
 30
0.0
 11
0.4999999999999888
 21
0.0
 31
0.0
210
0.0
220
0.0
230
1.0
 40
0.4999999999999943
 41
2.86092601032579
 42
3.141592653589793
  0
LINE
  5
23D
330
1F6
100
AcDbEntity
  8
AM_9
100
AcDbLine
 10
-1.625
 20
-3.577272005313547
 30
0.0
 11
1.625
 21
-3.577272005313547
 31
0.0
  0
LINE
  5
23E
330
1F6
100
AcDbEntity
  8
AM_9
100
AcDbLine
 10
-1.625
 20
-2.544642857142858
 30
0.0
 11
1.625
 21
-2.544642857142858
 31
0.0
  0
LINE
  5
23F
330
1F6
100
AcDbEntity
  8
AM_9
100
AcDbLine
 10
-2.0205
 20
-3.1496
 30
0.0
 11
2.0205
 21
-3.1496
 31
0.0
  0
LINE
  5
240
330
1F6
100
AcDbEntity
  8
AM_9
100
AcDbLine
 10
2.0205
 20
3.1496
 30
0.0
 11
-2.0205
 21
3.1496
 31
0.0
  0
LINE
  5
241
330
1F6
100
AcDbEntity
  8
AM_9
100
AcDbLine
 10
-2.0205
 20
-1.381958267733924
 30
0.0
 11
-2.0205
 21
-3.750000000000001
 31
0.0
  0
LINE
  5
242
330
1F6
100
AcDbEntity
  8
AM_9
100
AcDbLine
 10
2.020500000000001
 20
-1.381958267733925
 30
0.0
 11
2.020500000000001
 21
-3.750000000000001
 31
0.0
  0
LINE
  5
243
330
1F6
100
AcDbEntity
  8
AM_9
100
AcDbLine
 10
1.625
 20
-2.4
 30
0.0
 11
-1.625
 21
-2.4
 31
0.0
  0
LINE
  5
244
330
1F6
100
AcDbEntity
  8
AM_9
100
AcDbLine
 10
1.185
 20
-2.4
 30
0.0
 11
1.185
 21
-3.75
 31
0.0
  0
LINE
  5
245
330
1F6
100
AcDbEntity
  8
AM_9
100
AcDbLine
 10
1.625
 20
-3.75
 30
0.0
 11
1.625
 21
-1.5
 31
0.0
  0
LINE
  5
246
330
1F6
100
AcDbEntity
  8
AM_9
100
AcDbLine
 10
0.7450000000000006
 20
-1.5
 30
0.0
 11
0.7450000000000006
 21
-2.4
 31
0.0
  0
LINE
  5
247
330
1F6
100
AcDbEntity
  8
AM_9
100
AcDbLine
 10
-1.184999999999998
 20
-2.4
 30
0.0
 11
-1.184999999999998
 21
-3.75
 31
0.0
  0
LINE
  5
248
330
1F6
100
AcDbEntity
  8
AM_9
100
AcDbLine
 10
-1.625
 20
-3.75
 30
0.0
 11
-1.625
 21
-1.5
 31
0.0
  0
LINE
  5
249
330
1F6
100
AcDbEntity
  8
AM_9
100
AcDbLine
 10
-0.7449999999999997
 20
-1.5
 30
0.0
 11
-0.7449999999999997
 21
-2.4
 31
0.0
  0
LINE
  5
24A
330
1F6
100
AcDbEntity
  8
AM_7
100
AcDbLine
 10
2.4695
 20
0.0
 30
0.0
 11
-2.58975
 21
0.0
 31
0.0
  0
LINE
  5
24B
330
1F6
100
AcDbEntity
  8
AM_4
100
AcDbLine
 10
-2.0205
 20
3.827500000000001
 30
0.0
 11
2.0205
 21
3.827500000000001
 31
0.0
  0
LINE
  5
24C
330
1F6
100
AcDbEntity
  8
AM_4
100
AcDbLine
 10
-2.0205
 20
3.94
 30
0.0
 11
2.0205
 21
3.94
 31
0.0
  0
LINE
  5
24D
330
1F6
100
AcDbEntity
  8
AM_4
100
AcDbLine
 10
1.347
 20
0.5937802623866824
 30
0.0
 11
-1.347
 21
0.5937802623866824
 31
0.0
  0
LINE
  5
24E
330
1F6
100
AcDbEntity
  8
AM_4
100
AcDbLine
 10
-2.0205
 20
3.797549207347053
 30
0.0
 11
2.0205
 21
3.797549207347053
 31
0.0
  0
LINE
  5
24F
330
1F6
100
AcDbEntity
  8
AM_4
100
AcDbLine
 10
-1.347
 20
-1.3875
 30
0.0
 11
1.347
 21
-1.3875
 31
0.0
  0
LINE
  5
250
330
1F6
100
AcDbEntity
  8
AM_4
100
AcDbLine
 10
-2.0205
 20
0.5018808098908484
 30
0.0
 11
-1.347
 21
0.5018808098908484
 31
0.0
  0
LINE
  5
251
330
1F6
100
AcDbEntity
  8
AM_4
100
AcDbLine
 10
1.347
 20
0.5018808098908484
 30
0.0
 11
2.020500000000001
 21
0.5018808098908484
 31
0.0
  0
LWPOLYLINE
  5
252
330
1F6
100
AcDbEntity
  8
AM_4
100
AcDbPolyline
 90
       14
 70
     0
 43
0.0
 10
2.020500000000001
 20
-1.381958267733926
 10
2.030575293762663
 20
-1.398803898437667
 10
2.042080441446782
 20
-1.414707306719459
 10
2.054927881931482
 20
-1.429547458039539
 10
2.069019838437179
 20
-1.44321140988563
 10
2.084249062665908
 20
-1.455595171333666
 10
2.100499651025632
 20
-1.466604494481507
 10
2.117647926726559
 20
-1.476155591732387
 10
2.135563381036194
 20
-1.484175773469115
 10
2.154109666529593
 20
-1.490604001265959
 10
2.173145634775598
 20
-1.495391352427913
 10
2.192526410561624
 20
-1.498501392321954
 10
2.212104494481509
 20
-1.499910451666595
 10
2.218451834958301
 20
-1.5
  0
LINE
  5
253
330
1F6
100
AcDbEntity
  8
AM_4
100
AcDbLine
 10
1.347
 20
0.5937802623866824
 30
0.0
 11
1.347
 21
-1.5
 31
0.0
  0
LINE
  5
254
330
1F6
100
AcDbEntity
  8
AM_4
100
AcDbLine
 10
1.347
 20
-1.303660706148589
 30
0.0
 11
2.020500000000001
 21
-1.303660706148589
 31
0.0
  0
LINE
  5
255
330
1F6
100
AcDbEntity
  8
AM_4
100
AcDbLine
 10
2.0205
 20
3.94
 30
0.0
 11
2.020500000000001
 21
-1.381958267733925
 31
0.0
  0
LWPOLYLINE
  5
256
330
1F6
100
AcDbEntity
  8
AM_4
100
AcDbPolyline
 90
       14
 70
     0
 43
0.0
 10
-2.2184518349583
 20
-1.5
 10
-2.198841792840077
 20
-1.499143807070643
 10
-2.17938099498324
 20
-1.496581744427747
 10
-2.160217549810232
 20
-1.49233331091504
 10
-2.141497302710024
 20
-1.486430839676829
 10
-2.123362726066642
 20
-1.478919252083246
 10
-2.105951834958299
 20
-1.469855715851498
 10
-2.089397136779314
 20
-1.459309209965023
 10
-2.073824622778827
 20
-1.44735999970177
 10
-2.059352809191326
 20
-1.434099025766973
 10
-2.046091835256529
 20
-1.419627212179471
 10
-2.034142624993275
 20
-1.404054698178985
 10
-2.0235961191068
 20
-1.387499999999999
 10
-2.020499999999999
 20
-1.381958267733925
  0
LINE
  5
257
330
1F6
100
AcDbEntity
  8
AM_4
100
AcDbLine
 10
-1.347
 20
0.5937802623866824
 30
0.0
 11
-1.347
 21
-1.5
 31
0.0
  0
LINE
  5
258
330
1F6
100
AcDbEntity
  8
AM_4
100
AcDbLine
 10
-2.0205
 20
-1.303660706148589
 30
0.0
 11
-1.347
 21
-1.303660706148589
 31
0.0
  0
LINE
  5
259
330
1F6
100
AcDbEntity
  8
AM_4
100
AcDbLine
 10
-2.0205
 20
-1.381958267733924
 30
0.0
 11
-2.0205
 21
3.94
 31
0.0
  0
LWPOLYLINE
  5
25A
330
1F6
100
AcDbEntity
  8
AM_4
100
AcDbPolyline
 90
       15
 70
     0
 43
0.0
 10
1.872669848401238
 20
-1.499999999999999
 10
1.649427155232747
 20
-1.501764536176911
 10
1.425706719587657
 20
-1.506255000434566
 10
1.186238134434491
 20
-1.512855640319901
 10
0.9464443281150574
 20
-1.520200096826967
 10
0.7060859843068672
 20
-1.527224670901419
 10
0.4654898210525298
 20
-1.533000905023249
 10
0.2238279161675056
 20
-1.536726254879014
 10
-0.0179244316299615
 20
-1.537909513464493
 10
-0.2600653356759318
 20
-1.536320762659635
 10
-0.5021016479543389
 20
-1.532238015688734
 10
-0.845172933976512
 20
-1.523259866937765
 10
-1.187914096940318
 20
-1.512809704500538
 10
-1.530572468948216
 20
-1.503883265748871
 10
-1.872669848401257
 20
-1.499999999999999
  0
LINE
  5
25B
330
1F6
100
AcDbEntity
  8
AM_4
100
AcDbLine
 10
-2.045226352412093
 20
-1.5
 30
0.0
 11
-2.045226352412093
 21
-2.625
 31
0.0
  0
LINE
  5
25C
330
1F6
100
AcDbEntity
  8
AM_4
100
AcDbLine
 10
-2.245
 20
-1.5
 30
0.0
 11
-2.245
 21
-3.750000000000001
 31
0.0
  0
LINE
  5
25D
330
1F6
100
AcDbEntity
  8
AM_4
100
AcDbLine
 10
-1.795999999999999
 20
-2.625
 30
0.0
 11
-1.795999999999999
 21
-3.750000000000001
 31
0.0
  0
LINE
  5
25E
330
1F6
100
AcDbEntity
  8
AM_4
100
AcDbLine
 10
2.245
 20
-3.75
 30
0.0
 11
-2.245
 21
-3.750000000000001
 31
0.0
  0
LINE
  5
25F
330
1F6
100
AcDbEntity
  8
AM_4
100
AcDbLine
 10
2.045226352412096
 20
-2.625
 30
0.0
 11
2.045226352412096
 21
-1.5
 31
0.0
  0
LINE
  5
260
330
1F6
100
AcDbEntity
  8
AM_4
100
AcDbLine
 10
-2.045226352412093
 20
-2.625
 30
0.0
 11
2.045226352412096
 21
-2.625
 31
0.0
  0
LINE
  5
261
330
1F6
100
AcDbEntity
  8
AM_4
100
AcDbLine
 10
1.796
 20
-2.625
 30
0.0
 11
1.796
 21
-3.750000000000001
 31
0.0
  0
LINE
  5
262
330
1F6
100
AcDbEntity
  8
AM_4
100
AcDbLine
 10
2.245
 20
-1.499999999999999
 30
0.0
 11
2.245
 21
-3.75
 31
0.0
  0
LINE
  5
263
330
1F6
100
AcDbEntity
  8
AM_4
100
AcDbLine
 10
-2.245
 20
-1.5
 30
0.0
 11
2.245
 21
-1.499999999999999
 31
0.0
  0
ENDBLK
  5
1F9
330
1F6
100
AcDbEntity
  8
0
100
AcDbBlockEnd
  0
ENDSEC
  0
SECTION
  2
ENTITIES
  0
INSERT
  5
6F
330
1F
100
AcDbEntity
  8
0
100
AcDbBlockReference
  2
1_071230_2
 10
0.0
 20
0.0
 30
0.0
  0
POINT
  5
265
330
1F
100
AcDbEntity
  8
ConnectionPoints
100
AcDbPoint
 10
-2.132833333333333
 20
-2.204861111111111
 30
0.0000000000000001
  0
POINT
  5
266
330
1F
100
AcDbEntity
  8
ConnectionPoints
100
AcDbPoint
 10
-2.132833333333333
 20
2.204861111111111
 30
0.0000000000000001
  0
POINT
  5
267
330
1F
100
AcDbEntity
  8
ConnectionPoints
100
AcDbPoint
 10
-2.062833333333333
 20
0.0
 30
0.0000000000000001
  0
POINT
  5
268
330
1F
100
AcDbEntity
  8
ConnectionPoints
100
AcDbPoint
 10
-2.38
 20
0.0
 30
0.0000000000000001
  0
POINT
  5
269
330
1F
100
AcDbEntity
  8
ConnectionPoints
100
AcDbPoint
 10
-2.261833333333333
 20
0.0
 30
0.0000000000000001
  0
POINT
  5
26A
330
1F
100
AcDbEntity
  8
ConnectionPoints
100
AcDbPoint
 10
-2.062833333333333
 20
2.204861111111111
 30
0.0000000000000001
  0
POINT
  5
26B
330
1F
100
AcDbEntity
  8
ConnectionPoints
100
AcDbPoint
 10
-2.062833333333333
 20
-2.204861111111111
 30
0.0000000000000001
  0
POINT
  5
26C
330
1F
100
AcDbEntity
  8
ConnectionPoints
100
AcDbPoint
 10
-2.062833333333333
 20
0.0
 30
0.0000000000000001
  0
POINT
  5
26D
330
1F
100
AcDbEntity
  8
ConnectionPoints
100
AcDbPoint
 10
-0.0000000000000001
 20
3.498742631289133
 30
-2.02
  0
POINT
  5
26E
330
1F
100
AcDbEntity
  8
ConnectionPoints
100
AcDbPoint
 10
-2.38
 20
0.0
 30
0.0000000000000001
  0
POINT
  5
26F
330
1F
100
AcDbEntity
  8
ConnectionPoints
100
AcDbPoint
 10
-2.63
 20
0.0
 30
0.0000000000000002
  0
ENDSEC
  0
SECTION
  2
OBJECTS
  0
DICTIONARY
  5
C
330
0
100
AcDbDictionary
281
     1
  3
ACAD_DETAILVIEWSTYLE
350
277
  3
ACAD_GROUP
350
D
  3
ACAD_LAYOUT
350
1A
  3
ACAD_MATERIAL
350
43
  3
ACAD_MLEADERSTYLE
350
6B
  3
ACAD_MLINESTYLE
350
17
  3
ACAD_PLOTSETTINGS
350
19
  3
ACAD_PLOTSTYLENAME
350
E
  3
ACAD_SCALELIST
350
47
  3
ACAD_SECTIONVIEWSTYLE
350
278
  3
ACAD_TABLESTYLE
350
69
  3
ACAD_VISUALSTYLE
350
2A
  3
ACDB_RECOMPOSE_DATA
350
274
  3
AcDbVariableDictionary
350
270
  0
SUN
  5
6D
330
29
100
AcDbSun
 90
        1
290
     0
 63
     7
421
 16777215
 40
1.0
291
     1
 91
  2455826
 92
 54000000
292
     0
 70
     2
 71
   256
280
     1
  0
DICTIONARY
  5
277
102
{ACAD_REACTORS
330
C
102
}
330
C
100
AcDbDictionary
281
     1
  0
DICTIONARY
  5
D
102
{ACAD_REACTORS
330
C
102
}
330
C
100
AcDbDictionary
281
     1
  0
DICTIONARY
  5
1A
102
{ACAD_REACTORS
330
C
102
}
330
C
100
AcDbDictionary
281
     1
  3
Layout1
350
1E
  3
Layout2
350
26
  3
Model
350
22
  0
DICTIONARY
  5
43
102
{ACAD_REACTORS
330
C
102
}
330
C
100
AcDbDictionary
281
     1
  3
ByBlock
350
45
  3
ByLayer
350
44
  3
Global
350
46
  0
DICTIONARY
  5
6B
102
{ACAD_REACTORS
330
C
102
}
330
C
100
AcDbDictionary
281
     1
  3
Standard
350
6C
  0
DICTIONARY
  5
17
102
{ACAD_REACTORS
330
C
102
}
330
C
100
AcDbDictionary
281
     1
  3
Standard
350
18
  0
DICTIONARY
  5
19
102
{ACAD_REACTORS
330
C
102
}
330
C
100
AcDbDictionary
281
     1
  0
ACDBDICTIONARYWDFLT
  5
E
102
{ACAD_REACTORS
330
C
102
}
330
C
100
AcDbDictionary
281
     1
  3
Normal
350
F
100
AcDbDictionaryWithDefault
340
F
  0
DICTIONARY
  5
47
102
{ACAD_REACTORS
330
C
102
}
330
C
100
AcDbDictionary
281
     1
  3
A0
350
48
  3
A1
350
49
  3
A2
350
4A
  3
A3
350
4B
  3
A4
350
4C
  3
A5
350
4D
  3
A6
350
4E
  3
A7
350
4F
  3
A8
350
50
  3
A9
350
51
  3
B0
350
52
  3
B1
350
53
  3
B2
350
54
  3
B3
350
55
  3
B4
350
56
  3
B5
350
57
  3
B6
350
58
  3
B7
350
59
  3
B8
350
5A
  3
B9
350
5B
  3
C0
350
5C
  3
C1
350
5D
  3
C2
350
5E
  3
C3
350
5F
  3
C4
350
60
  3
C5
350
61
  3
C6
350
62
  3
C7
350
63
  3
C8
350
64
  3
C9
350
65
  3
D0
350
66
  3
D1
350
67
  3
D2
350
68
  0
DICTIONARY
  5
278
102
{ACAD_REACTORS
330
C
102
}
330
C
100
AcDbDictionary
281
     1
  0
DICTIONARY
  5
69
102
{ACAD_REACTORS
330
C
102
}
330
C
100
AcDbDictionary
281
     1
  3
Standard
350
6A
  0
DICTIONARY
  5
2A
102
{ACAD_REACTORS
330
C
102
}
330
C
100
AcDbDictionary
281
     1
  3
2dWireframe
350
2F
  3
Basic
350
32
  3
Brighten
350
36
  3
ColorChange
350
3A
  3
Conceptual
350
34
  3
Dim
350
35
  3
EdgeColorOff
350
3D
  3
Facepattern
350
39
  3
Flat
350
2B
  3
FlatWithEdges
350
2C
  3
Gouraud
350
2D
  3
GouraudWithEdges
350
2E
  3
Hidden
350
31
  3
JitterOff
350
3B
  3
Linepattern
350
38
  3
OverhangOff
350
3C
  3
Realistic
350
33
  3
Shaded
350
42
  3
Shaded with edges
350
41
  3
Shades of Gray
350
3E
  3
Sketchy
350
3F
  3
Thicken
350
37
  3
Wireframe
350
30
  3
X-Ray
350
40
  0
XRECORD
  5
274
102
{ACAD_REACTORS
330
C
102
}
330
C
100
AcDbXrecord
280
     1
 90
        1
330
6A
  0
DICTIONARY
  5
270
102
{ACAD_REACTORS
330
C
102
}
330
C
100
AcDbDictionary
281
     1
  3
CANNOSCALE
350
271
  3
CMLEADERSTYLE
350
276
  3
CTABLESTYLE
350
275
  0
LAYOUT
  5
1E
102
{ACAD_REACTORS
330
1A
102
}
330
1A
100
AcDbPlotSettings
  1

  2
none_device
  4

  6

 40
0.0
 41
0.0
 42
0.0
 43
0.0
 44
0.0
 45
0.0
 46
0.0
 47
0.0
 48
0.0
 49
0.0
140
0.0
141
0.0
142
1.0
143
1.0
 70
   688
 72
     0
 73
     0
 74
     5
  7

 75
    16
 76
     0
 77
     2
 78
   300
147
1.0
148
0.0
149
0.0
100
AcDbLayout
  1
Layout1
 70
     1
 71
     1
 10
0.0
 20
0.0
 11
12.0
 21
9.0
 12
0.0
 22
0.0
 32
0.0
 14
1.000000000000000E+20
 24
1.000000000000000E+20
 34
1.000000000000000E+20
 15
-1.000000000000000E+20
 25
-1.000000000000000E+20
 35
-1.000000000000000E+20
146
0.0
 13
0.0
 23
0.0
 33
0.0
 16
1.0
 26
0.0
 36
0.0
 17
0.0
 27
1.0
 37
0.0
 76
     0
330
1B
  0
LAYOUT
  5
26
102
{ACAD_REACTORS
330
1A
102
}
330
1A
100
AcDbPlotSettings
  1

  2
none_device
  4

  6

 40
0.0
 41
0.0
 42
0.0
 43
0.0
 44
0.0
 45
0.0
 46
0.0
 47
0.0
 48
0.0
 49
0.0
140
0.0
141
0.0
142
1.0
143
1.0
 70
   688
 72
     0
 73
     0
 74
     5
  7

 75
    16
 76
     0
 77
     2
 78
   300
147
1.0
148
0.0
149
0.0
100
AcDbLayout
  1
Layout2
 70
     1
 71
     2
 10
0.0
 20
0.0
 11
0.0
 21
0.0
 12
0.0
 22
0.0
 32
0.0
 14
0.0
 24
0.0
 34
0.0
 15
0.0
 25
0.0
 35
0.0
146
0.0
 13
0.0
 23
0.0
 33
0.0
 16
1.0
 26
0.0
 36
0.0
 17
0.0
 27
1.0
 37
0.0
 76
     0
330
23
  0
LAYOUT
  5
22
102
{ACAD_REACTORS
330
1A
102
}
330
1A
100
AcDbPlotSettings
  1

  2
none_device
  4
Letter_(8.50_x_11.00_Inches)
  6

 40
6.35
 41
6.35
 42
6.35000508
 43
6.35000508
 44
215.9
 45
279.4
 46
0.0
 47
0.0
 48
0.0
 49
0.0
140
0.0
141
0.0
142
1.0
143
1.0
 70
  1712
 72
     0
 73
     0
 74
     0
  7

 75
     0
 76
     0
 77
     2
 78
   300
147
1.0
148
0.0
149
0.0
100
AcDbLayout
  1
Model
 70
     1
 71
     0
 10
0.0
 20
0.0
 11
12.0
 21
9.0
 12
0.0
 22
0.0
 32
0.0
 14
1.000000000000000E+20
 24
1.000000000000000E+20
 34
1.000000000000000E+20
 15
-1.000000000000000E+20
 25
-1.000000000000000E+20
 35
-1.000000000000000E+20
146
0.0
 13
0.0
 23
0.0
 33
0.0
 16
1.0
 26
0.0
 36
0.0
 17
0.0
 27
1.0
 37
0.0
 76
     0
330
1F
331
29
  0
MATERIAL
  5
45
102
{ACAD_REACTORS
330
43
102
}
330
43
100
AcDbMaterial
  1
ByBlock
 72
     1
 94
      127
  0
MATERIAL
  5
44
102
{ACAD_REACTORS
330
43
102
}
330
43
100
AcDbMaterial
  1
ByLayer
 72
     1
 94
      127
  0
MATERIAL
  5
46
102
{ACAD_REACTORS
330
43
102
}
330
43
100
AcDbMaterial
  1
Global
 72
     1
 94
      127
  0
MLEADERSTYLE
  5
6C
102
{ACAD_REACTORS
330
6B
102
}
330
6B
100
AcDbMLeaderStyle
179
     2
170
     2
171
     1
172
     0
 90
        2
 40
0.0
 41
0.0
173
     1
 91
-1056964608
340
14
 92
       -2
290
     1
 42
0.09
291
     1
 43
0.36
  3
Standard
341
0
 44
0.18
300

342
11
174
     1
178
     6
175
     1
176
     0
 93
-1056964608
 45
0.18
292
     0
297
     0
 46
0.18
343
0
 94
-1056964608
 47
1.0
 49
1.0
140
1.0
293
     1
141
0.0
294
     1
177
     0
142
1.0
295
     0
296
     0
143
0.125
271
     0
272
     9
273
     9
298
     0
  0
MLINESTYLE
  5
18
102
{ACAD_REACTORS
330
17
102
}
330
17
100
AcDbMlineStyle
  2
Standard
 70
     0
  3

 62
   256
 51
90.0
 52
90.0
 71
     2
 49
0.5
 62
   256
  6
BYLAYER
 49
-0.5
 62
   256
  6
BYLAYER
  0
ACDBPLACEHOLDER
  5
F
102
{ACAD_REACTORS
330
E
102
}
330
E
  0
SCALE
  5
48
102
{ACAD_REACTORS
330
47
102
}
330
47
100
AcDbScale
 70
     0
300
1:1
140
1.0
141
1.0
290
     1
  0
SCALE
  5
49
102
{ACAD_REACTORS
330
47
102
}
330
47
100
AcDbScale
 70
     0
300
1:2
140
1.0
141
2.0
290
     0
  0
SCALE
  5
4A
102
{ACAD_REACTORS
330
47
102
}
330
47
100
AcDbScale
 70
     0
300
1:4
140
1.0
141
4.0
290
     0
  0
SCALE
  5
4B
102
{ACAD_REACTORS
330
47
102
}
330
47
100
AcDbScale
 70
     0
300
1:5
140
1.0
141
5.0
290
     0
  0
SCALE
  5
4C
102
{ACAD_REACTORS
330
47
102
}
330
47
100
AcDbScale
 70
     0
300
1:8
140
1.0
141
8.0
290
     0
  0
SCALE
  5
4D
102
{ACAD_REACTORS
330
47
102
}
330
47
100
AcDbScale
 70
     0
300
1:10
140
1.0
141
10.0
290
     0
  0
SCALE
  5
4E
102
{ACAD_REACTORS
330
47
102
}
330
47
100
AcDbScale
 70
     0
300
1:16
140
1.0
141
16.0
290
     0
  0
SCALE
  5
4F
102
{ACAD_REACTORS
330
47
102
}
330
47
100
AcDbScale
 70
     0
300
1:20
140
1.0
141
20.0
290
     0
  0
SCALE
  5
50
102
{ACAD_REACTORS
330
47
102
}
330
47
100
AcDbScale
 70
     0
300
1:30
140
1.0
141
30.0
290
     0
  0
SCALE
  5
51
102
{ACAD_REACTORS
330
47
102
}
330
47
100
AcDbScale
 70
     0
300
1:40
140
1.0
141
40.0
290
     0
  0
SCALE
  5
52
102
{ACAD_REACTORS
330
47
102
}
330
47
100
AcDbScale
 70
     0
300
1:50
140
1.0
141
50.0
290
     0
  0
SCALE
  5
53
102
{ACAD_REACTORS
330
47
102
}
330
47
100
AcDbScale
 70
     0
300
1:100
140
1.0
141
100.0
290
     0
  0
SCALE
  5
54
102
{ACAD_REACTORS
330
47
102
}
330
47
100
AcDbScale
 70
     0
300
2:1
140
2.0
141
1.0
290
     0
  0
SCALE
  5
55
102
{ACAD_REACTORS
330
47
102
}
330
47
100
AcDbScale
 70
     0
300
4:1
140
4.0
141
1.0
290
     0
  0
SCALE
  5
56
102
{ACAD_REACTORS
330
47
102
}
330
47
100
AcDbScale
 70
     0
300
8:1
140
8.0
141
1.0
290
     0
  0
SCALE
  5
57
102
{ACAD_REACTORS
330
47
102
}
330
47
100
AcDbScale
 70
     0
300
10:1
140
10.0
141
1.0
290
     0
  0
SCALE
  5
58
102
{ACAD_REACTORS
330
47
102
}
330
47
100
AcDbScale
 70
     0
300
100:1
140
100.0
141
1.0
290
     0
  0
SCALE
  5
59
102
{ACAD_REACTORS
330
47
102
}
330
47
100
AcDbScale
 70
     0
300
1/128" = 1'-0"
140
0.0078125
141
12.0
290
     0
  0
SCALE
  5
5A
102
{ACAD_REACTORS
330
47
102
}
330
47
100
AcDbScale
 70
     0
300
1/64" = 1'-0"
140
0.015625
141
12.0
290
     0
  0
SCALE
  5
5B
102
{ACAD_REACTORS
330
47
102
}
330
47
100
AcDbScale
 70
     0
300
1/32" = 1'-0"
140
0.03125
141
12.0
290
     0
  0
SCALE
  5
5C
102
{ACAD_REACTORS
330
47
102
}
330
47
100
AcDbScale
 70
     0
300
1/16" = 1'-0"
140
0.0625
141
12.0
290
     0
  0
SCALE
  5
5D
102
{ACAD_REACTORS
330
47
102
}
330
47
100
AcDbScale
 70
     0
300
3/32" = 1'-0"
140
0.09375
141
12.0
290
     0
  0
SCALE
  5
5E
102
{ACAD_REACTORS
330
47
102
}
330
47
100
AcDbScale
 70
     0
300
1/8" = 1'-0"
140
0.125
141
12.0
290
     0
  0
SCALE
  5
5F
102
{ACAD_REACTORS
330
47
102
}
330
47
100
AcDbScale
 70
     0
300
3/16" = 1'-0"
140
0.1875
141
12.0
290
     0
  0
SCALE
  5
60
102
{ACAD_REACTORS
330
47
102
}
330
47
100
AcDbScale
 70
     0
300
1/4" = 1'-0"
140
0.25
141
12.0
290
     0
  0
SCALE
  5
61
102
{ACAD_REACTORS
330
47
102
}
330
47
100
AcDbScale
 70
     0
300
3/8" = 1'-0"
140
0.375
141
12.0
290
     0
  0
SCALE
  5
62
102
{ACAD_REACTORS
330
47
102
}
330
47
100
AcDbScale
 70
     0
300
1/2" = 1'-0"
140
0.5
141
12.0
290
     0
  0
SCALE
  5
63
102
{ACAD_REACTORS
330
47
102
}
330
47
100
AcDbScale
 70
     0
300
3/4" = 1'-0"
140
0.75
141
12.0
290
     0
  0
SCALE
  5
64
102
{ACAD_REACTORS
330
47
102
}
330
47
100
AcDbScale
 70
     0
300
1" = 1'-0"
140
1.0
141
12.0
290
     0
  0
SCALE
  5
65
102
{ACAD_REACTORS
330
47
102
}
330
47
100
AcDbScale
 70
     0
300
1-1/2" = 1'-0"
140
1.5
141
12.0
290
     0
  0
SCALE
  5
66
102
{ACAD_REACTORS
330
47
102
}
330
47
100
AcDbScale
 70
     0
300
3" = 1'-0"
140
3.0
141
12.0
290
     0
  0
SCALE
  5
67
102
{ACAD_REACTORS
330
47
102
}
330
47
100
AcDbScale
 70
     0
300
6" = 1'-0"
140
6.0
141
12.0
290
     0
  0
SCALE
  5
68
102
{ACAD_REACTORS
330
47
102
}
330
47
100
AcDbScale
 70
     0
300
1'-0" = 1'-0"
140
12.0
141
12.0
290
     0
  0
TABLESTYLE
  5
6A
102
{ACAD_REACTORS
330
69
102
}
102
{ACAD_XDICTIONARY
360
272
102
}
330
69
100
AcDbTableStyle
  3
Standard
 70
     0
 71
     0
 40
0.06
 41
0.06
280
     0
281
     0
  7
Standard
140
0.18
170
     2
 62
     0
 63
   257
283
     0
 90
        4
 91
        0
  1

274
    -2
284
     1
 64
     0
275
    -2
285
     1
 65
     0
276
    -2
286
     1
 66
     0
277
    -2
287
     1
 67
     0
278
    -2
288
     1
 68
     0
279
    -2
289
     1
 69
     0
  7
Standard
140
0.25
170
     5
 62
     0
 63
   257
283
     0
 90
        4
 91
        0
  1

274
    -2
284
     1
 64
     0
275
    -2
285
     1
 65
     0
276
    -2
286
     1
 66
     0
277
    -2
287
     1
 67
     0
278
    -2
288
     1
 68
     0
279
    -2
289
     1
 69
     0
  7
Standard
140
0.18
170
     5
 62
     0
 63
   257
283
     0
 90
        4
 91
        0
  1

274
    -2
284
     1
 64
     0
275
    -2
285
     1
 65
     0
276
    -2
286
     1
 66
     0
277
    -2
287
     1
 67
     0
278
    -2
288
     1
 68
     0
279
    -2
289
     1
 69
     0
  0
VISUALSTYLE
  5
2F
102
{ACAD_REACTORS
330
2A
102
}
330
2A
100
AcDbVisualStyle
  2
2dWireframe
 70
     4
177
     3
291
     0
 70
    58
 90
        0
176
     1
 90
        2
176
     1
 90
        0
176
     1
 90
        0
176
     1
 40
0.6
176
     1
 40
30.0
176
     1
 62
     7
420
 16777215
176
     1
 90
        1
176
     1
 90
        4
176
     1
 62
     7
176
     1
 62
   257
176
     1
 90
        1
176
     1
 90
        1
176
     1
 40
1.0
176
     1
 90
        0
176
     1
 62
   257
176
     1
 40
1.0
176
     1
 90
        1
176
     1
 90
        6
176
     1
 90
        2
176
     1
 62
     7
176
     1
 90
        5
176
     1
 90
        0
176
     1
 90
        0
176
     1
290
     0
176
     1
 90
        1
176
     1
 40
0.0
176
     1
 90
        0
176
     1
290
     1
176
     1
290
     1
176
     1
290
     0
176
     1
290
     0
176
     1
290
     0
176
     1
290
     0
176
     1
290
     0
176
     1
290
     0
176
     1
290
     0
176
     1
 90
       50
176
     1
 40
0.0
176
     1
 40
1.0
176
     1
 90
        0
176
     1
 62
    18
420
        0
176
     1
 90
       50
176
     1
 90
        3
176
     1
 62
     5
420
      255
176
     1
290
     0
176
     1
 90
       50
176
     1
 90
       50
176
     1
 90
       50
176
     1
290
     0
176
     1
 90
       50
176
     1
 62
   256
176
     0
 40
1.0
176
     0
 90
        2
176
     1
  1
strokes_ogs.tif
176
     1
290
     0
176
     1
 40
1.0
176
     1
 40
1.0
176
     1
  0
VISUALSTYLE
  5
32
102
{ACAD_REACTORS
330
2A
102
}
330
2A
100
AcDbVisualStyle
  2
Basic
 70
     7
177
     3
291
     1
 70
    58
 90
        1
176
     1
 90
        0
176
     1
 90
        1
176
     1
 90
        0
176
     1
 40
0.6
176
     1
 40
30.0
176
     1
 62
     7
420
 16777215
176
     1
 90
        0
176
     1
 90
        4
176
     1
 62
     7
176
     1
 62
   257
176
     1
 90
        1
176
     1
 90
        1
176
     1
 40
1.0
176
     1
 90
        8
176
     1
 62
     7
176
     1
 40
1.0
176
     1
 90
        1
176
     1
 90
        6
176
     1
 90
        2
176
     1
 62
     7
176
     1
 90
        5
176
     1
 90
        0
176
     1
 90
        0
176
     1
290
     0
176
     1
 90
        1
176
     1
 40
0.0
176
     1
 90
        0
176
     1
290
     0
176
     1
290
     1
176
     1
290
     1
176
     1
290
     0
176
     1
290
     0
176
     1
290
     0
176
     1
290
     0
176
     1
290
     0
176
     1
290
     0
176
     1
 90
       50
176
     1
 40
0.0
176
     1
 40
1.0
176
     1
 90
        0
176
     1
 62
    18
420
        0
176
     1
 90
       50
176
     1
 90
        3
176
     1
 62
     5
420
      255
176
     1
290
     0
176
     1
 90
       50
176
     1
 90
       50
176
     1
 90
       50
176
     1
290
     0
176
     1
 90
       50
176
     1
 62
   256
176
     0
 40
1.0
176
     0
 90
        2
176
     1
  1
strokes_ogs.tif
176
     1
290
     0
176
     1
 40
1.0
176
     1
 40
1.0
176
     1
  0
VISUALSTYLE
  5
36
102
{ACAD_REACTORS
330
2A
102
}
330
2A
100
AcDbVisualStyle
  2
Brighten
 70
    12
177
     3
291
     1
 70
    58
 90
        2
176
     1
 90
        2
176
     1
 90
        0
176
     1
 90
        0
176
     1
 40
0.6
176
     1
 40
30.0
176
     1
 62
     7
420
 16777215
176
     1
 90
        1
176
     1
 90
        4
176
     1
 62
     7
176
     1
 62
   257
176
     1
 90
        1
176
     1
 90
        1
176
     1
 40
1.0
176
     1
 90
        8
176
     1
 62
     7
176
     1
 40
1.0
176
     1
 90
        1
176
     1
 90
        6
176
     1
 90
        2
176
     1
 62
     7
176
     1
 90
        5
176
     1
 90
        0
176
     1
 90
        0
176
     1
290
     0
176
     1
 90
        1
176
     1
 40
50.0
176
     1
 90
        0
176
     1
290
     0
176
     1
290
     1
176
     1
290
     1
176
     1
290
     0
176
     1
290
     0
176
     1
290
     0
176
     1
290
     0
176
     1
290
     0
176
     1
290
     0
176
     1
 90
       50
176
     1
 40
0.0
176
     1
 40
1.0
176
     1
 90
        0
176
     1
 62
    18
420
        0
176
     1
 90
       50
176
     1
 90
        3
176
     1
 62
     5
420
      255
176
     1
290
     0
176
     1
 90
       50
176
     1
 90
       50
176
     1
 90
       50
176
     1
290
     0
176
     1
 90
       50
176
     1
 62
   256
176
     0
 40
1.0
176
     0
 90
        2
176
     1
  1
strokes_ogs.tif
176
     1
290
     0
176
     1
 40
1.0
176
     1
 40
1.0
176
     1
  0
VISUALSTYLE
  5
3A
102
{ACAD_REACTORS
330
2A
102
}
330
2A
100
AcDbVisualStyle
  2
ColorChange
 70
    16
177
     3
291
     1
 70
    58
 90
        2
176
     1
 90
        2
176
     1
 90
        3
176
     1
 90
        0
176
     1
 40
0.6
176
     1
 40
30.0
176
     1
 62
     8
420
  8421504
176
     1
 90
        1
176
     1
 90
        4
176
     1
 62
     7
176
     1
 62
   257
176
     1
 90
        1
176
     1
 90
        1
176
     1
 40
1.0
176
     1
 90
        8
176
     1
 62
     8
420
  8421504
176
     1
 40
1.0
176
     1
 90
        1
176
     1
 90
        6
176
     1
 90
        2
176
     1
 62
     7
176
     1
 90
        5
176
     1
 90
        0
176
     1
 90
        0
176
     1
290
     0
176
     1
 90
        1
176
     1
 40
0.0
176
     1
 90
        0
176
     1
290
     0
176
     1
290
     1
176
     1
290
     1
176
     1
290
     0
176
     1
290
     0
176
     1
290
     0
176
     1
290
     0
176
     1
290
     0
176
     1
290
     0
176
     1
 90
       50
176
     1
 40
0.0
176
     1
 40
1.0
176
     1
 90
        0
176
     1
 62
    18
420
        0
176
     1
 90
       50
176
     1
 90
        3
176
     1
 62
     5
420
      255
176
     1
290
     0
176
     1
 90
       50
176
     1
 90
       50
176
     1
 90
       50
176
     1
290
     0
176
     1
 90
       50
176
     1
 62
   256
176
     0
 40
1.0
176
     0
 90
        2
176
     1
  1
strokes_ogs.tif
176
     1
290
     0
176
     1
 40
1.0
176
     1
 40
1.0
176
     1
  0
VISUALSTYLE
  5
34
102
{ACAD_REACTORS
330
2A
102
}
330
2A
100
AcDbVisualStyle
  2
Conceptual
 70
     9
177
     3
291
     0
 70
    58
 90
        3
176
     1
 90
        2
176
     1
 90
        0
176
     1
 90
        0
176
     1
 40
0.6
176
     1
 40
30.0
176
     1
 62
     7
420
 16777215
176
     1
 90
        2
176
     1
 90
        2
176
     1
 62
     7
176
     1
 62
   257
176
     1
 90
        1
176
     1
 90
        1
176
     1
 40
179.0
176
     1
 90
        8
176
     1
 62
     7
176
     1
 40
1.0
176
     1
 90
        1
176
     1
 90
        6
176
     1
 90
        2
176
     1
 62
     7
176
     1
 90
        3
176
     1
 90
        0
176
     1
 90
        0
176
     1
290
     0
176
     1
 90
        1
176
     1
 40
0.0
176
     1
 90
        0
176
     1
290
     0
176
     1
290
     1
176
     1
290
     1
176
     1
290
     0
176
     1
290
     0
176
     1
290
     0
176
     1
290
     0
176
     1
290
     0
176
     1
290
     0
176
     1
 90
       50
176
     1
 40
0.0
176
     1
 40
1.0
176
     1
 90
        0
176
     1
 62
    18
420
        0
176
     1
 90
       50
176
     1
 90
        3
176
     1
 62
     5
420
      255
176
     1
290
     0
176
     1
 90
       50
176
     1
 90
       50
176
     1
 90
       50
176
     1
290
     0
176
     1
 90
       50
176
     1
 62
   256
176
     0
 40
1.0
176
     0
 90
        2
176
     1
  1
strokes_ogs.tif
176
     1
290
     0
176
     1
 40
1.0
176
     1
 40
1.0
176
     1
  0
VISUALSTYLE
  5
35
102
{ACAD_REACTORS
330
2A
102
}
330
2A
100
AcDbVisualStyle
  2
Dim
 70
    11
177
     3
291
     1
 70
    58
 90
        2
176
     1
 90
        2
176
     1
 90
        0
176
     1
 90
        0
176
     1
 40
0.6
176
     1
 40
30.0
176
     1
 62
     7
420
 16777215
176
     1
 90
        1
176
     1
 90
        4
176
     1
 62
     7
176
     1
 62
   257
176
     1
 90
        1
176
     1
 90
        1
176
     1
 40
1.0
176
     1
 90
        8
176
     1
 62
     7
176
     1
 40
1.0
176
     1
 90
        1
176
     1
 90
        6
176
     1
 90
        2
176
     1
 62
     7
176
     1
 90
        5
176
     1
 90
        0
176
     1
 90
        0
176
     1
290
     0
176
     1
 90
        1
176
     1
 40
-50.0
176
     1
 90
        0
176
     1
290
     0
176
     1
290
     1
176
     1
290
     1
176
     1
290
     0
176
     1
290
     0
176
     1
290
     0
176
     1
290
     0
176
     1
290
     0
176
     1
290
     0
176
     1
 90
       50
176
     1
 40
0.0
176
     1
 40
1.0
176
     1
 90
        0
176
     1
 62
    18
420
        0
176
     1
 90
       50
176
     1
 90
        3
176
     1
 62
     5
420
      255
176
     1
290
     0
176
     1
 90
       50
176
     1
 90
       50
176
     1
 90
       50
176
     1
290
     0
176
     1
 90
       50
176
     1
 62
   256
176
     0
 40
1.0
176
     0
 90
        2
176
     1
  1
strokes_ogs.tif
176
     1
290
     0
176
     1
 40
1.0
176
     1
 40
1.0
176
     1
  0
VISUALSTYLE
  5
3D
102
{ACAD_REACTORS
330
2A
102
}
330
2A
100
AcDbVisualStyle
  2
EdgeColorOff
 70
    22
177
     3
291
     1
 70
    58
 90
        2
176
     0
 90
        2
176
     0
 90
        0
176
     0
 90
        0
176
     0
 40
0.6
176
     0
 40
30.0
176
     0
 62
     7
420
 16777215
176
     0
 90
        1
176
     0
 90
        4
176
     0
 62
     7
176
     0
 62
   257
176
     0
 90
        1
176
     0
 90
        1
176
     0
 40
1.0
176
     0
 90
        8
176
     2
 62
     7
176
     0
 40
1.0
176
     0
 90
        1
176
     0
 90
        6
176
     0
 90
        2
176
     0
 62
     7
176
     0
 90
        5
176
     0
 90
        0
176
     0
 90
        0
176
     0
290
     0
176
     0
 90
        1
176
     0
 40
0.0
176
     0
 90
        0
176
     0
290
     0
176
     0
290
     1
176
     0
290
     1
176
     0
290
     0
176
     0
290
     0
176
     0
290
     0
176
     0
290
     0
176
     0
290
     0
176
     0
290
     0
176
     0
 90
       50
176
     0
 40
0.0
176
     0
 40
1.0
176
     0
 90
        0
176
     0
 62
    18
420
        0
176
     0
 90
       50
176
     0
 90
        3
176
     0
 62
     5
420
      255
176
     0
290
     0
176
     0
 90
       50
176
     0
 90
       50
176
     0
 90
       50
176
     0
290
     0
176
     0
 90
       50
176
     0
 62
   256
176
     0
 40
1.0
176
     0
 90
        2
176
     0
  1
strokes_ogs.tif
176
     0
290
     0
176
     0
 40
1.0
176
     0
 40
1.0
176
     0
  0
VISUALSTYLE
  5
39
102
{ACAD_REACTORS
330
2A
102
}
330
2A
100
AcDbVisualStyle
  2
Facepattern
 70
    15
177
     3
291
     1
 70
    58
 90
        2
176
     1
 90
        2
176
     1
 90
        0
176
     1
 90
        0
176
     1
 40
0.6
176
     1
 40
30.0
176
     1
 62
     7
420
 16777215
176
     1
 90
        1
176
     1
 90
        4
176
     1
 62
     7
176
     1
 62
   257
176
     1
 90
        1
176
     1
 90
        1
176
     1
 40
1.0
176
     1
 90
        8
176
     1
 62
     7
176
     1
 40
1.0
176
     1
 90
        1
176
     1
 90
        6
176
     1
 90
        2
176
     1
 62
     7
176
     1
 90
        5
176
     1
 90
        0
176
     1
 90
        0
176
     1
290
     0
176
     1
 90
        1
176
     1
 40
0.0
176
     1
 90
        0
176
     1
290
     0
176
     1
290
     1
176
     1
290
     1
176
     1
290
     0
176
     1
290
     0
176
     1
290
     0
176
     1
290
     0
176
     1
290
     0
176
     1
290
     0
176
     1
 90
       50
176
     1
 40
0.0
176
     1
 40
1.0
176
     1
 90
        0
176
     1
 62
    18
420
        0
176
     1
 90
       50
176
     1
 90
        3
176
     1
 62
     5
420
      255
176
     1
290
     0
176
     1
 90
       50
176
     1
 90
       50
176
     1
 90
       50
176
     1
290
     0
176
     1
 90
       50
176
     1
 62
   256
176
     0
 40
1.0
176
     0
 90
        2
176
     1
  1
strokes_ogs.tif
176
     1
290
     0
176
     1
 40
1.0
176
     1
 40
1.0
176
     1
  0
VISUALSTYLE
  5
2B
102
{ACAD_REACTORS
330
2A
102
}
330
2A
100
AcDbVisualStyle
  2
Flat
 70
     0
177
     3
291
     1
 70
    58
 90
        2
176
     1
 90
        1
176
     1
 90
        1
176
     1
 90
        2
176
     1
 40
0.6
176
     1
 40
30.0
176
     1
 62
     7
420
 16777215
176
     1
 90
        0
176
     1
 90
        0
176
     1
 62
     7
176
     1
 62
   257
176
     1
 90
        1
176
     1
 90
        1
176
     1
 40
1.0
176
     1
 90
        8
176
     1
 62
     7
176
     1
 40
1.0
176
     1
 90
        1
176
     1
 90
        6
176
     1
 90
        2
176
     1
 62
     7
176
     1
 90
        5
176
     1
 90
        0
176
     1
 90
        0
176
     1
290
     0
176
     1
 90
       13
176
     1
 40
0.0
176
     1
 90
        0
176
     1
290
     0
176
     1
290
     1
176
     1
290
     1
176
     1
290
     0
176
     1
290
     0
176
     1
290
     0
176
     1
290
     0
176
     1
290
     0
176
     1
290
     0
176
     1
 90
       50
176
     1
 40
0.0
176
     1
 40
1.0
176
     1
 90
        0
176
     1
 62
    18
420
        0
176
     1
 90
       50
176
     1
 90
        3
176
     1
 62
     5
420
      255
176
     1
290
     0
176
     1
 90
       50
176
     1
 90
       50
176
     1
 90
       50
176
     1
290
     0
176
     1
 90
       50
176
     1
 62
   256
176
     0
 40
1.0
176
     0
 90
        2
176
     1
  1
strokes_ogs.tif
176
     1
290
     0
176
     1
 40
1.0
176
     1
 40
1.0
176
     1
  0
VISUALSTYLE
  5
2C
102
{ACAD_REACTORS
330
2A
102
}
330
2A
100
AcDbVisualStyle
  2
FlatWithEdges
 70
     1
177
     3
291
     1
 70
    58
 90
        2
176
     1
 90
        1
176
     1
 90
        1
176
     1
 90
        2
176
     1
 40
0.6
176
     1
 40
30.0
176
     1
 62
     7
420
 16777215
176
     1
 90
        1
176
     1
 90
        0
176
     1
 62
     7
176
     1
 62
   257
176
     1
 90
        1
176
     1
 90
        1
176
     1
 40
1.0
176
     1
 90
        0
176
     1
 62
   257
176
     1
 40
1.0
176
     1
 90
        1
176
     1
 90
        6
176
     1
 90
        2
176
     1
 62
     7
176
     1
 90
        5
176
     1
 90
        0
176
     1
 90
        0
176
     1
290
     0
176
     1
 90
       13
176
     1
 40
0.0
176
     1
 90
        0
176
     1
290
     0
176
     1
290
     1
176
     1
290
     1
176
     1
290
     0
176
     1
290
     0
176
     1
290
     0
176
     1
290
     0
176
     1
290
     0
176
     1
290
     0
176
     1
 90
       50
176
     1
 40
0.0
176
     1
 40
1.0
176
     1
 90
        0
176
     1
 62
    18
420
        0
176
     1
 90
       50
176
     1
 90
        3
176
     1
 62
     5
420
      255
176
     1
290
     0
176
     1
 90
       50
176
     1
 90
       50
176
     1
 90
       50
176
     1
290
     0
176
     1
 90
       50
176
     1
 62
   256
176
     0
 40
1.0
176
     0
 90
        2
176
     1
  1
strokes_ogs.tif
176
     1
290
     0
176
     1
 40
1.0
176
     1
 40
1.0
176
     1
  0
VISUALSTYLE
  5
2D
102
{ACAD_REACTORS
330
2A
102
}
330
2A
100
AcDbVisualStyle
  2
Gouraud
 70
     2
177
     3
291
     1
 70
    58
 90
        2
176
     1
 90
        2
176
     1
 90
        1
176
     1
 90
        2
176
     1
 40
0.6
176
     1
 40
30.0
176
     1
 62
     7
420
 16777215
176
     1
 90
        0
176
     1
 90
        0
176
     1
 62
     7
176
     1
 62
   257
176
     1
 90
        1
176
     1
 90
        1
176
     1
 40
1.0
176
     1
 90
        0
176
     1
 62
     7
176
     1
 40
1.0
176
     1
 90
        1
176
     1
 90
        6
176
     1
 90
        2
176
     1
 62
     7
176
     1
 90
        5
176
     1
 90
        0
176
     1
 90
        0
176
     1
290
     0
176
     1
 90
       13
176
     1
 40
0.0
176
     1
 90
        0
176
     1
290
     0
176
     1
290
     1
176
     1
290
     1
176
     1
290
     0
176
     1
290
     0
176
     1
290
     0
176
     1
290
     0
176
     1
290
     0
176
     1
290
     0
176
     1
 90
       50
176
     1
 40
0.0
176
     1
 40
1.0
176
     1
 90
        0
176
     1
 62
    18
420
        0
176
     1
 90
       50
176
     1
 90
        3
176
     1
 62
     5
420
      255
176
     1
290
     0
176
     1
 90
       50
176
     1
 90
       50
176
     1
 90
       50
176
     1
290
     0
176
     1
 90
       50
176
     1
 62
   256
176
     0
 40
1.0
176
     0
 90
        2
176
     1
  1
strokes_ogs.tif
176
     1
290
     0
176
     1
 40
1.0
176
     1
 40
1.0
176
     1
  0
VISUALSTYLE
  5
2E
102
{ACAD_REACTORS
330
2A
102
}
330
2A
100
AcDbVisualStyle
  2
GouraudWithEdges
 70
     3
177
     3
291
     1
 70
    58
 90
        2
176
     1
 90
        2
176
     1
 90
        1
176
     1
 90
        2
176
     1
 40
0.6
176
     1
 40
30.0
176
     1
 62
     7
420
 16777215
176
     1
 90
        1
176
     1
 90
        0
176
     1
 62
     7
176
     1
 62
   257
176
     1
 90
        1
176
     1
 90
        1
176
     1
 40
1.0
176
     1
 90
        0
176
     1
 62
   257
176
     1
 40
1.0
176
     1
 90
        1
176
     1
 90
        6
176
     1
 90
        2
176
     1
 62
     7
176
     1
 90
        5
176
     1
 90
        0
176
     1
 90
        0
176
     1
290
     0
176
     1
 90
       13
176
     1
 40
0.0
176
     1
 90
        0
176
     1
290
     0
176
     1
290
     1
176
     1
290
     1
176
     1
290
     0
176
     1
290
     0
176
     1
290
     0
176
     1
290
     0
176
     1
290
     0
176
     1
290
     0
176
     1
 90
       50
176
     1
 40
0.0
176
     1
 40
1.0
176
     1
 90
        0
176
     1
 62
    18
420
        0
176
     1
 90
       50
176
     1
 90
        3
176
     1
 62
     5
420
      255
176
     1
290
     0
176
     1
 90
       50
176
     1
 90
       50
176
     1
 90
       50
176
     1
290
     0
176
     1
 90
       50
176
     1
 62
   256
176
     0
 40
1.0
176
     0
 90
        2
176
     1
  1
strokes_ogs.tif
176
     1
290
     0
176
     1
 40
1.0
176
     1
 40
1.0
176
     1
  0
VISUALSTYLE
  5
31
102
{ACAD_REACTORS
330
2A
102
}
330
2A
100
AcDbVisualStyle
  2
Hidden
 70
     6
177
     3
291
     0
 70
    58
 90
        1
176
     1
 90
        2
176
     1
 90
        2
176
     1
 90
        0
176
     1
 40
0.6
176
     1
 40
30.0
176
     1
 62
     7
420
 16777215
176
     1
 90
        2
176
     1
 90
        2
176
     1
 62
     7
176
     1
 62
   257
176
     1
 90
        2
176
     1
 90
        1
176
     1
 40
40.0
176
     1
 90
        0
176
     1
 62
   257
176
     1
 40
1.0
176
     1
 90
        1
176
     1
 90
        6
176
     1
 90
        2
176
     1
 62
     7
176
     1
 90
        3
176
     1
 90
        0
176
     1
 90
        0
176
     1
290
     0
176
     1
 90
        1
176
     1
 40
0.0
176
     1
 90
        0
176
     1
290
     0
176
     1
290
     1
176
     1
290
     1
176
     1
290
     0
176
     1
290
     0
176
     1
290
     0
176
     1
290
     0
176
     1
290
     0
176
     1
290
     0
176
     1
 90
       50
176
     1
 40
0.0
176
     1
 40
1.0
176
     1
 90
        0
176
     1
 62
    18
420
        0
176
     1
 90
       50
176
     1
 90
        3
176
     1
 62
     5
420
      255
176
     1
290
     0
176
     1
 90
       50
176
     1
 90
       50
176
     1
 90
       50
176
     1
290
     0
176
     1
 90
       50
176
     1
 62
   256
176
     0
 40
1.0
176
     0
 90
        2
176
     1
  1
strokes_ogs.tif
176
     1
290
     0
176
     1
 40
1.0
176
     1
 40
1.0
176
     1
  0
VISUALSTYLE
  5
3B
102
{ACAD_REACTORS
330
2A
102
}
330
2A
100
AcDbVisualStyle
  2
JitterOff
 70
    20
177
     3
291
     1
 70
    58
 90
        2
176
     0
 90
        2
176
     0
 90
        0
176
     0
 90
        0
176
     0
 40
0.6
176
     0
 40
30.0
176
     0
 62
     7
420
 16777215
176
     0
 90
        1
176
     0
 90
        4
176
     0
 62
     7
176
     0
 62
   257
176
     0
 90
        1
176
     0
 90
        1
176
     0
 40
1.0
176
     0
 90
       10
176
     2
 62
     7
176
     0
 40
1.0
176
     0
 90
        1
176
     0
 90
        6
176
     0
 90
        2
176
     0
 62
     7
176
     0
 90
        5
176
     0
 90
        0
176
     0
 90
        0
176
     0
290
     0
176
     0
 90
        1
176
     0
 40
0.0
176
     0
 90
        0
176
     0
290
     0
176
     0
290
     1
176
     0
290
     1
176
     0
290
     0
176
     0
290
     0
176
     0
290
     0
176
     0
290
     0
176
     0
290
     0
176
     0
290
     0
176
     0
 90
       50
176
     0
 40
0.0
176
     0
 40
1.0
176
     0
 90
        0
176
     0
 62
    18
420
        0
176
     0
 90
       50
176
     0
 90
        3
176
     0
 62
     5
420
      255
176
     0
290
     0
176
     0
 90
       50
176
     0
 90
       50
176
     0
 90
       50
176
     0
290
     0
176
     0
 90
       50
176
     0
 62
   256
176
     0
 40
1.0
176
     0
 90
        2
176
     0
  1
strokes_ogs.tif
176
     0
290
     0
176
     0
 40
1.0
176
     0
 40
1.0
176
     0
  0
VISUALSTYLE
  5
38
102
{ACAD_REACTORS
330
2A
102
}
330
2A
100
AcDbVisualStyle
  2
Linepattern
 70
    14
177
     3
291
     1
 70
    58
 90
        2
176
     1
 90
        2
176
     1
 90
        0
176
     1
 90
        0
176
     1
 40
0.6
176
     1
 40
30.0
176
     1
 62
     7
420
 16777215
176
     1
 90
        1
176
     1
 90
        4
176
     1
 62
     7
176
     1
 62
   257
176
     1
 90
        7
176
     1
 90
        7
176
     1
 40
1.0
176
     1
 90
        8
176
     1
 62
     7
176
     1
 40
1.0
176
     1
 90
        1
176
     1
 90
        6
176
     1
 90
        2
176
     1
 62
     7
176
     1
 90
        5
176
     1
 90
        0
176
     1
 90
        0
176
     1
290
     0
176
     1
 90
        1
176
     1
 40
0.0
176
     1
 90
        0
176
     1
290
     0
176
     1
290
     1
176
     1
290
     1
176
     1
290
     0
176
     1
290
     0
176
     1
290
     0
176
     1
290
     0
176
     1
290
     0
176
     1
290
     0
176
     1
 90
       50
176
     1
 40
0.0
176
     1
 40
1.0
176
     1
 90
        0
176
     1
 62
    18
420
        0
176
     1
 90
       50
176
     1
 90
        3
176
     1
 62
     5
420
      255
176
     1
290
     0
176
     1
 90
       50
176
     1
 90
       50
176
     1
 90
       50
176
     1
290
     0
176
     1
 90
       50
176
     1
 62
   256
176
     0
 40
1.0
176
     0
 90
        2
176
     1
  1
strokes_ogs.tif
176
     1
290
     0
176
     1
 40
1.0
176
     1
 40
1.0
176
     1
  0
VISUALSTYLE
  5
3C
102
{ACAD_REACTORS
330
2A
102
}
330
2A
100
AcDbVisualStyle
  2
OverhangOff
 70
    21
177
     3
291
     1
 70
    58
 90
        2
176
     0
 90
        2
176
     0
 90
        0
176
     0
 90
        0
176
     0
 40
0.6
176
     0
 40
30.0
176
     0
 62
     7
420
 16777215
176
     0
 90
        1
176
     0
 90
        4
176
     0
 62
     7
176
     0
 62
   257
176
     0
 90
        1
176
     0
 90
        1
176
     0
 40
1.0
176
     0
 90
        9
176
     2
 62
     7
176
     0
 40
1.0
176
     0
 90
        1
176
     0
 90
        6
176
     0
 90
        2
176
     0
 62
     7
176
     0
 90
        5
176
     0
 90
        0
176
     0
 90
        0
176
     0
290
     0
176
     0
 90
        1
176
     0
 40
0.0
176
     0
 90
        0
176
     0
290
     0
176
     0
290
     1
176
     0
290
     1
176
     0
290
     0
176
     0
290
     0
176
     0
290
     0
176
     0
290
     0
176
     0
290
     0
176
     0
290
     0
176
     0
 90
       50
176
     0
 40
0.0
176
     0
 40
1.0
176
     0
 90
        0
176
     0
 62
    18
420
        0
176
     0
 90
       50
176
     0
 90
        3
176
     0
 62
     5
420
      255
176
     0
290
     0
176
     0
 90
       50
176
     0
 90
       50
176
     0
 90
       50
176
     0
290
     0
176
     0
 90
       50
176
     0
 62
   256
176
     0
 40
1.0
176
     0
 90
        2
176
     0
  1
strokes_ogs.tif
176
     0
290
     0
176
     0
 40
1.0
176
     0
 40
1.0
176
     0
  0
VISUALSTYLE
  5
33
102
{ACAD_REACTORS
330
2A
102
}
330
2A
100
AcDbVisualStyle
  2
Realistic
 70
     8
177
     3
291
     0
 70
    58
 90
        2
176
     1
 90
        3
176
     1
 90
        0
176
     1
 90
        2
176
     1
 40
0.6
176
     1
 40
30.0
176
     1
 62
     7
420
 16777215
176
     1
 90
        0
176
     1
 90
        0
176
     1
 62
     7
176
     1
 62
   257
176
     1
 90
        1
176
     1
 90
        1
176
     1
 40
1.0
176
     1
 90
        8
176
     1
 62
   257
176
     1
 40
1.0
176
     1
 90
        1
176
     1
 90
        6
176
     1
 90
        2
176
     1
 62
     7
176
     1
 90
        3
176
     1
 90
        0
176
     1
 90
        0
176
     1
290
     0
176
     1
 90
       13
176
     1
 40
0.0
176
     1
 90
        0
176
     1
290
     0
176
     1
290
     1
176
     1
290
     1
176
     1
290
     0
176
     1
290
     0
176
     1
290
     0
176
     1
290
     0
176
     1
290
     0
176
     1
290
     0
176
     1
 90
       50
176
     1
 40
0.0
176
     1
 40
1.0
176
     1
 90
        0
176
     1
 62
    18
420
        0
176
     1
 90
       50
176
     1
 90
        3
176
     1
 62
     5
420
      255
176
     1
290
     0
176
     1
 90
       50
176
     1
 90
       50
176
     1
 90
       50
176
     1
290
     0
176
     1
 90
       50
176
     1
 62
   256
176
     0
 40
1.0
176
     0
 90
        2
176
     1
  1
strokes_ogs.tif
176
     1
290
     0
176
     1
 40
1.0
176
     1
 40
1.0
176
     1
  0
VISUALSTYLE
  5
42
102
{ACAD_REACTORS
330
2A
102
}
330
2A
100
AcDbVisualStyle
  2
Shaded
 70
    27
177
     3
291
     0
 70
    58
 90
        2
176
     1
 90
        2
176
     1
 90
        1
176
     1
 90
        2
176
     1
 40
0.6
176
     1
 40
30.0
176
     1
 62
     7
420
 16777215
176
     1
 90
        0
176
     1
 90
        4
176
     1
 62
     7
176
     1
 62
   257
176
     1
 90
        1
176
     1
 90
        1
176
     1
 40
1.0
176
     1
 90
        8
176
     1
 62
   257
176
     1
 40
1.0
176
     1
 90
        1
176
     1
 90
        6
176
     1
 90
        2
176
     1
 62
     8
420
  7895160
176
     1
 90
        3
176
     1
 90
        0
176
     1
 90
        0
176
     1
290
     0
176
     1
 90
        5
176
     1
 40
0.0
176
     1
 90
        0
176
     1
290
     0
176
     1
290
     1
176
     1
290
     1
176
     1
290
     0
176
     1
290
     0
176
     1
290
     0
176
     1
290
     0
176
     1
290
     0
176
     1
290
     0
176
     1
 90
       50
176
     1
 40
0.0
176
     1
 40
1.0
176
     1
 90
        0
176
     1
 62
    18
420
        0
176
     1
 90
       50
176
     1
 90
        3
176
     1
 62
     5
420
      255
176
     1
290
     0
176
     1
 90
       50
176
     1
 90
       50
176
     1
 90
       50
176
     1
290
     0
176
     1
 90
       50
176
     1
 62
   256
176
     0
 40
1.0
176
     0
 90
        2
176
     1
  1
strokes_ogs.tif
176
     1
290
     0
176
     1
 40
1.0
176
     1
 40
1.0
176
     1
  0
VISUALSTYLE
  5
41
102
{ACAD_REACTORS
330
2A
102
}
330
2A
100
AcDbVisualStyle
  2
Shaded with edges
 70
    26
177
     3
291
     0
 70
    58
 90
        2
176
     1
 90
        2
176
     1
 90
        1
176
     1
 90
        2
176
     1
 40
0.6
176
     1
 40
30.0
176
     1
 62
     7
420
 16777215
176
     1
 90
        1
176
     1
 90
       10
176
     1
 62
     7
176
     1
 62
   257
176
     1
 90
        2
176
     1
 90
        1
176
     1
 40
1.0
176
     1
 90
        8
176
     1
 62
   257
176
     1
 40
1.0
176
     1
 90
        1
176
     1
 90
        6
176
     1
 90
        2
176
     1
 62
     7
176
     1
 90
        3
176
     1
 90
        0
176
     1
 90
        0
176
     1
290
     0
176
     1
 90
        5
176
     1
 40
0.0
176
     1
 90
        0
176
     1
290
     0
176
     1
290
     1
176
     1
290
     1
176
     1
290
     0
176
     1
290
     0
176
     1
290
     0
176
     1
290
     0
176
     1
290
     0
176
     1
290
     0
176
     1
 90
       50
176
     1
 40
0.0
176
     1
 40
1.0
176
     1
 90
        0
176
     1
 62
    18
420
        0
176
     1
 90
       50
176
     1
 90
        3
176
     1
 62
     5
420
      255
176
     1
290
     0
176
     1
 90
       50
176
     1
 90
       50
176
     1
 90
       50
176
     1
290
     0
176
     1
 90
       50
176
     1
 62
   256
176
     0
 40
1.0
176
     0
 90
        2
176
     1
  1
strokes_ogs.tif
176
     1
290
     0
176
     1
 40
1.0
176
     1
 40
1.0
176
     1
  0
VISUALSTYLE
  5
3E
102
{ACAD_REACTORS
330
2A
102
}
330
2A
100
AcDbVisualStyle
  2
Shades of Gray
 70
    23
177
     3
291
     0
 70
    58
 90
        2
176
     1
 90
        2
176
     1
 90
        3
176
     1
 90
        0
176
     1
 40
0.6
176
     1
 40
30.0
176
     1
 62
     7
420
 16777215
176
     1
 90
        2
176
     1
 90
        2
176
     1
 62
     7
176
     1
 62
     7
176
     1
 90
        1
176
     1
 90
        1
176
     1
 40
40.0
176
     1
 90
        8
176
     1
 62
     7
176
     1
 40
1.0
176
     1
 90
        1
176
     1
 90
        6
176
     1
 90
        2
176
     1
 62
     7
176
     1
 90
        3
176
     1
 90
        0
176
     1
 90
        0
176
     1
290
     0
176
     1
 90
        1
176
     1
 40
0.0
176
     1
 90
        0
176
     1
290
     0
176
     1
290
     1
176
     1
290
     1
176
     1
290
     0
176
     1
290
     0
176
     1
290
     0
176
     1
290
     0
176
     1
290
     0
176
     1
290
     0
176
     1
 90
       50
176
     1
 40
0.0
176
     1
 40
1.0
176
     1
 90
        0
176
     1
 62
    18
420
        0
176
     1
 90
       50
176
     1
 90
        3
176
     1
 62
     5
420
      255
176
     1
290
     0
176
     1
 90
       50
176
     1
 90
       50
176
     1
 90
       50
176
     1
290
     0
176
     1
 90
       50
176
     1
 62
   256
176
     0
 40
1.0
176
     0
 90
        2
176
     1
  1
strokes_ogs.tif
176
     1
290
     0
176
     1
 40
1.0
176
     1
 40
1.0
176
     1
  0
VISUALSTYLE
  5
3F
102
{ACAD_REACTORS
330
2A
102
}
330
2A
100
AcDbVisualStyle
  2
Sketchy
 70
    24
177
     3
291
     0
 70
    58
 90
        1
176
     1
 90
        2
176
     1
 90
        2
176
     1
 90
        0
176
     1
 40
0.6
176
     1
 40
30.0
176
     1
 62
     7
420
 16777215
176
     1
 90
        2
176
     1
 90
        2
176
     1
 62
     7
176
     1
 62
     7
176
     1
 90
        1
176
     1
 90
        1
176
     1
 40
40.0
176
     1
 90
       11
176
     1
 62
     7
176
     1
 40
1.0
176
     1
 90
        1
176
     1
 90
        6
176
     1
 90
        2
176
     1
 62
     7
176
     1
 90
        6
176
     1
 90
        0
176
     1
 90
        0
176
     1
290
     0
176
     1
 90
        1
176
     1
 40
0.0
176
     1
 90
        0
176
     1
290
     0
176
     1
290
     1
176
     1
290
     1
176
     1
290
     0
176
     1
290
     0
176
     1
290
     0
176
     1
290
     0
176
     1
290
     0
176
     1
290
     0
176
     1
 90
       50
176
     1
 40
0.0
176
     1
 40
1.0
176
     1
 90
        0
176
     1
 62
    18
420
        0
176
     1
 90
       50
176
     1
 90
        3
176
     1
 62
     5
420
      255
176
     1
290
     0
176
     1
 90
       50
176
     1
 90
       50
176
     1
 90
       50
176
     1
290
     0
176
     1
 90
       50
176
     1
 62
   256
176
     0
 40
1.0
176
     0
 90
        2
176
     1
  1
strokes_ogs.tif
176
     1
290
     0
176
     1
 40
1.0
176
     1
 40
1.0
176
     1
  0
VISUALSTYLE
  5
37
102
{ACAD_REACTORS
330
2A
102
}
330
2A
100
AcDbVisualStyle
  2
Thicken
 70
    13
177
     3
291
     1
 70
    58
 90
        2
176
     1
 90
        2
176
     1
 90
        0
176
     1
 90
        0
176
     1
 40
0.6
176
     1
 40
30.0
176
     1
 62
     7
420
 16777215
176
     1
 90
        1
176
     1
 90
        4
176
     1
 62
     7
176
     1
 62
   257
176
     1
 90
        1
176
     1
 90
        1
176
     1
 40
1.0
176
     1
 90
       12
176
     1
 62
     7
176
     1
 40
1.0
176
     1
 90
        1
176
     1
 90
        6
176
     1
 90
        2
176
     1
 62
     7
176
     1
 90
        5
176
     1
 90
        0
176
     1
 90
        0
176
     1
290
     0
176
     1
 90
        1
176
     1
 40
0.0
176
     1
 90
        0
176
     1
290
     0
176
     1
290
     1
176
     1
290
     1
176
     1
290
     0
176
     1
290
     0
176
     1
290
     0
176
     1
290
     0
176
     1
290
     0
176
     1
290
     0
176
     1
 90
       50
176
     1
 40
0.0
176
     1
 40
1.0
176
     1
 90
        0
176
     1
 62
    18
420
        0
176
     1
 90
       50
176
     1
 90
        3
176
     1
 62
     5
420
      255
176
     1
290
     0
176
     1
 90
       50
176
     1
 90
       50
176
     1
 90
       50
176
     1
290
     0
176
     1
 90
       50
176
     1
 62
   256
176
     0
 40
1.0
176
     0
 90
        2
176
     1
  1
strokes_ogs.tif
176
     1
290
     0
176
     1
 40
1.0
176
     1
 40
1.0
176
     1
  0
VISUALSTYLE
  5
30
102
{ACAD_REACTORS
330
2A
102
}
330
2A
100
AcDbVisualStyle
  2
Wireframe
 70
     5
177
     3
291
     0
 70
    58
 90
        0
176
     1
 90
        2
176
     1
 90
        0
176
     1
 90
        0
176
     1
 40
0.6
176
     1
 40
30.0
176
     1
 62
     7
420
 16777215
176
     1
 90
        1
176
     1
 90
        4
176
     1
 62
     7
176
     1
 62
   257
176
     1
 90
        1
176
     1
 90
        1
176
     1
 40
1.0
176
     1
 90
        0
176
     1
 62
   257
176
     1
 40
1.0
176
     1
 90
        1
176
     1
 90
        6
176
     1
 90
        2
176
     1
 62
     7
176
     1
 90
        3
176
     1
 90
        0
176
     1
 90
        0
176
     1
290
     0
176
     1
 90
        1
176
     1
 40
0.0
176
     1
 90
        0
176
     1
290
     0
176
     1
290
     1
176
     1
290
     1
176
     1
290
     0
176
     1
290
     0
176
     1
290
     0
176
     1
290
     0
176
     1
290
     0
176
     1
290
     0
176
     1
 90
       50
176
     1
 40
0.0
176
     1
 40
1.0
176
     1
 90
        0
176
     1
 62
    18
420
        0
176
     1
 90
       50
176
     1
 90
        3
176
     1
 62
     5
420
      255
176
     1
290
     0
176
     1
 90
       50
176
     1
 90
       50
176
     1
 90
       50
176
     1
290
     0
176
     1
 90
       50
176
     1
 62
   256
176
     0
 40
1.0
176
     0
 90
        2
176
     1
  1
strokes_ogs.tif
176
     1
290
     0
176
     1
 40
1.0
176
     1
 40
1.0
176
     1
  0
VISUALSTYLE
  5
40
102
{ACAD_REACTORS
330
2A
102
}
330
2A
100
AcDbVisualStyle
  2
X-Ray
 70
    25
177
     3
291
     0
 70
    58
 90
        2
176
     1
 90
        2
176
     1
 90
        1
176
     1
 90
        1
176
     1
 40
0.5
176
     1
 40
30.0
176
     1
 62
     7
420
 16777215
176
     1
 90
        1
176
     1
 90
        0
176
     1
 62
     7
176
     1
 62
   257
176
     1
 90
        1
176
     1
 90
        1
176
     1
 40
1.0
176
     1
 90
        8
176
     1
 62
     7
176
     1
 40
1.0
176
     1
 90
        1
176
     1
 90
        6
176
     1
 90
        2
176
     1
 62
     7
176
     1
 90
        3
176
     1
 90
        0
176
     1
 90
        0
176
     1
290
     0
176
     1
 90
       13
176
     1
 40
0.0
176
     1
 90
        0
176
     1
290
     0
176
     1
290
     1
176
     1
290
     1
176
     1
290
     0
176
     1
290
     0
176
     1
290
     0
176
     1
290
     0
176
     1
290
     0
176
     1
290
     0
176
     1
 90
       50
176
     1
 40
0.0
176
     1
 40
1.0
176
     1
 90
        0
176
     1
 62
    18
420
        0
176
     1
 90
       50
176
     1
 90
        3
176
     1
 62
     5
420
      255
176
     1
290
     0
176
     1
 90
       50
176
     1
 90
       50
176
     1
 90
       50
176
     1
290
     0
176
     1
 90
       50
176
     1
 62
   256
176
     0
 40
1.0
176
     0
 90
        2
176
     1
  1
strokes_ogs.tif
176
     1
290
     0
176
     1
 40
1.0
176
     1
 40
1.0
176
     1
  0
DICTIONARYVAR
  5
271
102
{ACAD_REACTORS
330
270
102
}
330
270
100
DictionaryVariables
280
     0
  1
1:1
  0
DICTIONARYVAR
  5
276
102
{ACAD_REACTORS
330
270
102
}
330
270
100
DictionaryVariables
280
     0
  1
Standard
  0
DICTIONARYVAR
  5
275
102
{ACAD_REACTORS
330
270
102
}
330
270
100
DictionaryVariables
280
     0
  1
Standard
  0
DICTIONARY
  5
272
330
6A
100
AcDbDictionary
280
     1
281
     1
  3
ACAD_ROUNDTRIP_2008_TABLESTYLE_CELLSTYLEMAP
360
273
  0
CELLSTYLEMAP
  5
273
102
{ACAD_REACTORS
330
272
102
}
330
272
100
AcDbCellStyleMap
 90
        3
300
CELLSTYLE
  1
TABLEFORMAT_BEGIN
 90
        5
170
     1
 91
        0
 92
    32768
 62
   257
 93
        1
300
CONTENTFORMAT
  1
CONTENTFORMAT_BEGIN
 90
        0
 91
        0
 92
        4
 93
        0
300

 40
0.0
140
1.0
 94
        5
 62
     0
340
11
144
0.25
309
CONTENTFORMAT_END
171
     1
301
MARGIN
  1
CELLMARGIN_BEGIN
 40
0.06
 40
0.06
 40
0.06
 40
0.06
 40
0.06
 40
0.06
309
CELLMARGIN_END
 94
        6
 95
        1
302
GRIDFORMAT
  1
GRIDFORMAT_BEGIN
 90
        0
 91
        1
 62
     0
 92
       -2
340
14
 93
        0
 40
0.045
309
GRIDFORMAT_END
 95
        2
302
GRIDFORMAT
  1
GRIDFORMAT_BEGIN
 90
        0
 91
        1
 62
     0
 92
       -2
340
14
 93
        0
 40
0.045
309
GRIDFORMAT_END
 95
        4
302
GRIDFORMAT
  1
GRIDFORMAT_BEGIN
 90
        0
 91
        1
 62
     0
 92
       -2
340
14
 93
        0
 40
0.045
309
GRIDFORMAT_END
 95
        8
302
GRIDFORMAT
  1
GRIDFORMAT_BEGIN
 90
        0
 91
        1
 62
     0
 92
       -2
340
14
 93
        0
 40
0.045
309
GRIDFORMAT_END
 95
       16
302
GRIDFORMAT
  1
GRIDFORMAT_BEGIN
 90
        0
 91
        1
 62
     0
 92
       -2
340
14
 93
        0
 40
0.045
309
GRIDFORMAT_END
 95
       32
302
GRIDFORMAT
  1
GRIDFORMAT_BEGIN
 90
        0
 91
        1
 62
     0
 92
       -2
340
14
 93
        0
 40
0.045
309
GRIDFORMAT_END
309
TABLEFORMAT_END
  1
CELLSTYLE_BEGIN
 90
        1
 91
        1
300
_TITLE
309
CELLSTYLE_END
300
CELLSTYLE
  1
TABLEFORMAT_BEGIN
 90
        5
170
     1
 91
        0
 92
        0
 62
   257
 93
        1
300
CONTENTFORMAT
  1
CONTENTFORMAT_BEGIN
 90
        0
 91
        0
 92
        4
 93
        0
300

 40
0.0
140
1.0
 94
        5
 62
     0
340
11
144
0.18
309
CONTENTFORMAT_END
171
     1
301
MARGIN
  1
CELLMARGIN_BEGIN
 40
0.06
 40
0.06
 40
0.06
 40
0.06
 40
0.06
 40
0.06
309
CELLMARGIN_END
 94
        6
 95
        1
302
GRIDFORMAT
  1
GRIDFORMAT_BEGIN
 90
        0
 91
        1
 62
     0
 92
       -2
340
14
 93
        0
 40
0.045
309
GRIDFORMAT_END
 95
        2
302
GRIDFORMAT
  1
GRIDFORMAT_BEGIN
 90
        0
 91
        1
 62
     0
 92
       -2
340
14
 93
        0
 40
0.045
309
GRIDFORMAT_END
 95
        4
302
GRIDFORMAT
  1
GRIDFORMAT_BEGIN
 90
        0
 91
        1
 62
     0
 92
       -2
340
14
 93
        0
 40
0.045
309
GRIDFORMAT_END
 95
        8
302
GRIDFORMAT
  1
GRIDFORMAT_BEGIN
 90
        0
 91
        1
 62
     0
 92
       -2
340
14
 93
        0
 40
0.045
309
GRIDFORMAT_END
 95
       16
302
GRIDFORMAT
  1
GRIDFORMAT_BEGIN
 90
        0
 91
        1
 62
     0
 92
       -2
340
14
 93
        0
 40
0.045
309
GRIDFORMAT_END
 95
       32
302
GRIDFORMAT
  1
GRIDFORMAT_BEGIN
 90
        0
 91
        1
 62
     0
 92
       -2
340
14
 93
        0
 40
0.045
309
GRIDFORMAT_END
309
TABLEFORMAT_END
  1
CELLSTYLE_BEGIN
 90
        2
 91
        1
300
_HEADER
309
CELLSTYLE_END
300
CELLSTYLE
  1
TABLEFORMAT_BEGIN
 90
        5
170
     1
 91
        0
 92
        0
 62
   257
 93
        1
300
CONTENTFORMAT
  1
CONTENTFORMAT_BEGIN
 90
        0
 91
        0
 92
        4
 93
        0
300

 40
0.0
140
1.0
 94
        2
 62
     0
340
11
144
0.18
309
CONTENTFORMAT_END
171
     1
301
MARGIN
  1
CELLMARGIN_BEGIN
 40
0.06
 40
0.06
 40
0.06
 40
0.06
 40
0.06
 40
0.06
309
CELLMARGIN_END
 94
        6
 95
        1
302
GRIDFORMAT
  1
GRIDFORMAT_BEGIN
 90
        0
 91
        1
 62
     0
 92
       -2
340
14
 93
        0
 40
0.045
309
GRIDFORMAT_END
 95
        2
302
GRIDFORMAT
  1
GRIDFORMAT_BEGIN
 90
        0
 91
        1
 62
     0
 92
       -2
340
14
 93
        0
 40
0.045
309
GRIDFORMAT_END
 95
        4
302
GRIDFORMAT
  1
GRIDFORMAT_BEGIN
 90
        0
 91
        1
 62
     0
 92
       -2
340
14
 93
        0
 40
0.045
309
GRIDFORMAT_END
 95
        8
302
GRIDFORMAT
  1
GRIDFORMAT_BEGIN
 90
        0
 91
        1
 62
     0
 92
       -2
340
14
 93
        0
 40
0.045
309
GRIDFORMAT_END
 95
       16
302
GRIDFORMAT
  1
GRIDFORMAT_BEGIN
 90
        0
 91
        1
 62
     0
 92
       -2
340
14
 93
        0
 40
0.045
309
GRIDFORMAT_END
 95
       32
302
GRIDFORMAT
  1
GRIDFORMAT_BEGIN
 90
        0
 91
        1
 62
     0
 92
       -2
340
14
 93
        0
 40
0.045
309
GRIDFORMAT_END
309
TABLEFORMAT_END
  1
CELLSTYLE_BEGIN
 90
        3
 91
        2
300
_DATA
309
CELLSTYLE_END
  0
ENDSEC
  0
EOF