0
SECTION
  2
HEADER
  9
$ACADVER
  1
AC1027
  9
$ACADMAINTVER
 70
     8
  9
$DWGCODEPAGE
  3
ANSI_1252
  9
$REQUIREDVERSIONS
160
                 0
  9
$COMMENTS
  1
File was created by Cadenas
  9
$CUSTOMPROPERTYTAG
  1
NN
  9
$CUSTOMPROPERTY
  1
Imperial - IP Pillow Block with Type E Dimensions 2-1/4 thru 7 inch 4-Bolt Trident Seal Expansion
  9
$CUSTOMPROPERTYTAG
  1
NT
  9
$CUSTOMPROPERTY
  1
Imperial/E 4 Bolt Piliow Block Bearings
  9
$CUSTOMPROPERTYTAG
  1
NB
  9
$CUSTOMPROPERTY
  1
071222
  9
$CUSTOMPROPERTYTAG
  1
NBSYN
  9
$CUSTOMPROPERTY
  1
$PN.
  9
$CUSTOMPROPERTYTAG
  1
LINA
  9
$CUSTOMPROPERTY
  1
071222
  9
$CUSTOMPROPERTYTAG
  1
SS
  9
$CUSTOMPROPERTY
  1
2-7/16
  9
$CUSTOMPROPERTYTAG
  1
TYPE
  9
$CUSTOMPROPERTY
  1
Expansion
  9
$CUSTOMPROPERTYTAG
  1
PN
  9
$CUSTOMPROPERTY
  1
071222
  9
$CUSTOMPROPERTYTAG
  1
DESCRIPTION
  9
$CUSTOMPROPERTY
  1
EP4B-IP-207RE
  9
$CUSTOMPROPERTYTAG
  1
ST
  9
$CUSTOMPROPERTY
  1
Contact Seal
  9
$CUSTOMPROPERTYTAG
  1
A
  9
$CUSTOMPROPERTY
  1
3.42
  9
$CUSTOMPROPERTYTAG
  1
B
  9
$CUSTOMPROPERTY
  1
10.5
  9
$CUSTOMPROPERTYTAG
  1
C
  9
$CUSTOMPROPERTY
  1
3.49
  9
$CUSTOMPROPERTYTAG
  1
DMIN
  9
$CUSTOMPROPERTY
  1
8.31
  9
$CUSTOMPROPERTYTAG
  1
DMAX
  9
$CUSTOMPROPERTY
  1
8.69
  9
$CUSTOMPROPERTYTAG
  1
E
  9
$CUSTOMPROPERTY
  1
1.87
  9
$CUSTOMPROPERTYTAG
  1
F
  9
$CUSTOMPROPERTY
  1
5/8
  9
$CUSTOMPROPERTYTAG
  1
G
  9
$CUSTOMPROPERTY
  1
0.87
  9
$CUSTOMPROPERTYTAG
  1
H
  9
$CUSTOMPROPERTY
  1
1.63
  9
$CUSTOMPROPERTYTAG
  1
J
  9
$CUSTOMPROPERTY
  1
5.72
  9
$CUSTOMPROPERTYTAG
  1
L
  9
$CUSTOMPROPERTY
  1
3.88
  9
$CUSTOMPROPERTYTAG
  1
M
  9
$CUSTOMPROPERTY
  1
2.75
  9
$CUSTOMPROPERTYTAG
  1
R
  9
$CUSTOMPROPERTY
  1
1.21
  9
$CUSTOMPROPERTYTAG
  1
S
  9
$CUSTOMPROPERTY
  1
2.21
  9
$CUSTOMPROPERTYTAG
  1
X
  9
$CUSTOMPROPERTY
  1
0.25
  9
$CUSTOMPROPERTYTAG
  1
Y
  9
$CUSTOMPROPERTY
  1
0.025
  9
$CUSTOMPROPERTYTAG
  1
Z
  9
$CUSTOMPROPERTY
  1
2.94
  9
$CUSTOMPROPERTYTAG
  1
COMPANY
  9
$CUSTOMPROPERTY
  1
baldor
  9
$INSBASE
 10
0.0
 20
0.0
 30
0.0
  9
$EXTMIN
 10
1.000000000000000E+20
 20
1.000000000000000E+20
 30
1.000000000000000E+20
  9
$EXTMAX
 10
-1.000000000000000E+20
 20
-1.000000000000000E+20
 30
-1.000000000000000E+20
  9
$LIMMIN
 10
0.0
 20
0.0
  9
$LIMMAX
 10
12.0
 20
9.0
  9
$ORTHOMODE
 70
     0
  9
$REGENMODE
 70
     1
  9
$FILLMODE
 70
     1
  9
$QTEXTMODE
 70
     0
  9
$MIRRTEXT
 70
     1
  9
$LTSCALE
 40
1.0
  9
$ATTMODE
 70
     1
  9
$TEXTSIZE
 40
0.2
  9
$TRACEWID
 40
0.05
  9
$TEXTSTYLE
  7
Standard
  9
$CLAYER
  8
0
  9
$CELTYPE
  6
ByLayer
  9
$CECOLOR
 62
   256
  9
$CELTSCALE
 40
1.0
  9
$DISPSILH
 70
     0
  9
$DIMSCALE
 40
1.0
  9
$DIMASZ
 40
0.18
  9
$DIMEXO
 40
0.0625
  9
$DIMDLI
 40
0.38
  9
$DIMRND
 40
0.0
  9
$DIMDLE
 40
0.0
  9
$DIMEXE
 40
0.18
  9
$DIMTP
 40
0.0
  9
$DIMTM
 40
0.0
  9
$DIMTXT
 40
0.18
  9
$DIMCEN
 40
0.09
  9
$DIMTSZ
 40
0.0
  9
$DIMTOL
 70
     0
  9
$DIMLIM
 70
     0
  9
$DIMTIH
 70
     1
  9
$DIMTOH
 70
     1
  9
$DIMSE1
 70
     0
  9
$DIMSE2
 70
     0
  9
$DIMTAD
 70
     0
  9
$DIMZIN
 70
     0
  9
$DIMBLK
  1

  9
$DIMASO
 70
     1
  9
$DIMSHO
 70
     1
  9
$DIMPOST
  1

  9
$DIMAPOST
  1

  9
$DIMALT
 70
     0
  9
$DIMALTD
 70
     2
  9
$DIMALTF
 40
25.4
  9
$DIMLFAC
 40
1.0
  9
$DIMTOFL
 70
     0
  9
$DIMTVP
 40
0.0
  9
$DIMTIX
 70
     0
  9
$DIMSOXD
 70
     0
  9
$DIMSAH
 70
     0
  9
$DIMBLK1
  1

  9
$DIMBLK2
  1

  9
$DIMSTYLE
  2
Standard
  9
$DIMCLRD
 70
     0
  9
$DIMCLRE
 70
     0
  9
$DIMCLRT
 70
     0
  9
$DIMTFAC
 40
1.0
  9
$DIMGAP
 40
0.09
  9
$DIMJUST
 70
     0
  9
$DIMSD1
 70
     0
  9
$DIMSD2
 70
     0
  9
$DIMTOLJ
 70
     1
  9
$DIMTZIN
 70
     0
  9
$DIMALTZ
 70
     0
  9
$DIMALTTZ
 70
     0
  9
$DIMUPT
 70
     0
  9
$DIMDEC
 70
     4
  9
$DIMTDEC
 70
     4
  9
$DIMALTU
 70
     2
  9
$DIMALTTD
 70
     2
  9
$DIMTXSTY
  7
Standard
  9
$DIMAUNIT
 70
     0
  9
$DIMADEC
 70
     0
  9
$DIMALTRND
 40
0.0
  9
$DIMAZIN
 70
     0
  9
$DIMDSEP
 70
    46
  9
$DIMATFIT
 70
     3
  9
$DIMFRAC
 70
     0
  9
$DIMLDRBLK
  1

  9
$DIMLUNIT
 70
     2
  9
$DIMLWD
 70
    -2
  9
$DIMLWE
 70
    -2
  9
$DIMTMOVE
 70
     0
  9
$DIMFXL
 40
1.0
  9
$DIMFXLON
 70
     0
  9
$DIMJOGANG
 40
0.7853981633974483
  9
$DIMTFILL
 70
     0
  9
$DIMTFILLCLR
 70
     0
  9
$DIMARCSYM
 70
     0
  9
$DIMLTYPE
  6

  9
$DIMLTEX1
  6

  9
$DIMLTEX2
  6

  9
$DIMTXTDIRECTION
 70
     0
  9
$LUNITS
 70
     2
  9
$LUPREC
 70
     4
  9
$SKETCHINC
 40
0.1
  9
$FILLETRAD
 40
0.5
  9
$AUNITS
 70
     0
  9
$AUPREC
 70
     0
  9
$MENU
  1
.
  9
$ELEVATION
 40
0.0
  9
$PELEVATION
 40
0.0
  9
$THICKNESS
 40
0.0
  9
$LIMCHECK
 70
     0
  9
$CHAMFERA
 40
0.0
  9
$CHAMFERB
 40
0.0
  9
$CHAMFERC
 40
0.0
  9
$CHAMFERD
 40
0.0
  9
$SKPOLY
 70
     0
  9
$TDCREATE
 40
2458168.982567882
  9
$TDUCREATE
 40
2458168.940901215
  9
$TDUPDATE
 40
2458168.982568067
  9
$TDUUPDATE
 40
2458168.940901401
  9
$TDINDWG
 40
0.0000000116
  9
$TDUSRTIMER
 40
0.0000000116
  9
$USRTIMER
 70
     1
  9
$ANGBASE
 50
0.0
  9
$ANGDIR
 70
     0
  9
$PDMODE
 70
     0
  9
$PDSIZE
 40
0.0
  9
$PLINEWID
 40
0.0
  9
$SPLFRAME
 70
     0
  9
$SPLINETYPE
 70
     6
  9
$SPLINESEGS
 70
     8
  9
$HANDSEED
  5
272
  9
$SURFTAB1
 70
     6
  9
$SURFTAB2
 70
     6
  9
$SURFTYPE
 70
     6
  9
$SURFU
 70
     6
  9
$SURFV
 70
     6
  9
$UCSBASE
  2

  9
$UCSNAME
  2

  9
$UCSORG
 10
0.0
 20
0.0
 30
0.0
  9
$UCSXDIR
 10
1.0
 20
0.0
 30
0.0
  9
$UCSYDIR
 10
0.0
 20
1.0
 30
0.0
  9
$UCSORTHOREF
  2

  9
$UCSORTHOVIEW
 70
     0
  9
$UCSORGTOP
 10
0.0
 20
0.0
 30
0.0
  9
$UCSORGBOTTOM
 10
0.0
 20
0.0
 30
0.0
  9
$UCSORGLEFT
 10
0.0
 20
0.0
 30
0.0
  9
$UCSORGRIGHT
 10
0.0
 20
0.0
 30
0.0
  9
$UCSORGFRONT
 10
0.0
 20
0.0
 30
0.0
  9
$UCSORGBACK
 10
0.0
 20
0.0
 30
0.0
  9
$PUCSBASE
  2

  9
$PUCSNAME
  2

  9
$PUCSORG
 10
0.0
 20
0.0
 30
0.0
  9
$PUCSXDIR
 10
1.0
 20
0.0
 30
0.0
  9
$PUCSYDIR
 10
0.0
 20
1.0
 30
0.0
  9
$PUCSORTHOREF
  2

  9
$PUCSORTHOVIEW
 70
     0
  9
$PUCSORGTOP
 10
0.0
 20
0.0
 30
0.0
  9
$PUCSORGBOTTOM
 10
0.0
 20
0.0
 30
0.0
  9
$PUCSORGLEFT
 10
0.0
 20
0.0
 30
0.0
  9
$PUCSORGRIGHT
 10
0.0
 20
0.0
 30
0.0
  9
$PUCSORGFRONT
 10
0.0
 20
0.0
 30
0.0
  9
$PUCSORGBACK
 10
0.0
 20
0.0
 30
0.0
  9
$USERI1
 70
     0
  9
$USERI2
 70
     0
  9
$USERI3
 70
     0
  9
$USERI4
 70
     0
  9
$USERI5
 70
     0
  9
$USERR1
 40
0.0
  9
$USERR2
 40
0.0
  9
$USERR3
 40
0.0
  9
$USERR4
 40
0.0
  9
$USERR5
 40
0.0
  9
$WORLDVIEW
 70
     1
  9
$SHADEDGE
 70
     3
  9
$SHADEDIF
 70
    70
  9
$TILEMODE
 70
     1
  9
$MAXACTVP
 70
    64
  9
$PINSBASE
 10
0.0
 20
0.0
 30
0.0
  9
$PLIMCHECK
 70
     0
  9
$PEXTMIN
 10
1.000000000000000E+20
 20
1.000000000000000E+20
 30
1.000000000000000E+20
  9
$PEXTMAX
 10
-1.000000000000000E+20
 20
-1.000000000000000E+20
 30
-1.000000000000000E+20
  9
$PLIMMIN
 10
0.0
 20
0.0
  9
$PLIMMAX
 10
12.0
 20
9.0
  9
$UNITMODE
 70
     0
  9
$VISRETAIN
 70
     1
  9
$PLINEGEN
 70
     0
  9
$PSLTSCALE
 70
     1
  9
$TREEDEPTH
 70
  3020
  9
$CMLSTYLE
  2
Standard
  9
$CMLJUST
 70
     0
  9
$CMLSCALE
 40
1.0
  9
$PROXYGRAPHICS
 70
     1
  9
$MEASUREMENT
 70
     0
  9
$CELWEIGHT
370
    -1
  9
$ENDCAPS
280
     0
  9
$JOINSTYLE
280
     0
  9
$LWDISPLAY
290
     0
  9
$INSUNITS
 70
     1
  9
$HYPERLINKBASE
  1

  9
$STYLESHEET
  1

  9
$XEDIT
290
     1
  9
$CEPSNTYPE
380
     0
  9
$PSTYLEMODE
290
     1
  9
$FINGERPRINTGUID
  2
{1A01B69A-E16E-4D4E-9C39-79F53FFDEC12}
  9
$VERSIONGUID
  2
{FAEB1C32-E019-11D5-929B-00C0DF256EC4}
  9
$EXTNAMES
290
     1
  9
$PSVPSCALE
 40
0.0
  9
$OLESTARTUP
290
     0
  9
$SORTENTS
280
   127
  9
$INDEXCTL
280
     0
  9
$HIDETEXT
280
     1
  9
$XCLIPFRAME
280
     2
  9
$HALOGAP
280
     0
  9
$OBSCOLOR
 70
   257
  9
$OBSLTYPE
280
     0
  9
$INTERSECTIONDISPLAY
280
     0
  9
$INTERSECTIONCOLOR
 70
   257
  9
$DIMASSOC
280
     2
  9
$PROJECTNAME
  1

  9
$CAMERADISPLAY
290
     0
  9
$LENSLENGTH
 40
50.0
  9
$CAMERAHEIGHT
 40
0.0
  9
$STEPSPERSEC
 40
2.0
  9
$STEPSIZE
 40
6.0
  9
$3DDWFPREC
 40
2.0
  9
$PSOLWIDTH
 40
0.25
  9
$PSOLHEIGHT
 40
4.0
  9
$LOFTANG1
 40
1.570796326794897
  9
$LOFTANG2
 40
1.570796326794897
  9
$LOFTMAG1
 40
0.0
  9
$LOFTMAG2
 40
0.0
  9
$LOFTPARAM
 70
     7
  9
$LOFTNORMALS
280
     1
  9
$LATITUDE
 40
37.795
  9
$LONGITUDE
 40
-122.394
  9
$NORTHDIRECTION
 40
0.0
  9
$TIMEZONE
 70
 -8000
  9
$LIGHTGLYPHDISPLAY
280
     1
  9
$TILEMODELIGHTSYNCH
280
     1
  9
$CMATERIAL
347
44
  9
$SOLIDHIST
280
     0
  9
$SHOWHIST
280
     1
  9
$DWFFRAME
280
     2
  9
$DGNFRAME
280
     2
  9
$REALWORLDSCALE
290
     1
  9
$INTERFERECOLOR
 62
   256
  9
$CSHADOW
280
     0
  9
$SHADOWPLANELOCATION
 40
0.0
  0
ENDSEC
  0
SECTION
  2
CLASSES
  0
CLASS
  1
ACDBDICTIONARYWDFLT
  2
AcDbDictionaryWithDefault
  3
ObjectDBX Classes
 90
        0
 91
        4
280
     0
281
     0
  0
CLASS
  1
VISUALSTYLE
  2
AcDbVisualStyle
  3
ObjectDBX Classes
 90
     4095
 91
        4
280
     0
281
     0
  0
CLASS
  1
MATERIAL
  2
AcDbMaterial
  3
ObjectDBX Classes
 90
     1153
 91
        4
280
     0
281
     0
  0
CLASS
  1
SCALE
  2
AcDbScale
  3
ObjectDBX Classes
 90
     1153
 91
        4
280
     0
281
     0
  0
CLASS
  1
TABLESTYLE
  2
AcDbTableStyle
  3
ObjectDBX Classes
 90
     4095
 91
        4
280
     0
281
     0
  0
CLASS
  1
MLEADERSTYLE
  2
AcDbMLeaderStyle
  3
ACDB_MLEADERSTYLE_CLASS
 90
     4095
 91
        4
280
     0
281
     0
  0
CLASS
  1
SUN
  2
AcDbSun
  3
SCENEOE
 90
     1153
 91
        4
280
     0
281
     0
  0
CLASS
  1
DICTIONARYVAR
  2
AcDbDictionaryVar
  3
ObjectDBX Classes
 90
        0
 91
        4
280
     0
281
     0
  0
CLASS
  1
CELLSTYLEMAP
  2
AcDbCellStyleMap
  3
ObjectDBX Classes
 90
     1152
 91
        4
280
     0
281
     0
  0
ENDSEC
  0
SECTION
  2
TABLES
  0
TABLE
  2
VPORT
  5
8
330
0
100
AcDbSymbolTable
 70
     1
  0
VPORT
  5
29
330
8
100
AcDbSymbolTableRecord
100
AcDbViewportTableRecord
  2
*Active
 70
     0
 10
0.0
 20
0.0
 11
1.0
 21
1.0
 12
-0.1452500000000008
 22
0.142398233501992
 13
0.0
 23
0.0
 14
0.5
 24
0.5
 15
0.5
 25
0.5
 16
0.0
 26
0.0
 36
1.0
 17
0.0
 27
0.0
 37
0.0
 40
5.900492396344064
 41
0.7138539832048262
 42
50.0
 43
0.0
 44
0.0
 50
0.0
 51
0.0
 71
     0
 72
   100
 73
     1
 74
     3
 75
     0
 76
     0
 77
     0
 78
     0
281
     0
 65
     1
110
0.0
120
0.0
130
0.0
111
1.0
121
0.0
131
0.0
112
0.0
122
1.0
132
0.0
 79
     0
146
0.0
348
2F
 60
     3
 61
     5
292
     1
282
     1
141
0.0
142
0.0
 63
   250
361
6D
  0
ENDTAB
  0
TABLE
  2
LTYPE
  5
5
330
0
100
AcDbSymbolTable
 70
     3
  0
LTYPE
  5
14
330
5
100
AcDbSymbolTableRecord
100
AcDbLinetypeTableRecord
  2
ByBlock
 70
     0
  3

 72
    65
 73
     0
 40
0.0
  0
LTYPE
  5
15
330
5
100
AcDbSymbolTableRecord
100
AcDbLinetypeTableRecord
  2
ByLayer
 70
     0
  3

 72
    65
 73
     0
 40
0.0
  0
LTYPE
  5
16
330
5
100
AcDbSymbolTableRecord
100
AcDbLinetypeTableRecord
  2
Continuous
 70
     0
  3
Solid line
 72
    65
 73
     0
 40
0.0
  0
LTYPE
  5
9B
330
5
100
AcDbSymbolTableRecord
100
AcDbLinetypeTableRecord
  2
Dashed
 70
     0
  3

 72
    65
 73
     2
 40
2.0
 49
1.0
 74
     0
 49
-1.0
 74
     0
  0
LTYPE
  5
1E6
330
5
100
AcDbSymbolTableRecord
100
AcDbLinetypeTableRecord
  2
Center
 70
     0
  3

 72
    65
 73
     4
 40
1.5
 49
0.45
 74
     0
 49
-0.5
 74
     0
 49
0.05
 74
     0
 49
-0.5
 74
     0
  0
ENDTAB
  0
TABLE
  2
LAYER
  5
2
330
0
100
AcDbSymbolTable
 70
     7
  0
LAYER
  5
10
330
2
100
AcDbSymbolTableRecord
100
AcDbLayerTableRecord
  2
0
 70
     0
 62
     7
  6
Continuous
370
    -3
390
F
347
46
348
0
  0
LAYER
  5
72
330
2
100
AcDbSymbolTableRecord
100
AcDbLayerTableRecord
  2
AM_6
 70
     0
 62
    -2
  6
Continuous
370
    35
390
F
347
46
348
0
  0
LAYER
  5
9C
330
2
100
AcDbSymbolTableRecord
100
AcDbLayerTableRecord
  2
AM_9
 70
     0
 62
     6
  6
Dashed
370
    25
390
F
347
46
348
0
  0
LAYER
  5
E0
330
2
100
AcDbSymbolTableRecord
100
AcDbLayerTableRecord
  2
AM_4
 70
     0
 62
     7
  6
Continuous
370
    50
390
F
347
46
348
0
  0
LAYER
  5
100
330
2
100
AcDbSymbolTableRecord
100
AcDbLayerTableRecord
  2
AM_5
 70
     0
 62
     3
  6
Continuous
370
    25
390
F
347
46
348
0
  0
LAYER
  5
1E7
330
2
100
AcDbSymbolTableRecord
100
AcDbLayerTableRecord
  2
AM_7
 70
     0
 62
     7
  6
Center
370
    25
390
F
347
46
348
0
  0
LAYER
  5
25D
330
2
100
AcDbSymbolTableRecord
100
AcDbLayerTableRecord
  2
ConnectionPoints
 70
     0
 62
     7
  6
Continuous
370
    50
390
F
347
46
348
0
  0
ENDTAB
  0
TABLE
  2
STYLE
  5
3
330
0
100
AcDbSymbolTable
 70
     1
  0
STYLE
  5
11
330
3
100
AcDbSymbolTableRecord
100
AcDbTextStyleTableRecord
  2
Standard
 70
     0
 40
0.0
 41
1.0
 50
0.0
 71
     0
 42
0.2
  3
txt
  4

  0
ENDTAB
  0
TABLE
  2
VIEW
  5
6
330
0
100
AcDbSymbolTable
 70
     0
  0
ENDTAB
  0
TABLE
  2
UCS
  5
7
330
0
100
AcDbSymbolTable
 70
     0
  0
ENDTAB
  0
TABLE
  2
APPID
  5
9
330
0
100
AcDbSymbolTable
 70
     1
  0
APPID
  5
12
330
9
100
AcDbSymbolTableRecord
100
AcDbRegAppTableRecord
  2
ACAD
 70
     0
  0
ENDTAB
  0
TABLE
  2
DIMSTYLE
  5
A
330
0
100
AcDbSymbolTable
 70
     1
100
AcDbDimStyleTable
  0
DIMSTYLE
105
27
330
A
100
AcDbSymbolTableRecord
100
AcDbDimStyleTableRecord
  2
Standard
 70
     0
178
     0
340
11
  0
ENDTAB
  0
TABLE
  2
BLOCK_RECORD
  5
1
330
0
100
AcDbSymbolTable
 70
     8
  0
BLOCK_RECORD
  5
1F
330
1
100
AcDbSymbolTableRecord
100
AcDbBlockTableRecord
  2
*Model_Space
340
22
 70
     0
280
     1
281
     0
  0
BLOCK_RECORD
  5
1B
330
1
100
AcDbSymbolTableRecord
100
AcDbBlockTableRecord
  2
*Paper_Space
340
1E
 70
     0
280
     1
281
     0
  0
BLOCK_RECORD
  5
23
330
1
100
AcDbSymbolTableRecord
100
AcDbBlockTableRecord
  2
*Paper_Space0
340
26
 70
     0
280
     1
281
     0
  0
BLOCK_RECORD
  5
6E
330
1
100
AcDbSymbolTableRecord
100
AcDbBlockTableRecord
  2
1_071222_2
340
0
102
{BLKREFS
331
6F
102
}
 70
     0
280
     1
281
     0
  0
BLOCK_RECORD
  5
8F
330
1
100
AcDbSymbolTableRecord
100
AcDbBlockTableRecord
  2
2_405015E_Inch_0_in_071222_2
340
0
102
{BLKREFS
331
90
102
}
 70
     0
280
     1
281
     0
  0
BLOCK_RECORD
  5
E5
330
1
100
AcDbSymbolTableRecord
100
AcDbBlockTableRecord
  2
3_ASME_B18_3_10_1_0_in_071222_2
340
0
102
{BLKREFS
331
E6
102
}
 70
     0
280
     1
281
     0
  0
BLOCK_RECORD
  5
10A
330
1
100
AcDbSymbolTableRecord
100
AcDbBlockTableRecord
  2
4_ASME_B18_3_10_2_0_in_071222_2
340
0
102
{BLKREFS
331
10B
102
}
 70
     0
280
     1
281
     0
  0
BLOCK_RECORD
  5
12E
330
1
100
AcDbSymbolTableRecord
100
AcDbBlockTableRecord
  2
5_070895LWE_0_in_071222_2
340
0
102
{BLKREFS
331
12F
102
}
 70
     0
280
     1
281
     0
  0
BLOCK_RECORD
  5
168
330
1
100
AcDbSymbolTableRecord
100
AcDbBlockTableRecord
  2
6_070895E_0_in_071222_2
340
0
102
{BLKREFS
331
169
102
}
 70
     0
280
     1
281
     0
  0
BLOCK_RECORD
  5
1F1
330
1
100
AcDbSymbolTableRecord
100
AcDbBlockTableRecord
  2
7_071222H_0_in_071222_2
340
0
102
{BLKREFS
331
1F2
102
}
 70
     0
280
     1
281
     0
  0
ENDTAB
  0
ENDSEC
  0
SECTION
  2
BLOCKS
  0
BLOCK
  5
20
330
1F
100
AcDbEntity
  8
0
100
AcDbBlockBegin
  2
*Model_Space
 70
     0
 10
0.0
 20
0.0
 30
0.0
  3
*Model_Space
  1

  0
ENDBLK
  5
21
330
1F
100
AcDbEntity
  8
0
100
AcDbBlockEnd
  0
BLOCK
  5
1C
330
1B
100
AcDbEntity
 67
     1
  8
0
100
AcDbBlockBegin
  2
*Paper_Space
 70
     0
 10
0.0
 20
0.0
 30
0.0
  3
*Paper_Space
  1

  0
ENDBLK
  5
1D
330
1B
100
AcDbEntity
 67
     1
  8
0
100
AcDbBlockEnd
  0
BLOCK
  5
24
330
23
100
AcDbEntity
  8
0
100
AcDbBlockBegin
  2
*Paper_Space0
 70
     0
 10
0.0
 20
0.0
 30
0.0
  3
*Paper_Space0
  1

  0
ENDBLK
  5
25
330
23
100
AcDbEntity
  8
0
100
AcDbBlockEnd
  0
BLOCK
  5
70
330
6E
100
AcDbEntity
  8
0
100
AcDbBlockBegin
  2
1_071222_2
 70
     2
 10
0.0
 20
0.0
 30
0.0
  3
1_071222_2
  1

  0
ATTDEF
  5
73
330
6E
100
AcDbEntity
  8
AM_6
100
AcDbText
 10
6.9195
 20
3.034778623785587
 30
0.0
 40
0.5
  1
Imperial - IP Pillow Block with Type E Dimensions 2-1/4 thru 7 inch 4-Bolt Trident Seal Expansion
100
AcDbAttributeDefinition
  3

  2
NN
 70
     8
280
     0
  0
ATTDEF
  5
74
330
6E
100
AcDbEntity
  8
AM_6
100
AcDbText
 10
6.9195
 20
2.534778623785587
 30
0.0
 40
0.5
  1
Imperial/E 4 Bolt Piliow Block Bearings
100
AcDbAttributeDefinition
  3

  2
NT
 70
     8
280
     0
  0
ATTDEF
  5
75
330
6E
100
AcDbEntity
  8
AM_6
100
AcDbText
 10
6.9195
 20
2.034778623785587
 30
0.0
 40
0.5
  1
071222
100
AcDbAttributeDefinition
  3

  2
NB
 70
     8
280
     0
  0
ATTDEF
  5
76
330
6E
100
AcDbEntity
  8
AM_6
100
AcDbText
 10
6.9195
 20
1.534778623785587
 30
0.0
 40
0.5
  1
$PN.
100
AcDbAttributeDefinition
  3

  2
NBSYN
 70
     8
280
     0
  0
ATTDEF
  5
77
330
6E
100
AcDbEntity
  8
AM_6
100
AcDbText
 10
6.9195
 20
1.034778623785587
 30
0.0
 40
0.5
  1
071222
100
AcDbAttributeDefinition
  3

  2
LINA
 70
     8
280
     0
  0
ATTDEF
  5
78
330
6E
100
AcDbEntity
  8
AM_6
100
AcDbText
 10
6.9195
 20
0.5347786237855869
 30
0.0
 40
0.5
  1
2-7/16
100
AcDbAttributeDefinition
  3

  2
SS
 70
     8
280
     0
  0
ATTDEF
  5
79
330
6E
100
AcDbEntity
  8
AM_6
100
AcDbText
 10
6.9195
 20
0.0347786237855869
 30
0.0
 40
0.5
  1
Expansion
100
AcDbAttributeDefinition
  3

  2
TYPE
 70
     8
280
     0
  0
ATTDEF
  5
7A
330
6E
100
AcDbEntity
  8
AM_6
100
AcDbText
 10
6.9195
 20
-0.4652213762144131
 30
0.0
 40
0.5
  1
071222
100
AcDbAttributeDefinition
  3

  2
PN
 70
     8
280
     0
  0
ATTDEF
  5
7B
330
6E
100
AcDbEntity
  8
AM_6
100
AcDbText
 10
6.9195
 20
-0.9652213762144131
 30
0.0
 40
0.5
  1
EP4B-IP-207RE
100
AcDbAttributeDefinition
  3

  2
DESCRIPTION
 70
     8
280
     0
  0
ATTDEF
  5
7C
330
6E
100
AcDbEntity
  8
AM_6
100
AcDbText
 10
6.9195
 20
-1.465221376214413
 30
0.0
 40
0.5
  1
Contact Seal
100
AcDbAttributeDefinition
  3

  2
ST
 70
     8
280
     0
  0
ATTDEF
  5
7D
330
6E
100
AcDbEntity
  8
AM_6
100
AcDbText
 10
6.9195
 20
-1.965221376214413
 30
0.0
 40
0.5
  1
3.42
100
AcDbAttributeDefinition
  3

  2
A
 70
     8
280
     0
  0
ATTDEF
  5
7E
330
6E
100
AcDbEntity
  8
AM_6
100
AcDbText
 10
6.9195
 20
-2.465221376214413
 30
0.0
 40
0.5
  1
10.5
100
AcDbAttributeDefinition
  3

  2
B
 70
     8
280
     0
  0
ATTDEF
  5
7F
330
6E
100
AcDbEntity
  8
AM_6
100
AcDbText
 10
6.9195
 20
-2.965221376214413
 30
0.0
 40
0.5
  1
3.49
100
AcDbAttributeDefinition
  3

  2
C
 70
     8
280
     0
  0
ATTDEF
  5
80
330
6E
100
AcDbEntity
  8
AM_6
100
AcDbText
 10
6.9195
 20
-3.465221376214413
 30
0.0
 40
0.5
  1
8.31
100
AcDbAttributeDefinition
  3

  2
DMIN
 70
     8
280
     0
  0
ATTDEF
  5
81
330
6E
100
AcDbEntity
  8
AM_6
100
AcDbText
 10
6.9195
 20
-3.965221376214413
 30
0.0
 40
0.5
  1
8.69
100
AcDbAttributeDefinition
  3

  2
DMAX
 70
     8
280
     0
  0
ATTDEF
  5
82
330
6E
100
AcDbEntity
  8
AM_6
100
AcDbText
 10
6.9195
 20
-4.465221376214413
 30
0.0
 40
0.5
  1
1.87
100
AcDbAttributeDefinition
  3

  2
E
 70
     8
280
     0
  0
ATTDEF
  5
83
330
6E
100
AcDbEntity
  8
AM_6
100
AcDbText
 10
6.9195
 20
-4.965221376214413
 30
0.0
 40
0.5
  1
5/8
100
AcDbAttributeDefinition
  3

  2
F
 70
     8
280
     0
  0
ATTDEF
  5
84
330
6E
100
AcDbEntity
  8
AM_6
100
AcDbText
 10
6.9195
 20
-5.465221376214413
 30
0.0
 40
0.5
  1
0.87
100
AcDbAttributeDefinition
  3

  2
G
 70
     8
280
     0
  0
ATTDEF
  5
85
330
6E
100
AcDbEntity
  8
AM_6
100
AcDbText
 10
6.9195
 20
-5.965221376214413
 30
0.0
 40
0.5
  1
1.63
100
AcDbAttributeDefinition
  3

  2
H
 70
     8
280
     0
  0
ATTDEF
  5
86
330
6E
100
AcDbEntity
  8
AM_6
100
AcDbText
 10
6.9195
 20
-6.465221376214413
 30
0.0
 40
0.5
  1
5.72
100
AcDbAttributeDefinition
  3

  2
J
 70
     8
280
     0
  0
ATTDEF
  5
87
330
6E
100
AcDbEntity
  8
AM_6
100
AcDbText
 10
6.9195
 20
-6.965221376214413
 30
0.0
 40
0.5
  1
3.88
100
AcDbAttributeDefinition
  3

  2
L
 70
     8
280
     0
  0
ATTDEF
  5
88
330
6E
100
AcDbEntity
  8
AM_6
100
AcDbText
 10
6.9195
 20
-7.465221376214413
 30
0.0
 40
0.5
  1
2.75
100
AcDbAttributeDefinition
  3

  2
M
 70
     8
280
     0
  0
ATTDEF
  5
89
330
6E
100
AcDbEntity
  8
AM_6
100
AcDbText
 10
6.9195
 20
-7.965221376214413
 30
0.0
 40
0.5
  1
1.21
100
AcDbAttributeDefinition
  3

  2
R
 70
     8
280
     0
  0
ATTDEF
  5
8A
330
6E
100
AcDbEntity
  8
AM_6
100
AcDbText
 10
6.9195
 20
-8.465221376214412
 30
0.0
 40
0.5
  1
2.21
100
AcDbAttributeDefinition
  3

  2
S
 70
     8
280
     0
  0
ATTDEF
  5
8B
330
6E
100
AcDbEntity
  8
AM_6
100
AcDbText
 10
6.9195
 20
-8.965221376214412
 30
0.0
 40
0.5
  1
0.25
100
AcDbAttributeDefinition
  3

  2
X
 70
     8
280
     0
  0
ATTDEF
  5
8C
330
6E
100
AcDbEntity
  8
AM_6
100
AcDbText
 10
6.9195
 20
-9.465221376214412
 30
0.0
 40
0.5
  1
0.025
100
AcDbAttributeDefinition
  3

  2
Y
 70
     8
280
     0
  0
ATTDEF
  5
8D
330
6E
100
AcDbEntity
  8
AM_6
100
AcDbText
 10
6.9195
 20
-9.965221376214412
 30
0.0
 40
0.5
  1
2.94
100
AcDbAttributeDefinition
  3

  2
Z
 70
     8
280
     0
  0
ATTDEF
  5
8E
330
6E
100
AcDbEntity
  8
AM_6
100
AcDbText
 10
6.9195
 20
-10.46522137621441
 30
0.0
 40
0.5
  1
baldor
100
AcDbAttributeDefinition
  3

  2
COMPANY
 70
     8
280
     0
  0
INSERT
  5
90
330
6E
100
AcDbEntity
  8
0
100
AcDbBlockReference
  2
2_405015E_Inch_0_in_071222_2
 10
0.0
 20
0.0
 30
0.0
  0
INSERT
  5
E6
330
6E
100
AcDbEntity
  8
0
100
AcDbBlockReference
  2
3_ASME_B18_3_10_1_0_in_071222_2
 10
0.0
 20
0.0
 30
0.0
  0
INSERT
  5
10B
330
6E
100
AcDbEntity
  8
0
100
AcDbBlockReference
  2
4_ASME_B18_3_10_2_0_in_071222_2
 10
0.0
 20
0.0
 30
0.0
  0
INSERT
  5
12F
330
6E
100
AcDbEntity
  8
0
100
AcDbBlockReference
  2
5_070895LWE_0_in_071222_2
 10
0.0
 20
0.0
 30
0.0
  0
INSERT
  5
169
330
6E
100
AcDbEntity
  8
0
100
AcDbBlockReference
  2
6_070895E_0_in_071222_2
 10
0.0
 20
0.0
 30
0.0
  0
INSERT
  5
1F2
330
6E
100
AcDbEntity
  8
0
100
AcDbBlockReference
  2
7_071222H_0_in_071222_2
 10
0.0
 20
0.0
 30
0.0
  0
ENDBLK
  5
71
330
6E
100
AcDbEntity
  8
0
100
AcDbBlockEnd
  0
BLOCK
  5
91
330
8F
100
AcDbEntity
  8
0
100
AcDbBlockBegin
  2
2_405015E_Inch_0_in_071222_2
 70
     2
 10
0.0
 20
0.0
 30
0.0
  3
2_405015E_Inch_0_in_071222_2
  1

  0
ATTDEF
  5
93
330
8F
100
AcDbEntity
  8
AM_6
100
AcDbText
 10
5.252590742770461
 20
3.034778623785587
 30
0.0
 40
0.5
  1
405015E -Inch
100
AcDbAttributeDefinition
  3

  2
NN
 70
     8
280
     0
  0
ATTDEF
  5
94
330
8F
100
AcDbEntity
  8
AM_6
100
AcDbText
 10
5.252590742770461
 20
2.534778623785587
 30
0.0
 40
0.5
  1
Grease Fitting
100
AcDbAttributeDefinition
  3

  2
NT
 70
     8
280
     0
  0
ATTDEF
  5
95
330
8F
100
AcDbEntity
  8
AM_6
100
AcDbText
 10
5.252590742770461
 20
2.034778623785587
 30
0.0
 40
0.5
  1
405015E-Inch
100
AcDbAttributeDefinition
  3

  2
NB
 70
     8
280
     0
  0
ATTDEF
  5
96
330
8F
100
AcDbEntity
  8
AM_6
100
AcDbText
 10
5.252590742770461
 20
1.534778623785587
 30
0.0
 40
0.5
  1
$MN.-Inch
100
AcDbAttributeDefinition
  3

  2
NBSYN
 70
     8
280
     0
  0
ATTDEF
  5
97
330
8F
100
AcDbEntity
  8
AM_6
100
AcDbText
 10
5.252590742770461
 20
1.034778623785587
 30
0.0
 40
0.5
  1
405015E
100
AcDbAttributeDefinition
  3

  2
LINA
 70
     8
280
     0
  0
ATTDEF
  5
98
330
8F
100
AcDbEntity
  8
AM_6
100
AcDbText
 10
5.252590742770461
 20
0.5347786237855869
 30
0.0
 40
0.5
  1
405015E
100
AcDbAttributeDefinition
  3

  2
MN
 70
     8
280
     0
  0
ATTDEF
  5
99
330
8F
100
AcDbEntity
  8
AM_6
100
AcDbText
 10
5.252590742770461
 20
0.0347786237855869
 30
0.0
 40
0.5
  1
1/8 x 27PTF
100
AcDbAttributeDefinition
  3

  2
T
 70
     8
280
     0
  0
ATTDEF
  5
9A
330
8F
100
AcDbEntity
  8
AM_6
100
AcDbText
 10
5.252590742770461
 20
-0.4652213762144131
 30
0.0
 40
0.5
  1
baldor
100
AcDbAttributeDefinition
  3

  2
COMPANY
 70
     8
280
     0
  0
LINE
  5
9D
330
8F
100
AcDbEntity
  8
AM_9
100
AcDbLine
 10
0.1262953713852305
 20
2.628072758308054
 30
0.0
 11
0.1262953713852305
 21
2.557175761306843
 31
0.0
  0
LINE
  5
9E
330
8F
100
AcDbEntity
  8
AM_9
100
AcDbLine
 10
-0.1262953713852308
 20
2.628072758308054
 30
0.0
 11
-0.1262953713852308
 21
2.557175761306843
 31
0.0
  0
LWPOLYLINE
  5
9F
330
8F
100
AcDbEntity
  8
AM_9
100
AcDbPolyline
 90
        4
 70
     0
 43
0.0
 10
-0.0000000000000001
 20
2.63592552999667
 10
-0.048399816055899
 20
2.634697886404223
 10
-0.0967996321117979
 20
2.631177621482192
 10
-0.1262953713852308
 20
2.628072758308054
  0
LWPOLYLINE
  5
A0
330
8F
100
AcDbEntity
  8
AM_9
100
AcDbPolyline
 90
        3
 70
     0
 43
0.0
 10
0.1262953713852305
 20
2.628072758308054
 10
0.0634316146914366
 20
2.633834490052228
 10
-0.0000000000000001
 20
2.63592552999667
  0
LWPOLYLINE
  5
A1
330
8F
100
AcDbEntity
  8
AM_9
100
AcDbPolyline
 90
        3
 70
     0
 43
0.0
 10
0.1894430570778459
 20
2.69061302999667
 10
0.1578692142315382
 20
2.661196551435901
 10
0.1262953713852305
 20
2.628072758308054
  0
LWPOLYLINE
  5
A2
330
8F
100
AcDbEntity
  8
AM_9
100
AcDbPolyline
 90
        3
 70
     0
 43
0.0
 10
-0.1262953713852308
 20
2.628072758308054
 10
-0.1577272497321277
 20
2.661055295189303
 10
-0.1894430570778461
 20
2.69061302999667
  0
LWPOLYLINE
  5
A3
330
8F
100
AcDbEntity
  8
AM_9
100
AcDbPolyline
 90
        3
 70
     0
 43
0.0
 10
0.1262953713852305
 20
2.557175761306843
 10
0.1577272497321275
 20
2.578634834699744
 10
0.1894430570778459
 20
2.604010489618227
  0
LWPOLYLINE
  5
A4
330
8F
100
AcDbEntity
  8
AM_9
100
AcDbPolyline
 90
        3
 70
     0
 43
0.0
 10
0.0263774971886504
 20
2.549690696749063
 10
0.0631476856926152
 20
2.551395718178996
 10
0.1262953713852305
 20
2.557175761306843
  0
LINE
  5
A5
330
8F
100
AcDbEntity
  8
AM_9
100
AcDbLine
 10
-0.0000000000000001
 20
2.549322989618227
 30
0.0
 11
0.0263774971886504
 21
2.549690696749063
 31
0.0
  0
LWPOLYLINE
  5
A6
330
8F
100
AcDbEntity
  8
AM_9
100
AcDbPolyline
 90
        3
 70
     0
 43
0.0
 10
-0.1894430570778461
 20
2.604010489618227
 10
-0.1578692142315384
 20
2.578739468178996
 10
-0.1262953713852308
 20
2.557175761306843
  0
LWPOLYLINE
  5
A7
330
8F
100
AcDbEntity
  8
AM_9
100
AcDbPolyline
 90
        4
 70
     0
 43
0.0
 10
-0.1262953713852308
 20
2.557175761306843
 10
-0.0967996321117979
 20
2.554070898132705
 10
-0.0485424412477545
 20
2.55055779309816
 10
-0.0000000000000001
 20
2.549322989618227
  0
ELLIPSE
  5
A8
330
8F
100
AcDbEntity
  8
AM_9
100
AcDbEllipse
 10
0.0000000000000001
 20
2.983457516037391
 30
0.0
 11
0.1026779019331873
 21
0.0
 31
0.0
210
0.0
220
0.0
230
1.0
 40
0.4999999999999884
 41
2.90615904904823
 42
6.283185307179586
  0
LINE
  5
A9
330
8F
100
AcDbEntity
  8
AM_9
100
AcDbLine
 10
-0.1120472424694879
 20
2.97
 30
0.0
 11
-0.131275793898522
 21
2.929920847626214
 31
0.0
  0
LINE
  5
AA
330
8F
100
AcDbEntity
  8
AM_9
100
AcDbLine
 10
0.1312757938985218
 20
2.929920847626214
 30
0.0
 11
0.1120472424694876
 21
2.97
 31
0.0
  0
ELLIPSE
  5
AB
330
8F
100
AcDbEntity
  8
AM_9
100
AcDbEllipse
 10
0.0000000000000071
 20
2.98345751603736
 30
0.0
 11
0.1026779019331803
 21
0.0
 31
0.0
210
0.0
220
0.0
230
1.0
 40
0.5000000000000312
 41
0.0
 42
0.2354336045421568
  0
ELLIPSE
  5
AC
330
8F
100
AcDbEntity
  8
AM_9
100
AcDbEllipse
 10
0.0000000000000018
 20
2.914175483734634
 30
0.0
 11
0.1349999999999978
 21
0.0
 31
0.0
210
0.0
220
0.0
230
1.0
 40
0.5000000000000141
 41
0.2354336045415817
 42
0.9738035219166198
  0
LINE
  5
AD
330
8F
100
AcDbEntity
  8
AM_9
100
AcDbLine
 10
0.1049999999999999
 20
2.836852842980926
 30
0.0
 11
0.1049999999999999
 21
2.86221395950757
 31
0.0
  0
LINE
  5
AE
330
8F
100
AcDbEntity
  8
AM_9
100
AcDbLine
 10
-0.1050000000000001
 20
2.86221395950757
 30
0.0
 11
-0.1050000000000001
 21
2.836852842980927
 31
0.0
  0
ELLIPSE
  5
AF
330
8F
100
AcDbEntity
  8
AM_9
100
AcDbEllipse
 10
-0.0000000000000042
 20
2.862213959507268
 30
0.0
 11
0.1049999999999959
 21
0.0
 31
0.0
210
0.0
220
0.0
230
1.0
 40
0.5000000000000682
 41
3.07006789757061
 42
3.141592653589793
  0
ELLIPSE
  5
B0
330
8F
100
AcDbEntity
  8
AM_9
100
AcDbEllipse
 10
0.0000000000000036
 20
2.836233197394065
 30
0.0
 11
0.1050000000000038
 21
0.0
 31
0.0
210
0.0
220
0.0
230
1.0
 40
0.4999999999999588
 41
2.891559760491506
 42
3.141592653589793
  0
LINE
  5
B1
330
8F
100
AcDbEntity
  8
AM_9
100
AcDbLine
 10
0.1005298463144154
 20
2.847058514941342
 30
0.0
 11
0.1292526595471055
 21
2.894689912149486
 31
0.0
  0
LINE
  5
B2
330
8F
100
AcDbEntity
  8
AM_9
100
AcDbLine
 10
-0.1292526595471058
 20
2.894689912149486
 30
0.0
 11
-0.1005298463144156
 21
2.847058514941342
 31
0.0
  0
ELLIPSE
  5
B3
330
8F
100
AcDbEntity
  8
AM_9
100
AcDbEllipse
 10
-0.0000000000000001
 20
2.914175483734637
 30
0.0
 11
0.1350000000000001
 21
0.0
 31
0.0
210
0.0
220
0.0
230
1.0
 40
0.5000000000000053
 41
2.167789131673191
 42
6.518618911721136
  0
ELLIPSE
  5
B4
330
8F
100
AcDbEntity
  8
AM_9
100
AcDbEllipse
 10
-0.0000000000000001
 20
2.86221395950757
 30
0.0
 11
0.1050000000000003
 21
0.0
 31
0.0
210
0.0
220
0.0
230
1.0
 40
0.5000000000000004
 41
3.141592653589793
 42
9.353253204755944
  0
LWPOLYLINE
  5
B5
330
8F
100
AcDbEntity
  8
AM_9
100
AcDbPolyline
 90
        3
 70
     0
 43
0.0
 10
-0.1894430570778461
 20
2.69061302999667
 10
-0.2210168999241537
 20
2.715884051435901
 10
-0.2525907427704613
 20
2.737447758308054
  0
LWPOLYLINE
  5
B6
330
8F
100
AcDbEntity
  8
AM_9
100
AcDbPolyline
 90
        3
 70
     0
 43
0.0
 10
0.2525907427704611
 20
2.737447758308054
 10
0.2211588644235642
 20
2.715988684915153
 10
0.1894430570778459
 20
2.69061302999667
  0
ELLIPSE
  5
B7
330
8F
100
AcDbEntity
  8
AM_9
100
AcDbEllipse
 10
-0.0000000000000001
 20
2.836233197394037
 30
0.0
 11
0.1049999999999999
 21
0.0
 31
0.0
210
0.0
220
0.0
230
1.0
 40
0.4999999999999981
 41
3.141592653589793
 42
4.532747537294667
  0
LINE
  5
B8
330
8F
100
AcDbEntity
  8
AM_9
100
AcDbLine
 10
-0.1017349497468792
 20
2.849223578450803
 30
0.0
 11
-0.1151252948555659
 21
2.823006755388172
 31
0.0
  0
LINE
  5
B9
330
8F
100
AcDbEntity
  8
AM_9
100
AcDbLine
 10
0.1151252948555657
 20
2.823006755388172
 30
0.0
 11
0.101734949746879
 21
2.849223578450803
 31
0.0
  0
ELLIPSE
  5
BA
330
8F
100
AcDbEntity
  8
AM_9
100
AcDbEllipse
 10
-0.0000000000000009
 20
2.836233197394034
 30
0.0
 11
0.1049999999999991
 21
0.0
 31
0.0
210
0.0
220
0.0
230
1.0
 40
0.5000000000000192
 41
4.905675239521848
 42
9.174745067670537
  0
ELLIPSE
  5
BB
330
8F
100
AcDbEntity
  8
AM_9
100
AcDbEllipse
 10
-0.0000000000000039
 20
2.808306581522959
 30
0.0
 11
0.1188200907348935
 21
1.770557325108252E-9
 31
0.0
210
0.0
220
0.0
230
1.0
 40
0.5000000000000497
 41
2.323325435747849
 42
2.891559732056916
  0
ELLIPSE
  5
BC
330
8F
100
AcDbEntity
  8
AM_9
100
AcDbEllipse
 10
0.0000000000000004
 20
2.74530052999667
 30
0.0
 11
0.2187499999999995
 21
0.0
 31
0.0
210
0.0
220
0.0
230
1.0
 40
0.5000000000000032
 41
5.759586531581292
 42
7.853981633974483
  0
ELLIPSE
  5
BD
330
8F
100
AcDbEntity
  8
AM_9
100
AcDbEllipse
 10
-0.0000000000000003
 20
2.74530052999667
 30
0.0
 11
0.2187499999999998
 21
0.0
 31
0.0
210
0.0
220
0.0
230
1.0
 40
0.5000000000000026
 41
2.617993877991486
 42
5.759586531581297
  0
LINE
  5
BE
330
8F
100
AcDbEntity
  8
AM_9
100
AcDbLine
 10
-0.0976523208201059
 20
2.842152697255419
 30
0.0
 11
-0.1417971541629019
 21
2.810311189486712
 31
0.0
  0
LINE
  5
BF
330
8F
100
AcDbEntity
  8
AM_9
100
AcDbLine
 10
0.1417971541629017
 20
2.810311189486712
 30
0.0
 11
0.0976523208201057
 21
2.842152697255419
 31
0.0
  0
ELLIPSE
  5
C0
330
8F
100
AcDbEntity
  8
AM_9
100
AcDbEllipse
 10
0.0000000000000176
 20
2.808306581522965
 30
0.0
 11
0.1188200907348741
 21
0.0
 31
0.0
210
0.0
220
0.0
230
1.0
 40
0.5000000000000941
 41
2.891559760490936
 42
8.606510760819983
  0
LWPOLYLINE
  5
C1
330
8F
100
AcDbEntity
  8
AM_9
100
AcDbPolyline
 90
        3
 70
     0
 43
0.0
 10
0.1894430570778459
 20
2.604010489618227
 10
0.2210168999241535
 20
2.633426968178996
 10
0.2525907427704611
 20
2.666550761306843
  0
LWPOLYLINE
  5
C2
330
8F
100
AcDbEntity
  8
AM_9
100
AcDbPolyline
 90
        3
 70
     0
 43
0.0
 10
-0.2525907427704613
 20
2.666550761306843
 10
-0.2211588644235644
 20
2.633568224425594
 10
-0.1894430570778461
 20
2.604010489618227
  0
ELLIPSE
  5
C3
330
8F
100
AcDbEntity
  8
AM_9
100
AcDbEllipse
 10
-0.0000000000000001
 20
2.74530052999667
 30
0.0
 11
-0.21375
 21
3.185123231361761E-9
 31
0.0
210
0.0
220
0.0
230
1.0
 40
0.5000000000000003
 41
0.0
 42
6.283185307179586
  0
ELLIPSE
  5
C4
330
8F
100
AcDbEntity
  8
AM_9
100
AcDbEllipse
 10
0.0000000000000003
 20
2.74530052999667
 30
0.0
 11
0.2187500000000008
 21
0.0
 31
0.0
210
0.0
220
0.0
230
1.0
 40
0.5000000000000001
 41
1.570796326794897
 42
2.617993877991493
  0
LWPOLYLINE
  5
C5
330
8F
100
AcDbEntity
  8
AM_9
100
AcDbPolyline
 90
        3
 70
     0
 43
0.0
 10
-0.0000000000000001
 20
2.85467552999667
 10
0.0631476856926152
 20
2.852602801435901
 10
0.1262953713852306
 20
2.846822758308055
  0
LWPOLYLINE
  5
C6
330
8F
100
AcDbEntity
  8
AM_9
100
AcDbPolyline
 90
        4
 70
     0
 43
0.0
 10
-0.1262953713852308
 20
2.846822758308055
 10
-0.0967996321117979
 20
2.849927621482192
 10
-0.0485424412477545
 20
2.853440726516737
 10
-0.0000000000000001
 20
2.85467552999667
  0
LWPOLYLINE
  5
C7
330
8F
100
AcDbEntity
  8
AM_9
100
AcDbPolyline
 90
        4
 70
     0
 43
0.0
 10
-0.0000000000000001
 20
2.768072989618227
 10
-0.048399816055899
 20
2.769300633210675
 10
-0.0967996321117979
 20
2.772820898132705
 10
-0.1262953713852308
 20
2.775925761306843
  0
LWPOLYLINE
  5
C8
330
8F
100
AcDbEntity
  8
AM_9
100
AcDbPolyline
 90
        3
 70
     0
 43
0.0
 10
0.1262953713852306
 20
2.775925761306843
 10
0.0634316146914366
 20
2.770164029562669
 10
-0.0000000000000001
 20
2.768072989618227
  0
ELLIPSE
  5
C9
330
8F
100
AcDbEntity
  8
AM_9
100
AcDbEllipse
 10
-0.0000000000000006
 20
2.658697989618227
 30
0.0
 11
0.2187500000000009
 21
0.0
 31
0.0
210
0.0
220
0.0
230
1.0
 40
0.4999999999999979
 41
4.71238898038469
 42
8.901179185171078
  0
ELLIPSE
  5
CA
330
8F
100
AcDbEntity
  8
AM_9
100
AcDbEllipse
 10
-0.0000000000000004
 20
2.658697989618227
 30
0.0
 11
0.2187499999999997
 21
0.0
 31
0.0
210
0.0
220
0.0
230
1.0
 40
0.4999999999999988
 41
2.617993877991495
 42
4.71238898038469
  0
LINE
  5
CB
330
8F
100
AcDbEntity
  8
AM_9
100
AcDbLine
 10
-0.1262953713852308
 20
2.846822758308055
 30
0.0
 11
-0.1262953713852308
 21
2.775925761306843
 31
0.0
  0
LWPOLYLINE
  5
CC
330
8F
100
AcDbEntity
  8
AM_9
100
AcDbPolyline
 90
        3
 70
     0
 43
0.0
 10
-0.1894430570778461
 20
2.799988029996671
 10
-0.1578692142315384
 20
2.825259051435901
 10
-0.1262953713852308
 20
2.846822758308055
  0
LWPOLYLINE
  5
CD
330
8F
100
AcDbEntity
  8
AM_9
100
AcDbPolyline
 90
        3
 70
     0
 43
0.0
 10
-0.2525907427704613
 20
2.737447758308054
 10
-0.2211588644235644
 20
2.770430295189303
 10
-0.1894430570778461
 20
2.799988029996671
  0
LINE
  5
CE
330
8F
100
AcDbEntity
  8
AM_9
100
AcDbLine
 10
-0.2525907427704613
 20
2.737447758308054
 30
0.0
 11
-0.2525907427704613
 21
2.666550761306843
 31
0.0
  0
LWPOLYLINE
  5
CF
330
8F
100
AcDbEntity
  8
AM_9
100
AcDbPolyline
 90
        3
 70
     0
 43
0.0
 10
-0.1894430570778461
 20
2.713385489618227
 10
-0.2210168999241537
 20
2.688114468178996
 10
-0.2525907427704613
 20
2.666550761306843
  0
LWPOLYLINE
  5
D0
330
8F
100
AcDbEntity
  8
AM_9
100
AcDbPolyline
 90
        3
 70
     0
 43
0.0
 10
-0.1262953713852308
 20
2.775925761306843
 10
-0.1577272497321277
 20
2.742943224425594
 10
-0.1894430570778461
 20
2.713385489618227
  0
LINE
  5
D1
330
8F
100
AcDbEntity
  8
AM_9
100
AcDbLine
 10
0.2525907427704611
 20
2.737447758308054
 30
0.0
 11
0.2525907427704611
 21
2.666550761306843
 31
0.0
  0
LWPOLYLINE
  5
D2
330
8F
100
AcDbEntity
  8
AM_9
100
AcDbPolyline
 90
        3
 70
     0
 43
0.0
 10
0.1894430570778459
 20
2.799988029996671
 10
0.2210168999241534
 20
2.770571551435901
 10
0.2525907427704611
 20
2.737447758308054
  0
LWPOLYLINE
  5
D3
330
8F
100
AcDbEntity
  8
AM_9
100
AcDbPolyline
 90
        3
 70
     0
 43
0.0
 10
0.1262953713852306
 20
2.846822758308055
 10
0.1577272497321275
 20
2.825363684915154
 10
0.1894430570778459
 20
2.799988029996671
  0
LINE
  5
D4
330
8F
100
AcDbEntity
  8
AM_9
100
AcDbLine
 10
0.1262953713852306
 20
2.846822758308055
 30
0.0
 11
0.1262953713852306
 21
2.775925761306843
 31
0.0
  0
LWPOLYLINE
  5
D5
330
8F
100
AcDbEntity
  8
AM_9
100
AcDbPolyline
 90
        3
 70
     0
 43
0.0
 10
0.1894430570778459
 20
2.713385489618227
 10
0.1578692142315382
 20
2.742801968178997
 10
0.1262953713852306
 20
2.775925761306843
  0
LWPOLYLINE
  5
D6
330
8F
100
AcDbEntity
  8
AM_9
100
AcDbPolyline
 90
        3
 70
     0
 43
0.0
 10
0.2525907427704611
 20
2.666550761306843
 10
0.2211588644235642
 20
2.688009834699744
 10
0.1894430570778459
 20
2.713385489618227
  0
LINE
  5
D7
330
8F
100
AcDbEntity
  8
AM_9
100
AcDbLine
 10
0.1985852938306407
 20
2.459205328931783
 30
0.0
 11
0.2057184028850726
 21
2.656841788840597
 31
0.0
  0
LINE
  5
D8
330
8F
100
AcDbEntity
  8
AM_9
100
AcDbLine
 10
-0.2057184028850728
 20
2.656841788840597
 30
0.0
 11
-0.1985852938306409
 21
2.459205328931783
 31
0.0
  0
ELLIPSE
  5
D9
330
8F
100
AcDbEntity
  8
AM_9
100
AcDbEllipse
 10
0.0
 20
2.460997167540602
 30
0.0
 11
0.1986176267812153
 21
0.0
 31
0.0
210
0.0
220
0.0
230
1.0
 40
0.4999999999999455
 41
3.757072362260232
 42
9.442822037473833
  0
LINE
  5
DA
330
8F
100
AcDbEntity
  8
AM_9
100
AcDbLine
 10
0.1321931418159852
 20
2.382463924113131
 30
0.0
 11
0.1621706131788414
 21
2.403661197396632
 31
0.0
  0
LINE
  5
DB
330
8F
100
AcDbEntity
  8
AM_9
100
AcDbLine
 10
-0.1621706131788417
 20
2.403661197396632
 30
0.0
 11
-0.1321931418159854
 21
2.382463924113131
 31
0.0
  0
ELLIPSE
  5
DC
330
8F
100
AcDbEntity
  8
AM_9
100
AcDbEllipse
 10
-0.0000000000000001
 20
2.460997167540607
 30
0.0
 11
0.1986176267812154
 21
0.0
 31
0.0
210
0.0
220
0.0
230
1.0
 40
0.5000000000000101
 41
3.159636730294297
 42
3.757072362260211
  0
ELLIPSE
  5
DD
330
8F
100
AcDbEntity
  8
AM_9
100
AcDbEllipse
 10
-0.0000000000000002
 20
2.761164555284641
 30
0.0
 11
0.1725340532830153
 21
0.0
 31
0.0
210
0.0
220
0.0
230
1.0
 40
0.500000000000002
 41
0.0
 42
6.283185307179586
  0
ELLIPSE
  5
DE
330
8F
100
AcDbEntity
  8
AM_9
100
AcDbEllipse
 10
-0.0000000000010054
 20
2.658697989617882
 30
0.0
 11
0.2057518972240749
 21
0.0
 31
0.0
210
0.0
220
0.0
230
1.0
 40
0.5000000000000258
 41
0.0
 42
6.283185307179586
  0
ELLIPSE
  5
DF
330
8F
100
AcDbEntity
  8
AM_9
100
AcDbEllipse
 10
-0.0000000000000013
 20
2.429201257615355
 30
0.0
 11
0.1619028724722702
 21
0.0
 31
0.0
210
0.0
220
0.0
230
1.0
 40
0.5000000000000077
 41
0.0
 42
6.283185307179586
  0
LINE
  5
E1
330
8F
100
AcDbEntity
  8
AM_4
100
AcDbLine
 10
-0.0998453562378799
 20
2.995433078478589
 30
0.0
 11
-0.1120472424694879
 21
2.97
 31
0.0
  0
LINE
  5
E2
330
8F
100
AcDbEntity
  8
AM_4
100
AcDbLine
 10
0.1120472424694876
 20
2.97
 30
0.0
 11
0.0998453562378796
 21
2.995433078478589
 31
0.0
  0
ELLIPSE
  5
E3
330
8F
100
AcDbEntity
  8
AM_4
100
AcDbEllipse
 10
-0.0000000000000001
 20
2.983457516037391
 30
0.0
 11
0.1026779019331874
 21
0.0
 31
0.0
210
0.0
220
0.0
230
1.0
 40
0.4999999999999925
 41
0.2354336045415613
 42
2.906159049048232
  0
ELLIPSE
  5
E4
330
8F
100
AcDbEntity
  8
AM_4
100
AcDbEllipse
 10
-0.0000000000000001
 20
2.914175483734637
 30
0.0
 11
0.1349999999999991
 21
0.0
 31
0.0
210
0.0
220
0.0
230
1.0
 40
0.5000000000000024
 41
0.9738035219166026
 42
2.167789131673191
  0
ENDBLK
  5
92
330
8F
100
AcDbEntity
  8
0
100
AcDbBlockEnd
  0
BLOCK
  5
E7
330
E5
100
AcDbEntity
  8
0
100
AcDbBlockBegin
  2
3_ASME_B18_3_10_1_0_in_071222_2
 70
     2
 10
0.0
 20
0.0
 30
0.0
  3
3_ASME_B18_3_10_1_0_in_071222_2
  1

  0
ATTDEF
  5
E9
330
E5
100
AcDbEntity
  8
AM_6
100
AcDbText
 10
4.041333333333333
 20
-1.465333333333334
 30
0.0
 40
0.5
  1
ANSI/ASME B18.3-1998
100
AcDbAttributeDefinition
  3

  2
NN
 70
     8
280
     0
  0
ATTDEF
  5
EA
330
E5
100
AcDbEntity
  8
AM_6
100
AcDbText
 10
4.041333333333333
 20
-1.965333333333334
 30
0.0
 40
0.5
  1
Socket Button Head Cap Screws
100
AcDbAttributeDefinition
  3

  2
NT
 70
     8
280
     0
  0
ATTDEF
  5
EB
330
E5
100
AcDbEntity
  8
AM_6
100
AcDbText
 10
4.041333333333333
 20
-2.465333333333334
 30
0.0
 40
0.5
  1
ASME B18.3-10
100
AcDbAttributeDefinition
  3

  2
NB
 70
     8
280
     0
  0
ATTDEF
  5
EC
330
E5
100
AcDbEntity
  8
AM_6
100
AcDbText
 10
4.041333333333333
 20
-2.965333333333334
 30
0.0
 40
0.5
  1
ASME B18.3-$NS.
100
AcDbAttributeDefinition
  3

  2
NBSYN
 70
     8
280
     0
  0
ATTDEF
  5
ED
330
E5
100
AcDbEntity
  8
AM_6
100
AcDbText
 10
4.041333333333333
 20
-3.465333333333334
 30
0.0
 40
0.5
  1
ASME B18.3-10
100
AcDbAttributeDefinition
  3

  2
LINA
 70
     8
280
     0
  0
ATTDEF
  5
EE
330
E5
100
AcDbEntity
  8
AM_6
100
AcDbText
 10
4.041333333333333
 20
-3.965333333333334
 30
0.0
 40
0.5
  1
10
100
AcDbAttributeDefinition
  3

  2
NS
 70
     8
280
     0
  0
ATTDEF
  5
EF
330
E5
100
AcDbEntity
  8
AM_6
100
AcDbText
 10
4.041333333333333
 20
-4.465333333333334
 30
0.0
 40
0.5
  1
0.361
100
AcDbAttributeDefinition
  3

  2
A
 70
     8
280
     0
  0
ATTDEF
  5
F0
330
E5
100
AcDbEntity
  8
AM_6
100
AcDbText
 10
4.041333333333333
 20
-4.965333333333334
 30
0.0
 40
0.5
  1
0.101
100
AcDbAttributeDefinition
  3

  2
H
 70
     8
280
     0
  0
ATTDEF
  5
F1
330
E5
100
AcDbEntity
  8
AM_6
100
AcDbText
 10
4.041333333333333
 20
-5.465333333333334
 30
0.0
 40
0.5
  1
0.800
100
AcDbAttributeDefinition
  3

  2
L
 70
     8
280
     0
  0
ATTDEF
  5
F2
330
E5
100
AcDbEntity
  8
AM_6
100
AcDbText
 10
4.041333333333333
 20
-5.965333333333334
 30
0.0
 40
0.5
  1
0.020
100
AcDbAttributeDefinition
  3

  2
S
 70
     8
280
     0
  0
ATTDEF
  5
F3
330
E5
100
AcDbEntity
  8
AM_6
100
AcDbText
 10
4.041333333333333
 20
-6.465333333333334
 30
0.0
 40
0.5
  1
0.125000
100
AcDbAttributeDefinition
  3

  2
J
 70
     8
280
     0
  0
ATTDEF
  5
F4
330
E5
100
AcDbEntity
  8
AM_6
100
AcDbText
 10
4.041333333333333
 20
-6.965333333333334
 30
0.0
 40
0.5
  1
baldor
100
AcDbAttributeDefinition
  3

  2
COMPANY
 70
     8
280
     0
  0
LINE
  5
F5
330
E5
100
AcDbEntity
  8
AM_9
100
AcDbLine
 10
-1.798666666666667
 20
-1.57366454968463
 30
0.0
 11
-1.859666666666667
 21
-1.57366454968463
 31
0.0
  0
LINE
  5
F6
330
E5
100
AcDbEntity
  8
AM_9
100
AcDbLine
 10
-1.798666666666667
 20
-1.718002116982037
 30
0.0
 11
-1.859666666666667
 21
-1.718002116982037
 31
0.0
  0
LINE
  5
F7
330
E5
100
AcDbEntity
  8
AM_9
100
AcDbLine
 10
-1.798666666666667
 20
-1.609748941508982
 30
0.0
 11
-1.859666666666667
 21
-1.609748941508982
 31
0.0
  0
LINE
  5
F8
330
E5
100
AcDbEntity
  8
AM_9
100
AcDbLine
 10
-1.798666666666667
 20
-1.57366454968463
 30
0.0
 11
-1.798666666666667
 21
-1.718002116982037
 31
0.0
  0
LINE
  5
F9
330
E5
100
AcDbEntity
  8
AM_9
100
AcDbLine
 10
-1.798666666666667
 20
-1.681917725157685
 30
0.0
 11
-1.859666666666667
 21
-1.681917725157685
 31
0.0
  0
LINE
  5
FA
330
E5
100
AcDbEntity
  8
AM_9
100
AcDbLine
 10
-0.9586666666666664
 20
-1.569433333333333
 30
0.0
 11
-0.9586666666666664
 21
-1.722233333333334
 31
0.0
  0
LINE
  5
FB
330
E5
100
AcDbEntity
  8
AM_9
100
AcDbLine
 10
-0.9586666666666664
 20
-1.569433333333333
 30
0.0
 11
-0.9772666666666664
 21
-1.550833333333334
 31
0.0
  0
LINE
  5
FC
330
E5
100
AcDbEntity
  8
AM_9
100
AcDbLine
 10
-0.9772666666666664
 20
-1.740833333333333
 30
0.0
 11
-0.9586666666666664
 21
-1.722233333333334
 31
0.0
  0
LINE
  5
FD
330
E5
100
AcDbEntity
  8
AM_9
100
AcDbLine
 10
-0.9772666666666664
 20
-1.550833333333334
 30
0.0
 11
-0.9772666666666664
 21
-1.740833333333333
 31
0.0
  0
LINE
  5
FE
330
E5
100
AcDbEntity
  8
AM_9
100
AcDbLine
 10
-1.758666666666666
 20
-1.740833333333333
 30
0.0
 11
-0.9772666666666664
 21
-1.740833333333333
 31
0.0
  0
LINE
  5
FF
330
E5
100
AcDbEntity
  8
AM_9
100
AcDbLine
 10
-0.9772666666666664
 20
-1.550833333333334
 30
0.0
 11
-1.758666666666666
 21
-1.550833333333334
 31
0.0
  0
LINE
  5
101
330
E5
100
AcDbEntity
  8
AM_5
100
AcDbLine
 10
-1.678666666666667
 20
-1.722233333333334
 30
0.0
 11
-1.710882811687448
 21
-1.740833333333333
 31
0.0
  0
LINE
  5
102
330
E5
100
AcDbEntity
  8
AM_5
100
AcDbLine
 10
-1.678666666666667
 20
-1.550833333333332
 30
0.0
 11
-1.678666666666667
 21
-1.740833333333331
 31
0.0
  0
LINE
  5
103
330
E5
100
AcDbEntity
  8
AM_5
100
AcDbLine
 10
-1.678666666666667
 20
-1.569433333333333
 30
0.0
 11
-1.710882811687449
 21
-1.550833333333333
 31
0.0
  0
LINE
  5
104
330
E5
100
AcDbEntity
  8
AM_4
100
AcDbLine
 10
-1.859666666666667
 20
-1.546333333333333
 30
0.0
 11
-1.859666666666667
 21
-1.745333333333334
 31
0.0
  0
ARC
  5
105
330
E5
100
AcDbEntity
  8
AM_4
100
AcDbCircle
 10
-1.778666666666666
 20
-1.745333333333333
 30
0.0
 40
0.0810000000000008
100
AcDbArc
 50
180.0
 51
270.0
  0
ARC
  5
106
330
E5
100
AcDbEntity
  8
AM_4
100
AcDbCircle
 10
-1.778666666666666
 20
-1.546333333333334
 30
0.0
 40
0.0810000000000008
100
AcDbArc
 50
90.0
 51
180.0
  0
LINE
  5
107
330
E5
100
AcDbEntity
  8
AM_4
100
AcDbLine
 10
-1.778666666666667
 20
-1.465333333333334
 30
0.0
 11
-1.778666666666667
 21
-1.826333333333333
 31
0.0
  0
LINE
  5
108
330
E5
100
AcDbEntity
  8
AM_4
100
AcDbLine
 10
-1.778666666666667
 20
-1.826333333333333
 30
0.0
 11
-1.758666666666666
 21
-1.826333333333333
 31
0.0
  0
LINE
  5
109
330
E5
100
AcDbEntity
  8
AM_4
100
AcDbLine
 10
-1.758666666666666
 20
-1.465333333333334
 30
0.0
 11
-1.778666666666667
 21
-1.465333333333334
 31
0.0
  0
ENDBLK
  5
E8
330
E5
100
AcDbEntity
  8
0
100
AcDbBlockEnd
  0
BLOCK
  5
10C
330
10A
100
AcDbEntity
  8
0
100
AcDbBlockBegin
  2
4_ASME_B18_3_10_2_0_in_071222_2
 70
     2
 10
0.0
 20
0.0
 30
0.0
  3
4_ASME_B18_3_10_2_0_in_071222_2
  1

  0
ATTDEF
  5
10E
330
10A
100
AcDbEntity
  8
AM_6
100
AcDbText
 10
4.041333333333333
 20
1.826333333333333
 30
0.0
 40
0.5
  1
ANSI/ASME B18.3-1998
100
AcDbAttributeDefinition
  3

  2
NN
 70
     8
280
     0
  0
ATTDEF
  5
10F
330
10A
100
AcDbEntity
  8
AM_6
100
AcDbText
 10
4.041333333333333
 20
1.326333333333333
 30
0.0
 40
0.5
  1
Socket Button Head Cap Screws
100
AcDbAttributeDefinition
  3

  2
NT
 70
     8
280
     0
  0
ATTDEF
  5
110
330
10A
100
AcDbEntity
  8
AM_6
100
AcDbText
 10
4.041333333333333
 20
0.8263333333333334
 30
0.0
 40
0.5
  1
ASME B18.3-10
100
AcDbAttributeDefinition
  3

  2
NB
 70
     8
280
     0
  0
ATTDEF
  5
111
330
10A
100
AcDbEntity
  8
AM_6
100
AcDbText
 10
4.041333333333333
 20
0.3263333333333334
 30
0.0
 40
0.5
  1
ASME B18.3-$NS.
100
AcDbAttributeDefinition
  3

  2
NBSYN
 70
     8
280
     0
  0
ATTDEF
  5
112
330
10A
100
AcDbEntity
  8
AM_6
100
AcDbText
 10
4.041333333333333
 20
-0.1736666666666666
 30
0.0
 40
0.5
  1
ASME B18.3-10
100
AcDbAttributeDefinition
  3

  2
LINA
 70
     8
280
     0
  0
ATTDEF
  5
113
330
10A
100
AcDbEntity
  8
AM_6
100
AcDbText
 10
4.041333333333333
 20
-0.6736666666666666
 30
0.0
 40
0.5
  1
10
100
AcDbAttributeDefinition
  3

  2
NS
 70
     8
280
     0
  0
ATTDEF
  5
114
330
10A
100
AcDbEntity
  8
AM_6
100
AcDbText
 10
4.041333333333333
 20
-1.173666666666667
 30
0.0
 40
0.5
  1
0.361
100
AcDbAttributeDefinition
  3

  2
A
 70
     8
280
     0
  0
ATTDEF
  5
115
330
10A
100
AcDbEntity
  8
AM_6
100
AcDbText
 10
4.041333333333333
 20
-1.673666666666667
 30
0.0
 40
0.5
  1
0.101
100
AcDbAttributeDefinition
  3

  2
H
 70
     8
280
     0
  0
ATTDEF
  5
116
330
10A
100
AcDbEntity
  8
AM_6
100
AcDbText
 10
4.041333333333333
 20
-2.173666666666667
 30
0.0
 40
0.5
  1
0.800
100
AcDbAttributeDefinition
  3

  2
L
 70
     8
280
     0
  0
ATTDEF
  5
117
330
10A
100
AcDbEntity
  8
AM_6
100
AcDbText
 10
4.041333333333333
 20
-2.673666666666667
 30
0.0
 40
0.5
  1
0.020
100
AcDbAttributeDefinition
  3

  2
S
 70
     8
280
     0
  0
ATTDEF
  5
118
330
10A
100
AcDbEntity
  8
AM_6
100
AcDbText
 10
4.041333333333333
 20
-3.173666666666667
 30
0.0
 40
0.5
  1
0.125000
100
AcDbAttributeDefinition
  3

  2
J
 70
     8
280
     0
  0
ATTDEF
  5
119
330
10A
100
AcDbEntity
  8
AM_6
100
AcDbText
 10
4.041333333333333
 20
-3.673666666666667
 30
0.0
 40
0.5
  1
baldor
100
AcDbAttributeDefinition
  3

  2
COMPANY
 70
     8
280
     0
  0
LINE
  5
11A
330
10A
100
AcDbEntity
  8
AM_9
100
AcDbLine
 10
-1.798666666666667
 20
1.718002116982037
 30
0.0
 11
-1.859666666666667
 21
1.718002116982037
 31
0.0
  0
LINE
  5
11B
330
10A
100
AcDbEntity
  8
AM_9
100
AcDbLine
 10
-1.798666666666667
 20
1.57366454968463
 30
0.0
 11
-1.859666666666667
 21
1.57366454968463
 31
0.0
  0
LINE
  5
11C
330
10A
100
AcDbEntity
  8
AM_9
100
AcDbLine
 10
-1.798666666666667
 20
1.718002116982037
 30
0.0
 11
-1.798666666666667
 21
1.57366454968463
 31
0.0
  0
LINE
  5
11D
330
10A
100
AcDbEntity
  8
AM_9
100
AcDbLine
 10
-1.798666666666667
 20
1.681917725157685
 30
0.0
 11
-1.859666666666667
 21
1.681917725157685
 31
0.0
  0
LINE
  5
11E
330
10A
100
AcDbEntity
  8
AM_9
100
AcDbLine
 10
-1.798666666666667
 20
1.609748941508982
 30
0.0
 11
-1.859666666666667
 21
1.609748941508982
 31
0.0
  0
LINE
  5
11F
330
10A
100
AcDbEntity
  8
AM_9
100
AcDbLine
 10
-0.9586666666666664
 20
1.722233333333334
 30
0.0
 11
-0.9586666666666664
 21
1.569433333333333
 31
0.0
  0
LINE
  5
120
330
10A
100
AcDbEntity
  8
AM_9
100
AcDbLine
 10
-0.9586666666666664
 20
1.722233333333334
 30
0.0
 11
-0.9772666666666664
 21
1.740833333333333
 31
0.0
  0
LINE
  5
121
330
10A
100
AcDbEntity
  8
AM_9
100
AcDbLine
 10
-0.9772666666666664
 20
1.550833333333334
 30
0.0
 11
-0.9586666666666664
 21
1.569433333333333
 31
0.0
  0
LINE
  5
122
330
10A
100
AcDbEntity
  8
AM_9
100
AcDbLine
 10
-0.9772666666666664
 20
1.740833333333333
 30
0.0
 11
-0.9772666666666664
 21
1.550833333333334
 31
0.0
  0
LINE
  5
123
330
10A
100
AcDbEntity
  8
AM_9
100
AcDbLine
 10
-1.758666666666666
 20
1.550833333333334
 30
0.0
 11
-0.9772666666666664
 21
1.550833333333334
 31
0.0
  0
LINE
  5
124
330
10A
100
AcDbEntity
  8
AM_9
100
AcDbLine
 10
-0.9772666666666664
 20
1.740833333333333
 30
0.0
 11
-1.758666666666666
 21
1.740833333333333
 31
0.0
  0
LINE
  5
125
330
10A
100
AcDbEntity
  8
AM_5
100
AcDbLine
 10
-1.678666666666667
 20
1.569433333333333
 30
0.0
 11
-1.710882811687449
 21
1.550833333333333
 31
0.0
  0
LINE
  5
126
330
10A
100
AcDbEntity
  8
AM_5
100
AcDbLine
 10
-1.678666666666667
 20
1.740833333333331
 30
0.0
 11
-1.678666666666667
 21
1.550833333333332
 31
0.0
  0
LINE
  5
127
330
10A
100
AcDbEntity
  8
AM_5
100
AcDbLine
 10
-1.678666666666667
 20
1.722233333333334
 30
0.0
 11
-1.710882811687448
 21
1.740833333333333
 31
0.0
  0
LINE
  5
128
330
10A
100
AcDbEntity
  8
AM_4
100
AcDbLine
 10
-1.859666666666667
 20
1.745333333333334
 30
0.0
 11
-1.859666666666667
 21
1.546333333333333
 31
0.0
  0
ARC
  5
129
330
10A
100
AcDbEntity
  8
AM_4
100
AcDbCircle
 10
-1.778666666666666
 20
1.546333333333334
 30
0.0
 40
0.0810000000000008
100
AcDbArc
 50
180.0
 51
270.0
  0
ARC
  5
12A
330
10A
100
AcDbEntity
  8
AM_4
100
AcDbCircle
 10
-1.778666666666666
 20
1.745333333333333
 30
0.0
 40
0.0810000000000008
100
AcDbArc
 50
90.0
 51
180.0
  0
LINE
  5
12B
330
10A
100
AcDbEntity
  8
AM_4
100
AcDbLine
 10
-1.778666666666667
 20
1.826333333333333
 30
0.0
 11
-1.778666666666667
 21
1.465333333333334
 31
0.0
  0
LINE
  5
12C
330
10A
100
AcDbEntity
  8
AM_4
100
AcDbLine
 10
-1.778666666666667
 20
1.465333333333334
 30
0.0
 11
-1.758666666666666
 21
1.465333333333334
 31
0.0
  0
LINE
  5
12D
330
10A
100
AcDbEntity
  8
AM_4
100
AcDbLine
 10
-1.758666666666666
 20
1.826333333333333
 30
0.0
 11
-1.778666666666667
 21
1.826333333333333
 31
0.0
  0
ENDBLK
  5
10D
330
10A
100
AcDbEntity
  8
0
100
AcDbBlockEnd
  0
BLOCK
  5
130
330
12E
100
AcDbEntity
  8
0
100
AcDbBlockBegin
  2
5_070895LWE_0_in_071222_2
 70
     2
 10
0.0
 20
0.0
 30
0.0
  3
5_070895LWE_0_in_071222_2
  1

  0
ATTDEF
  5
132
330
12E
100
AcDbEntity
  8
AM_6
100
AcDbText
 10
3.681333333333334
 20
1.94
 30
0.0
 40
0.5
  1
Imperial/E Insert Lockwasher -Inch
100
AcDbAttributeDefinition
  3

  2
NN
 70
     8
280
     0
  0
ATTDEF
  5
133
330
12E
100
AcDbEntity
  8
AM_6
100
AcDbText
 10
3.681333333333334
 20
1.44
 30
0.0
 40
0.5
  1
Imperial/E Bearings
100
AcDbAttributeDefinition
  3

  2
NT
 70
     8
280
     0
  0
ATTDEF
  5
134
330
12E
100
AcDbEntity
  8
AM_6
100
AcDbText
 10
3.681333333333334
 20
0.9400000000000002
 30
0.0
 40
0.5
  1
070895LWE
100
AcDbAttributeDefinition
  3

  2
NB
 70
     8
280
     0
  0
ATTDEF
  5
135
330
12E
100
AcDbEntity
  8
AM_6
100
AcDbText
 10
3.681333333333334
 20
0.4400000000000002
 30
0.0
 40
0.5
  1
$PN.LWE
100
AcDbAttributeDefinition
  3

  2
NBSYN
 70
     8
280
     0
  0
ATTDEF
  5
136
330
12E
100
AcDbEntity
  8
AM_6
100
AcDbText
 10
3.681333333333334
 20
-0.0599999999999998
 30
0.0
 40
0.5
  1
070895
100
AcDbAttributeDefinition
  3

  2
LINA
 70
     8
280
     0
  0
ATTDEF
  5
137
330
12E
100
AcDbEntity
  8
AM_6
100
AcDbText
 10
3.681333333333334
 20
-0.5599999999999998
 30
0.0
 40
0.5
  1
2-7/16
100
AcDbAttributeDefinition
  3

  2
SS
 70
     8
280
     0
  0
ATTDEF
  5
138
330
12E
100
AcDbEntity
  8
AM_6
100
AcDbText
 10
3.681333333333334
 20
-1.06
 30
0.0
 40
0.5
  1
3.880000
100
AcDbAttributeDefinition
  3

  2
E1
 70
     8
280
     0
  0
ATTDEF
  5
139
330
12E
100
AcDbEntity
  8
AM_6
100
AcDbText
 10
3.681333333333334
 20
-1.56
 30
0.0
 40
0.5
  1
2.437500
100
AcDbAttributeDefinition
  3

  2
SS1
 70
     8
280
     0
  0
ATTDEF
  5
13A
330
12E
100
AcDbEntity
  8
AM_6
100
AcDbText
 10
3.681333333333334
 20
-2.06
 30
0.0
 40
0.5
  1
070895
100
AcDbAttributeDefinition
  3

  2
PN
 70
     8
280
     0
  0
ATTDEF
  5
13B
330
12E
100
AcDbEntity
  8
AM_6
100
AcDbText
 10
3.681333333333334
 20
-2.56
 30
0.0
 40
0.5
  1
INS-IP-207R
100
AcDbAttributeDefinition
  3

  2
DESCRIPTION
 70
     8
280
     0
  0
ATTDEF
  5
13C
330
12E
100
AcDbEntity
  8
AM_6
100
AcDbText
 10
3.681333333333334
 20
-3.06
 30
0.0
 40
0.5
  1
4.7241
100
AcDbAttributeDefinition
  3

  2
A
 70
     8
280
     0
  0
ATTDEF
  5
13D
330
12E
100
AcDbEntity
  8
AM_6
100
AcDbText
 10
3.681333333333334
 20
-3.56
 30
0.0
 40
0.5
  1
1-9/32
100
AcDbAttributeDefinition
  3

  2
B
 70
     8
280
     0
  0
ATTDEF
  5
13E
330
12E
100
AcDbEntity
  8
AM_6
100
AcDbText
 10
3.681333333333334
 20
-4.06
 30
0.0
 40
0.5
  1
1.281250
100
AcDbAttributeDefinition
  3

  2
B1
 70
     8
280
     0
  0
ATTDEF
  5
13F
330
12E
100
AcDbEntity
  8
AM_6
100
AcDbText
 10
3.681333333333334
 20
-4.56
 30
0.0
 40
0.5
  1
3-27/64
100
AcDbAttributeDefinition
  3

  2
C
 70
     8
280
     0
  0
ATTDEF
  5
140
330
12E
100
AcDbEntity
  8
AM_6
100
AcDbText
 10
3.681333333333334
 20
-5.06
 30
0.0
 40
0.5
  1
3.421875
100
AcDbAttributeDefinition
  3

  2
C1
 70
     8
280
     0
  0
ATTDEF
  5
141
330
12E
100
AcDbEntity
  8
AM_6
100
AcDbText
 10
3.681333333333334
 20
-5.56
 30
0.0
 40
0.5
  1
1.208
100
AcDbAttributeDefinition
  3

  2
D
 70
     8
280
     0
  0
ATTDEF
  5
142
330
12E
100
AcDbEntity
  8
AM_6
100
AcDbText
 10
3.681333333333334
 20
-6.06
 30
0.0
 40
0.5
  1
3-7/8
100
AcDbAttributeDefinition
  3

  2
E
 70
     8
280
     0
  0
ATTDEF
  5
143
330
12E
100
AcDbEntity
  8
AM_6
100
AcDbText
 10
3.681333333333334
 20
-6.56
 30
0.0
 40
0.5
  1
0.1900
100
AcDbAttributeDefinition
  3

  2
NDM
 70
     8
280
     0
  0
ATTDEF
  5
144
330
12E
100
AcDbEntity
  8
AM_6
100
AcDbText
 10
3.681333333333334
 20
-7.06
 30
0.0
 40
0.5
  1
0.1450
100
AcDbAttributeDefinition
  3

  2
KDM
 70
     8
280
     0
  0
ATTDEF
  5
145
330
12E
100
AcDbEntity
  8
AM_6
100
AcDbText
 10
3.681333333333334
 20
-7.56
 30
0.0
 40
0.5
  1
3.35
100
AcDbAttributeDefinition
  3

  2
AL
 70
     8
280
     0
  0
ATTDEF
  5
146
330
12E
100
AcDbEntity
  8
AM_6
100
AcDbText
 10
3.681333333333334
 20
-8.059999999999999
 30
0.0
 40
0.5
  1
0.50
100
AcDbAttributeDefinition
  3

  2
BL
 70
     8
280
     0
  0
ATTDEF
  5
147
330
12E
100
AcDbEntity
  8
AM_6
100
AcDbText
 10
3.681333333333334
 20
-8.559999999999999
 30
0.0
 40
0.5
  1
0.07
100
AcDbAttributeDefinition
  3

  2
CL
 70
     8
280
     0
  0
ATTDEF
  5
148
330
12E
100
AcDbEntity
  8
AM_6
100
AcDbText
 10
3.681333333333334
 20
-9.059999999999999
 30
0.0
 40
0.5
  1
0.44
100
AcDbAttributeDefinition
  3

  2
DL
 70
     8
280
     0
  0
ATTDEF
  5
149
330
12E
100
AcDbEntity
  8
AM_6
100
AcDbText
 10
3.681333333333334
 20
-9.559999999999999
 30
0.0
 40
0.5
  1
baldor
100
AcDbAttributeDefinition
  3

  2
COMPANY
 70
     8
280
     0
  0
LINE
  5
14A
330
12E
100
AcDbEntity
  8
AM_9
100
AcDbLine
 10
-1.688666666666666
 20
1.163947765002008
 30
0.0
 11
-1.758666666666666
 21
1.163947765002008
 31
0.0
  0
LINE
  5
14B
330
12E
100
AcDbEntity
  8
AM_9
100
AcDbLine
 10
-1.318666666666666
 20
1.131765154047956
 30
0.0
 11
-1.688666666666666
 21
1.131765154047956
 31
0.0
  0
LINE
  5
14C
330
12E
100
AcDbEntity
  8
AM_9
100
AcDbLine
 10
-1.318666666666666
 20
1.07220478927997
 30
0.0
 11
-1.758666666666666
 21
1.07220478927997
 31
0.0
  0
LINE
  5
14D
330
12E
100
AcDbEntity
  8
AM_9
100
AcDbLine
 10
-1.688666666666666
 20
1.227436012139228
 30
0.0
 11
-1.318666666666666
 21
1.227436012139228
 31
0.0
  0
LINE
  5
14E
330
12E
100
AcDbEntity
  8
AM_9
100
AcDbLine
 10
-1.318666666666666
 20
1.167875647371243
 30
0.0
 11
-1.758666666666666
 21
1.167875647371243
 31
0.0
  0
LINE
  5
14F
330
12E
100
AcDbEntity
  8
AM_9
100
AcDbLine
 10
-1.318666666666666
 20
1.07220478927997
 30
0.0
 11
-1.318666666666666
 21
1.227436012139228
 31
0.0
  0
LINE
  5
150
330
12E
100
AcDbEntity
  8
AM_9
100
AcDbLine
 10
-1.688666666666666
 20
1.647083333333333
 30
0.0
 11
-1.758666666666666
 21
1.647083333333333
 31
0.0
  0
LINE
  5
151
330
12E
100
AcDbEntity
  8
AM_9
100
AcDbLine
 10
-1.688666666666666
 20
1.7421228957264
 30
0.0
 11
-1.758666666666666
 21
1.7421228957264
 31
0.0
  0
LINE
  5
152
330
12E
100
AcDbEntity
  8
AM_9
100
AcDbLine
 10
-1.688666666666666
 20
-1.647083333333333
 30
0.0
 11
-1.758666666666666
 21
-1.647083333333333
 31
0.0
  0
LINE
  5
153
330
12E
100
AcDbEntity
  8
AM_9
100
AcDbLine
 10
-1.758666666666666
 20
-1.7421228957264
 30
0.0
 11
-1.688666666666666
 21
-1.7421228957264
 31
0.0
  0
LINE
  5
154
330
12E
100
AcDbEntity
  8
AM_9
100
AcDbLine
 10
-1.688666666666666
 20
1.314138232875795
 30
0.0
 11
-1.758666666666666
 21
1.314138232875795
 31
0.0
  0
LINE
  5
155
330
12E
100
AcDbEntity
  8
AM_9
100
AcDbLine
 10
-1.688666666666666
 20
-1.314138232875795
 30
0.0
 11
-1.758666666666666
 21
-1.314138232875795
 31
0.0
  0
LINE
  5
156
330
12E
100
AcDbEntity
  8
AM_9
100
AcDbLine
 10
-1.688666666666666
 20
0.9964112000957029
 30
0.0
 11
-1.758666666666666
 21
0.9964112000957019
 31
0.0
  0
LINE
  5
157
330
12E
100
AcDbEntity
  8
AM_9
100
AcDbLine
 10
-1.688666666666666
 20
-0.9964112000957029
 30
0.0
 11
-1.758666666666666
 21
-0.9964112000957029
 31
0.0
  0
LINE
  5
158
330
12E
100
AcDbEntity
  8
AM_9
100
AcDbLine
 10
-1.688666666666666
 20
0.8620609116702589
 30
0.0
 11
-1.758666666666666
 21
0.8620609116702589
 31
0.0
  0
LINE
  5
159
330
12E
100
AcDbEntity
  8
AM_9
100
AcDbLine
 10
-1.688666666666666
 20
-0.862060911670259
 30
0.0
 11
-1.758666666666666
 21
-0.862060911670259
 31
0.0
  0
LINE
  5
15A
330
12E
100
AcDbEntity
  8
AM_9
100
AcDbLine
 10
-1.688666666666666
 20
1.231838938392065
 30
0.0
 11
-1.758666666666666
 21
1.231838938392065
 31
0.0
  0
LINE
  5
15B
330
12E
100
AcDbEntity
  8
AM_9
100
AcDbLine
 10
-1.688666666666666
 20
1.097488649966621
 30
0.0
 11
-1.758666666666666
 21
1.097488649966621
 31
0.0
  0
LINE
  5
15C
330
12E
100
AcDbEntity
  8
AM_9
100
AcDbLine
 10
-1.688666666666666
 20
1.259691771427552
 30
0.0
 11
-1.758666666666666
 21
1.259691771427552
 31
0.0
  0
LINE
  5
15D
330
12E
100
AcDbEntity
  8
AM_9
100
AcDbLine
 10
-1.688666666666666
 20
-1.09748864996662
 30
0.0
 11
-1.758666666666666
 21
-1.09748864996662
 31
0.0
  0
LINE
  5
15E
330
12E
100
AcDbEntity
  8
AM_9
100
AcDbLine
 10
-1.688666666666666
 20
-1.231838938392076
 30
0.0
 11
-1.758666666666666
 21
-1.231838938392076
 31
0.0
  0
LINE
  5
15F
330
12E
100
AcDbEntity
  8
AM_9
100
AcDbLine
 10
-1.758666666666666
 20
-1.259691771427552
 30
0.0
 11
-1.688666666666666
 21
-1.259691771427552
 31
0.0
  0
LINE
  5
160
330
12E
100
AcDbEntity
  8
AM_9
100
AcDbLine
 10
-1.688666666666666
 20
0.0950000000000002
 30
0.0
 11
-1.758666666666666
 21
0.0950000000000002
 31
0.0
  0
LINE
  5
161
330
12E
100
AcDbEntity
  8
AM_9
100
AcDbLine
 10
-1.688666666666666
 20
-0.0949999999999998
 30
0.0
 11
-1.758666666666666
 21
-0.0949999999999998
 31
0.0
  0
LINE
  5
162
330
12E
100
AcDbEntity
  8
AM_9
100
AcDbLine
 10
-1.745
 20
-1.94
 30
0.0
 11
-1.688666666666666
 21
-1.94
 31
0.0
  0
LINE
  5
163
330
12E
100
AcDbEntity
  8
AM_9
100
AcDbLine
 10
-1.688666666666666
 20
-1.12
 30
0.0
 11
-1.688666666666666
 21
-1.94
 31
0.0
  0
LINE
  5
164
330
12E
100
AcDbEntity
  8
AM_4
100
AcDbLine
 10
-1.688666666666666
 20
1.94
 30
0.0
 11
-1.758666666666666
 21
1.94
 31
0.0
  0
LINE
  5
165
330
12E
100
AcDbEntity
  8
AM_4
100
AcDbLine
 10
-1.758666666666666
 20
-1.94
 30
0.0
 11
-1.745
 21
-1.94
 31
0.0
  0
LINE
  5
166
330
12E
100
AcDbEntity
  8
AM_4
100
AcDbLine
 10
-1.758666666666666
 20
1.94
 30
0.0
 11
-1.758666666666666
 21
-1.94
 31
0.0
  0
LINE
  5
167
330
12E
100
AcDbEntity
  8
AM_4
100
AcDbLine
 10
-1.688666666666666
 20
1.94
 30
0.0
 11
-1.688666666666666
 21
-1.117955183444806
 31
0.0
  0
ENDBLK
  5
131
330
12E
100
AcDbEntity
  8
0
100
AcDbBlockEnd
  0
BLOCK
  5
16A
330
168
100
AcDbEntity
  8
0
100
AcDbBlockBegin
  2
6_070895E_0_in_071222_2
 70
     2
 10
0.0
 20
0.0
 30
0.0
  3
6_070895E_0_in_071222_2
  1

  0
ATTDEF
  5
16C
330
168
100
AcDbEntity
  8
AM_6
100
AcDbText
 10
6.484999999999999
 20
2.36205
 30
0.0
 40
0.5
  1
Imperial/E Insert -Inch
100
AcDbAttributeDefinition
  3

  2
NN
 70
     8
280
     0
  0
ATTDEF
  5
16D
330
168
100
AcDbEntity
  8
AM_6
100
AcDbText
 10
6.484999999999999
 20
1.86205
 30
0.0
 40
0.5
  1
Imperial Bearings
100
AcDbAttributeDefinition
  3

  2
NT
 70
     8
280
     0
  0
ATTDEF
  5
16E
330
168
100
AcDbEntity
  8
AM_6
100
AcDbText
 10
6.484999999999999
 20
1.36205
 30
0.0
 40
0.5
  1
070895E
100
AcDbAttributeDefinition
  3

  2
NB
 70
     8
280
     0
  0
ATTDEF
  5
16F
330
168
100
AcDbEntity
  8
AM_6
100
AcDbText
 10
6.484999999999999
 20
0.86205
 30
0.0
 40
0.5
  1
$PN.
100
AcDbAttributeDefinition
  3

  2
NBSYN
 70
     8
280
     0
  0
ATTDEF
  5
170
330
168
100
AcDbEntity
  8
AM_6
100
AcDbText
 10
6.484999999999999
 20
0.36205
 30
0.0
 40
0.5
  1
070895E
100
AcDbAttributeDefinition
  3

  2
LINA
 70
     8
280
     0
  0
ATTDEF
  5
171
330
168
100
AcDbEntity
  8
AM_6
100
AcDbText
 10
6.484999999999999
 20
-0.13795
 30
0.0
 40
0.5
  1
2-7/16
100
AcDbAttributeDefinition
  3

  2
SS
 70
     8
280
     0
  0
ATTDEF
  5
172
330
168
100
AcDbEntity
  8
AM_6
100
AcDbText
 10
6.484999999999999
 20
-0.63795
 30
0.0
 40
0.5
  1
2.437500
100
AcDbAttributeDefinition
  3

  2
SS1
 70
     8
280
     0
  0
ATTDEF
  5
173
330
168
100
AcDbEntity
  8
AM_6
100
AcDbText
 10
6.484999999999999
 20
-1.13795
 30
0.0
 40
0.5
  1
070895E
100
AcDbAttributeDefinition
  3

  2
PN
 70
     8
280
     0
  0
ATTDEF
  5
174
330
168
100
AcDbEntity
  8
AM_6
100
AcDbText
 10
6.484999999999999
 20
-1.63795
 30
0.0
 40
0.5
  1
INS-IP-207R
100
AcDbAttributeDefinition
  3

  2
DESCRIPTION
 70
     8
280
     0
  0
ATTDEF
  5
175
330
168
100
AcDbEntity
  8
AM_6
100
AcDbText
 10
6.484999999999999
 20
-2.13795
 30
0.0
 40
0.5
  1
Contact Seal
100
AcDbAttributeDefinition
  3

  2
ST
 70
     8
280
     0
  0
ATTDEF
  5
176
330
168
100
AcDbEntity
  8
AM_6
100
AcDbText
 10
6.484999999999999
 20
-2.63795
 30
0.0
 40
0.5
  1
1
100
AcDbAttributeDefinition
  3

  2
ST1
 70
     8
280
     0
  0
ATTDEF
  5
177
330
168
100
AcDbEntity
  8
AM_6
100
AcDbText
 10
6.484999999999999
 20
-3.13795
 30
0.0
 40
0.5
  1
4.7241
100
AcDbAttributeDefinition
  3

  2
A
 70
     8
280
     0
  0
ATTDEF
  5
178
330
168
100
AcDbEntity
  8
AM_6
100
AcDbText
 10
6.484999999999999
 20
-3.63795
 30
0.0
 40
0.5
  1
1-9/32
100
AcDbAttributeDefinition
  3

  2
B
 70
     8
280
     0
  0
ATTDEF
  5
179
330
168
100
AcDbEntity
  8
AM_6
100
AcDbText
 10
6.484999999999999
 20
-4.13795
 30
0.0
 40
0.5
  1
1.281250
100
AcDbAttributeDefinition
  3

  2
B1
 70
     8
280
     0
  0
ATTDEF
  5
17A
330
168
100
AcDbEntity
  8
AM_6
100
AcDbText
 10
6.484999999999999
 20
-4.63795
 30
0.0
 40
0.5
  1
3-27/64
100
AcDbAttributeDefinition
  3

  2
C
 70
     8
280
     0
  0
ATTDEF
  5
17B
330
168
100
AcDbEntity
  8
AM_6
100
AcDbText
 10
6.484999999999999
 20
-5.13795
 30
0.0
 40
0.5
  1
3.420000
100
AcDbAttributeDefinition
  3

  2
C1
 70
     8
280
     0
  0
ATTDEF
  5
17C
330
168
100
AcDbEntity
  8
AM_6
100
AcDbText
 10
6.484999999999999
 20
-5.63795
 30
0.0
 40
0.5
  1
4.41000
100
AcDbAttributeDefinition
  3

  2
CR
 70
     8
280
     0
  0
ATTDEF
  5
17D
330
168
100
AcDbEntity
  8
AM_6
100
AcDbText
 10
6.484999999999999
 20
-6.13795
 30
0.0
 40
0.5
  1
1.208
100
AcDbAttributeDefinition
  3

  2
D
 70
     8
280
     0
  0
ATTDEF
  5
17E
330
168
100
AcDbEntity
  8
AM_6
100
AcDbText
 10
6.484999999999999
 20
-6.63795
 30
0.0
 40
0.5
  1
3-7/8
100
AcDbAttributeDefinition
  3

  2
E
 70
     8
280
     0
  0
ATTDEF
  5
17F
330
168
100
AcDbEntity
  8
AM_6
100
AcDbText
 10
6.484999999999999
 20
-7.13795
 30
0.0
 40
0.5
  1
3.875000
100
AcDbAttributeDefinition
  3

  2
E1
 70
     8
280
     0
  0
ATTDEF
  5
180
330
168
100
AcDbEntity
  8
AM_6
100
AcDbText
 10
6.484999999999999
 20
-7.63795
 30
0.0
 40
0.5
  1
0.1900
100
AcDbAttributeDefinition
  3

  2
NDM
 70
     8
280
     0
  0
ATTDEF
  5
181
330
168
100
AcDbEntity
  8
AM_6
100
AcDbText
 10
6.484999999999999
 20
-8.13795
 30
0.0
 40
0.5
  1
0.1450
100
AcDbAttributeDefinition
  3

  2
KDM
 70
     8
280
     0
  0
ATTDEF
  5
182
330
168
100
AcDbEntity
  8
AM_6
100
AcDbText
 10
6.484999999999999
 20
-8.63795
 30
0.0
 40
0.5
  1
3.35
100
AcDbAttributeDefinition
  3

  2
AL
 70
     8
280
     0
  0
ATTDEF
  5
183
330
168
100
AcDbEntity
  8
AM_6
100
AcDbText
 10
6.484999999999999
 20
-9.13795
 30
0.0
 40
0.5
  1
0.50
100
AcDbAttributeDefinition
  3

  2
BL
 70
     8
280
     0
  0
ATTDEF
  5
184
330
168
100
AcDbEntity
  8
AM_6
100
AcDbText
 10
6.484999999999999
 20
-9.63795
 30
0.0
 40
0.5
  1
0.07
100
AcDbAttributeDefinition
  3

  2
CL
 70
     8
280
     0
  0
ATTDEF
  5
185
330
168
100
AcDbEntity
  8
AM_6
100
AcDbText
 10
6.484999999999999
 20
-10.13795
 30
0.0
 40
0.5
  1
0.44
100
AcDbAttributeDefinition
  3

  2
DL
 70
     8
280
     0
  0
ATTDEF
  5
186
330
168
100
AcDbEntity
  8
AM_6
100
AcDbText
 10
6.484999999999999
 20
-10.63795
 30
0.0
 40
0.5
  1
0.8000
100
AcDbAttributeDefinition
  3

  2
LL
 70
     8
280
     0
  0
ATTDEF
  5
187
330
168
100
AcDbEntity
  8
AM_6
100
AcDbText
 10
6.484999999999999
 20
-11.13795
 30
0.0
 40
0.5
  1
0.025
100
AcDbAttributeDefinition
  3

  2
Y
 70
     8
280
     0
  0
ATTDEF
  5
188
330
168
100
AcDbEntity
  8
AM_6
100
AcDbText
 10
6.484999999999999
 20
-11.63795
 30
0.0
 40
0.5
  1
0.025000
100
AcDbAttributeDefinition
  3

  2
Y1
 70
     8
280
     0
  0
ATTDEF
  5
189
330
168
100
AcDbEntity
  8
AM_6
100
AcDbText
 10
6.484999999999999
 20
-12.13795
 30
0.0
 40
0.5
  1
2-15/16
100
AcDbAttributeDefinition
  3

  2
Z
 70
     8
280
     0
  0
ATTDEF
  5
18A
330
168
100
AcDbEntity
  8
AM_6
100
AcDbText
 10
6.484999999999999
 20
-12.63795
 30
0.0
 40
0.5
  1
2.937500
100
AcDbAttributeDefinition
  3

  2
Z1
 70
     8
280
     0
  0
ATTDEF
  5
18B
330
168
100
AcDbEntity
  8
AM_6
100
AcDbText
 10
6.484999999999999
 20
-13.13795
 30
0.0
 40
0.5
  1
0.99000
100
AcDbAttributeDefinition
  3

  2
P1
 70
     8
280
     0
  0
ATTDEF
  5
18C
330
168
100
AcDbEntity
  8
AM_6
100
AcDbText
 10
6.484999999999999
 20
-13.63795
 30
0.0
 40
0.5
  1
1.50000
100
AcDbAttributeDefinition
  3

  2
H1
 70
     8
280
     0
  0
ATTDEF
  5
18D
330
168
100
AcDbEntity
  8
AM_6
100
AcDbText
 10
6.484999999999999
 20
-14.13795
 30
0.0
 40
0.5
  1
1.04000
100
AcDbAttributeDefinition
  3

  2
G1
 70
     8
280
     0
  0
ATTDEF
  5
18E
330
168
100
AcDbEntity
  8
AM_6
100
AcDbText
 10
6.484999999999999
 20
-14.63795
 30
0.0
 40
0.5
  1
0.10100
100
AcDbAttributeDefinition
  3

  2
CW
 70
     8
280
     0
  0
ATTDEF
  5
18F
330
168
100
AcDbEntity
  8
AM_6
100
AcDbText
 10
6.484999999999999
 20
-15.13795
 30
0.0
 40
0.5
  1
3.88000
100
AcDbAttributeDefinition
  3

  2
L1
 70
     8
280
     0
  0
ATTDEF
  5
190
330
168
100
AcDbEntity
  8
AM_6
100
AcDbText
 10
6.484999999999999
 20
-15.63795
 30
0.0
 40
0.5
  1
baldor
100
AcDbAttributeDefinition
  3

  2
COMPANY
 70
     8
280
     0
  0
LINE
  5
191
330
168
100
AcDbEntity
  8
AM_9
100
AcDbLine
 10
0.8926249999999994
 20
1.230578206704595
 30
0.0
 11
-1.688666666666666
 21
1.230578206704595
 31
0.0
  0
LINE
  5
192
330
168
100
AcDbEntity
  8
AM_9
100
AcDbLine
 10
0.8926249999999994
 20
1.134907348613322
 30
0.0
 11
-1.688666666666666
 21
1.134907348613322
 31
0.0
  0
LINE
  5
193
330
168
100
AcDbEntity
  8
AM_9
100
AcDbLine
 10
-0.8486666666666718
 20
-1.645833333333333
 30
0.0
 11
-0.8904956936694512
 21
-1.573383333333334
 31
0.0
  0
LINE
  5
194
330
168
100
AcDbEntity
  8
AM_9
100
AcDbLine
 10
-0.8904956936694512
 20
-1.718283333333333
 30
0.0
 11
-0.8486666666666718
 21
-1.645833333333333
 31
0.0
  0
LINE
  5
195
330
168
100
AcDbEntity
  8
AM_9
100
AcDbLine
 10
-0.8486666666666665
 20
1.645833333333333
 30
0.0
 11
-0.8904956936694548
 21
1.718283333333333
 31
0.0
  0
LINE
  5
196
330
168
100
AcDbEntity
  8
AM_9
100
AcDbLine
 10
-0.8904956936694548
 20
1.573383333333334
 30
0.0
 11
-0.8486666666666665
 21
1.645833333333333
 31
0.0
  0
LINE
  5
197
330
168
100
AcDbEntity
  8
AM_9
100
AcDbLine
 10
-0.8904956936694548
 20
1.573383333333334
 30
0.0
 11
-0.8904956936694548
 21
1.718283333333333
 31
0.0
  0
LINE
  5
198
330
168
100
AcDbEntity
  8
AM_9
100
AcDbLine
 10
-0.8904956936694548
 20
1.718283333333333
 30
0.0
 11
-1.666116666666667
 21
1.718283333333333
 31
0.0
  0
LINE
  5
199
330
168
100
AcDbEntity
  8
AM_9
100
AcDbLine
 10
-1.666116666666667
 20
1.573383333333334
 30
0.0
 11
-0.8904956936694548
 21
1.573383333333334
 31
0.0
  0
LINE
  5
19A
330
168
100
AcDbEntity
  8
AM_9
100
AcDbLine
 10
-1.66611666666666
 20
-1.718283333333333
 30
0.0
 11
-0.8904956936694512
 21
-1.718283333333333
 31
0.0
  0
LINE
  5
19B
330
168
100
AcDbEntity
  8
AM_9
100
AcDbLine
 10
-0.8904956936694512
 20
-1.573383333333334
 30
0.0
 11
-1.66611666666666
 21
-1.573383333333334
 31
0.0
  0
LINE
  5
19C
330
168
100
AcDbEntity
  8
AM_9
100
AcDbLine
 10
-0.8904956936694512
 20
-1.573383333333334
 30
0.0
 11
-0.8904956936694512
 21
-1.718283333333333
 31
0.0
  0
LINE
  5
19D
330
168
100
AcDbEntity
  8
AM_9
100
AcDbLine
 10
-1.666116666666667
 20
1.573383333333334
 30
0.0
 11
-1.666116666666667
 21
1.718283333333333
 31
0.0
  0
LINE
  5
19E
330
168
100
AcDbEntity
  8
AM_9
100
AcDbLine
 10
-1.666116666666667
 20
1.718283333333333
 30
0.0
 11
-1.688666666666667
 21
1.740833333333333
 31
0.0
  0
LINE
  5
19F
330
168
100
AcDbEntity
  8
AM_9
100
AcDbLine
 10
-1.688666666666667
 20
1.550833333333334
 30
0.0
 11
-1.666116666666667
 21
1.573383333333334
 31
0.0
  0
LINE
  5
1A0
330
168
100
AcDbEntity
  8
AM_9
100
AcDbLine
 10
-1.66611666666666
 20
-1.573383333333334
 30
0.0
 11
-1.688666666666665
 21
-1.550833333333334
 31
0.0
  0
LINE
  5
1A1
330
168
100
AcDbEntity
  8
AM_9
100
AcDbLine
 10
-1.688666666666665
 20
-1.740833333333333
 30
0.0
 11
-1.66611666666666
 21
-1.718283333333333
 31
0.0
  0
LINE
  5
1A2
330
168
100
AcDbEntity
  8
AM_9
100
AcDbLine
 10
-1.66611666666666
 20
-1.573383333333334
 30
0.0
 11
-1.66611666666666
 21
-1.718283333333333
 31
0.0
  0
LINE
  5
1A3
330
168
100
AcDbEntity
  8
AM_9
100
AcDbLine
 10
0.8926249999999994
 20
1.167875647371243
 30
0.0
 11
-1.96
 21
1.167875647371243
 31
0.0
  0
LINE
  5
1A4
330
168
100
AcDbEntity
  8
AM_9
100
AcDbLine
 10
-1.96
 20
1.07220478927997
 30
0.0
 11
0.8926249999999994
 21
1.07220478927997
 31
0.0
  0
LINE
  5
1A5
330
168
100
AcDbEntity
  8
AM_9
100
AcDbLine
 10
0.892625
 20
1.21875
 30
0.0
 11
-1.96
 21
1.21875
 31
0.0
  0
LINE
  5
1A6
330
168
100
AcDbEntity
  8
AM_9
100
AcDbLine
 10
-1.96
 20
-1.21875
 30
0.0
 11
0.892625
 21
-1.21875
 31
0.0
  0
LINE
  5
1A7
330
168
100
AcDbEntity
  8
AM_9
100
AcDbLine
 10
-1.96
 20
1.227436012139228
 30
0.0
 11
-1.688666666666667
 21
1.227436012139228
 31
0.0
  0
LINE
  5
1A8
330
168
100
AcDbEntity
  8
AM_9
100
AcDbLine
 10
-1.688666666666667
 20
1.131765154047955
 30
0.0
 11
-1.96
 21
1.131765154047955
 31
0.0
  0
LINE
  5
1A9
330
168
100
AcDbEntity
  8
AM_9
100
AcDbLine
 10
-1.688666666666667
 20
1.282894736842105
 30
0.0
 11
-1.758666666666666
 21
1.282894736842105
 31
0.0
  0
LINE
  5
1AA
330
168
100
AcDbEntity
  8
AM_9
100
AcDbLine
 10
-1.758666666666666
 20
-1.282894736842105
 30
0.0
 11
-1.688666666666667
 21
-1.282894736842105
 31
0.0
  0
LINE
  5
1AB
330
168
100
AcDbEntity
  8
AM_9
100
AcDbLine
 10
1.46
 20
1.282894736842105
 30
0.0
 11
0.892625
 21
1.282894736842105
 31
0.0
  0
LINE
  5
1AC
330
168
100
AcDbEntity
  8
AM_9
100
AcDbLine
 10
0.892625
 20
-1.282894736842105
 30
0.0
 11
1.46
 21
-1.282894736842105
 31
0.0
  0
LINE
  5
1AD
330
168
100
AcDbEntity
  8
AM_9
100
AcDbLine
 10
-1.248666666666667
 20
1.00762716319083
 30
0.0
 11
-1.688666666666667
 21
1.00762716319083
 31
0.0
  0
LINE
  5
1AE
330
168
100
AcDbEntity
  8
AM_9
100
AcDbLine
 10
-1.248666666666667
 20
1.361180553784104
 30
0.0
 11
-1.5705
 21
1.361180553784104
 31
0.0
  0
LINE
  5
1AF
330
168
100
AcDbEntity
  8
AM_9
100
AcDbLine
 10
-1.248666666666667
 20
-1.00762716319083
 30
0.0
 11
-1.688666666666667
 21
-1.00762716319083
 31
0.0
  0
LINE
  5
1B0
330
168
100
AcDbEntity
  8
AM_9
100
AcDbLine
 10
-1.248666666666667
 20
-1.361180553784104
 30
0.0
 11
-1.688666666666667
 21
-1.361180553784104
 31
0.0
  0
LINE
  5
1B1
330
168
100
AcDbEntity
  8
AM_9
100
AcDbLine
 10
1.46
 20
-1.46875
 30
0.0
 11
1.46
 21
1.46875
 31
0.0
  0
LINE
  5
1B2
330
168
100
AcDbEntity
  8
AM_9
100
AcDbLine
 10
1.485
 20
1.46875
 30
0.0
 11
1.46
 21
1.46875
 31
0.0
  0
LINE
  5
1B3
330
168
100
AcDbEntity
  8
AM_9
100
AcDbLine
 10
1.46
 20
-1.46875
 30
0.0
 11
1.485
 21
-1.46875
 31
0.0
  0
LINE
  5
1B4
330
168
100
AcDbEntity
  8
AM_9
100
AcDbLine
 10
-1.248666666666667
 20
1.540819605474589
 30
0.0
 11
-1.248666666666667
 21
1.00762716319083
 31
0.0
  0
LINE
  5
1B5
330
168
100
AcDbEntity
  8
AM_9
100
AcDbLine
 10
1.485
 20
1.958333333333333
 30
0.0
 11
1.148875
 21
1.958333333333333
 31
0.0
  0
LINE
  5
1B6
330
168
100
AcDbEntity
  8
AM_9
100
AcDbLine
 10
1.148875
 20
-1.958333333333333
 30
0.0
 11
1.485
 21
-1.958333333333333
 31
0.0
  0
LINE
  5
1B7
330
168
100
AcDbEntity
  8
AM_9
100
AcDbLine
 10
1.485
 20
-1.958333333333333
 30
0.0
 11
1.485
 21
1.958333333333333
 31
0.0
  0
LINE
  5
1B8
330
168
100
AcDbEntity
  8
AM_9
100
AcDbLine
 10
1.148875
 20
-1.958333333333333
 30
0.0
 11
1.148875
 21
1.958333333333333
 31
0.0
  0
LINE
  5
1B9
330
168
100
AcDbEntity
  8
AM_9
100
AcDbLine
 10
-1.688666666666667
 20
-1.181789874658622
 30
0.0
 11
-1.248666666666667
 21
-1.187266214881315
 31
0.0
  0
LINE
  5
1BA
330
168
100
AcDbEntity
  8
AM_9
100
AcDbLine
 10
-1.248666666666667
 20
-1.00762716319083
 30
0.0
 11
-1.248666666666667
 21
-1.540819605474589
 31
0.0
  0
LINE
  5
1BB
330
168
100
AcDbEntity
  8
AM_9
100
AcDbLine
 10
-1.248666666666667
 20
-1.540819605474589
 30
0.0
 11
-1.688666666666667
 21
-1.535343265251896
 31
0.0
  0
LINE
  5
1BC
330
168
100
AcDbEntity
  8
AM_9
100
AcDbLine
 10
-1.570500000893797
 20
1.536814030406898
 30
0.0
 11
-1.248666666666667
 21
1.540819605474589
 31
0.0
  0
LINE
  5
1BD
330
168
100
AcDbEntity
  8
AM_9
100
AcDbLine
 10
-1.248666666666667
 20
1.187266214881315
 30
0.0
 11
-1.570500000893797
 21
1.183260639813624
 31
0.0
  0
LINE
  5
1BE
330
168
100
AcDbEntity
  8
AM_9
100
AcDbLine
 10
-1.688666666666667
 20
-1.937499999999999
 30
0.0
 11
-0.4377523796781359
 21
-1.959334790099019
 31
0.0
  0
LINE
  5
1BF
330
168
100
AcDbEntity
  8
AM_9
100
AcDbLine
 10
-0.4377523796781359
 20
1.959334790099019
 30
0.0
 11
-1.5705
 21
1.939562606839017
 31
0.0
  0
ARC
  5
1C0
330
168
100
AcDbEntity
  8
AM_9
100
AcDbCircle
 10
-0.4386250000000006
 20
2.009327174856839
 30
0.0
 40
0.0500000000000005
100
AcDbArc
 50
271.0000000000006
 51
0.0
  0
ARC
  5
1C1
330
168
100
AcDbEntity
  8
AM_9
100
AcDbCircle
 10
-0.4386250000000008
 20
-2.009327174856839
 30
0.0
 40
0.0500000000000006
100
AcDbArc
 50
0.0
 51
88.99999999999918
  0
LINE
  5
1C2
330
168
100
AcDbEntity
  8
AM_9
100
AcDbLine
 10
-0.4377523796781359
 20
-1.959334790099019
 30
0.0
 11
-0.4377523796781359
 21
1.959334790099019
 31
0.0
  0
ARC
  5
1C3
330
168
100
AcDbEntity
  8
AM_9
100
AcDbCircle
 10
1.048874999999997
 20
1.956368966601194
 30
0.0
 40
0.100000000000003
100
AcDbArc
 50
0.0
 51
59.99999999999934
  0
ARC
  5
1C4
330
168
100
AcDbEntity
  8
AM_9
100
AcDbCircle
 10
1.048874999999997
 20
-1.956368966601194
 30
0.0
 40
0.1000000000000029
100
AcDbArc
 50
300.0000000000007
 51
0.0
  0
LINE
  5
1C5
330
168
100
AcDbEntity
  8
AM_9
100
AcDbLine
 10
1.098874999999999
 20
2.042971506979639
 30
0.0
 11
0.892625
 21
2.16205
 31
0.0
  0
LINE
  5
1C6
330
168
100
AcDbEntity
  8
AM_9
100
AcDbLine
 10
0.892625
 20
-2.16205
 30
0.0
 11
1.098874999999999
 21
-2.042971506979639
 31
0.0
  0
LINE
  5
1C7
330
168
100
AcDbEntity
  8
AM_9
100
AcDbLine
 10
1.098874999999999
 20
-2.042971506979639
 30
0.0
 11
1.098874999999999
 21
2.042971506979639
 31
0.0
  0
LINE
  5
1C8
330
168
100
AcDbEntity
  8
AM_9
100
AcDbLine
 10
0.2689865016199599
 20
2.2979875
 30
0.0
 11
0.195013498380039
 21
2.2979875
 31
0.0
  0
LINE
  5
1C9
330
168
100
AcDbEntity
  8
AM_9
100
AcDbLine
 10
0.195013498380039
 20
-2.2979875
 30
0.0
 11
0.2689865016199599
 21
-2.2979875
 31
0.0
  0
LINE
  5
1CA
330
168
100
AcDbEntity
  8
AM_9
100
AcDbLine
 10
0.892625
 20
-2.31205
 30
0.0
 11
0.892625
 21
2.31205
 31
0.0
  0
ARC
  5
1CB
330
168
100
AcDbEntity
  8
AM_9
100
AcDbCircle
 10
0.8426249999999996
 20
2.31205
 30
0.0
 40
0.0500000000000003
100
AcDbArc
 50
0.0
 51
90.0
  0
ARC
  5
1CC
330
168
100
AcDbEntity
  8
AM_9
100
AcDbCircle
 10
0.8426249999999996
 20
-2.31205
 30
0.0
 40
0.0500000000000003
100
AcDbArc
 50
270.0
 51
0.0
  0
LINE
  5
1CD
330
168
100
AcDbEntity
  8
AM_9
100
AcDbLine
 10
0.195013498380039
 20
2.2979875
 30
0.0
 11
0.1580269967600786
 21
2.36205
 31
0.0
  0
LINE
  5
1CE
330
168
100
AcDbEntity
  8
AM_9
100
AcDbLine
 10
0.1580269967600786
 20
-2.36205
 30
0.0
 11
0.195013498380039
 21
-2.2979875
 31
0.0
  0
LINE
  5
1CF
330
168
100
AcDbEntity
  8
AM_9
100
AcDbLine
 10
0.195013498380039
 20
-2.2979875
 30
0.0
 11
0.195013498380039
 21
2.2979875
 31
0.0
  0
LINE
  5
1D0
330
168
100
AcDbEntity
  8
AM_9
100
AcDbLine
 10
0.1580269967600786
 20
2.36205
 30
0.0
 11
-0.3786250000000008
 21
2.36205
 31
0.0
  0
LINE
  5
1D1
330
168
100
AcDbEntity
  8
AM_9
100
AcDbLine
 10
-0.3786250000000008
 20
-2.36205
 30
0.0
 11
0.1580269967600786
 21
-2.36205
 31
0.0
  0
LINE
  5
1D2
330
168
100
AcDbEntity
  8
AM_9
100
AcDbLine
 10
0.1580269967600786
 20
-2.36205
 30
0.0
 11
0.1580269967600786
 21
2.36205
 31
0.0
  0
LINE
  5
1D3
330
168
100
AcDbEntity
  8
AM_9
100
AcDbLine
 10
0.8426249999999997
 20
2.36205
 30
0.0
 11
0.3059730032399203
 21
2.36205
 31
0.0
  0
LINE
  5
1D4
330
168
100
AcDbEntity
  8
AM_9
100
AcDbLine
 10
0.3059730032399203
 20
-2.36205
 30
0.0
 11
0.8426249999999997
 21
-2.36205
 31
0.0
  0
LINE
  5
1D5
330
168
100
AcDbEntity
  8
AM_9
100
AcDbLine
 10
0.8426249999999997
 20
-2.36205
 30
0.0
 11
0.8426249999999997
 21
2.36205
 31
0.0
  0
LINE
  5
1D6
330
168
100
AcDbEntity
  8
AM_9
100
AcDbLine
 10
-0.3886250000000002
 20
-2.35205
 30
0.0
 11
-0.3886250000000002
 21
2.35205
 31
0.0
  0
ARC
  5
1D7
330
168
100
AcDbEntity
  8
AM_9
100
AcDbCircle
 10
-0.3786250000000009
 20
2.352050000000001
 30
0.0
 40
0.0099999999999993
100
AcDbArc
 50
90.0
 51
180.0
  0
ARC
  5
1D8
330
168
100
AcDbEntity
  8
AM_9
100
AcDbCircle
 10
-0.3786250000000009
 20
-2.352050000000001
 30
0.0
 40
0.0099999999999992
100
AcDbArc
 50
180.0
 51
270.0
  0
LINE
  5
1D9
330
168
100
AcDbEntity
  8
AM_9
100
AcDbLine
 10
-0.3786250000000008
 20
-2.36205
 30
0.0
 11
-0.3786250000000008
 21
2.36205
 31
0.0
  0
LINE
  5
1DA
330
168
100
AcDbEntity
  8
AM_9
100
AcDbLine
 10
0.2689865016199599
 20
-2.2979875
 30
0.0
 11
0.3059730032399203
 21
-2.36205
 31
0.0
  0
LINE
  5
1DB
330
168
100
AcDbEntity
  8
AM_9
100
AcDbLine
 10
0.3059730032399203
 20
2.36205
 30
0.0
 11
0.2689865016199599
 21
2.2979875
 31
0.0
  0
LINE
  5
1DC
330
168
100
AcDbEntity
  8
AM_9
100
AcDbLine
 10
0.3059730032399203
 20
-2.36205
 30
0.0
 11
0.3059730032399203
 21
2.36205
 31
0.0
  0
LINE
  5
1DD
330
168
100
AcDbEntity
  8
AM_9
100
AcDbLine
 10
0.2689865016199599
 20
-2.2979875
 30
0.0
 11
0.2689865016199599
 21
2.2979875
 31
0.0
  0
LINE
  5
1DE
330
168
100
AcDbEntity
  8
AM_5
100
AcDbLine
 10
-1.688666666666667
 20
1.740833333333333
 30
0.0
 11
-0.9886666666666666
 21
1.740833333333333
 31
0.0
  0
LINE
  5
1DF
330
168
100
AcDbEntity
  8
AM_5
100
AcDbLine
 10
-0.9886666666666671
 20
1.740833333333333
 30
0.0
 11
-0.9616939770635229
 21
1.72526064373019
 31
0.0
  0
LINE
  5
1E0
330
168
100
AcDbEntity
  8
AM_5
100
AcDbLine
 10
-1.688666666666667
 20
1.550833333333334
 30
0.0
 11
-0.9886666666666666
 21
1.550833333333334
 31
0.0
  0
LINE
  5
1E1
330
168
100
AcDbEntity
  8
AM_5
100
AcDbLine
 10
-0.9886666666666671
 20
1.550833333333334
 30
0.0
 11
-0.9616939770635229
 21
1.566406022936477
 31
0.0
  0
LINE
  5
1E2
330
168
100
AcDbEntity
  8
AM_5
100
AcDbLine
 10
-1.688666666666667
 20
-1.740833333333333
 30
0.0
 11
-0.9886666666666726
 21
-1.740833333333333
 31
0.0
  0
LINE
  5
1E3
330
168
100
AcDbEntity
  8
AM_5
100
AcDbLine
 10
-0.9886666666666731
 20
-1.740833333333333
 30
0.0
 11
-0.9616939770635293
 21
-1.725260643730196
 31
0.0
  0
LINE
  5
1E4
330
168
100
AcDbEntity
  8
AM_5
100
AcDbLine
 10
-1.688666666666667
 20
-1.550833333333334
 30
0.0
 11
-0.9886666666666726
 21
-1.550833333333334
 31
0.0
  0
LINE
  5
1E5
330
168
100
AcDbEntity
  8
AM_5
100
AcDbLine
 10
-0.9886666666666731
 20
-1.550833333333334
 30
0.0
 11
-0.9616939770635293
 21
-1.56640602293647
 31
0.0
  0
LINE
  5
1E8
330
168
100
AcDbEntity
  8
AM_7
100
AcDbLine
 10
-0.8066666666666664
 20
1.645833333333333
 30
0.0
 11
-1.904716666666667
 21
1.645833333333333
 31
0.0
  0
LINE
  5
1E9
330
168
100
AcDbEntity
  8
AM_7
100
AcDbLine
 10
-0.8066666666666725
 20
-1.645833333333333
 30
0.0
 11
-1.904716666666667
 21
-1.645833333333333
 31
0.0
  0
LINE
  5
1EA
330
168
100
AcDbEntity
  8
AM_4
100
AcDbLine
 10
-1.758666666666666
 20
1.282894736842105
 30
0.0
 11
-1.96
 21
1.282894736842105
 31
0.0
  0
LINE
  5
1EB
330
168
100
AcDbEntity
  8
AM_4
100
AcDbLine
 10
-1.96
 20
-1.282894736842105
 30
0.0
 11
-1.758666666666666
 21
-1.282894736842105
 31
0.0
  0
LINE
  5
1EC
330
168
100
AcDbEntity
  8
AM_4
100
AcDbLine
 10
-1.96
 20
-1.282894736842105
 30
0.0
 11
-1.96
 21
1.282894736842105
 31
0.0
  0
LINE
  5
1ED
330
168
100
AcDbEntity
  8
AM_4
100
AcDbLine
 10
-1.5705
 20
1.361180553784104
 30
0.0
 11
-1.688666666666667
 21
1.361180553784104
 31
0.0
  0
LINE
  5
1EE
330
168
100
AcDbEntity
  8
AM_4
100
AcDbLine
 10
-1.688666666666667
 20
1.535343265251897
 30
0.0
 11
-1.570500000893797
 21
1.536814030406898
 31
0.0
  0
LINE
  5
1EF
330
168
100
AcDbEntity
  8
AM_4
100
AcDbLine
 10
-1.570500000893797
 20
1.183260639813624
 30
0.0
 11
-1.688666666666667
 21
1.181789874658622
 31
0.0
  0
LINE
  5
1F0
330
168
100
AcDbEntity
  8
AM_4
100
AcDbLine
 10
-1.5705
 20
1.939562606839017
 30
0.0
 11
-1.688666666666667
 21
1.937499999999999
 31
0.0
  0
ENDBLK
  5
16B
330
168
100
AcDbEntity
  8
0
100
AcDbBlockEnd
  0
BLOCK
  5
1F3
330
1F1
100
AcDbEntity
  8
0
100
AcDbBlockBegin
  2
7_071222H_0_in_071222_2
 70
     2
 10
0.0
 20
0.0
 30
0.0
  3
7_071222H_0_in_071222_2
  1

  0
ATTDEF
  5
1F5
330
1F1
100
AcDbEntity
  8
AM_6
100
AcDbText
 10
6.9195
 20
2.97
 30
0.0
 40
0.5
  1
EP4B-IP -(Contact Seal)-Housing -Inch
100
AcDbAttributeDefinition
  3

  2
NN
 70
     8
280
     0
  0
ATTDEF
  5
1F6
330
1F1
100
AcDbEntity
  8
AM_6
100
AcDbText
 10
6.9195
 20
2.47
 30
0.0
 40
0.5
  1
Imperial/E 4 Bolt Piliow Block Bearings
100
AcDbAttributeDefinition
  3

  2
NT
 70
     8
280
     0
  0
ATTDEF
  5
1F7
330
1F1
100
AcDbEntity
  8
AM_6
100
AcDbText
 10
6.9195
 20
1.97
 30
0.0
 40
0.5
  1
071222H
100
AcDbAttributeDefinition
  3

  2
NB
 70
     8
280
     0
  0
ATTDEF
  5
1F8
330
1F1
100
AcDbEntity
  8
AM_6
100
AcDbText
 10
6.9195
 20
1.47
 30
0.0
 40
0.5
  1
$PN.H
100
AcDbAttributeDefinition
  3

  2
NBSYN
 70
     8
280
     0
  0
ATTDEF
  5
1F9
330
1F1
100
AcDbEntity
  8
AM_6
100
AcDbText
 10
6.9195
 20
0.9699999999999998
 30
0.0
 40
0.5
  1
071222
100
AcDbAttributeDefinition
  3

  2
LINA
 70
     8
280
     0
  0
ATTDEF
  5
1FA
330
1F1
100
AcDbEntity
  8
AM_6
100
AcDbText
 10
6.9195
 20
0.4699999999999998
 30
0.0
 40
0.5
  1
2-7/16
100
AcDbAttributeDefinition
  3

  2
SS
 70
     8
280
     0
  0
ATTDEF
  5
1FB
330
1F1
100
AcDbEntity
  8
AM_6
100
AcDbText
 10
6.9195
 20
-0.0300000000000002
 30
0.0
 40
0.5
  1
2.437500
100
AcDbAttributeDefinition
  3

  2
SS1
 70
     8
280
     0
  0
ATTDEF
  5
1FC
330
1F1
100
AcDbEntity
  8
AM_6
100
AcDbText
 10
6.9195
 20
-0.5300000000000002
 30
0.0
 40
0.5
  1
Expansion
100
AcDbAttributeDefinition
  3

  2
TYPE
 70
     8
280
     0
  0
ATTDEF
  5
1FD
330
1F1
100
AcDbEntity
  8
AM_6
100
AcDbText
 10
6.9195
 20
-1.03
 30
0.0
 40
0.5
  1
071205
100
AcDbAttributeDefinition
  3

  2
PN1
 70
     8
280
     0
  0
ATTDEF
  5
1FE
330
1F1
100
AcDbEntity
  8
AM_6
100
AcDbText
 10
6.9195
 20
-1.53
 30
0.0
 40
0.5
  1
071222
100
AcDbAttributeDefinition
  3

  2
PN2
 70
     8
280
     0
  0
ATTDEF
  5
1FF
330
1F1
100
AcDbEntity
  8
AM_6
100
AcDbText
 10
6.9195
 20
-2.03
 30
0.0
 40
0.5
  1
EP4B-IP-207R
100
AcDbAttributeDefinition
  3

  2
DESCRIPTION
 70
     8
280
     0
  0
ATTDEF
  5
200
330
1F1
100
AcDbEntity
  8
AM_6
100
AcDbText
 10
6.9195
 20
-2.53
 30
0.0
 40
0.5
  1
Non-Expansion Type
100
AcDbAttributeDefinition
  3

  2
EF
 70
     8
280
     0
  0
ATTDEF
  5
201
330
1F1
100
AcDbEntity
  8
AM_6
100
AcDbText
 10
6.9195
 20
-3.03
 30
0.0
 40
0.5
  1
1
100
AcDbAttributeDefinition
  3

  2
EF1
 70
     8
280
     0
  0
ATTDEF
  5
202
330
1F1
100
AcDbEntity
  8
AM_6
100
AcDbText
 10
6.9195
 20
-3.53
 30
0.0
 40
0.5
  1
Contact Seal
100
AcDbAttributeDefinition
  3

  2
ST
 70
     8
280
     0
  0
ATTDEF
  5
203
330
1F1
100
AcDbEntity
  8
AM_6
100
AcDbText
 10
6.9195
 20
-4.03
 30
0.0
 40
0.5
  1
1
100
AcDbAttributeDefinition
  3

  2
ST1
 70
     8
280
     0
  0
ATTDEF
  5
204
330
1F1
100
AcDbEntity
  8
AM_6
100
AcDbText
 10
6.9195
 20
-4.53
 30
0.0
 40
0.5
  1
3.42
100
AcDbAttributeDefinition
  3

  2
A
 70
     8
280
     0
  0
ATTDEF
  5
205
330
1F1
100
AcDbEntity
  8
AM_6
100
AcDbText
 10
6.9195
 20
-5.03
 30
0.0
 40
0.5
  1
3.4200000
100
AcDbAttributeDefinition
  3

  2
A1
 70
     8
280
     0
  0
ATTDEF
  5
206
330
1F1
100
AcDbEntity
  8
AM_6
100
AcDbText
 10
6.9195
 20
-5.53
 30
0.0
 40
0.5
  1
10.5
100
AcDbAttributeDefinition
  3

  2
B
 70
     8
280
     0
  0
ATTDEF
  5
207
330
1F1
100
AcDbEntity
  8
AM_6
100
AcDbText
 10
6.9195
 20
-6.03
 30
0.0
 40
0.5
  1
10.5000000
100
AcDbAttributeDefinition
  3

  2
B1
 70
     8
280
     0
  0
ATTDEF
  5
208
330
1F1
100
AcDbEntity
  8
AM_6
100
AcDbText
 10
6.9195
 20
-6.53
 30
0.0
 40
0.5
  1
3.49
100
AcDbAttributeDefinition
  3

  2
C
 70
     8
280
     0
  0
ATTDEF
  5
209
330
1F1
100
AcDbEntity
  8
AM_6
100
AcDbText
 10
6.9195
 20
-7.03
 30
0.0
 40
0.5
  1
3.4900000
100
AcDbAttributeDefinition
  3

  2
C1
 70
     8
280
     0
  0
ATTDEF
  5
20A
330
1F1
100
AcDbEntity
  8
AM_6
100
AcDbText
 10
6.9195
 20
-7.53
 30
0.0
 40
0.5
  1
8.31
100
AcDbAttributeDefinition
  3

  2
DMIN
 70
     8
280
     0
  0
ATTDEF
  5
20B
330
1F1
100
AcDbEntity
  8
AM_6
100
AcDbText
 10
6.9195
 20
-8.030000000000001
 30
0.0
 40
0.5
  1
8.3100000
100
AcDbAttributeDefinition
  3

  2
DMIN1
 70
     8
280
     0
  0
ATTDEF
  5
20C
330
1F1
100
AcDbEntity
  8
AM_6
100
AcDbText
 10
6.9195
 20
-8.530000000000001
 30
0.0
 40
0.5
  1
8.69
100
AcDbAttributeDefinition
  3

  2
DMAX
 70
     8
280
     0
  0
ATTDEF
  5
20D
330
1F1
100
AcDbEntity
  8
AM_6
100
AcDbText
 10
6.9195
 20
-9.030000000000001
 30
0.0
 40
0.5
  1
8.6900000
100
AcDbAttributeDefinition
  3

  2
DMAX1
 70
     8
280
     0
  0
ATTDEF
  5
20E
330
1F1
100
AcDbEntity
  8
AM_6
100
AcDbText
 10
6.9195
 20
-9.530000000000001
 30
0.0
 40
0.5
  1
1.87
100
AcDbAttributeDefinition
  3

  2
E
 70
     8
280
     0
  0
ATTDEF
  5
20F
330
1F1
100
AcDbEntity
  8
AM_6
100
AcDbText
 10
6.9195
 20
-10.03
 30
0.0
 40
0.5
  1
1.870000
100
AcDbAttributeDefinition
  3

  2
E1
 70
     8
280
     0
  0
ATTDEF
  5
210
330
1F1
100
AcDbEntity
  8
AM_6
100
AcDbText
 10
6.9195
 20
-10.53
 30
0.0
 40
0.5
  1
5/8
100
AcDbAttributeDefinition
  3

  2
F
 70
     8
280
     0
  0
ATTDEF
  5
211
330
1F1
100
AcDbEntity
  8
AM_6
100
AcDbText
 10
6.9195
 20
-11.03
 30
0.0
 40
0.5
  1
0.6250000
100
AcDbAttributeDefinition
  3

  2
F1
 70
     8
280
     0
  0
ATTDEF
  5
212
330
1F1
100
AcDbEntity
  8
AM_6
100
AcDbText
 10
6.9195
 20
-11.53
 30
0.0
 40
0.5
  1
0.87
100
AcDbAttributeDefinition
  3

  2
G
 70
     8
280
     0
  0
ATTDEF
  5
213
330
1F1
100
AcDbEntity
  8
AM_6
100
AcDbText
 10
6.9195
 20
-12.03
 30
0.0
 40
0.5
  1
0.870000
100
AcDbAttributeDefinition
  3

  2
G1
 70
     8
280
     0
  0
ATTDEF
  5
214
330
1F1
100
AcDbEntity
  8
AM_6
100
AcDbText
 10
6.9195
 20
-12.53
 30
0.0
 40
0.5
  1
1.63
100
AcDbAttributeDefinition
  3

  2
H
 70
     8
280
     0
  0
ATTDEF
  5
215
330
1F1
100
AcDbEntity
  8
AM_6
100
AcDbText
 10
6.9195
 20
-13.03
 30
0.0
 40
0.5
  1
1.6300000
100
AcDbAttributeDefinition
  3

  2
H1
 70
     8
280
     0
  0
ATTDEF
  5
216
330
1F1
100
AcDbEntity
  8
AM_6
100
AcDbText
 10
6.9195
 20
-13.53
 30
0.0
 40
0.5
  1
5.72
100
AcDbAttributeDefinition
  3

  2
J
 70
     8
280
     0
  0
ATTDEF
  5
217
330
1F1
100
AcDbEntity
  8
AM_6
100
AcDbText
 10
6.9195
 20
-14.03
 30
0.0
 40
0.5
  1
5.720000
100
AcDbAttributeDefinition
  3

  2
J1
 70
     8
280
     0
  0
ATTDEF
  5
218
330
1F1
100
AcDbEntity
  8
AM_6
100
AcDbText
 10
6.9195
 20
-14.53
 30
0.0
 40
0.5
  1
3.88
100
AcDbAttributeDefinition
  3

  2
L
 70
     8
280
     0
  0
ATTDEF
  5
219
330
1F1
100
AcDbEntity
  8
AM_6
100
AcDbText
 10
6.9195
 20
-15.03
 30
0.0
 40
0.5
  1
3.8800000
100
AcDbAttributeDefinition
  3

  2
L1
 70
     8
280
     0
  0
ATTDEF
  5
21A
330
1F1
100
AcDbEntity
  8
AM_6
100
AcDbText
 10
6.9195
 20
-15.53
 30
0.0
 40
0.5
  1
2.75
100
AcDbAttributeDefinition
  3

  2
M
 70
     8
280
     0
  0
ATTDEF
  5
21B
330
1F1
100
AcDbEntity
  8
AM_6
100
AcDbText
 10
6.9195
 20
-16.03
 30
0.0
 40
0.5
  1
2.750000
100
AcDbAttributeDefinition
  3

  2
M1
 70
     8
280
     0
  0
ATTDEF
  5
21C
330
1F1
100
AcDbEntity
  8
AM_6
100
AcDbText
 10
6.9195
 20
-16.53
 30
0.0
 40
0.5
  1
1.21
100
AcDbAttributeDefinition
  3

  2
R
 70
     8
280
     0
  0
ATTDEF
  5
21D
330
1F1
100
AcDbEntity
  8
AM_6
100
AcDbText
 10
6.9195
 20
-17.03
 30
0.0
 40
0.5
  1
1.210000
100
AcDbAttributeDefinition
  3

  2
R1
 70
     8
280
     0
  0
ATTDEF
  5
21E
330
1F1
100
AcDbEntity
  8
AM_6
100
AcDbText
 10
6.9195
 20
-17.53
 30
0.0
 40
0.5
  1
2.21
100
AcDbAttributeDefinition
  3

  2
S
 70
     8
280
     0
  0
ATTDEF
  5
21F
330
1F1
100
AcDbEntity
  8
AM_6
100
AcDbText
 10
6.9195
 20
-18.03
 30
0.0
 40
0.5
  1
2.210000
100
AcDbAttributeDefinition
  3

  2
S1
 70
     8
280
     0
  0
ATTDEF
  5
220
330
1F1
100
AcDbEntity
  8
AM_6
100
AcDbText
 10
6.9195
 20
-18.53
 30
0.0
 40
0.5
  1
0.25
100
AcDbAttributeDefinition
  3

  2
X
 70
     8
280
     0
  0
ATTDEF
  5
221
330
1F1
100
AcDbEntity
  8
AM_6
100
AcDbText
 10
6.9195
 20
-19.03
 30
0.0
 40
0.5
  1
0.250000
100
AcDbAttributeDefinition
  3

  2
X1
 70
     8
280
     0
  0
ATTDEF
  5
222
330
1F1
100
AcDbEntity
  8
AM_6
100
AcDbText
 10
6.9195
 20
-19.53
 30
0.0
 40
0.5
  1
0.025
100
AcDbAttributeDefinition
  3

  2
Y
 70
     8
280
     0
  0
ATTDEF
  5
223
330
1F1
100
AcDbEntity
  8
AM_6
100
AcDbText
 10
6.9195
 20
-20.03
 30
0.0
 40
0.5
  1
2.94
100
AcDbAttributeDefinition
  3

  2
Z
 70
     8
280
     0
  0
ATTDEF
  5
224
330
1F1
100
AcDbEntity
  8
AM_6
100
AcDbText
 10
6.9195
 20
-20.53
 30
0.0
 40
0.5
  1
2.940000
100
AcDbAttributeDefinition
  3

  2
Z1
 70
     8
280
     0
  0
ATTDEF
  5
225
330
1F1
100
AcDbEntity
  8
AM_6
100
AcDbText
 10
6.9195
 20
-21.03
 30
0.0
 40
0.5
  1
4.7241
100
AcDbAttributeDefinition
  3

  2
BORE
 70
     8
280
     0
  0
ATTDEF
  5
226
330
1F1
100
AcDbEntity
  8
AM_6
100
AcDbText
 10
6.9195
 20
-21.53
 30
0.0
 40
0.5
  1
0.07000
100
AcDbAttributeDefinition
  3

  2
CR
 70
     8
280
     0
  0
ATTDEF
  5
227
330
1F1
100
AcDbEntity
  8
AM_6
100
AcDbText
 10
6.9195
 20
-22.03
 30
0.0
 40
0.5
  1
baldor
100
AcDbAttributeDefinition
  3

  2
COMPANY
 70
     8
280
     0
  0
LINE
  5
228
330
1F1
100
AcDbEntity
  8
AM_9
100
AcDbLine
 10
-0.4984498623005353
 20
2.552199156323368
 30
0.0
 11
-0.5000000000000006
 21
2.572095449239783
 31
0.0
  0
LWPOLYLINE
  5
229
330
1F1
100
AcDbEntity
  8
AM_9
100
AcDbPolyline
 90
       28
 70
     0
 43
0.0
 10
0.4934911064770256
 20
2.530945123609416
 10
0.4884605841877875
 20
2.517108664714366
 10
0.4742741597257997
 20
2.489280524109309
 10
0.453821020316756
 20
2.460771656458235
 10
0.4277654401447772
 20
2.432902307122613
 10
0.3965922894699644
 20
2.406297049686995
 10
0.3600700458745627
 20
2.381061693245529
 10
0.3189363250510294
 20
2.357877589157484
 10
0.2739427818160949
 20
2.337321668181762
 10
0.2251030081294835
 20
2.319668548859393
 10
0.1732119378082338
 20
2.30532945390148
 10
0.1192506657742524
 20
2.294701509809995
 10
0.0600701021075043
 20
2.287739862424508
 10
-0.0000000000000001
 20
2.285384586211724
 10
-0.0556000705568377
 20
2.287423705399998
 10
-0.1106696279511692
 20
2.293427954270717
 10
-0.1641689522464495
 20
2.303227669782729
 10
-0.2155465346746445
 20
2.31669817569489
 10
-0.2643889962017756
 20
2.333541449404515
 10
-0.3098094969687683
 20
2.353315734656202
 10
-0.3517065481976951
 20
2.375947818428913
 10
-0.38933120941945
 20
2.400876683400346
 10
-0.4219913921510414
 20
2.427495330529694
 10
-0.4494596501368606
 20
2.455604734561118
 10
-0.4713256830618577
 20
2.484644621871119
 10
-0.4871599915299854
 20
2.513954837839437
 10
-0.4967677123838635
 20
2.543291679092138
 10
-0.4984498623005353
 20
2.552199156323368
  0
LWPOLYLINE
  5
22A
330
1F1
100
AcDbEntity
  8
AM_9
100
AcDbPolyline
 90
        3
 70
     0
 43
0.0
 10
0.5000000000000001
 20
2.572095449239783
 10
0.4970887187910273
 20
2.544889918613614
 10
0.4934911064770256
 20
2.530945123609416
  0
ELLIPSE
  5
22B
330
1F1
100
AcDbEntity
  8
AM_9
100
AcDbEllipse
 10
0.000000000000103
 20
2.572095449239957
 30
0.0
 11
0.5000000000001036
 21
0.0
 31
0.0
210
0.0
220
0.0
230
1.0
 40
0.500000000000003
 41
3.141592653589793
 42
3.221707426022952
  0
ELLIPSE
  5
22C
330
1F1
100
AcDbEntity
  8
AM_9
100
AcDbEllipse
 10
0.0
 20
2.572095449239783
 30
0.0
 11
0.5000000000000001
 21
0.0
 31
0.0
210
0.0
220
0.0
230
1.0
 40
0.5000000000000008
 41
3.221707426022274
 42
6.283185307179586
  0
ELLIPSE
  5
22D
330
1F1
100
AcDbEntity
  8
AM_9
100
AcDbEllipse
 10
-0.0000000000000001
 20
2.658697989618227
 30
0.0
 11
-0.4000000000000004
 21
4.898587196589417E-17
 31
0.0
210
0.0
220
0.0
230
1.0
 40
0.5
 41
0.0
 42
6.283185307179586
  0
LINE
  5
22E
330
1F1
100
AcDbEntity
  8
AM_9
100
AcDbLine
 10
-0.4999880242522772
 20
2.574284103953026
 30
0.0
 11
-0.4999999883838906
 21
2.572027284412041
 31
0.0
  0
LWPOLYLINE
  5
22F
330
1F1
100
AcDbEntity
  8
AM_9
100
AcDbPolyline
 90
       19
 70
     0
 43
0.0
 10
-0.1212310541186803
 20
2.863790280615148
 10
-0.1533123388746279
 20
2.858671590862857
 10
-0.1876178425563534
 20
2.851696901218565
 10
-0.2210809310383186
 20
2.843262200327075
 10
-0.2535576963532222
 20
2.833355554738568
 10
-0.2849050925258669
 20
2.821956858576308
 10
-0.3149755473674051
 20
2.809036881997889
 10
-0.3436075515033538
 20
2.794559288572602
 10
-0.3706115592310281
 20
2.778489108902925
 10
-0.3957409158336203
 20
2.760821881285486
 10
-0.418664742181655
 20
2.741641726415137
 10
-0.4390607270408864
 20
2.721106282660597
 10
-0.456646736273348
 20
2.699459365080847
 10
-0.4712436761501078
 20
2.67698582244634
 10
-0.4827930160143739
 20
2.653956752979667
 10
-0.4913256722041516
 20
2.630603220583979
 10
-0.4969184174657467
 20
2.607119989845799
 10
-0.4996644538639769
 20
2.583677681816459
 10
-0.4999880242522772
 20
2.574284103953026
  0
LWPOLYLINE
  5
230
330
1F1
100
AcDbEntity
  8
AM_9
100
AcDbPolyline
 90
        9
 70
     0
 43
0.0
 10
0.1204291920125952
 20
2.863901665927333
 10
0.0974828046007298
 20
2.86675811702374
 10
0.061643253412124
 20
2.869975247104822
 10
0.0255357109369652
 20
2.871732919023558
 10
-0.0106780803987257
 20
2.872032095841183
 10
-0.0468361187347644
 20
2.870873730871234
 10
-0.0827678119954513
 20
2.868259669851775
 10
-0.1183117819172583
 20
2.864191994594562
 10
-0.1212310541186803
 20
2.863790280615148
  0
LWPOLYLINE
  5
231
330
1F1
100
AcDbEntity
  8
AM_9
100
AcDbPolyline
 90
       20
 70
     0
 43
0.0
 10
0.4998477112097968
 20
2.579899360031309
 10
0.4992609237028097
 20
2.589279436159614
 10
0.4959753148504433
 20
2.612092898460411
 10
0.4901473367773182
 20
2.634393607153881
 10
0.4818462355734102
 20
2.656117306781674
 10
0.4711065426906045
 20
2.677224581975797
 10
0.4579245927953068
 20
2.697690063465489
 10
0.4422654802340474
 20
2.717485098294786
 10
0.4240860402126891
 20
2.73655651091213
 10
0.4033744864649729
 20
2.754808794279819
 10
0.3801945955271742
 20
2.772101471416056
 10
0.3547086753237002
 20
2.788269897013216
 10
0.3271595285489267
 20
2.803161565653358
 10
0.2978390440217155
 20
2.816658390179476
 10
0.2670312756831428
 20
2.828693271395234
 10
0.2349518980646054
 20
2.839250872549159
 10
0.2017895616732901
 20
2.848331127460202
 10
0.1677158049840461
 20
2.855939131749982
 10
0.1328935839538172
 20
2.862080184179151
 10
0.1204291920125952
 20
2.863901665927333
  0
LINE
  5
232
330
1F1
100
AcDbEntity
  8
AM_9
100
AcDbLine
 10
0.4999216029159923
 20
2.577695002135119
 30
0.0
 11
0.4998477112097968
 21
2.579899360031309
 31
0.0
  0
LINE
  5
233
330
1F1
100
AcDbEntity
  8
AM_9
100
AcDbLine
 10
0.4999999982966656
 20
2.572121551611186
 30
0.0
 11
0.4999216029159923
 21
2.577695002135119
 31
0.0
  0
LWPOLYLINE
  5
234
330
1F1
100
AcDbEntity
  8
AM_9
100
AcDbPolyline
 90
       30
 70
     0
 43
0.0
 10
-0.5000000000000006
 20
2.572095449239783
 10
-0.4970200375053686
 20
2.598916059964945
 10
-0.4879039631424418
 20
2.624917410484109
 10
-0.4727917403717378
 20
2.649515071857961
 10
-0.4519750279349661
 20
2.672330737452403
 10
-0.4254451963694
 20
2.693316650385279
 10
-0.3936136476109055
 20
2.712333065908483
 10
-0.3570645526865882
 20
2.729175839513795
 10
-0.315533144256178
 20
2.743980252387911
 10
-0.2698817548264661
 20
2.756571410761274
 10
-0.2209520255962428
 20
2.766860681612749
 10
-0.1690914652745514
 20
2.774868498940748
 10
-0.114880575230468
 20
2.780636955570369
 10
-0.0593565701925686
 20
2.784137785591697
 10
-0.0037364189975575
 20
2.785371091318637
 10
0.0521083938280786
 20
2.784416084264534
 10
0.1071149442723206
 20
2.781276858255778
 10
0.1604000028843991
 20
2.775962673542024
 10
0.2118520797152584
 20
2.76845199363889
 10
0.2605338435976385
 20
2.758783210521133
 10
0.3063807949789823
 20
2.746777941809596
 10
0.3485536656332295
 20
2.732509792957134
 10
0.3862887569115492
 20
2.716089934688652
 10
0.4195036575744095
 20
2.697273470152721
 10
0.4475240663471272
 20
2.676282051797235
 10
0.4698124197738038
 20
2.653375128028229
 10
0.4860008175866758
 20
2.628731998672581
 10
0.4961203264565422
 20
2.602441909085015
 10
0.4999671516892299
 20
2.57495628548266
 10
0.5000000000000001
 20
2.572095449239783
  0
ELLIPSE
  5
235
330
1F1
100
AcDbEntity
  8
AM_9
100
AcDbEllipse
 10
-0.0000000000000002
 20
2.572095449239782
 30
0.0
 11
0.5000000000000004
 21
0.0
 31
0.0
210
0.0
220
0.0
230
1.0
 40
0.4999999999999996
 41
0.0
 42
3.141592653589793
  0
LINE
  5
236
330
1F1
100
AcDbEntity
  8
AM_9
100
AcDbLine
 10
-1.275000000000001
 20
-2.62645673865
 30
0.0
 11
1.275000000000001
 21
-2.62645673865
 31
0.0
  0
LINE
  5
237
330
1F1
100
AcDbEntity
  8
AM_9
100
AcDbLine
 10
-1.275000000000001
 20
-1.875650195058518
 30
0.0
 11
1.275000000000001
 21
-1.875650195058518
 31
0.0
  0
LINE
  5
238
330
1F1
100
AcDbEntity
  8
AM_9
100
AcDbLine
 10
-1.5705
 20
-2.36205
 30
0.0
 11
1.5705
 21
-2.36205
 31
0.0
  0
LINE
  5
239
330
1F1
100
AcDbEntity
  8
AM_9
100
AcDbLine
 10
1.5705
 20
2.36205
 30
0.0
 11
-1.5705
 21
2.36205
 31
0.0
  0
LINE
  5
23A
330
1F1
100
AcDbEntity
  8
AM_9
100
AcDbLine
 10
-1.5705
 20
-1.03355412996329
 30
0.0
 11
-1.5705
 21
-2.75
 31
0.0
  0
LINE
  5
23B
330
1F1
100
AcDbEntity
  8
AM_9
100
AcDbLine
 10
1.5705
 20
-1.033554129963296
 30
0.0
 11
1.5705
 21
-2.75
 31
0.0
  0
LINE
  5
23C
330
1F1
100
AcDbEntity
  8
AM_9
100
AcDbLine
 10
1.275000000000001
 20
-1.772
 30
0.0
 11
-1.275
 21
-1.772
 31
0.0
  0
LINE
  5
23D
330
1F1
100
AcDbEntity
  8
AM_9
100
AcDbLine
 10
0.935
 20
-1.772
 30
0.0
 11
0.935
 21
-2.75
 31
0.0
  0
LINE
  5
23E
330
1F1
100
AcDbEntity
  8
AM_9
100
AcDbLine
 10
1.275000000000001
 20
-2.75
 30
0.0
 11
1.275000000000001
 21
-1.12
 31
0.0
  0
LINE
  5
23F
330
1F1
100
AcDbEntity
  8
AM_9
100
AcDbLine
 10
0.595
 20
-1.12
 30
0.0
 11
0.595
 21
-1.772
 31
0.0
  0
LINE
  5
240
330
1F1
100
AcDbEntity
  8
AM_9
100
AcDbLine
 10
-0.9349999999999998
 20
-1.772
 30
0.0
 11
-0.934999994933605
 21
-2.75
 31
0.0
  0
LINE
  5
241
330
1F1
100
AcDbEntity
  8
AM_9
100
AcDbLine
 10
-1.275
 20
-2.75
 30
0.0
 11
-1.275
 21
-1.12
 31
0.0
  0
LINE
  5
242
330
1F1
100
AcDbEntity
  8
AM_9
100
AcDbLine
 10
-0.5949999999999995
 20
-1.12
 30
0.0
 11
-0.5949999999999995
 21
-1.772
 31
0.0
  0
LINE
  5
243
330
1F1
100
AcDbEntity
  8
AM_7
100
AcDbLine
 10
1.9195
 20
0.0
 30
0.0
 11
-2.132249999999999
 21
0.0
 31
0.0
  0
LINE
  5
244
330
1F1
100
AcDbEntity
  8
AM_4
100
AcDbLine
 10
-1.5705
 20
2.888500000000001
 30
0.0
 11
1.5705
 21
2.8885
 31
0.0
  0
LINE
  5
245
330
1F1
100
AcDbEntity
  8
AM_4
100
AcDbLine
 10
-1.5705
 20
2.97
 30
0.0
 11
1.5705
 21
2.97
 31
0.0
  0
LINE
  5
246
330
1F1
100
AcDbEntity
  8
AM_4
100
AcDbLine
 10
1.047
 20
0.4388407911760245
 30
0.0
 11
-1.047
 21
0.4388407911760245
 31
0.0
  0
LINE
  5
247
330
1F1
100
AcDbEntity
  8
AM_4
100
AcDbLine
 10
-1.5705
 20
2.863735319037009
 30
0.0
 11
1.5705
 21
2.863735319037009
 31
0.0
  0
LINE
  5
248
330
1F1
100
AcDbEntity
  8
AM_4
100
AcDbLine
 10
-1.047
 20
-1.0385
 30
0.0
 11
1.047
 21
-1.0385
 31
0.0
  0
LINE
  5
249
330
1F1
100
AcDbEntity
  8
AM_4
100
AcDbLine
 10
-1.5705
 20
0.3681624708634912
 30
0.0
 11
-1.047
 21
0.3681624708634915
 31
0.0
  0
LINE
  5
24A
330
1F1
100
AcDbEntity
  8
AM_4
100
AcDbLine
 10
1.047
 20
0.3681624708634915
 30
0.0
 11
1.5705
 21
0.3681624708634912
 31
0.0
  0
LWPOLYLINE
  5
24B
330
1F1
100
AcDbEntity
  8
AM_4
100
AcDbPolyline
 90
       14
 70
     0
 43
0.0
 10
1.570500000000001
 20
-1.033554129963297
 10
1.577719731597807
 20
-1.045804909875468
 10
1.585979715759671
 20
-1.057379830801616
 10
1.595217089018606
 20
-1.068190800604365
 10
1.605361549386431
 20
-1.078155541275674
 10
1.616335891394358
 20
-1.087198215122159
 10
1.628056593673214
 20
-1.095250001935732
 10
1.640434454601505
 20
-1.102249622756941
 10
1.65337527118361
 20
-1.10814380624485
 10
1.666780555991461
 20
-1.11288769410411
 10
1.680548286713337
 20
-1.116445182483674
 10
1.694573682605262
 20
-1.118789196748904
 10
1.708750001935733
 20
-1.119901897535887
 10
1.714404361245804
 20
-1.12
  0
LINE
  5
24C
330
1F1
100
AcDbEntity
  8
AM_4
100
AcDbLine
 10
1.047
 20
0.4388407911760245
 30
0.0
 11
1.047
 21
-1.12
 31
0.0
  0
LINE
  5
24D
330
1F1
100
AcDbEntity
  8
AM_4
100
AcDbLine
 10
1.047
 20
-0.977205549747727
 30
0.0
 11
1.5705
 21
-0.977205549747727
 31
0.0
  0
LINE
  5
24E
330
1F1
100
AcDbEntity
  8
AM_4
100
AcDbLine
 10
1.5705
 20
2.97
 30
0.0
 11
1.5705
 21
-1.033554129963296
 31
0.0
  0
LWPOLYLINE
  5
24F
330
1F1
100
AcDbEntity
  8
AM_4
100
AcDbPolyline
 90
       14
 70
     0
 43
0.0
 10
-1.714404361245803
 20
-1.12
 10
-1.700197975177935
 20
-1.119379735788955
 10
-1.686099708286093
 20
-1.11752366374099
 10
-1.672216856894092
 20
-1.114445909685118
 10
-1.658655077883719
 20
-1.110169897188103
 10
-1.645517584582069
 20
-1.104728169286974
 10
-1.632904361245804
 20
-1.098162140816863
 10
-1.620911402120583
 20
-1.090521783219105
 10
-1.609629980866898
 20
-1.081865244228393
 10
-1.599145955912397
 20
-1.072258405333407
 10
-1.589539117017411
 20
-1.061774380378906
 10
-1.580882578026699
 20
-1.05049295912522
 10
-1.573242220428941
 20
-1.0385
 10
-1.570499999999999
 20
-1.033554129963292
  0
LINE
  5
250
330
1F1
100
AcDbEntity
  8
AM_4
100
AcDbLine
 10
-1.047
 20
0.4388407911760245
 30
0.0
 11
-1.047
 21
-1.12
 31
0.0
  0
LINE
  5
251
330
1F1
100
AcDbEntity
  8
AM_4
100
AcDbLine
 10
-1.5705
 20
-0.977205549747727
 30
0.0
 11
-1.047
 21
-0.977205549747727
 31
0.0
  0
LINE
  5
252
330
1F1
100
AcDbEntity
  8
AM_4
100
AcDbLine
 10
-1.5705
 20
-1.03355412996329
 30
0.0
 11
-1.5705
 21
2.97
 31
0.0
  0
LWPOLYLINE
  5
253
330
1F1
100
AcDbEntity
  8
AM_4
100
AcDbPolyline
 90
       11
 70
     0
 43
0.0
 10
0.9288772793001329
 20
-1.119999999999999
 10
0.7671092483203118
 20
-1.121243498944847
 10
0.6048192036553817
 20
-1.124107260586058
 10
0.4318804473082088
 20
-1.127675516818264
 10
0.2585463892876367
 20
-1.130721397874005
 10
0.0846834299065135
 20
-1.132449657960784
 10
-0.0893701216588112
 20
-1.132425064268902
 10
-0.2993767242536539
 20
-1.130099010066914
 10
-0.5092907746261179
 20
-1.126085185100999
 10
-0.7193015139483933
 20
-1.121974029098888
 10
-0.9288772793001281
 20
-1.119999999999999
  0
LINE
  5
254
330
1F1
100
AcDbEntity
  8
AM_4
100
AcDbLine
 10
-1.712583359053212
 20
-1.12
 30
0.0
 11
-1.712583359053212
 21
-1.935
 31
0.0
  0
LINE
  5
255
330
1F1
100
AcDbEntity
  8
AM_4
100
AcDbLine
 10
-1.745
 20
-1.12
 30
0.0
 11
-1.745
 21
-2.75
 31
0.0
  0
LINE
  5
256
330
1F1
100
AcDbEntity
  8
AM_4
100
AcDbLine
 10
-1.396
 20
-1.935
 30
0.0
 11
-1.396
 21
-2.75
 31
0.0
  0
LINE
  5
257
330
1F1
100
AcDbEntity
  8
AM_4
100
AcDbLine
 10
1.745
 20
-2.75
 30
0.0
 11
-1.745
 21
-2.75
 31
0.0
  0
LINE
  5
258
330
1F1
100
AcDbEntity
  8
AM_4
100
AcDbLine
 10
1.712583359053211
 20
-1.935
 30
0.0
 11
1.712583359053211
 21
-1.12
 31
0.0
  0
LINE
  5
259
330
1F1
100
AcDbEntity
  8
AM_4
100
AcDbLine
 10
-1.712583359053212
 20
-1.935
 30
0.0
 11
1.712583359053211
 21
-1.935
 31
0.0
  0
LINE
  5
25A
330
1F1
100
AcDbEntity
  8
AM_4
100
AcDbLine
 10
1.395999999999999
 20
-1.935
 30
0.0
 11
1.396
 21
-2.75
 31
0.0
  0
LINE
  5
25B
330
1F1
100
AcDbEntity
  8
AM_4
100
AcDbLine
 10
1.745
 20
-1.119999999999999
 30
0.0
 11
1.745
 21
-2.75
 31
0.0
  0
LINE
  5
25C
330
1F1
100
AcDbEntity
  8
AM_4
100
AcDbLine
 10
-1.745
 20
-1.12
 30
0.0
 11
1.745
 21
-1.119999999999999
 31
0.0
  0
ENDBLK
  5
1F4
330
1F1
100
AcDbEntity
  8
0
100
AcDbBlockEnd
  0
ENDSEC
  0
SECTION
  2
ENTITIES
  0
INSERT
  5
6F
330
1F
100
AcDbEntity
  8
0
100
AcDbBlockReference
  2
1_071222_2
 10
0.0
 20
0.0
 30
0.0
  0
POINT
  5
25E
330
1F
100
AcDbEntity
  8
ConnectionPoints
100
AcDbPoint
 10
-1.758666666666667
 20
-1.645833333333333
 30
0.0000000000000001
  0
POINT
  5
25F
330
1F
100
AcDbEntity
  8
ConnectionPoints
100
AcDbPoint
 10
-1.758666666666667
 20
1.645833333333333
 30
0.0000000000000001
  0
POINT
  5
260
330
1F
100
AcDbEntity
  8
ConnectionPoints
100
AcDbPoint
 10
-1.688666666666667
 20
0.0
 30
0.0000000000000001
  0
POINT
  5
261
330
1F
100
AcDbEntity
  8
ConnectionPoints
100
AcDbPoint
 10
-1.96
 20
0.0
 30
0.0000000000000001
  0
POINT
  5
262
330
1F
100
AcDbEntity
  8
ConnectionPoints
100
AcDbPoint
 10
-1.887666666666667
 20
0.0
 30
0.0000000000000001
  0
POINT
  5
263
330
1F
100
AcDbEntity
  8
ConnectionPoints
100
AcDbPoint
 10
-1.688666666666667
 20
1.645833333333333
 30
0.0000000000000001
  0
POINT
  5
264
330
1F
100
AcDbEntity
  8
ConnectionPoints
100
AcDbPoint
 10
-1.688666666666667
 20
-1.645833333333333
 30
0.0000000000000001
  0
POINT
  5
265
330
1F
100
AcDbEntity
  8
ConnectionPoints
100
AcDbPoint
 10
-1.688666666666667
 20
0.0
 30
0.0000000000000001
  0
POINT
  5
266
330
1F
100
AcDbEntity
  8
ConnectionPoints
100
AcDbPoint
 10
-0.0000000000000001
 20
2.658697989618227
 30
-1.535
  0
POINT
  5
267
330
1F
100
AcDbEntity
  8
ConnectionPoints
100
AcDbPoint
 10
-1.96
 20
0.0
 30
0.0000000000000001
  0
POINT
  5
268
330
1F
100
AcDbEntity
  8
ConnectionPoints
100
AcDbPoint
 10
-2.21
 20
0.0
 30
0.0000000000000001
  0
ENDSEC
  0
SECTION
  2
OBJECTS
  0
DICTIONARY
  5
C
330
0
100
AcDbDictionary
281
     1
  3
ACAD_DETAILVIEWSTYLE
350
270
  3
ACAD_GROUP
350
D
  3
ACAD_LAYOUT
350
1A
  3
ACAD_MATERIAL
350
43
  3
ACAD_MLEADERSTYLE
350
6B
  3
ACAD_MLINESTYLE
350
17
  3
ACAD_PLOTSETTINGS
350
19
  3
ACAD_PLOTSTYLENAME
350
E
  3
ACAD_SCALELIST
350
47
  3
ACAD_SECTIONVIEWSTYLE
350
271
  3
ACAD_TABLESTYLE
350
69
  3
ACAD_VISUALSTYLE
350
2A
  3
ACDB_RECOMPOSE_DATA
350
26D
  3
AcDbVariableDictionary
350
269
  0
SUN
  5
6D
330
29
100
AcDbSun
 90
        1
290
     0
 63
     7
421
 16777215
 40
1.0
291
     1
 91
  2455826
 92
 54000000
292
     0
 70
     2
 71
   256
280
     1
  0
DICTIONARY
  5
270
102
{ACAD_REACTORS
330
C
102
}
330
C
100
AcDbDictionary
281
     1
  0
DICTIONARY
  5
D
102
{ACAD_REACTORS
330
C
102
}
330
C
100
AcDbDictionary
281
     1
  0
DICTIONARY
  5
1A
102
{ACAD_REACTORS
330
C
102
}
330
C
100
AcDbDictionary
281
     1
  3
Layout1
350
1E
  3
Layout2
350
26
  3
Model
350
22
  0
DICTIONARY
  5
43
102
{ACAD_REACTORS
330
C
102
}
330
C
100
AcDbDictionary
281
     1
  3
ByBlock
350
45
  3
ByLayer
350
44
  3
Global
350
46
  0
DICTIONARY
  5
6B
102
{ACAD_REACTORS
330
C
102
}
330
C
100
AcDbDictionary
281
     1
  3
Standard
350
6C
  0
DICTIONARY
  5
17
102
{ACAD_REACTORS
330
C
102
}
330
C
100
AcDbDictionary
281
     1
  3
Standard
350
18
  0
DICTIONARY
  5
19
102
{ACAD_REACTORS
330
C
102
}
330
C
100
AcDbDictionary
281
     1
  0
ACDBDICTIONARYWDFLT
  5
E
102
{ACAD_REACTORS
330
C
102
}
330
C
100
AcDbDictionary
281
     1
  3
Normal
350
F
100
AcDbDictionaryWithDefault
340
F
  0
DICTIONARY
  5
47
102
{ACAD_REACTORS
330
C
102
}
330
C
100
AcDbDictionary
281
     1
  3
A0
350
48
  3
A1
350
49
  3
A2
350
4A
  3
A3
350
4B
  3
A4
350
4C
  3
A5
350
4D
  3
A6
350
4E
  3
A7
350
4F
  3
A8
350
50
  3
A9
350
51
  3
B0
350
52
  3
B1
350
53
  3
B2
350
54
  3
B3
350
55
  3
B4
350
56
  3
B5
350
57
  3
B6
350
58
  3
B7
350
59
  3
B8
350
5A
  3
B9
350
5B
  3
C0
350
5C
  3
C1
350
5D
  3
C2
350
5E
  3
C3
350
5F
  3
C4
350
60
  3
C5
350
61
  3
C6
350
62
  3
C7
350
63
  3
C8
350
64
  3
C9
350
65
  3
D0
350
66
  3
D1
350
67
  3
D2
350
68
  0
DICTIONARY
  5
271
102
{ACAD_REACTORS
330
C
102
}
330
C
100
AcDbDictionary
281
     1
  0
DICTIONARY
  5
69
102
{ACAD_REACTORS
330
C
102
}
330
C
100
AcDbDictionary
281
     1
  3
Standard
350
6A
  0
DICTIONARY
  5
2A
102
{ACAD_REACTORS
330
C
102
}
330
C
100
AcDbDictionary
281
     1
  3
2dWireframe
350
2F
  3
Basic
350
32
  3
Brighten
350
36
  3
ColorChange
350
3A
  3
Conceptual
350
34
  3
Dim
350
35
  3
EdgeColorOff
350
3D
  3
Facepattern
350
39
  3
Flat
350
2B
  3
FlatWithEdges
350
2C
  3
Gouraud
350
2D
  3
GouraudWithEdges
350
2E
  3
Hidden
350
31
  3
JitterOff
350
3B
  3
Linepattern
350
38
  3
OverhangOff
350
3C
  3
Realistic
350
33
  3
Shaded
350
42
  3
Shaded with edges
350
41
  3
Shades of Gray
350
3E
  3
Sketchy
350
3F
  3
Thicken
350
37
  3
Wireframe
350
30
  3
X-Ray
350
40
  0
XRECORD
  5
26D
102
{ACAD_REACTORS
330
C
102
}
330
C
100
AcDbXrecord
280
     1
 90
        1
330
6A
  0
DICTIONARY
  5
269
102
{ACAD_REACTORS
330
C
102
}
330
C
100
AcDbDictionary
281
     1
  3
CANNOSCALE
350
26A
  3
CMLEADERSTYLE
350
26F
  3
CTABLESTYLE
350
26E
  0
LAYOUT
  5
1E
102
{ACAD_REACTORS
330
1A
102
}
330
1A
100
AcDbPlotSettings
  1

  2
none_device
  4

  6

 40
0.0
 41
0.0
 42
0.0
 43
0.0
 44
0.0
 45
0.0
 46
0.0
 47
0.0
 48
0.0
 49
0.0
140
0.0
141
0.0
142
1.0
143
1.0
 70
   688
 72
     0
 73
     0
 74
     5
  7

 75
    16
 76
     0
 77
     2
 78
   300
147
1.0
148
0.0
149
0.0
100
AcDbLayout
  1
Layout1
 70
     1
 71
     1
 10
0.0
 20
0.0
 11
12.0
 21
9.0
 12
0.0
 22
0.0
 32
0.0
 14
1.000000000000000E+20
 24
1.000000000000000E+20
 34
1.000000000000000E+20
 15
-1.000000000000000E+20
 25
-1.000000000000000E+20
 35
-1.000000000000000E+20
146
0.0
 13
0.0
 23
0.0
 33
0.0
 16
1.0
 26
0.0
 36
0.0
 17
0.0
 27
1.0
 37
0.0
 76
     0
330
1B
  0
LAYOUT
  5
26
102
{ACAD_REACTORS
330
1A
102
}
330
1A
100
AcDbPlotSettings
  1

  2
none_device
  4

  6

 40
0.0
 41
0.0
 42
0.0
 43
0.0
 44
0.0
 45
0.0
 46
0.0
 47
0.0
 48
0.0
 49
0.0
140
0.0
141
0.0
142
1.0
143
1.0
 70
   688
 72
     0
 73
     0
 74
     5
  7

 75
    16
 76
     0
 77
     2
 78
   300
147
1.0
148
0.0
149
0.0
100
AcDbLayout
  1
Layout2
 70
     1
 71
     2
 10
0.0
 20
0.0
 11
0.0
 21
0.0
 12
0.0
 22
0.0
 32
0.0
 14
0.0
 24
0.0
 34
0.0
 15
0.0
 25
0.0
 35
0.0
146
0.0
 13
0.0
 23
0.0
 33
0.0
 16
1.0
 26
0.0
 36
0.0
 17
0.0
 27
1.0
 37
0.0
 76
     0
330
23
  0
LAYOUT
  5
22
102
{ACAD_REACTORS
330
1A
102
}
330
1A
100
AcDbPlotSettings
  1

  2
none_device
  4
Letter_(8.50_x_11.00_Inches)
  6

 40
6.35
 41
6.35
 42
6.35000508
 43
6.35000508
 44
215.9
 45
279.4
 46
0.0
 47
0.0
 48
0.0
 49
0.0
140
0.0
141
0.0
142
1.0
143
1.0
 70
  1712
 72
     0
 73
     0
 74
     0
  7

 75
     0
 76
     0
 77
     2
 78
   300
147
1.0
148
0.0
149
0.0
100
AcDbLayout
  1
Model
 70
     1
 71
     0
 10
0.0
 20
0.0
 11
12.0
 21
9.0
 12
0.0
 22
0.0
 32
0.0
 14
1.000000000000000E+20
 24
1.000000000000000E+20
 34
1.000000000000000E+20
 15
-1.000000000000000E+20
 25
-1.000000000000000E+20
 35
-1.000000000000000E+20
146
0.0
 13
0.0
 23
0.0
 33
0.0
 16
1.0
 26
0.0
 36
0.0
 17
0.0
 27
1.0
 37
0.0
 76
     0
330
1F
331
29
  0
MATERIAL
  5
45
102
{ACAD_REACTORS
330
43
102
}
330
43
100
AcDbMaterial
  1
ByBlock
 72
     1
 94
      127
  0
MATERIAL
  5
44
102
{ACAD_REACTORS
330
43
102
}
330
43
100
AcDbMaterial
  1
ByLayer
 72
     1
 94
      127
  0
MATERIAL
  5
46
102
{ACAD_REACTORS
330
43
102
}
330
43
100
AcDbMaterial
  1
Global
 72
     1
 94
      127
  0
MLEADERSTYLE
  5
6C
102
{ACAD_REACTORS
330
6B
102
}
330
6B
100
AcDbMLeaderStyle
179
     2
170
     2
171
     1
172
     0
 90
        2
 40
0.0
 41
0.0
173
     1
 91
-1056964608
340
14
 92
       -2
290
     1
 42
0.09
291
     1
 43
0.36
  3
Standard
341
0
 44
0.18
300

342
11
174
     1
178
     6
175
     1
176
     0
 93
-1056964608
 45
0.18
292
     0
297
     0
 46
0.18
343
0
 94
-1056964608
 47
1.0
 49
1.0
140
1.0
293
     1
141
0.0
294
     1
177
     0
142
1.0
295
     0
296
     0
143
0.125
271
     0
272
     9
273
     9
298
     0
  0
MLINESTYLE
  5
18
102
{ACAD_REACTORS
330
17
102
}
330
17
100
AcDbMlineStyle
  2
Standard
 70
     0
  3

 62
   256
 51
90.0
 52
90.0
 71
     2
 49
0.5
 62
   256
  6
BYLAYER
 49
-0.5
 62
   256
  6
BYLAYER
  0
ACDBPLACEHOLDER
  5
F
102
{ACAD_REACTORS
330
E
102
}
330
E
  0
SCALE
  5
48
102
{ACAD_REACTORS
330
47
102
}
330
47
100
AcDbScale
 70
     0
300
1:1
140
1.0
141
1.0
290
     1
  0
SCALE
  5
49
102
{ACAD_REACTORS
330
47
102
}
330
47
100
AcDbScale
 70
     0
300
1:2
140
1.0
141
2.0
290
     0
  0
SCALE
  5
4A
102
{ACAD_REACTORS
330
47
102
}
330
47
100
AcDbScale
 70
     0
300
1:4
140
1.0
141
4.0
290
     0
  0
SCALE
  5
4B
102
{ACAD_REACTORS
330
47
102
}
330
47
100
AcDbScale
 70
     0
300
1:5
140
1.0
141
5.0
290
     0
  0
SCALE
  5
4C
102
{ACAD_REACTORS
330
47
102
}
330
47
100
AcDbScale
 70
     0
300
1:8
140
1.0
141
8.0
290
     0
  0
SCALE
  5
4D
102
{ACAD_REACTORS
330
47
102
}
330
47
100
AcDbScale
 70
     0
300
1:10
140
1.0
141
10.0
290
     0
  0
SCALE
  5
4E
102
{ACAD_REACTORS
330
47
102
}
330
47
100
AcDbScale
 70
     0
300
1:16
140
1.0
141
16.0
290
     0
  0
SCALE
  5
4F
102
{ACAD_REACTORS
330
47
102
}
330
47
100
AcDbScale
 70
     0
300
1:20
140
1.0
141
20.0
290
     0
  0
SCALE
  5
50
102
{ACAD_REACTORS
330
47
102
}
330
47
100
AcDbScale
 70
     0
300
1:30
140
1.0
141
30.0
290
     0
  0
SCALE
  5
51
102
{ACAD_REACTORS
330
47
102
}
330
47
100
AcDbScale
 70
     0
300
1:40
140
1.0
141
40.0
290
     0
  0
SCALE
  5
52
102
{ACAD_REACTORS
330
47
102
}
330
47
100
AcDbScale
 70
     0
300
1:50
140
1.0
141
50.0
290
     0
  0
SCALE
  5
53
102
{ACAD_REACTORS
330
47
102
}
330
47
100
AcDbScale
 70
     0
300
1:100
140
1.0
141
100.0
290
     0
  0
SCALE
  5
54
102
{ACAD_REACTORS
330
47
102
}
330
47
100
AcDbScale
 70
     0
300
2:1
140
2.0
141
1.0
290
     0
  0
SCALE
  5
55
102
{ACAD_REACTORS
330
47
102
}
330
47
100
AcDbScale
 70
     0
300
4:1
140
4.0
141
1.0
290
     0
  0
SCALE
  5
56
102
{ACAD_REACTORS
330
47
102
}
330
47
100
AcDbScale
 70
     0
300
8:1
140
8.0
141
1.0
290
     0
  0
SCALE
  5
57
102
{ACAD_REACTORS
330
47
102
}
330
47
100
AcDbScale
 70
     0
300
10:1
140
10.0
141
1.0
290
     0
  0
SCALE
  5
58
102
{ACAD_REACTORS
330
47
102
}
330
47
100
AcDbScale
 70
     0
300
100:1
140
100.0
141
1.0
290
     0
  0
SCALE
  5
59
102
{ACAD_REACTORS
330
47
102
}
330
47
100
AcDbScale
 70
     0
300
1/128" = 1'-0"
140
0.0078125
141
12.0
290
     0
  0
SCALE
  5
5A
102
{ACAD_REACTORS
330
47
102
}
330
47
100
AcDbScale
 70
     0
300
1/64" = 1'-0"
140
0.015625
141
12.0
290
     0
  0
SCALE
  5
5B
102
{ACAD_REACTORS
330
47
102
}
330
47
100
AcDbScale
 70
     0
300
1/32" = 1'-0"
140
0.03125
141
12.0
290
     0
  0
SCALE
  5
5C
102
{ACAD_REACTORS
330
47
102
}
330
47
100
AcDbScale
 70
     0
300
1/16" = 1'-0"
140
0.0625
141
12.0
290
     0
  0
SCALE
  5
5D
102
{ACAD_REACTORS
330
47
102
}
330
47
100
AcDbScale
 70
     0
300
3/32" = 1'-0"
140
0.09375
141
12.0
290
     0
  0
SCALE
  5
5E
102
{ACAD_REACTORS
330
47
102
}
330
47
100
AcDbScale
 70
     0
300
1/8" = 1'-0"
140
0.125
141
12.0
290
     0
  0
SCALE
  5
5F
102
{ACAD_REACTORS
330
47
102
}
330
47
100
AcDbScale
 70
     0
300
3/16" = 1'-0"
140
0.1875
141
12.0
290
     0
  0
SCALE
  5
60
102
{ACAD_REACTORS
330
47
102
}
330
47
100
AcDbScale
 70
     0
300
1/4" = 1'-0"
140
0.25
141
12.0
290
     0
  0
SCALE
  5
61
102
{ACAD_REACTORS
330
47
102
}
330
47
100
AcDbScale
 70
     0
300
3/8" = 1'-0"
140
0.375
141
12.0
290
     0
  0
SCALE
  5
62
102
{ACAD_REACTORS
330
47
102
}
330
47
100
AcDbScale
 70
     0
300
1/2" = 1'-0"
140
0.5
141
12.0
290
     0
  0
SCALE
  5
63
102
{ACAD_REACTORS
330
47
102
}
330
47
100
AcDbScale
 70
     0
300
3/4" = 1'-0"
140
0.75
141
12.0
290
     0
  0
SCALE
  5
64
102
{ACAD_REACTORS
330
47
102
}
330
47
100
AcDbScale
 70
     0
300
1" = 1'-0"
140
1.0
141
12.0
290
     0
  0
SCALE
  5
65
102
{ACAD_REACTORS
330
47
102
}
330
47
100
AcDbScale
 70
     0
300
1-1/2" = 1'-0"
140
1.5
141
12.0
290
     0
  0
SCALE
  5
66
102
{ACAD_REACTORS
330
47
102
}
330
47
100
AcDbScale
 70
     0
300
3" = 1'-0"
140
3.0
141
12.0
290
     0
  0
SCALE
  5
67
102
{ACAD_REACTORS
330
47
102
}
330
47
100
AcDbScale
 70
     0
300
6" = 1'-0"
140
6.0
141
12.0
290
     0
  0
SCALE
  5
68
102
{ACAD_REACTORS
330
47
102
}
330
47
100
AcDbScale
 70
     0
300
1'-0" = 1'-0"
140
12.0
141
12.0
290
     0
  0
TABLESTYLE
  5
6A
102
{ACAD_REACTORS
330
69
102
}
102
{ACAD_XDICTIONARY
360
26B
102
}
330
69
100
AcDbTableStyle
  3
Standard
 70
     0
 71
     0
 40
0.06
 41
0.06
280
     0
281
     0
  7
Standard
140
0.18
170
     2
 62
     0
 63
   257
283
     0
 90
        4
 91
        0
  1

274
    -2
284
     1
 64
     0
275
    -2
285
     1
 65
     0
276
    -2
286
     1
 66
     0
277
    -2
287
     1
 67
     0
278
    -2
288
     1
 68
     0
279
    -2
289
     1
 69
     0
  7
Standard
140
0.25
170
     5
 62
     0
 63
   257
283
     0
 90
        4
 91
        0
  1

274
    -2
284
     1
 64
     0
275
    -2
285
     1
 65
     0
276
    -2
286
     1
 66
     0
277
    -2
287
     1
 67
     0
278
    -2
288
     1
 68
     0
279
    -2
289
     1
 69
     0
  7
Standard
140
0.18
170
     5
 62
     0
 63
   257
283
     0
 90
        4
 91
        0
  1

274
    -2
284
     1
 64
     0
275
    -2
285
     1
 65
     0
276
    -2
286
     1
 66
     0
277
    -2
287
     1
 67
     0
278
    -2
288
     1
 68
     0
279
    -2
289
     1
 69
     0
  0
VISUALSTYLE
  5
2F
102
{ACAD_REACTORS
330
2A
102
}
330
2A
100
AcDbVisualStyle
  2
2dWireframe
 70
     4
177
     3
291
     0
 70
    58
 90
        0
176
     1
 90
        2
176
     1
 90
        0
176
     1
 90
        0
176
     1
 40
0.6
176
     1
 40
30.0
176
     1
 62
     7
420
 16777215
176
     1
 90
        1
176
     1
 90
        4
176
     1
 62
     7
176
     1
 62
   257
176
     1
 90
        1
176
     1
 90
        1
176
     1
 40
1.0
176
     1
 90
        0
176
     1
 62
   257
176
     1
 40
1.0
176
     1
 90
        1
176
     1
 90
        6
176
     1
 90
        2
176
     1
 62
     7
176
     1
 90
        5
176
     1
 90
        0
176
     1
 90
        0
176
     1
290
     0
176
     1
 90
        1
176
     1
 40
0.0
176
     1
 90
        0
176
     1
290
     1
176
     1
290
     1
176
     1
290
     0
176
     1
290
     0
176
     1
290
     0
176
     1
290
     0
176
     1
290
     0
176
     1
290
     0
176
     1
290
     0
176
     1
 90
       50
176
     1
 40
0.0
176
     1
 40
1.0
176
     1
 90
        0
176
     1
 62
    18
420
        0
176
     1
 90
       50
176
     1
 90
        3
176
     1
 62
     5
420
      255
176
     1
290
     0
176
     1
 90
       50
176
     1
 90
       50
176
     1
 90
       50
176
     1
290
     0
176
     1
 90
       50
176
     1
 62
   256
176
     0
 40
1.0
176
     0
 90
        2
176
     1
  1
strokes_ogs.tif
176
     1
290
     0
176
     1
 40
1.0
176
     1
 40
1.0
176
     1
  0
VISUALSTYLE
  5
32
102
{ACAD_REACTORS
330
2A
102
}
330
2A
100
AcDbVisualStyle
  2
Basic
 70
     7
177
     3
291
     1
 70
    58
 90
        1
176
     1
 90
        0
176
     1
 90
        1
176
     1
 90
        0
176
     1
 40
0.6
176
     1
 40
30.0
176
     1
 62
     7
420
 16777215
176
     1
 90
        0
176
     1
 90
        4
176
     1
 62
     7
176
     1
 62
   257
176
     1
 90
        1
176
     1
 90
        1
176
     1
 40
1.0
176
     1
 90
        8
176
     1
 62
     7
176
     1
 40
1.0
176
     1
 90
        1
176
     1
 90
        6
176
     1
 90
        2
176
     1
 62
     7
176
     1
 90
        5
176
     1
 90
        0
176
     1
 90
        0
176
     1
290
     0
176
     1
 90
        1
176
     1
 40
0.0
176
     1
 90
        0
176
     1
290
     0
176
     1
290
     1
176
     1
290
     1
176
     1
290
     0
176
     1
290
     0
176
     1
290
     0
176
     1
290
     0
176
     1
290
     0
176
     1
290
     0
176
     1
 90
       50
176
     1
 40
0.0
176
     1
 40
1.0
176
     1
 90
        0
176
     1
 62
    18
420
        0
176
     1
 90
       50
176
     1
 90
        3
176
     1
 62
     5
420
      255
176
     1
290
     0
176
     1
 90
       50
176
     1
 90
       50
176
     1
 90
       50
176
     1
290
     0
176
     1
 90
       50
176
     1
 62
   256
176
     0
 40
1.0
176
     0
 90
        2
176
     1
  1
strokes_ogs.tif
176
     1
290
     0
176
     1
 40
1.0
176
     1
 40
1.0
176
     1
  0
VISUALSTYLE
  5
36
102
{ACAD_REACTORS
330
2A
102
}
330
2A
100
AcDbVisualStyle
  2
Brighten
 70
    12
177
     3
291
     1
 70
    58
 90
        2
176
     1
 90
        2
176
     1
 90
        0
176
     1
 90
        0
176
     1
 40
0.6
176
     1
 40
30.0
176
     1
 62
     7
420
 16777215
176
     1
 90
        1
176
     1
 90
        4
176
     1
 62
     7
176
     1
 62
   257
176
     1
 90
        1
176
     1
 90
        1
176
     1
 40
1.0
176
     1
 90
        8
176
     1
 62
     7
176
     1
 40
1.0
176
     1
 90
        1
176
     1
 90
        6
176
     1
 90
        2
176
     1
 62
     7
176
     1
 90
        5
176
     1
 90
        0
176
     1
 90
        0
176
     1
290
     0
176
     1
 90
        1
176
     1
 40
50.0
176
     1
 90
        0
176
     1
290
     0
176
     1
290
     1
176
     1
290
     1
176
     1
290
     0
176
     1
290
     0
176
     1
290
     0
176
     1
290
     0
176
     1
290
     0
176
     1
290
     0
176
     1
 90
       50
176
     1
 40
0.0
176
     1
 40
1.0
176
     1
 90
        0
176
     1
 62
    18
420
        0
176
     1
 90
       50
176
     1
 90
        3
176
     1
 62
     5
420
      255
176
     1
290
     0
176
     1
 90
       50
176
     1
 90
       50
176
     1
 90
       50
176
     1
290
     0
176
     1
 90
       50
176
     1
 62
   256
176
     0
 40
1.0
176
     0
 90
        2
176
     1
  1
strokes_ogs.tif
176
     1
290
     0
176
     1
 40
1.0
176
     1
 40
1.0
176
     1
  0
VISUALSTYLE
  5
3A
102
{ACAD_REACTORS
330
2A
102
}
330
2A
100
AcDbVisualStyle
  2
ColorChange
 70
    16
177
     3
291
     1
 70
    58
 90
        2
176
     1
 90
        2
176
     1
 90
        3
176
     1
 90
        0
176
     1
 40
0.6
176
     1
 40
30.0
176
     1
 62
     8
420
  8421504
176
     1
 90
        1
176
     1
 90
        4
176
     1
 62
     7
176
     1
 62
   257
176
     1
 90
        1
176
     1
 90
        1
176
     1
 40
1.0
176
     1
 90
        8
176
     1
 62
     8
420
  8421504
176
     1
 40
1.0
176
     1
 90
        1
176
     1
 90
        6
176
     1
 90
        2
176
     1
 62
     7
176
     1
 90
        5
176
     1
 90
        0
176
     1
 90
        0
176
     1
290
     0
176
     1
 90
        1
176
     1
 40
0.0
176
     1
 90
        0
176
     1
290
     0
176
     1
290
     1
176
     1
290
     1
176
     1
290
     0
176
     1
290
     0
176
     1
290
     0
176
     1
290
     0
176
     1
290
     0
176
     1
290
     0
176
     1
 90
       50
176
     1
 40
0.0
176
     1
 40
1.0
176
     1
 90
        0
176
     1
 62
    18
420
        0
176
     1
 90
       50
176
     1
 90
        3
176
     1
 62
     5
420
      255
176
     1
290
     0
176
     1
 90
       50
176
     1
 90
       50
176
     1
 90
       50
176
     1
290
     0
176
     1
 90
       50
176
     1
 62
   256
176
     0
 40
1.0
176
     0
 90
        2
176
     1
  1
strokes_ogs.tif
176
     1
290
     0
176
     1
 40
1.0
176
     1
 40
1.0
176
     1
  0
VISUALSTYLE
  5
34
102
{ACAD_REACTORS
330
2A
102
}
330
2A
100
AcDbVisualStyle
  2
Conceptual
 70
     9
177
     3
291
     0
 70
    58
 90
        3
176
     1
 90
        2
176
     1
 90
        0
176
     1
 90
        0
176
     1
 40
0.6
176
     1
 40
30.0
176
     1
 62
     7
420
 16777215
176
     1
 90
        2
176
     1
 90
        2
176
     1
 62
     7
176
     1
 62
   257
176
     1
 90
        1
176
     1
 90
        1
176
     1
 40
179.0
176
     1
 90
        8
176
     1
 62
     7
176
     1
 40
1.0
176
     1
 90
        1
176
     1
 90
        6
176
     1
 90
        2
176
     1
 62
     7
176
     1
 90
        3
176
     1
 90
        0
176
     1
 90
        0
176
     1
290
     0
176
     1
 90
        1
176
     1
 40
0.0
176
     1
 90
        0
176
     1
290
     0
176
     1
290
     1
176
     1
290
     1
176
     1
290
     0
176
     1
290
     0
176
     1
290
     0
176
     1
290
     0
176
     1
290
     0
176
     1
290
     0
176
     1
 90
       50
176
     1
 40
0.0
176
     1
 40
1.0
176
     1
 90
        0
176
     1
 62
    18
420
        0
176
     1
 90
       50
176
     1
 90
        3
176
     1
 62
     5
420
      255
176
     1
290
     0
176
     1
 90
       50
176
     1
 90
       50
176
     1
 90
       50
176
     1
290
     0
176
     1
 90
       50
176
     1
 62
   256
176
     0
 40
1.0
176
     0
 90
        2
176
     1
  1
strokes_ogs.tif
176
     1
290
     0
176
     1
 40
1.0
176
     1
 40
1.0
176
     1
  0
VISUALSTYLE
  5
35
102
{ACAD_REACTORS
330
2A
102
}
330
2A
100
AcDbVisualStyle
  2
Dim
 70
    11
177
     3
291
     1
 70
    58
 90
        2
176
     1
 90
        2
176
     1
 90
        0
176
     1
 90
        0
176
     1
 40
0.6
176
     1
 40
30.0
176
     1
 62
     7
420
 16777215
176
     1
 90
        1
176
     1
 90
        4
176
     1
 62
     7
176
     1
 62
   257
176
     1
 90
        1
176
     1
 90
        1
176
     1
 40
1.0
176
     1
 90
        8
176
     1
 62
     7
176
     1
 40
1.0
176
     1
 90
        1
176
     1
 90
        6
176
     1
 90
        2
176
     1
 62
     7
176
     1
 90
        5
176
     1
 90
        0
176
     1
 90
        0
176
     1
290
     0
176
     1
 90
        1
176
     1
 40
-50.0
176
     1
 90
        0
176
     1
290
     0
176
     1
290
     1
176
     1
290
     1
176
     1
290
     0
176
     1
290
     0
176
     1
290
     0
176
     1
290
     0
176
     1
290
     0
176
     1
290
     0
176
     1
 90
       50
176
     1
 40
0.0
176
     1
 40
1.0
176
     1
 90
        0
176
     1
 62
    18
420
        0
176
     1
 90
       50
176
     1
 90
        3
176
     1
 62
     5
420
      255
176
     1
290
     0
176
     1
 90
       50
176
     1
 90
       50
176
     1
 90
       50
176
     1
290
     0
176
     1
 90
       50
176
     1
 62
   256
176
     0
 40
1.0
176
     0
 90
        2
176
     1
  1
strokes_ogs.tif
176
     1
290
     0
176
     1
 40
1.0
176
     1
 40
1.0
176
     1
  0
VISUALSTYLE
  5
3D
102
{ACAD_REACTORS
330
2A
102
}
330
2A
100
AcDbVisualStyle
  2
EdgeColorOff
 70
    22
177
     3
291
     1
 70
    58
 90
        2
176
     0
 90
        2
176
     0
 90
        0
176
     0
 90
        0
176
     0
 40
0.6
176
     0
 40
30.0
176
     0
 62
     7
420
 16777215
176
     0
 90
        1
176
     0
 90
        4
176
     0
 62
     7
176
     0
 62
   257
176
     0
 90
        1
176
     0
 90
        1
176
     0
 40
1.0
176
     0
 90
        8
176
     2
 62
     7
176
     0
 40
1.0
176
     0
 90
        1
176
     0
 90
        6
176
     0
 90
        2
176
     0
 62
     7
176
     0
 90
        5
176
     0
 90
        0
176
     0
 90
        0
176
     0
290
     0
176
     0
 90
        1
176
     0
 40
0.0
176
     0
 90
        0
176
     0
290
     0
176
     0
290
     1
176
     0
290
     1
176
     0
290
     0
176
     0
290
     0
176
     0
290
     0
176
     0
290
     0
176
     0
290
     0
176
     0
290
     0
176
     0
 90
       50
176
     0
 40
0.0
176
     0
 40
1.0
176
     0
 90
        0
176
     0
 62
    18
420
        0
176
     0
 90
       50
176
     0
 90
        3
176
     0
 62
     5
420
      255
176
     0
290
     0
176
     0
 90
       50
176
     0
 90
       50
176
     0
 90
       50
176
     0
290
     0
176
     0
 90
       50
176
     0
 62
   256
176
     0
 40
1.0
176
     0
 90
        2
176
     0
  1
strokes_ogs.tif
176
     0
290
     0
176
     0
 40
1.0
176
     0
 40
1.0
176
     0
  0
VISUALSTYLE
  5
39
102
{ACAD_REACTORS
330
2A
102
}
330
2A
100
AcDbVisualStyle
  2
Facepattern
 70
    15
177
     3
291
     1
 70
    58
 90
        2
176
     1
 90
        2
176
     1
 90
        0
176
     1
 90
        0
176
     1
 40
0.6
176
     1
 40
30.0
176
     1
 62
     7
420
 16777215
176
     1
 90
        1
176
     1
 90
        4
176
     1
 62
     7
176
     1
 62
   257
176
     1
 90
        1
176
     1
 90
        1
176
     1
 40
1.0
176
     1
 90
        8
176
     1
 62
     7
176
     1
 40
1.0
176
     1
 90
        1
176
     1
 90
        6
176
     1
 90
        2
176
     1
 62
     7
176
     1
 90
        5
176
     1
 90
        0
176
     1
 90
        0
176
     1
290
     0
176
     1
 90
        1
176
     1
 40
0.0
176
     1
 90
        0
176
     1
290
     0
176
     1
290
     1
176
     1
290
     1
176
     1
290
     0
176
     1
290
     0
176
     1
290
     0
176
     1
290
     0
176
     1
290
     0
176
     1
290
     0
176
     1
 90
       50
176
     1
 40
0.0
176
     1
 40
1.0
176
     1
 90
        0
176
     1
 62
    18
420
        0
176
     1
 90
       50
176
     1
 90
        3
176
     1
 62
     5
420
      255
176
     1
290
     0
176
     1
 90
       50
176
     1
 90
       50
176
     1
 90
       50
176
     1
290
     0
176
     1
 90
       50
176
     1
 62
   256
176
     0
 40
1.0
176
     0
 90
        2
176
     1
  1
strokes_ogs.tif
176
     1
290
     0
176
     1
 40
1.0
176
     1
 40
1.0
176
     1
  0
VISUALSTYLE
  5
2B
102
{ACAD_REACTORS
330
2A
102
}
330
2A
100
AcDbVisualStyle
  2
Flat
 70
     0
177
     3
291
     1
 70
    58
 90
        2
176
     1
 90
        1
176
     1
 90
        1
176
     1
 90
        2
176
     1
 40
0.6
176
     1
 40
30.0
176
     1
 62
     7
420
 16777215
176
     1
 90
        0
176
     1
 90
        0
176
     1
 62
     7
176
     1
 62
   257
176
     1
 90
        1
176
     1
 90
        1
176
     1
 40
1.0
176
     1
 90
        8
176
     1
 62
     7
176
     1
 40
1.0
176
     1
 90
        1
176
     1
 90
        6
176
     1
 90
        2
176
     1
 62
     7
176
     1
 90
        5
176
     1
 90
        0
176
     1
 90
        0
176
     1
290
     0
176
     1
 90
       13
176
     1
 40
0.0
176
     1
 90
        0
176
     1
290
     0
176
     1
290
     1
176
     1
290
     1
176
     1
290
     0
176
     1
290
     0
176
     1
290
     0
176
     1
290
     0
176
     1
290
     0
176
     1
290
     0
176
     1
 90
       50
176
     1
 40
0.0
176
     1
 40
1.0
176
     1
 90
        0
176
     1
 62
    18
420
        0
176
     1
 90
       50
176
     1
 90
        3
176
     1
 62
     5
420
      255
176
     1
290
     0
176
     1
 90
       50
176
     1
 90
       50
176
     1
 90
       50
176
     1
290
     0
176
     1
 90
       50
176
     1
 62
   256
176
     0
 40
1.0
176
     0
 90
        2
176
     1
  1
strokes_ogs.tif
176
     1
290
     0
176
     1
 40
1.0
176
     1
 40
1.0
176
     1
  0
VISUALSTYLE
  5
2C
102
{ACAD_REACTORS
330
2A
102
}
330
2A
100
AcDbVisualStyle
  2
FlatWithEdges
 70
     1
177
     3
291
     1
 70
    58
 90
        2
176
     1
 90
        1
176
     1
 90
        1
176
     1
 90
        2
176
     1
 40
0.6
176
     1
 40
30.0
176
     1
 62
     7
420
 16777215
176
     1
 90
        1
176
     1
 90
        0
176
     1
 62
     7
176
     1
 62
   257
176
     1
 90
        1
176
     1
 90
        1
176
     1
 40
1.0
176
     1
 90
        0
176
     1
 62
   257
176
     1
 40
1.0
176
     1
 90
        1
176
     1
 90
        6
176
     1
 90
        2
176
     1
 62
     7
176
     1
 90
        5
176
     1
 90
        0
176
     1
 90
        0
176
     1
290
     0
176
     1
 90
       13
176
     1
 40
0.0
176
     1
 90
        0
176
     1
290
     0
176
     1
290
     1
176
     1
290
     1
176
     1
290
     0
176
     1
290
     0
176
     1
290
     0
176
     1
290
     0
176
     1
290
     0
176
     1
290
     0
176
     1
 90
       50
176
     1
 40
0.0
176
     1
 40
1.0
176
     1
 90
        0
176
     1
 62
    18
420
        0
176
     1
 90
       50
176
     1
 90
        3
176
     1
 62
     5
420
      255
176
     1
290
     0
176
     1
 90
       50
176
     1
 90
       50
176
     1
 90
       50
176
     1
290
     0
176
     1
 90
       50
176
     1
 62
   256
176
     0
 40
1.0
176
     0
 90
        2
176
     1
  1
strokes_ogs.tif
176
     1
290
     0
176
     1
 40
1.0
176
     1
 40
1.0
176
     1
  0
VISUALSTYLE
  5
2D
102
{ACAD_REACTORS
330
2A
102
}
330
2A
100
AcDbVisualStyle
  2
Gouraud
 70
     2
177
     3
291
     1
 70
    58
 90
        2
176
     1
 90
        2
176
     1
 90
        1
176
     1
 90
        2
176
     1
 40
0.6
176
     1
 40
30.0
176
     1
 62
     7
420
 16777215
176
     1
 90
        0
176
     1
 90
        0
176
     1
 62
     7
176
     1
 62
   257
176
     1
 90
        1
176
     1
 90
        1
176
     1
 40
1.0
176
     1
 90
        0
176
     1
 62
     7
176
     1
 40
1.0
176
     1
 90
        1
176
     1
 90
        6
176
     1
 90
        2
176
     1
 62
     7
176
     1
 90
        5
176
     1
 90
        0
176
     1
 90
        0
176
     1
290
     0
176
     1
 90
       13
176
     1
 40
0.0
176
     1
 90
        0
176
     1
290
     0
176
     1
290
     1
176
     1
290
     1
176
     1
290
     0
176
     1
290
     0
176
     1
290
     0
176
     1
290
     0
176
     1
290
     0
176
     1
290
     0
176
     1
 90
       50
176
     1
 40
0.0
176
     1
 40
1.0
176
     1
 90
        0
176
     1
 62
    18
420
        0
176
     1
 90
       50
176
     1
 90
        3
176
     1
 62
     5
420
      255
176
     1
290
     0
176
     1
 90
       50
176
     1
 90
       50
176
     1
 90
       50
176
     1
290
     0
176
     1
 90
       50
176
     1
 62
   256
176
     0
 40
1.0
176
     0
 90
        2
176
     1
  1
strokes_ogs.tif
176
     1
290
     0
176
     1
 40
1.0
176
     1
 40
1.0
176
     1
  0
VISUALSTYLE
  5
2E
102
{ACAD_REACTORS
330
2A
102
}
330
2A
100
AcDbVisualStyle
  2
GouraudWithEdges
 70
     3
177
     3
291
     1
 70
    58
 90
        2
176
     1
 90
        2
176
     1
 90
        1
176
     1
 90
        2
176
     1
 40
0.6
176
     1
 40
30.0
176
     1
 62
     7
420
 16777215
176
     1
 90
        1
176
     1
 90
        0
176
     1
 62
     7
176
     1
 62
   257
176
     1
 90
        1
176
     1
 90
        1
176
     1
 40
1.0
176
     1
 90
        0
176
     1
 62
   257
176
     1
 40
1.0
176
     1
 90
        1
176
     1
 90
        6
176
     1
 90
        2
176
     1
 62
     7
176
     1
 90
        5
176
     1
 90
        0
176
     1
 90
        0
176
     1
290
     0
176
     1
 90
       13
176
     1
 40
0.0
176
     1
 90
        0
176
     1
290
     0
176
     1
290
     1
176
     1
290
     1
176
     1
290
     0
176
     1
290
     0
176
     1
290
     0
176
     1
290
     0
176
     1
290
     0
176
     1
290
     0
176
     1
 90
       50
176
     1
 40
0.0
176
     1
 40
1.0
176
     1
 90
        0
176
     1
 62
    18
420
        0
176
     1
 90
       50
176
     1
 90
        3
176
     1
 62
     5
420
      255
176
     1
290
     0
176
     1
 90
       50
176
     1
 90
       50
176
     1
 90
       50
176
     1
290
     0
176
     1
 90
       50
176
     1
 62
   256
176
     0
 40
1.0
176
     0
 90
        2
176
     1
  1
strokes_ogs.tif
176
     1
290
     0
176
     1
 40
1.0
176
     1
 40
1.0
176
     1
  0
VISUALSTYLE
  5
31
102
{ACAD_REACTORS
330
2A
102
}
330
2A
100
AcDbVisualStyle
  2
Hidden
 70
     6
177
     3
291
     0
 70
    58
 90
        1
176
     1
 90
        2
176
     1
 90
        2
176
     1
 90
        0
176
     1
 40
0.6
176
     1
 40
30.0
176
     1
 62
     7
420
 16777215
176
     1
 90
        2
176
     1
 90
        2
176
     1
 62
     7
176
     1
 62
   257
176
     1
 90
        2
176
     1
 90
        1
176
     1
 40
40.0
176
     1
 90
        0
176
     1
 62
   257
176
     1
 40
1.0
176
     1
 90
        1
176
     1
 90
        6
176
     1
 90
        2
176
     1
 62
     7
176
     1
 90
        3
176
     1
 90
        0
176
     1
 90
        0
176
     1
290
     0
176
     1
 90
        1
176
     1
 40
0.0
176
     1
 90
        0
176
     1
290
     0
176
     1
290
     1
176
     1
290
     1
176
     1
290
     0
176
     1
290
     0
176
     1
290
     0
176
     1
290
     0
176
     1
290
     0
176
     1
290
     0
176
     1
 90
       50
176
     1
 40
0.0
176
     1
 40
1.0
176
     1
 90
        0
176
     1
 62
    18
420
        0
176
     1
 90
       50
176
     1
 90
        3
176
     1
 62
     5
420
      255
176
     1
290
     0
176
     1
 90
       50
176
     1
 90
       50
176
     1
 90
       50
176
     1
290
     0
176
     1
 90
       50
176
     1
 62
   256
176
     0
 40
1.0
176
     0
 90
        2
176
     1
  1
strokes_ogs.tif
176
     1
290
     0
176
     1
 40
1.0
176
     1
 40
1.0
176
     1
  0
VISUALSTYLE
  5
3B
102
{ACAD_REACTORS
330
2A
102
}
330
2A
100
AcDbVisualStyle
  2
JitterOff
 70
    20
177
     3
291
     1
 70
    58
 90
        2
176
     0
 90
        2
176
     0
 90
        0
176
     0
 90
        0
176
     0
 40
0.6
176
     0
 40
30.0
176
     0
 62
     7
420
 16777215
176
     0
 90
        1
176
     0
 90
        4
176
     0
 62
     7
176
     0
 62
   257
176
     0
 90
        1
176
     0
 90
        1
176
     0
 40
1.0
176
     0
 90
       10
176
     2
 62
     7
176
     0
 40
1.0
176
     0
 90
        1
176
     0
 90
        6
176
     0
 90
        2
176
     0
 62
     7
176
     0
 90
        5
176
     0
 90
        0
176
     0
 90
        0
176
     0
290
     0
176
     0
 90
        1
176
     0
 40
0.0
176
     0
 90
        0
176
     0
290
     0
176
     0
290
     1
176
     0
290
     1
176
     0
290
     0
176
     0
290
     0
176
     0
290
     0
176
     0
290
     0
176
     0
290
     0
176
     0
290
     0
176
     0
 90
       50
176
     0
 40
0.0
176
     0
 40
1.0
176
     0
 90
        0
176
     0
 62
    18
420
        0
176
     0
 90
       50
176
     0
 90
        3
176
     0
 62
     5
420
      255
176
     0
290
     0
176
     0
 90
       50
176
     0
 90
       50
176
     0
 90
       50
176
     0
290
     0
176
     0
 90
       50
176
     0
 62
   256
176
     0
 40
1.0
176
     0
 90
        2
176
     0
  1
strokes_ogs.tif
176
     0
290
     0
176
     0
 40
1.0
176
     0
 40
1.0
176
     0
  0
VISUALSTYLE
  5
38
102
{ACAD_REACTORS
330
2A
102
}
330
2A
100
AcDbVisualStyle
  2
Linepattern
 70
    14
177
     3
291
     1
 70
    58
 90
        2
176
     1
 90
        2
176
     1
 90
        0
176
     1
 90
        0
176
     1
 40
0.6
176
     1
 40
30.0
176
     1
 62
     7
420
 16777215
176
     1
 90
        1
176
     1
 90
        4
176
     1
 62
     7
176
     1
 62
   257
176
     1
 90
        7
176
     1
 90
        7
176
     1
 40
1.0
176
     1
 90
        8
176
     1
 62
     7
176
     1
 40
1.0
176
     1
 90
        1
176
     1
 90
        6
176
     1
 90
        2
176
     1
 62
     7
176
     1
 90
        5
176
     1
 90
        0
176
     1
 90
        0
176
     1
290
     0
176
     1
 90
        1
176
     1
 40
0.0
176
     1
 90
        0
176
     1
290
     0
176
     1
290
     1
176
     1
290
     1
176
     1
290
     0
176
     1
290
     0
176
     1
290
     0
176
     1
290
     0
176
     1
290
     0
176
     1
290
     0
176
     1
 90
       50
176
     1
 40
0.0
176
     1
 40
1.0
176
     1
 90
        0
176
     1
 62
    18
420
        0
176
     1
 90
       50
176
     1
 90
        3
176
     1
 62
     5
420
      255
176
     1
290
     0
176
     1
 90
       50
176
     1
 90
       50
176
     1
 90
       50
176
     1
290
     0
176
     1
 90
       50
176
     1
 62
   256
176
     0
 40
1.0
176
     0
 90
        2
176
     1
  1
strokes_ogs.tif
176
     1
290
     0
176
     1
 40
1.0
176
     1
 40
1.0
176
     1
  0
VISUALSTYLE
  5
3C
102
{ACAD_REACTORS
330
2A
102
}
330
2A
100
AcDbVisualStyle
  2
OverhangOff
 70
    21
177
     3
291
     1
 70
    58
 90
        2
176
     0
 90
        2
176
     0
 90
        0
176
     0
 90
        0
176
     0
 40
0.6
176
     0
 40
30.0
176
     0
 62
     7
420
 16777215
176
     0
 90
        1
176
     0
 90
        4
176
     0
 62
     7
176
     0
 62
   257
176
     0
 90
        1
176
     0
 90
        1
176
     0
 40
1.0
176
     0
 90
        9
176
     2
 62
     7
176
     0
 40
1.0
176
     0
 90
        1
176
     0
 90
        6
176
     0
 90
        2
176
     0
 62
     7
176
     0
 90
        5
176
     0
 90
        0
176
     0
 90
        0
176
     0
290
     0
176
     0
 90
        1
176
     0
 40
0.0
176
     0
 90
        0
176
     0
290
     0
176
     0
290
     1
176
     0
290
     1
176
     0
290
     0
176
     0
290
     0
176
     0
290
     0
176
     0
290
     0
176
     0
290
     0
176
     0
290
     0
176
     0
 90
       50
176
     0
 40
0.0
176
     0
 40
1.0
176
     0
 90
        0
176
     0
 62
    18
420
        0
176
     0
 90
       50
176
     0
 90
        3
176
     0
 62
     5
420
      255
176
     0
290
     0
176
     0
 90
       50
176
     0
 90
       50
176
     0
 90
       50
176
     0
290
     0
176
     0
 90
       50
176
     0
 62
   256
176
     0
 40
1.0
176
     0
 90
        2
176
     0
  1
strokes_ogs.tif
176
     0
290
     0
176
     0
 40
1.0
176
     0
 40
1.0
176
     0
  0
VISUALSTYLE
  5
33
102
{ACAD_REACTORS
330
2A
102
}
330
2A
100
AcDbVisualStyle
  2
Realistic
 70
     8
177
     3
291
     0
 70
    58
 90
        2
176
     1
 90
        3
176
     1
 90
        0
176
     1
 90
        2
176
     1
 40
0.6
176
     1
 40
30.0
176
     1
 62
     7
420
 16777215
176
     1
 90
        0
176
     1
 90
        0
176
     1
 62
     7
176
     1
 62
   257
176
     1
 90
        1
176
     1
 90
        1
176
     1
 40
1.0
176
     1
 90
        8
176
     1
 62
   257
176
     1
 40
1.0
176
     1
 90
        1
176
     1
 90
        6
176
     1
 90
        2
176
     1
 62
     7
176
     1
 90
        3
176
     1
 90
        0
176
     1
 90
        0
176
     1
290
     0
176
     1
 90
       13
176
     1
 40
0.0
176
     1
 90
        0
176
     1
290
     0
176
     1
290
     1
176
     1
290
     1
176
     1
290
     0
176
     1
290
     0
176
     1
290
     0
176
     1
290
     0
176
     1
290
     0
176
     1
290
     0
176
     1
 90
       50
176
     1
 40
0.0
176
     1
 40
1.0
176
     1
 90
        0
176
     1
 62
    18
420
        0
176
     1
 90
       50
176
     1
 90
        3
176
     1
 62
     5
420
      255
176
     1
290
     0
176
     1
 90
       50
176
     1
 90
       50
176
     1
 90
       50
176
     1
290
     0
176
     1
 90
       50
176
     1
 62
   256
176
     0
 40
1.0
176
     0
 90
        2
176
     1
  1
strokes_ogs.tif
176
     1
290
     0
176
     1
 40
1.0
176
     1
 40
1.0
176
     1
  0
VISUALSTYLE
  5
42
102
{ACAD_REACTORS
330
2A
102
}
330
2A
100
AcDbVisualStyle
  2
Shaded
 70
    27
177
     3
291
     0
 70
    58
 90
        2
176
     1
 90
        2
176
     1
 90
        1
176
     1
 90
        2
176
     1
 40
0.6
176
     1
 40
30.0
176
     1
 62
     7
420
 16777215
176
     1
 90
        0
176
     1
 90
        4
176
     1
 62
     7
176
     1
 62
   257
176
     1
 90
        1
176
     1
 90
        1
176
     1
 40
1.0
176
     1
 90
        8
176
     1
 62
   257
176
     1
 40
1.0
176
     1
 90
        1
176
     1
 90
        6
176
     1
 90
        2
176
     1
 62
     8
420
  7895160
176
     1
 90
        3
176
     1
 90
        0
176
     1
 90
        0
176
     1
290
     0
176
     1
 90
        5
176
     1
 40
0.0
176
     1
 90
        0
176
     1
290
     0
176
     1
290
     1
176
     1
290
     1
176
     1
290
     0
176
     1
290
     0
176
     1
290
     0
176
     1
290
     0
176
     1
290
     0
176
     1
290
     0
176
     1
 90
       50
176
     1
 40
0.0
176
     1
 40
1.0
176
     1
 90
        0
176
     1
 62
    18
420
        0
176
     1
 90
       50
176
     1
 90
        3
176
     1
 62
     5
420
      255
176
     1
290
     0
176
     1
 90
       50
176
     1
 90
       50
176
     1
 90
       50
176
     1
290
     0
176
     1
 90
       50
176
     1
 62
   256
176
     0
 40
1.0
176
     0
 90
        2
176
     1
  1
strokes_ogs.tif
176
     1
290
     0
176
     1
 40
1.0
176
     1
 40
1.0
176
     1
  0
VISUALSTYLE
  5
41
102
{ACAD_REACTORS
330
2A
102
}
330
2A
100
AcDbVisualStyle
  2
Shaded with edges
 70
    26
177
     3
291
     0
 70
    58
 90
        2
176
     1
 90
        2
176
     1
 90
        1
176
     1
 90
        2
176
     1
 40
0.6
176
     1
 40
30.0
176
     1
 62
     7
420
 16777215
176
     1
 90
        1
176
     1
 90
       10
176
     1
 62
     7
176
     1
 62
   257
176
     1
 90
        2
176
     1
 90
        1
176
     1
 40
1.0
176
     1
 90
        8
176
     1
 62
   257
176
     1
 40
1.0
176
     1
 90
        1
176
     1
 90
        6
176
     1
 90
        2
176
     1
 62
     7
176
     1
 90
        3
176
     1
 90
        0
176
     1
 90
        0
176
     1
290
     0
176
     1
 90
        5
176
     1
 40
0.0
176
     1
 90
        0
176
     1
290
     0
176
     1
290
     1
176
     1
290
     1
176
     1
290
     0
176
     1
290
     0
176
     1
290
     0
176
     1
290
     0
176
     1
290
     0
176
     1
290
     0
176
     1
 90
       50
176
     1
 40
0.0
176
     1
 40
1.0
176
     1
 90
        0
176
     1
 62
    18
420
        0
176
     1
 90
       50
176
     1
 90
        3
176
     1
 62
     5
420
      255
176
     1
290
     0
176
     1
 90
       50
176
     1
 90
       50
176
     1
 90
       50
176
     1
290
     0
176
     1
 90
       50
176
     1
 62
   256
176
     0
 40
1.0
176
     0
 90
        2
176
     1
  1
strokes_ogs.tif
176
     1
290
     0
176
     1
 40
1.0
176
     1
 40
1.0
176
     1
  0
VISUALSTYLE
  5
3E
102
{ACAD_REACTORS
330
2A
102
}
330
2A
100
AcDbVisualStyle
  2
Shades of Gray
 70
    23
177
     3
291
     0
 70
    58
 90
        2
176
     1
 90
        2
176
     1
 90
        3
176
     1
 90
        0
176
     1
 40
0.6
176
     1
 40
30.0
176
     1
 62
     7
420
 16777215
176
     1
 90
        2
176
     1
 90
        2
176
     1
 62
     7
176
     1
 62
     7
176
     1
 90
        1
176
     1
 90
        1
176
     1
 40
40.0
176
     1
 90
        8
176
     1
 62
     7
176
     1
 40
1.0
176
     1
 90
        1
176
     1
 90
        6
176
     1
 90
        2
176
     1
 62
     7
176
     1
 90
        3
176
     1
 90
        0
176
     1
 90
        0
176
     1
290
     0
176
     1
 90
        1
176
     1
 40
0.0
176
     1
 90
        0
176
     1
290
     0
176
     1
290
     1
176
     1
290
     1
176
     1
290
     0
176
     1
290
     0
176
     1
290
     0
176
     1
290
     0
176
     1
290
     0
176
     1
290
     0
176
     1
 90
       50
176
     1
 40
0.0
176
     1
 40
1.0
176
     1
 90
        0
176
     1
 62
    18
420
        0
176
     1
 90
       50
176
     1
 90
        3
176
     1
 62
     5
420
      255
176
     1
290
     0
176
     1
 90
       50
176
     1
 90
       50
176
     1
 90
       50
176
     1
290
     0
176
     1
 90
       50
176
     1
 62
   256
176
     0
 40
1.0
176
     0
 90
        2
176
     1
  1
strokes_ogs.tif
176
     1
290
     0
176
     1
 40
1.0
176
     1
 40
1.0
176
     1
  0
VISUALSTYLE
  5
3F
102
{ACAD_REACTORS
330
2A
102
}
330
2A
100
AcDbVisualStyle
  2
Sketchy
 70
    24
177
     3
291
     0
 70
    58
 90
        1
176
     1
 90
        2
176
     1
 90
        2
176
     1
 90
        0
176
     1
 40
0.6
176
     1
 40
30.0
176
     1
 62
     7
420
 16777215
176
     1
 90
        2
176
     1
 90
        2
176
     1
 62
     7
176
     1
 62
     7
176
     1
 90
        1
176
     1
 90
        1
176
     1
 40
40.0
176
     1
 90
       11
176
     1
 62
     7
176
     1
 40
1.0
176
     1
 90
        1
176
     1
 90
        6
176
     1
 90
        2
176
     1
 62
     7
176
     1
 90
        6
176
     1
 90
        0
176
     1
 90
        0
176
     1
290
     0
176
     1
 90
        1
176
     1
 40
0.0
176
     1
 90
        0
176
     1
290
     0
176
     1
290
     1
176
     1
290
     1
176
     1
290
     0
176
     1
290
     0
176
     1
290
     0
176
     1
290
     0
176
     1
290
     0
176
     1
290
     0
176
     1
 90
       50
176
     1
 40
0.0
176
     1
 40
1.0
176
     1
 90
        0
176
     1
 62
    18
420
        0
176
     1
 90
       50
176
     1
 90
        3
176
     1
 62
     5
420
      255
176
     1
290
     0
176
     1
 90
       50
176
     1
 90
       50
176
     1
 90
       50
176
     1
290
     0
176
     1
 90
       50
176
     1
 62
   256
176
     0
 40
1.0
176
     0
 90
        2
176
     1
  1
strokes_ogs.tif
176
     1
290
     0
176
     1
 40
1.0
176
     1
 40
1.0
176
     1
  0
VISUALSTYLE
  5
37
102
{ACAD_REACTORS
330
2A
102
}
330
2A
100
AcDbVisualStyle
  2
Thicken
 70
    13
177
     3
291
     1
 70
    58
 90
        2
176
     1
 90
        2
176
     1
 90
        0
176
     1
 90
        0
176
     1
 40
0.6
176
     1
 40
30.0
176
     1
 62
     7
420
 16777215
176
     1
 90
        1
176
     1
 90
        4
176
     1
 62
     7
176
     1
 62
   257
176
     1
 90
        1
176
     1
 90
        1
176
     1
 40
1.0
176
     1
 90
       12
176
     1
 62
     7
176
     1
 40
1.0
176
     1
 90
        1
176
     1
 90
        6
176
     1
 90
        2
176
     1
 62
     7
176
     1
 90
        5
176
     1
 90
        0
176
     1
 90
        0
176
     1
290
     0
176
     1
 90
        1
176
     1
 40
0.0
176
     1
 90
        0
176
     1
290
     0
176
     1
290
     1
176
     1
290
     1
176
     1
290
     0
176
     1
290
     0
176
     1
290
     0
176
     1
290
     0
176
     1
290
     0
176
     1
290
     0
176
     1
 90
       50
176
     1
 40
0.0
176
     1
 40
1.0
176
     1
 90
        0
176
     1
 62
    18
420
        0
176
     1
 90
       50
176
     1
 90
        3
176
     1
 62
     5
420
      255
176
     1
290
     0
176
     1
 90
       50
176
     1
 90
       50
176
     1
 90
       50
176
     1
290
     0
176
     1
 90
       50
176
     1
 62
   256
176
     0
 40
1.0
176
     0
 90
        2
176
     1
  1
strokes_ogs.tif
176
     1
290
     0
176
     1
 40
1.0
176
     1
 40
1.0
176
     1
  0
VISUALSTYLE
  5
30
102
{ACAD_REACTORS
330
2A
102
}
330
2A
100
AcDbVisualStyle
  2
Wireframe
 70
     5
177
     3
291
     0
 70
    58
 90
        0
176
     1
 90
        2
176
     1
 90
        0
176
     1
 90
        0
176
     1
 40
0.6
176
     1
 40
30.0
176
     1
 62
     7
420
 16777215
176
     1
 90
        1
176
     1
 90
        4
176
     1
 62
     7
176
     1
 62
   257
176
     1
 90
        1
176
     1
 90
        1
176
     1
 40
1.0
176
     1
 90
        0
176
     1
 62
   257
176
     1
 40
1.0
176
     1
 90
        1
176
     1
 90
        6
176
     1
 90
        2
176
     1
 62
     7
176
     1
 90
        3
176
     1
 90
        0
176
     1
 90
        0
176
     1
290
     0
176
     1
 90
        1
176
     1
 40
0.0
176
     1
 90
        0
176
     1
290
     0
176
     1
290
     1
176
     1
290
     1
176
     1
290
     0
176
     1
290
     0
176
     1
290
     0
176
     1
290
     0
176
     1
290
     0
176
     1
290
     0
176
     1
 90
       50
176
     1
 40
0.0
176
     1
 40
1.0
176
     1
 90
        0
176
     1
 62
    18
420
        0
176
     1
 90
       50
176
     1
 90
        3
176
     1
 62
     5
420
      255
176
     1
290
     0
176
     1
 90
       50
176
     1
 90
       50
176
     1
 90
       50
176
     1
290
     0
176
     1
 90
       50
176
     1
 62
   256
176
     0
 40
1.0
176
     0
 90
        2
176
     1
  1
strokes_ogs.tif
176
     1
290
     0
176
     1
 40
1.0
176
     1
 40
1.0
176
     1
  0
VISUALSTYLE
  5
40
102
{ACAD_REACTORS
330
2A
102
}
330
2A
100
AcDbVisualStyle
  2
X-Ray
 70
    25
177
     3
291
     0
 70
    58
 90
        2
176
     1
 90
        2
176
     1
 90
        1
176
     1
 90
        1
176
     1
 40
0.5
176
     1
 40
30.0
176
     1
 62
     7
420
 16777215
176
     1
 90
        1
176
     1
 90
        0
176
     1
 62
     7
176
     1
 62
   257
176
     1
 90
        1
176
     1
 90
        1
176
     1
 40
1.0
176
     1
 90
        8
176
     1
 62
     7
176
     1
 40
1.0
176
     1
 90
        1
176
     1
 90
        6
176
     1
 90
        2
176
     1
 62
     7
176
     1
 90
        3
176
     1
 90
        0
176
     1
 90
        0
176
     1
290
     0
176
     1
 90
       13
176
     1
 40
0.0
176
     1
 90
        0
176
     1
290
     0
176
     1
290
     1
176
     1
290
     1
176
     1
290
     0
176
     1
290
     0
176
     1
290
     0
176
     1
290
     0
176
     1
290
     0
176
     1
290
     0
176
     1
 90
       50
176
     1
 40
0.0
176
     1
 40
1.0
176
     1
 90
        0
176
     1
 62
    18
420
        0
176
     1
 90
       50
176
     1
 90
        3
176
     1
 62
     5
420
      255
176
     1
290
     0
176
     1
 90
       50
176
     1
 90
       50
176
     1
 90
       50
176
     1
290
     0
176
     1
 90
       50
176
     1
 62
   256
176
     0
 40
1.0
176
     0
 90
        2
176
     1
  1
strokes_ogs.tif
176
     1
290
     0
176
     1
 40
1.0
176
     1
 40
1.0
176
     1
  0
DICTIONARYVAR
  5
26A
102
{ACAD_REACTORS
330
269
102
}
330
269
100
DictionaryVariables
280
     0
  1
1:1
  0
DICTIONARYVAR
  5
26F
102
{ACAD_REACTORS
330
269
102
}
330
269
100
DictionaryVariables
280
     0
  1
Standard
  0
DICTIONARYVAR
  5
26E
102
{ACAD_REACTORS
330
269
102
}
330
269
100
DictionaryVariables
280
     0
  1
Standard
  0
DICTIONARY
  5
26B
330
6A
100
AcDbDictionary
280
     1
281
     1
  3
ACAD_ROUNDTRIP_2008_TABLESTYLE_CELLSTYLEMAP
360
26C
  0
CELLSTYLEMAP
  5
26C
102
{ACAD_REACTORS
330
26B
102
}
330
26B
100
AcDbCellStyleMap
 90
        3
300
CELLSTYLE
  1
TABLEFORMAT_BEGIN
 90
        5
170
     1
 91
        0
 92
    32768
 62
   257
 93
        1
300
CONTENTFORMAT
  1
CONTENTFORMAT_BEGIN
 90
        0
 91
        0
 92
        4
 93
        0
300

 40
0.0
140
1.0
 94
        5
 62
     0
340
11
144
0.25
309
CONTENTFORMAT_END
171
     1
301
MARGIN
  1
CELLMARGIN_BEGIN
 40
0.06
 40
0.06
 40
0.06
 40
0.06
 40
0.06
 40
0.06
309
CELLMARGIN_END
 94
        6
 95
        1
302
GRIDFORMAT
  1
GRIDFORMAT_BEGIN
 90
        0
 91
        1
 62
     0
 92
       -2
340
14
 93
        0
 40
0.045
309
GRIDFORMAT_END
 95
        2
302
GRIDFORMAT
  1
GRIDFORMAT_BEGIN
 90
        0
 91
        1
 62
     0
 92
       -2
340
14
 93
        0
 40
0.045
309
GRIDFORMAT_END
 95
        4
302
GRIDFORMAT
  1
GRIDFORMAT_BEGIN
 90
        0
 91
        1
 62
     0
 92
       -2
340
14
 93
        0
 40
0.045
309
GRIDFORMAT_END
 95
        8
302
GRIDFORMAT
  1
GRIDFORMAT_BEGIN
 90
        0
 91
        1
 62
     0
 92
       -2
340
14
 93
        0
 40
0.045
309
GRIDFORMAT_END
 95
       16
302
GRIDFORMAT
  1
GRIDFORMAT_BEGIN
 90
        0
 91
        1
 62
     0
 92
       -2
340
14
 93
        0
 40
0.045
309
GRIDFORMAT_END
 95
       32
302
GRIDFORMAT
  1
GRIDFORMAT_BEGIN
 90
        0
 91
        1
 62
     0
 92
       -2
340
14
 93
        0
 40
0.045
309
GRIDFORMAT_END
309
TABLEFORMAT_END
  1
CELLSTYLE_BEGIN
 90
        1
 91
        1
300
_TITLE
309
CELLSTYLE_END
300
CELLSTYLE
  1
TABLEFORMAT_BEGIN
 90
        5
170
     1
 91
        0
 92
        0
 62
   257
 93
        1
300
CONTENTFORMAT
  1
CONTENTFORMAT_BEGIN
 90
        0
 91
        0
 92
        4
 93
        0
300

 40
0.0
140
1.0
 94
        5
 62
     0
340
11
144
0.18
309
CONTENTFORMAT_END
171
     1
301
MARGIN
  1
CELLMARGIN_BEGIN
 40
0.06
 40
0.06
 40
0.06
 40
0.06
 40
0.06
 40
0.06
309
CELLMARGIN_END
 94
        6
 95
        1
302
GRIDFORMAT
  1
GRIDFORMAT_BEGIN
 90
        0
 91
        1
 62
     0
 92
       -2
340
14
 93
        0
 40
0.045
309
GRIDFORMAT_END
 95
        2
302
GRIDFORMAT
  1
GRIDFORMAT_BEGIN
 90
        0
 91
        1
 62
     0
 92
       -2
340
14
 93
        0
 40
0.045
309
GRIDFORMAT_END
 95
        4
302
GRIDFORMAT
  1
GRIDFORMAT_BEGIN
 90
        0
 91
        1
 62
     0
 92
       -2
340
14
 93
        0
 40
0.045
309
GRIDFORMAT_END
 95
        8
302
GRIDFORMAT
  1
GRIDFORMAT_BEGIN
 90
        0
 91
        1
 62
     0
 92
       -2
340
14
 93
        0
 40
0.045
309
GRIDFORMAT_END
 95
       16
302
GRIDFORMAT
  1
GRIDFORMAT_BEGIN
 90
        0
 91
        1
 62
     0
 92
       -2
340
14
 93
        0
 40
0.045
309
GRIDFORMAT_END
 95
       32
302
GRIDFORMAT
  1
GRIDFORMAT_BEGIN
 90
        0
 91
        1
 62
     0
 92
       -2
340
14
 93
        0
 40
0.045
309
GRIDFORMAT_END
309
TABLEFORMAT_END
  1
CELLSTYLE_BEGIN
 90
        2
 91
        1
300
_HEADER
309
CELLSTYLE_END
300
CELLSTYLE
  1
TABLEFORMAT_BEGIN
 90
        5
170
     1
 91
        0
 92
        0
 62
   257
 93
        1
300
CONTENTFORMAT
  1
CONTENTFORMAT_BEGIN
 90
        0
 91
        0
 92
        4
 93
        0
300

 40
0.0
140
1.0
 94
        2
 62
     0
340
11
144
0.18
309
CONTENTFORMAT_END
171
     1
301
MARGIN
  1
CELLMARGIN_BEGIN
 40
0.06
 40
0.06
 40
0.06
 40
0.06
 40
0.06
 40
0.06
309
CELLMARGIN_END
 94
        6
 95
        1
302
GRIDFORMAT
  1
GRIDFORMAT_BEGIN
 90
        0
 91
        1
 62
     0
 92
       -2
340
14
 93
        0
 40
0.045
309
GRIDFORMAT_END
 95
        2
302
GRIDFORMAT
  1
GRIDFORMAT_BEGIN
 90
        0
 91
        1
 62
     0
 92
       -2
340
14
 93
        0
 40
0.045
309
GRIDFORMAT_END
 95
        4
302
GRIDFORMAT
  1
GRIDFORMAT_BEGIN
 90
        0
 91
        1
 62
     0
 92
       -2
340
14
 93
        0
 40
0.045
309
GRIDFORMAT_END
 95
        8
302
GRIDFORMAT
  1
GRIDFORMAT_BEGIN
 90
        0
 91
        1
 62
     0
 92
       -2
340
14
 93
        0
 40
0.045
309
GRIDFORMAT_END
 95
       16
302
GRIDFORMAT
  1
GRIDFORMAT_BEGIN
 90
        0
 91
        1
 62
     0
 92
       -2
340
14
 93
        0
 40
0.045
309
GRIDFORMAT_END
 95
       32
302
GRIDFORMAT
  1
GRIDFORMAT_BEGIN
 90
        0
 91
        1
 62
     0
 92
       -2
340
14
 93
        0
 40
0.045
309
GRIDFORMAT_END
309
TABLEFORMAT_END
  1
CELLSTYLE_BEGIN
 90
        3
 91
        2
300
_DATA
309
CELLSTYLE_END
  0
ENDSEC
  0
EOF