0
SECTION
  2
HEADER
  9
$ACADVER
  1
AC1027
  9
$ACADMAINTVER
 70
     8
  9
$DWGCODEPAGE
  3
ANSI_1252
  9
$REQUIREDVERSIONS
160
                 0
  9
$COMMENTS
  1
File was created by Cadenas
  9
$CUSTOMPROPERTYTAG
  1
NN
  9
$CUSTOMPROPERTY
  1
Imperial - IP Pillow Block with Type E Dimensions 2-1/4 thru 7 inch 4-Bolt Trident Seal Expansion
  9
$CUSTOMPROPERTYTAG
  1
NT
  9
$CUSTOMPROPERTY
  1
Imperial/E 4 Bolt Piliow Block Bearings
  9
$CUSTOMPROPERTYTAG
  1
NB
  9
$CUSTOMPROPERTY
  1
071217
  9
$CUSTOMPROPERTYTAG
  1
NBSYN
  9
$CUSTOMPROPERTY
  1
$PN.
  9
$CUSTOMPROPERTYTAG
  1
LINA
  9
$CUSTOMPROPERTY
  1
071217
  9
$CUSTOMPROPERTYTAG
  1
SS
  9
$CUSTOMPROPERTY
  1
4-7/16
  9
$CUSTOMPROPERTYTAG
  1
TYPE
  9
$CUSTOMPROPERTY
  1
Non-Expansion
  9
$CUSTOMPROPERTYTAG
  1
PN
  9
$CUSTOMPROPERTY
  1
071217
  9
$CUSTOMPROPERTYTAG
  1
DESCRIPTION
  9
$CUSTOMPROPERTY
  1
EP4B-IP-407R
  9
$CUSTOMPROPERTYTAG
  1
ST
  9
$CUSTOMPROPERTY
  1
Contact Seal
  9
$CUSTOMPROPERTYTAG
  1
A
  9
$CUSTOMPROPERTY
  1
5.23
  9
$CUSTOMPROPERTYTAG
  1
B
  9
$CUSTOMPROPERTY
  1
16.63
  9
$CUSTOMPROPERTYTAG
  1
C
  9
$CUSTOMPROPERTY
  1
4.63
  9
$CUSTOMPROPERTYTAG
  1
DMIN
  9
$CUSTOMPROPERTY
  1
13.25
  9
$CUSTOMPROPERTYTAG
  1
DMAX
  9
$CUSTOMPROPERTY
  1
13.75
  9
$CUSTOMPROPERTYTAG
  1
E
  9
$CUSTOMPROPERTY
  1
2.5
  9
$CUSTOMPROPERTYTAG
  1
F
  9
$CUSTOMPROPERTY
  1
3/4
  9
$CUSTOMPROPERTYTAG
  1
G
  9
$CUSTOMPROPERTY
  1
1.13
  9
$CUSTOMPROPERTYTAG
  1
H
  9
$CUSTOMPROPERTY
  1
2.75
  9
$CUSTOMPROPERTYTAG
  1
J
  9
$CUSTOMPROPERTY
  1
9.67
  9
$CUSTOMPROPERTYTAG
  1
L
  9
$CUSTOMPROPERTY
  1
6.44
  9
$CUSTOMPROPERTYTAG
  1
M
  9
$CUSTOMPROPERTY
  1
4.75
  9
$CUSTOMPROPERTYTAG
  1
R
  9
$CUSTOMPROPERTY
  1
1.82
  9
$CUSTOMPROPERTYTAG
  1
S
  9
$CUSTOMPROPERTY
  1
3.41
  9
$CUSTOMPROPERTYTAG
  1
X
  9
$CUSTOMPROPERTY
  1
0.38
  9
$CUSTOMPROPERTYTAG
  1
Y
  9
$CUSTOMPROPERTY
  1
0.036
  9
$CUSTOMPROPERTYTAG
  1
Z
  9
$CUSTOMPROPERTY
  1
5.00
  9
$CUSTOMPROPERTYTAG
  1
COMPANY
  9
$CUSTOMPROPERTY
  1
baldor
  9
$INSBASE
 10
0.0
 20
0.0
 30
0.0
  9
$EXTMIN
 10
1.000000000000000E+20
 20
1.000000000000000E+20
 30
1.000000000000000E+20
  9
$EXTMAX
 10
-1.000000000000000E+20
 20
-1.000000000000000E+20
 30
-1.000000000000000E+20
  9
$LIMMIN
 10
0.0
 20
0.0
  9
$LIMMAX
 10
12.0
 20
9.0
  9
$ORTHOMODE
 70
     0
  9
$REGENMODE
 70
     1
  9
$FILLMODE
 70
     1
  9
$QTEXTMODE
 70
     0
  9
$MIRRTEXT
 70
     1
  9
$LTSCALE
 40
1.0
  9
$ATTMODE
 70
     1
  9
$TEXTSIZE
 40
0.2
  9
$TRACEWID
 40
0.05
  9
$TEXTSTYLE
  7
Standard
  9
$CLAYER
  8
0
  9
$CELTYPE
  6
ByLayer
  9
$CECOLOR
 62
   256
  9
$CELTSCALE
 40
1.0
  9
$DISPSILH
 70
     0
  9
$DIMSCALE
 40
1.0
  9
$DIMASZ
 40
0.18
  9
$DIMEXO
 40
0.0625
  9
$DIMDLI
 40
0.38
  9
$DIMRND
 40
0.0
  9
$DIMDLE
 40
0.0
  9
$DIMEXE
 40
0.18
  9
$DIMTP
 40
0.0
  9
$DIMTM
 40
0.0
  9
$DIMTXT
 40
0.18
  9
$DIMCEN
 40
0.09
  9
$DIMTSZ
 40
0.0
  9
$DIMTOL
 70
     0
  9
$DIMLIM
 70
     0
  9
$DIMTIH
 70
     1
  9
$DIMTOH
 70
     1
  9
$DIMSE1
 70
     0
  9
$DIMSE2
 70
     0
  9
$DIMTAD
 70
     0
  9
$DIMZIN
 70
     0
  9
$DIMBLK
  1

  9
$DIMASO
 70
     1
  9
$DIMSHO
 70
     1
  9
$DIMPOST
  1

  9
$DIMAPOST
  1

  9
$DIMALT
 70
     0
  9
$DIMALTD
 70
     2
  9
$DIMALTF
 40
25.4
  9
$DIMLFAC
 40
1.0
  9
$DIMTOFL
 70
     0
  9
$DIMTVP
 40
0.0
  9
$DIMTIX
 70
     0
  9
$DIMSOXD
 70
     0
  9
$DIMSAH
 70
     0
  9
$DIMBLK1
  1

  9
$DIMBLK2
  1

  9
$DIMSTYLE
  2
Standard
  9
$DIMCLRD
 70
     0
  9
$DIMCLRE
 70
     0
  9
$DIMCLRT
 70
     0
  9
$DIMTFAC
 40
1.0
  9
$DIMGAP
 40
0.09
  9
$DIMJUST
 70
     0
  9
$DIMSD1
 70
     0
  9
$DIMSD2
 70
     0
  9
$DIMTOLJ
 70
     1
  9
$DIMTZIN
 70
     0
  9
$DIMALTZ
 70
     0
  9
$DIMALTTZ
 70
     0
  9
$DIMUPT
 70
     0
  9
$DIMDEC
 70
     4
  9
$DIMTDEC
 70
     4
  9
$DIMALTU
 70
     2
  9
$DIMALTTD
 70
     2
  9
$DIMTXSTY
  7
Standard
  9
$DIMAUNIT
 70
     0
  9
$DIMADEC
 70
     0
  9
$DIMALTRND
 40
0.0
  9
$DIMAZIN
 70
     0
  9
$DIMDSEP
 70
    46
  9
$DIMATFIT
 70
     3
  9
$DIMFRAC
 70
     0
  9
$DIMLDRBLK
  1

  9
$DIMLUNIT
 70
     2
  9
$DIMLWD
 70
    -2
  9
$DIMLWE
 70
    -2
  9
$DIMTMOVE
 70
     0
  9
$DIMFXL
 40
1.0
  9
$DIMFXLON
 70
     0
  9
$DIMJOGANG
 40
0.7853981633974483
  9
$DIMTFILL
 70
     0
  9
$DIMTFILLCLR
 70
     0
  9
$DIMARCSYM
 70
     0
  9
$DIMLTYPE
  6

  9
$DIMLTEX1
  6

  9
$DIMLTEX2
  6

  9
$DIMTXTDIRECTION
 70
     0
  9
$LUNITS
 70
     2
  9
$LUPREC
 70
     4
  9
$SKETCHINC
 40
0.1
  9
$FILLETRAD
 40
0.5
  9
$AUNITS
 70
     0
  9
$AUPREC
 70
     0
  9
$MENU
  1
.
  9
$ELEVATION
 40
0.0
  9
$PELEVATION
 40
0.0
  9
$THICKNESS
 40
0.0
  9
$LIMCHECK
 70
     0
  9
$CHAMFERA
 40
0.0
  9
$CHAMFERB
 40
0.0
  9
$CHAMFERC
 40
0.0
  9
$CHAMFERD
 40
0.0
  9
$SKPOLY
 70
     0
  9
$TDCREATE
 40
2458168.982288356
  9
$TDUCREATE
 40
2458168.94062169
  9
$TDUPDATE
 40
2458168.982288727
  9
$TDUUPDATE
 40
2458168.94062206
  9
$TDINDWG
 40
0.0000000116
  9
$TDUSRTIMER
 40
0.0000000116
  9
$USRTIMER
 70
     1
  9
$ANGBASE
 50
0.0
  9
$ANGDIR
 70
     0
  9
$PDMODE
 70
     0
  9
$PDSIZE
 40
0.0
  9
$PLINEWID
 40
0.0
  9
$SPLFRAME
 70
     0
  9
$SPLINETYPE
 70
     6
  9
$SPLINESEGS
 70
     8
  9
$HANDSEED
  5
246
  9
$SURFTAB1
 70
     6
  9
$SURFTAB2
 70
     6
  9
$SURFTYPE
 70
     6
  9
$SURFU
 70
     6
  9
$SURFV
 70
     6
  9
$UCSBASE
  2

  9
$UCSNAME
  2

  9
$UCSORG
 10
0.0
 20
0.0
 30
0.0
  9
$UCSXDIR
 10
1.0
 20
0.0
 30
0.0
  9
$UCSYDIR
 10
0.0
 20
1.0
 30
0.0
  9
$UCSORTHOREF
  2

  9
$UCSORTHOVIEW
 70
     0
  9
$UCSORGTOP
 10
0.0
 20
0.0
 30
0.0
  9
$UCSORGBOTTOM
 10
0.0
 20
0.0
 30
0.0
  9
$UCSORGLEFT
 10
0.0
 20
0.0
 30
0.0
  9
$UCSORGRIGHT
 10
0.0
 20
0.0
 30
0.0
  9
$UCSORGFRONT
 10
0.0
 20
0.0
 30
0.0
  9
$UCSORGBACK
 10
0.0
 20
0.0
 30
0.0
  9
$PUCSBASE
  2

  9
$PUCSNAME
  2

  9
$PUCSORG
 10
0.0
 20
0.0
 30
0.0
  9
$PUCSXDIR
 10
1.0
 20
0.0
 30
0.0
  9
$PUCSYDIR
 10
0.0
 20
1.0
 30
0.0
  9
$PUCSORTHOREF
  2

  9
$PUCSORTHOVIEW
 70
     0
  9
$PUCSORGTOP
 10
0.0
 20
0.0
 30
0.0
  9
$PUCSORGBOTTOM
 10
0.0
 20
0.0
 30
0.0
  9
$PUCSORGLEFT
 10
0.0
 20
0.0
 30
0.0
  9
$PUCSORGRIGHT
 10
0.0
 20
0.0
 30
0.0
  9
$PUCSORGFRONT
 10
0.0
 20
0.0
 30
0.0
  9
$PUCSORGBACK
 10
0.0
 20
0.0
 30
0.0
  9
$USERI1
 70
     0
  9
$USERI2
 70
     0
  9
$USERI3
 70
     0
  9
$USERI4
 70
     0
  9
$USERI5
 70
     0
  9
$USERR1
 40
0.0
  9
$USERR2
 40
0.0
  9
$USERR3
 40
0.0
  9
$USERR4
 40
0.0
  9
$USERR5
 40
0.0
  9
$WORLDVIEW
 70
     1
  9
$SHADEDGE
 70
     3
  9
$SHADEDIF
 70
    70
  9
$TILEMODE
 70
     1
  9
$MAXACTVP
 70
    64
  9
$PINSBASE
 10
0.0
 20
0.0
 30
0.0
  9
$PLIMCHECK
 70
     0
  9
$PEXTMIN
 10
1.000000000000000E+20
 20
1.000000000000000E+20
 30
1.000000000000000E+20
  9
$PEXTMAX
 10
-1.000000000000000E+20
 20
-1.000000000000000E+20
 30
-1.000000000000000E+20
  9
$PLIMMIN
 10
0.0
 20
0.0
  9
$PLIMMAX
 10
12.0
 20
9.0
  9
$UNITMODE
 70
     0
  9
$VISRETAIN
 70
     1
  9
$PLINEGEN
 70
     0
  9
$PSLTSCALE
 70
     1
  9
$TREEDEPTH
 70
  3020
  9
$CMLSTYLE
  2
Standard
  9
$CMLJUST
 70
     0
  9
$CMLSCALE
 40
1.0
  9
$PROXYGRAPHICS
 70
     1
  9
$MEASUREMENT
 70
     0
  9
$CELWEIGHT
370
    -1
  9
$ENDCAPS
280
     0
  9
$JOINSTYLE
280
     0
  9
$LWDISPLAY
290
     0
  9
$INSUNITS
 70
     1
  9
$HYPERLINKBASE
  1

  9
$STYLESHEET
  1

  9
$XEDIT
290
     1
  9
$CEPSNTYPE
380
     0
  9
$PSTYLEMODE
290
     1
  9
$FINGERPRINTGUID
  2
{B04D2911-B0A2-4036-8874-6CE28E39C8AA}
  9
$VERSIONGUID
  2
{FAEB1C32-E019-11D5-929B-00C0DF256EC4}
  9
$EXTNAMES
290
     1
  9
$PSVPSCALE
 40
0.0
  9
$OLESTARTUP
290
     0
  9
$SORTENTS
280
   127
  9
$INDEXCTL
280
     0
  9
$HIDETEXT
280
     1
  9
$XCLIPFRAME
280
     2
  9
$HALOGAP
280
     0
  9
$OBSCOLOR
 70
   257
  9
$OBSLTYPE
280
     0
  9
$INTERSECTIONDISPLAY
280
     0
  9
$INTERSECTIONCOLOR
 70
   257
  9
$DIMASSOC
280
     2
  9
$PROJECTNAME
  1

  9
$CAMERADISPLAY
290
     0
  9
$LENSLENGTH
 40
50.0
  9
$CAMERAHEIGHT
 40
0.0
  9
$STEPSPERSEC
 40
2.0
  9
$STEPSIZE
 40
6.0
  9
$3DDWFPREC
 40
2.0
  9
$PSOLWIDTH
 40
0.25
  9
$PSOLHEIGHT
 40
4.0
  9
$LOFTANG1
 40
1.570796326794897
  9
$LOFTANG2
 40
1.570796326794897
  9
$LOFTMAG1
 40
0.0
  9
$LOFTMAG2
 40
0.0
  9
$LOFTPARAM
 70
     7
  9
$LOFTNORMALS
280
     1
  9
$LATITUDE
 40
37.795
  9
$LONGITUDE
 40
-122.394
  9
$NORTHDIRECTION
 40
0.0
  9
$TIMEZONE
 70
 -8000
  9
$LIGHTGLYPHDISPLAY
280
     1
  9
$TILEMODELIGHTSYNCH
280
     1
  9
$CMATERIAL
347
44
  9
$SOLIDHIST
280
     0
  9
$SHOWHIST
280
     1
  9
$DWFFRAME
280
     2
  9
$DGNFRAME
280
     2
  9
$REALWORLDSCALE
290
     1
  9
$INTERFERECOLOR
 62
   256
  9
$CSHADOW
280
     0
  9
$SHADOWPLANELOCATION
 40
0.0
  0
ENDSEC
  0
SECTION
  2
CLASSES
  0
CLASS
  1
ACDBDICTIONARYWDFLT
  2
AcDbDictionaryWithDefault
  3
ObjectDBX Classes
 90
        0
 91
        4
280
     0
281
     0
  0
CLASS
  1
VISUALSTYLE
  2
AcDbVisualStyle
  3
ObjectDBX Classes
 90
     4095
 91
        4
280
     0
281
     0
  0
CLASS
  1
MATERIAL
  2
AcDbMaterial
  3
ObjectDBX Classes
 90
     1153
 91
        4
280
     0
281
     0
  0
CLASS
  1
SCALE
  2
AcDbScale
  3
ObjectDBX Classes
 90
     1153
 91
        4
280
     0
281
     0
  0
CLASS
  1
TABLESTYLE
  2
AcDbTableStyle
  3
ObjectDBX Classes
 90
     4095
 91
        4
280
     0
281
     0
  0
CLASS
  1
MLEADERSTYLE
  2
AcDbMLeaderStyle
  3
ACDB_MLEADERSTYLE_CLASS
 90
     4095
 91
        4
280
     0
281
     0
  0
CLASS
  1
SUN
  2
AcDbSun
  3
SCENEOE
 90
     1153
 91
        4
280
     0
281
     0
  0
CLASS
  1
DICTIONARYVAR
  2
AcDbDictionaryVar
  3
ObjectDBX Classes
 90
        0
 91
        4
280
     0
281
     0
  0
CLASS
  1
CELLSTYLEMAP
  2
AcDbCellStyleMap
  3
ObjectDBX Classes
 90
     1152
 91
        4
280
     0
281
     0
  0
ENDSEC
  0
SECTION
  2
TABLES
  0
TABLE
  2
VPORT
  5
8
330
0
100
AcDbSymbolTable
 70
     1
  0
VPORT
  5
29
330
8
100
AcDbSymbolTableRecord
100
AcDbViewportTableRecord
  2
*Active
 70
     0
 10
0.0
 20
0.0
 11
1.0
 21
1.0
 12
0.0
 22
0.085
 13
0.0
 23
0.0
 14
0.5
 24
0.5
 15
0.5
 25
0.5
 16
0.0
 26
0.0
 36
1.0
 17
0.0
 27
0.0
 37
0.0
 40
9.8634
 41
1.719751809720786
 42
50.0
 43
0.0
 44
0.0
 50
0.0
 51
0.0
 71
     0
 72
   100
 73
     1
 74
     3
 75
     0
 76
     0
 77
     0
 78
     0
281
     0
 65
     1
110
0.0
120
0.0
130
0.0
111
1.0
121
0.0
131
0.0
112
0.0
122
1.0
132
0.0
 79
     0
146
0.0
348
2F
 60
     3
 61
     5
292
     1
282
     1
141
0.0
142
0.0
 63
   250
361
6D
  0
ENDTAB
  0
TABLE
  2
LTYPE
  5
5
330
0
100
AcDbSymbolTable
 70
     3
  0
LTYPE
  5
14
330
5
100
AcDbSymbolTableRecord
100
AcDbLinetypeTableRecord
  2
ByBlock
 70
     0
  3

 72
    65
 73
     0
 40
0.0
  0
LTYPE
  5
15
330
5
100
AcDbSymbolTableRecord
100
AcDbLinetypeTableRecord
  2
ByLayer
 70
     0
  3

 72
    65
 73
     0
 40
0.0
  0
LTYPE
  5
16
330
5
100
AcDbSymbolTableRecord
100
AcDbLinetypeTableRecord
  2
Continuous
 70
     0
  3
Solid line
 72
    65
 73
     0
 40
0.0
  0
LTYPE
  5
9B
330
5
100
AcDbSymbolTableRecord
100
AcDbLinetypeTableRecord
  2
Dashed
 70
     0
  3

 72
    65
 73
     2
 40
2.0
 49
1.0
 74
     0
 49
-1.0
 74
     0
  0
LTYPE
  5
D9
330
5
100
AcDbSymbolTableRecord
100
AcDbLinetypeTableRecord
  2
Center
 70
     0
  3

 72
    65
 73
     4
 40
1.5
 49
0.45
 74
     0
 49
-0.5
 74
     0
 49
0.05
 74
     0
 49
-0.5
 74
     0
  0
ENDTAB
  0
TABLE
  2
LAYER
  5
2
330
0
100
AcDbSymbolTable
 70
     7
  0
LAYER
  5
10
330
2
100
AcDbSymbolTableRecord
100
AcDbLayerTableRecord
  2
0
 70
     0
 62
     7
  6
Continuous
370
    -3
390
F
347
46
348
0
  0
LAYER
  5
72
330
2
100
AcDbSymbolTableRecord
100
AcDbLayerTableRecord
  2
AM_6
 70
     0
 62
    -2
  6
Continuous
370
    35
390
F
347
46
348
0
  0
LAYER
  5
9C
330
2
100
AcDbSymbolTableRecord
100
AcDbLayerTableRecord
  2
AM_9
 70
     0
 62
     6
  6
Dashed
370
    25
390
F
347
46
348
0
  0
LAYER
  5
A3
330
2
100
AcDbSymbolTableRecord
100
AcDbLayerTableRecord
  2
AM_5
 70
     0
 62
     3
  6
Continuous
370
    25
390
F
347
46
348
0
  0
LAYER
  5
A9
330
2
100
AcDbSymbolTableRecord
100
AcDbLayerTableRecord
  2
AM_4
 70
     0
 62
     7
  6
Continuous
370
    50
390
F
347
46
348
0
  0
LAYER
  5
DA
330
2
100
AcDbSymbolTableRecord
100
AcDbLayerTableRecord
  2
AM_7
 70
     0
 62
     7
  6
Center
370
    25
390
F
347
46
348
0
  0
LAYER
  5
231
330
2
100
AcDbSymbolTableRecord
100
AcDbLayerTableRecord
  2
ConnectionPoints
 70
     0
 62
     7
  6
Continuous
370
    50
390
F
347
46
348
0
  0
ENDTAB
  0
TABLE
  2
STYLE
  5
3
330
0
100
AcDbSymbolTable
 70
     1
  0
STYLE
  5
11
330
3
100
AcDbSymbolTableRecord
100
AcDbTextStyleTableRecord
  2
Standard
 70
     0
 40
0.0
 41
1.0
 50
0.0
 71
     0
 42
0.2
  3
txt
  4

  0
ENDTAB
  0
TABLE
  2
VIEW
  5
6
330
0
100
AcDbSymbolTable
 70
     0
  0
ENDTAB
  0
TABLE
  2
UCS
  5
7
330
0
100
AcDbSymbolTable
 70
     0
  0
ENDTAB
  0
TABLE
  2
APPID
  5
9
330
0
100
AcDbSymbolTable
 70
     1
  0
APPID
  5
12
330
9
100
AcDbSymbolTableRecord
100
AcDbRegAppTableRecord
  2
ACAD
 70
     0
  0
ENDTAB
  0
TABLE
  2
DIMSTYLE
  5
A
330
0
100
AcDbSymbolTable
 70
     1
100
AcDbDimStyleTable
  0
DIMSTYLE
105
27
330
A
100
AcDbSymbolTableRecord
100
AcDbDimStyleTableRecord
  2
Standard
 70
     0
178
     0
340
11
  0
ENDTAB
  0
TABLE
  2
BLOCK_RECORD
  5
1
330
0
100
AcDbSymbolTable
 70
     8
  0
BLOCK_RECORD
  5
1F
330
1
100
AcDbSymbolTableRecord
100
AcDbBlockTableRecord
  2
*Model_Space
340
22
 70
     0
280
     1
281
     0
  0
BLOCK_RECORD
  5
1B
330
1
100
AcDbSymbolTableRecord
100
AcDbBlockTableRecord
  2
*Paper_Space
340
1E
 70
     0
280
     1
281
     0
  0
BLOCK_RECORD
  5
23
330
1
100
AcDbSymbolTableRecord
100
AcDbBlockTableRecord
  2
*Paper_Space0
340
26
 70
     0
280
     1
281
     0
  0
BLOCK_RECORD
  5
6E
330
1
100
AcDbSymbolTableRecord
100
AcDbBlockTableRecord
  2
1_071217_0
340
0
102
{BLKREFS
331
6F
102
}
 70
     0
280
     1
281
     0
  0
BLOCK_RECORD
  5
8F
330
1
100
AcDbSymbolTableRecord
100
AcDbBlockTableRecord
  2
2_405015E_Inch_0_in_071217_0
340
0
102
{BLKREFS
331
90
102
}
 70
     0
280
     1
281
     0
  0
BLOCK_RECORD
  5
C8
330
1
100
AcDbSymbolTableRecord
100
AcDbBlockTableRecord
  2
3_ASME_B18_3_1_4_1_0_in_071217_0
340
0
102
{BLKREFS
331
C9
102
}
 70
     0
280
     1
281
     0
  0
BLOCK_RECORD
  5
E6
330
1
100
AcDbSymbolTableRecord
100
AcDbBlockTableRecord
  2
4_ASME_B18_3_1_4_2_0_in_071217_0
340
0
102
{BLKREFS
331
E7
102
}
 70
     0
280
     1
281
     0
  0
BLOCK_RECORD
  5
102
330
1
100
AcDbSymbolTableRecord
100
AcDbBlockTableRecord
  2
5_070908LWE_0_in_071217_0
340
0
102
{BLKREFS
331
103
102
}
 70
     0
280
     1
281
     0
  0
BLOCK_RECORD
  5
154
330
1
100
AcDbSymbolTableRecord
100
AcDbBlockTableRecord
  2
6_070908E_0_in_071217_0
340
0
102
{BLKREFS
331
155
102
}
 70
     0
280
     1
281
     0
  0
BLOCK_RECORD
  5
1B8
330
1
100
AcDbSymbolTableRecord
100
AcDbBlockTableRecord
  2
7_071217H_0_in_071217_0
340
0
102
{BLKREFS
331
1B9
102
}
 70
     0
280
     1
281
     0
  0
ENDTAB
  0
ENDSEC
  0
SECTION
  2
BLOCKS
  0
BLOCK
  5
20
330
1F
100
AcDbEntity
  8
0
100
AcDbBlockBegin
  2
*Model_Space
 70
     0
 10
0.0
 20
0.0
 30
0.0
  3
*Model_Space
  1

  0
ENDBLK
  5
21
330
1F
100
AcDbEntity
  8
0
100
AcDbBlockEnd
  0
BLOCK
  5
1C
330
1B
100
AcDbEntity
 67
     1
  8
0
100
AcDbBlockBegin
  2
*Paper_Space
 70
     0
 10
0.0
 20
0.0
 30
0.0
  3
*Paper_Space
  1

  0
ENDBLK
  5
1D
330
1B
100
AcDbEntity
 67
     1
  8
0
100
AcDbBlockEnd
  0
BLOCK
  5
24
330
23
100
AcDbEntity
  8
0
100
AcDbBlockBegin
  2
*Paper_Space0
 70
     0
 10
0.0
 20
0.0
 30
0.0
  3
*Paper_Space0
  1

  0
ENDBLK
  5
25
330
23
100
AcDbEntity
  8
0
100
AcDbBlockEnd
  0
BLOCK
  5
70
330
6E
100
AcDbEntity
  8
0
100
AcDbBlockBegin
  2
1_071217_0
 70
     2
 10
0.0
 20
0.0
 30
0.0
  3
1_071217_0
  1

  0
ATTDEF
  5
73
330
6E
100
AcDbEntity
  8
AM_6
100
AcDbText
 10
13.315
 20
4.92
 30
0.0
 40
0.5
  1
Imperial - IP Pillow Block with Type E Dimensions 2-1/4 thru 7 inch 4-Bolt Trident Seal Expansion
100
AcDbAttributeDefinition
  3

  2
NN
 70
     8
280
     0
  0
ATTDEF
  5
74
330
6E
100
AcDbEntity
  8
AM_6
100
AcDbText
 10
13.315
 20
4.42
 30
0.0
 40
0.5
  1
Imperial/E 4 Bolt Piliow Block Bearings
100
AcDbAttributeDefinition
  3

  2
NT
 70
     8
280
     0
  0
ATTDEF
  5
75
330
6E
100
AcDbEntity
  8
AM_6
100
AcDbText
 10
13.315
 20
3.92
 30
0.0
 40
0.5
  1
071217
100
AcDbAttributeDefinition
  3

  2
NB
 70
     8
280
     0
  0
ATTDEF
  5
76
330
6E
100
AcDbEntity
  8
AM_6
100
AcDbText
 10
13.315
 20
3.42
 30
0.0
 40
0.5
  1
$PN.
100
AcDbAttributeDefinition
  3

  2
NBSYN
 70
     8
280
     0
  0
ATTDEF
  5
77
330
6E
100
AcDbEntity
  8
AM_6
100
AcDbText
 10
13.315
 20
2.92
 30
0.0
 40
0.5
  1
071217
100
AcDbAttributeDefinition
  3

  2
LINA
 70
     8
280
     0
  0
ATTDEF
  5
78
330
6E
100
AcDbEntity
  8
AM_6
100
AcDbText
 10
13.315
 20
2.42
 30
0.0
 40
0.5
  1
4-7/16
100
AcDbAttributeDefinition
  3

  2
SS
 70
     8
280
     0
  0
ATTDEF
  5
79
330
6E
100
AcDbEntity
  8
AM_6
100
AcDbText
 10
13.315
 20
1.92
 30
0.0
 40
0.5
  1
Non-Expansion
100
AcDbAttributeDefinition
  3

  2
TYPE
 70
     8
280
     0
  0
ATTDEF
  5
7A
330
6E
100
AcDbEntity
  8
AM_6
100
AcDbText
 10
13.315
 20
1.42
 30
0.0
 40
0.5
  1
071217
100
AcDbAttributeDefinition
  3

  2
PN
 70
     8
280
     0
  0
ATTDEF
  5
7B
330
6E
100
AcDbEntity
  8
AM_6
100
AcDbText
 10
13.315
 20
0.9199999999999999
 30
0.0
 40
0.5
  1
EP4B-IP-407R
100
AcDbAttributeDefinition
  3

  2
DESCRIPTION
 70
     8
280
     0
  0
ATTDEF
  5
7C
330
6E
100
AcDbEntity
  8
AM_6
100
AcDbText
 10
13.315
 20
0.4199999999999999
 30
0.0
 40
0.5
  1
Contact Seal
100
AcDbAttributeDefinition
  3

  2
ST
 70
     8
280
     0
  0
ATTDEF
  5
7D
330
6E
100
AcDbEntity
  8
AM_6
100
AcDbText
 10
13.315
 20
-0.0800000000000001
 30
0.0
 40
0.5
  1
5.23
100
AcDbAttributeDefinition
  3

  2
A
 70
     8
280
     0
  0
ATTDEF
  5
7E
330
6E
100
AcDbEntity
  8
AM_6
100
AcDbText
 10
13.315
 20
-0.5800000000000001
 30
0.0
 40
0.5
  1
16.63
100
AcDbAttributeDefinition
  3

  2
B
 70
     8
280
     0
  0
ATTDEF
  5
7F
330
6E
100
AcDbEntity
  8
AM_6
100
AcDbText
 10
13.315
 20
-1.08
 30
0.0
 40
0.5
  1
4.63
100
AcDbAttributeDefinition
  3

  2
C
 70
     8
280
     0
  0
ATTDEF
  5
80
330
6E
100
AcDbEntity
  8
AM_6
100
AcDbText
 10
13.315
 20
-1.58
 30
0.0
 40
0.5
  1
13.25
100
AcDbAttributeDefinition
  3

  2
DMIN
 70
     8
280
     0
  0
ATTDEF
  5
81
330
6E
100
AcDbEntity
  8
AM_6
100
AcDbText
 10
13.315
 20
-2.08
 30
0.0
 40
0.5
  1
13.75
100
AcDbAttributeDefinition
  3

  2
DMAX
 70
     8
280
     0
  0
ATTDEF
  5
82
330
6E
100
AcDbEntity
  8
AM_6
100
AcDbText
 10
13.315
 20
-2.58
 30
0.0
 40
0.5
  1
2.5
100
AcDbAttributeDefinition
  3

  2
E
 70
     8
280
     0
  0
ATTDEF
  5
83
330
6E
100
AcDbEntity
  8
AM_6
100
AcDbText
 10
13.315
 20
-3.08
 30
0.0
 40
0.5
  1
3/4
100
AcDbAttributeDefinition
  3

  2
F
 70
     8
280
     0
  0
ATTDEF
  5
84
330
6E
100
AcDbEntity
  8
AM_6
100
AcDbText
 10
13.315
 20
-3.58
 30
0.0
 40
0.5
  1
1.13
100
AcDbAttributeDefinition
  3

  2
G
 70
     8
280
     0
  0
ATTDEF
  5
85
330
6E
100
AcDbEntity
  8
AM_6
100
AcDbText
 10
13.315
 20
-4.08
 30
0.0
 40
0.5
  1
2.75
100
AcDbAttributeDefinition
  3

  2
H
 70
     8
280
     0
  0
ATTDEF
  5
86
330
6E
100
AcDbEntity
  8
AM_6
100
AcDbText
 10
13.315
 20
-4.58
 30
0.0
 40
0.5
  1
9.67
100
AcDbAttributeDefinition
  3

  2
J
 70
     8
280
     0
  0
ATTDEF
  5
87
330
6E
100
AcDbEntity
  8
AM_6
100
AcDbText
 10
13.315
 20
-5.08
 30
0.0
 40
0.5
  1
6.44
100
AcDbAttributeDefinition
  3

  2
L
 70
     8
280
     0
  0
ATTDEF
  5
88
330
6E
100
AcDbEntity
  8
AM_6
100
AcDbText
 10
13.315
 20
-5.58
 30
0.0
 40
0.5
  1
4.75
100
AcDbAttributeDefinition
  3

  2
M
 70
     8
280
     0
  0
ATTDEF
  5
89
330
6E
100
AcDbEntity
  8
AM_6
100
AcDbText
 10
13.315
 20
-6.08
 30
0.0
 40
0.5
  1
1.82
100
AcDbAttributeDefinition
  3

  2
R
 70
     8
280
     0
  0
ATTDEF
  5
8A
330
6E
100
AcDbEntity
  8
AM_6
100
AcDbText
 10
13.315
 20
-6.58
 30
0.0
 40
0.5
  1
3.41
100
AcDbAttributeDefinition
  3

  2
S
 70
     8
280
     0
  0
ATTDEF
  5
8B
330
6E
100
AcDbEntity
  8
AM_6
100
AcDbText
 10
13.315
 20
-7.08
 30
0.0
 40
0.5
  1
0.38
100
AcDbAttributeDefinition
  3

  2
X
 70
     8
280
     0
  0
ATTDEF
  5
8C
330
6E
100
AcDbEntity
  8
AM_6
100
AcDbText
 10
13.315
 20
-7.58
 30
0.0
 40
0.5
  1
0.036
100
AcDbAttributeDefinition
  3

  2
Y
 70
     8
280
     0
  0
ATTDEF
  5
8D
330
6E
100
AcDbEntity
  8
AM_6
100
AcDbText
 10
13.315
 20
-8.08
 30
0.0
 40
0.5
  1
5.00
100
AcDbAttributeDefinition
  3

  2
Z
 70
     8
280
     0
  0
ATTDEF
  5
8E
330
6E
100
AcDbEntity
  8
AM_6
100
AcDbText
 10
13.315
 20
-8.58
 30
0.0
 40
0.5
  1
baldor
100
AcDbAttributeDefinition
  3

  2
COMPANY
 70
     8
280
     0
  0
INSERT
  5
90
330
6E
100
AcDbEntity
  8
0
100
AcDbBlockReference
  2
2_405015E_Inch_0_in_071217_0
 10
0.0
 20
0.0
 30
0.0
  0
INSERT
  5
C9
330
6E
100
AcDbEntity
  8
0
100
AcDbBlockReference
  2
3_ASME_B18_3_1_4_1_0_in_071217_0
 10
0.0
 20
0.0
 30
0.0
  0
INSERT
  5
E7
330
6E
100
AcDbEntity
  8
0
100
AcDbBlockReference
  2
4_ASME_B18_3_1_4_2_0_in_071217_0
 10
0.0
 20
0.0
 30
0.0
  0
INSERT
  5
103
330
6E
100
AcDbEntity
  8
0
100
AcDbBlockReference
  2
5_070908LWE_0_in_071217_0
 10
0.0
 20
0.0
 30
0.0
  0
INSERT
  5
155
330
6E
100
AcDbEntity
  8
0
100
AcDbBlockReference
  2
6_070908E_0_in_071217_0
 10
0.0
 20
0.0
 30
0.0
  0
INSERT
  5
1B9
330
6E
100
AcDbEntity
  8
0
100
AcDbBlockReference
  2
7_071217H_0_in_071217_0
 10
0.0
 20
0.0
 30
0.0
  0
ENDBLK
  5
71
330
6E
100
AcDbEntity
  8
0
100
AcDbBlockEnd
  0
BLOCK
  5
91
330
8F
100
AcDbEntity
  8
0
100
AcDbBlockBegin
  2
2_405015E_Inch_0_in_071217_0
 70
     2
 10
0.0
 20
0.0
 30
0.0
  3
2_405015E_Inch_0_in_071217_0
  1

  0
ATTDEF
  5
93
330
8F
100
AcDbEntity
  8
AM_6
100
AcDbText
 10
2.776150533277437
 20
4.72354600438364
 30
0.0
 40
0.5
  1
405015E -Inch
100
AcDbAttributeDefinition
  3

  2
NN
 70
     8
280
     0
  0
ATTDEF
  5
94
330
8F
100
AcDbEntity
  8
AM_6
100
AcDbText
 10
2.776150533277437
 20
4.22354600438364
 30
0.0
 40
0.5
  1
Grease Fitting
100
AcDbAttributeDefinition
  3

  2
NT
 70
     8
280
     0
  0
ATTDEF
  5
95
330
8F
100
AcDbEntity
  8
AM_6
100
AcDbText
 10
2.776150533277437
 20
3.72354600438364
 30
0.0
 40
0.5
  1
405015E-Inch
100
AcDbAttributeDefinition
  3

  2
NB
 70
     8
280
     0
  0
ATTDEF
  5
96
330
8F
100
AcDbEntity
  8
AM_6
100
AcDbText
 10
2.776150533277437
 20
3.22354600438364
 30
0.0
 40
0.5
  1
$MN.-Inch
100
AcDbAttributeDefinition
  3

  2
NBSYN
 70
     8
280
     0
  0
ATTDEF
  5
97
330
8F
100
AcDbEntity
  8
AM_6
100
AcDbText
 10
2.776150533277437
 20
2.72354600438364
 30
0.0
 40
0.5
  1
405015E
100
AcDbAttributeDefinition
  3

  2
LINA
 70
     8
280
     0
  0
ATTDEF
  5
98
330
8F
100
AcDbEntity
  8
AM_6
100
AcDbText
 10
2.776150533277437
 20
2.22354600438364
 30
0.0
 40
0.5
  1
405015E
100
AcDbAttributeDefinition
  3

  2
MN
 70
     8
280
     0
  0
ATTDEF
  5
99
330
8F
100
AcDbEntity
  8
AM_6
100
AcDbText
 10
2.776150533277437
 20
1.72354600438364
 30
0.0
 40
0.5
  1
1/8 x 27PTF
100
AcDbAttributeDefinition
  3

  2
T
 70
     8
280
     0
  0
ATTDEF
  5
9A
330
8F
100
AcDbEntity
  8
AM_6
100
AcDbText
 10
2.776150533277437
 20
1.22354600438364
 30
0.0
 40
0.5
  1
baldor
100
AcDbAttributeDefinition
  3

  2
COMPANY
 70
     8
280
     0
  0
LINE
  5
9D
330
8F
100
AcDbEntity
  8
AM_9
100
AcDbLine
 10
-2.237287999493342
 20
4.198902231231139
 30
0.0
 11
-2.223849466722563
 21
4.249055518310865
 31
0.0
  0
LINE
  5
9E
330
8F
100
AcDbEntity
  8
AM_9
100
AcDbLine
 10
-2.567865287586381
 20
4.05043789152965
 30
0.0
 11
-2.517712000506656
 21
4.03699935875887
 31
0.0
  0
LINE
  5
9F
330
8F
100
AcDbEntity
  8
AM_9
100
AcDbLine
 10
-2.517712000506656
 20
4.03699935875887
 30
0.0
 11
-2.237287999493342
 21
4.198902231231139
 31
0.0
  0
LINE
  5
A0
330
8F
100
AcDbEntity
  8
AM_9
100
AcDbLine
 10
-2.223849466722563
 20
4.249055518310865
 30
0.0
 11
-2.331813630127976
 21
4.450323475609417
 31
0.0
  0
LINE
  5
A1
330
8F
100
AcDbEntity
  8
AM_9
100
AcDbLine
 10
-2.688186369872022
 20
4.244571578386346
 30
0.0
 11
-2.567865287586381
 21
4.05043789152965
 31
0.0
  0
LINE
  5
A2
330
8F
100
AcDbEntity
  8
AM_9
100
AcDbLine
 10
-2.567865287586381
 20
4.05043789152965
 30
0.0
 11
-2.223849466722563
 21
4.249055518310865
 31
0.0
  0
LINE
  5
A4
330
8F
100
AcDbEntity
  8
AM_5
100
AcDbLine
 10
-2.331813630127976
 20
4.375117930867973
 30
0.0
 11
-2.237287999493342
 21
4.198902231231139
 31
0.0
  0
LINE
  5
A5
330
8F
100
AcDbEntity
  8
AM_5
100
AcDbLine
 10
-2.331813630127977
 20
4.450323475609417
 30
0.0
 11
-2.331813630127976
 21
4.375117930867973
 31
0.0
  0
LINE
  5
A6
330
8F
100
AcDbEntity
  8
AM_5
100
AcDbLine
 10
-2.653858695704769
 20
4.189185125566021
 30
0.0
 11
-2.301011392043692
 21
4.392901611317578
 31
0.0
  0
LINE
  5
A7
330
8F
100
AcDbEntity
  8
AM_5
100
AcDbLine
 10
-2.623056457620485
 20
4.206968806015626
 30
0.0
 11
-2.517712000506656
 21
4.036999358758871
 31
0.0
  0
LINE
  5
A8
330
8F
100
AcDbEntity
  8
AM_5
100
AcDbLine
 10
-2.688186369872022
 20
4.244571578386347
 30
0.0
 11
-2.623056457620485
 21
4.206968806015626
 31
0.0
  0
LINE
  5
AA
330
8F
100
AcDbEntity
  8
AM_4
100
AcDbLine
 10
-2.521567332602633
 20
4.577482734773691
 30
0.0
 11
-2.536567332602633
 21
4.603463496887224
 31
0.0
  0
LINE
  5
AB
330
8F
100
AcDbEntity
  8
AM_4
100
AcDbLine
 10
-2.718432667397365
 20
4.498463496887225
 30
0.0
 11
-2.703432667397365
 21
4.472482734773691
 31
0.0
  0
LINE
  5
AC
330
8F
100
AcDbEntity
  8
AM_4
100
AcDbLine
 10
-2.703432667397365
 20
4.472482734773691
 30
0.0
 11
-2.699277777865678
 21
4.437646073535179
 31
0.0
  0
LINE
  5
AD
330
8F
100
AcDbEntity
  8
AM_4
100
AcDbLine
 10
-2.493475343752892
 20
4.556466164270077
 30
0.0
 11
-2.521567332602633
 21
4.577482734773691
 31
0.0
  0
LINE
  5
AE
330
8F
100
AcDbEntity
  8
AM_4
100
AcDbLine
 10
-2.703432667397365
 20
4.472482734773691
 30
0.0
 11
-2.521567332602633
 21
4.577482734773691
 31
0.0
  0
LINE
  5
AF
330
8F
100
AcDbEntity
  8
AM_4
100
AcDbLine
 10
-2.786421671481427
 20
4.620868102450451
 30
0.0
 11
-2.774413429510899
 21
4.535425021114291
 31
0.0
  0
LINE
  5
B0
330
8F
100
AcDbEntity
  8
AM_4
100
AcDbLine
 10
-2.5405865704891
 20
4.670425021114291
 30
0.0
 11
-2.608578328518572
 21
4.72354600438364
 31
0.0
  0
LINE
  5
B1
330
8F
100
AcDbEntity
  8
AM_4
100
AcDbLine
 10
-2.786421671481427
 20
4.620868102450451
 30
0.0
 11
-2.608578328518572
 21
4.72354600438364
 31
0.0
  0
LINE
  5
B2
330
8F
100
AcDbEntity
  8
AM_4
100
AcDbLine
 10
-2.536567332602633
 20
4.603463496887224
 30
0.0
 11
-2.5405865704891
 21
4.670425021114291
 31
0.0
  0
LINE
  5
B3
330
8F
100
AcDbEntity
  8
AM_4
100
AcDbLine
 10
-2.774413429510899
 20
4.535425021114291
 30
0.0
 11
-2.718432667397365
 21
4.498463496887225
 31
0.0
  0
LINE
  5
B4
330
8F
100
AcDbEntity
  8
AM_4
100
AcDbLine
 10
-2.774413429510899
 20
4.535425021114291
 30
0.0
 11
-2.5405865704891
 21
4.670425021114291
 31
0.0
  0
LINE
  5
B5
330
8F
100
AcDbEntity
  8
AM_4
100
AcDbLine
 10
-2.718432667397365
 20
4.498463496887225
 30
0.0
 11
-2.536567332602633
 21
4.603463496887224
 31
0.0
  0
LINE
  5
B6
330
8F
100
AcDbEntity
  8
AM_4
100
AcDbLine
 10
-2.699277777865678
 20
4.437646073535179
 30
0.0
 11
-2.718577972431429
 21
4.363647066022788
 31
0.0
  0
LINE
  5
B7
330
8F
100
AcDbEntity
  8
AM_4
100
AcDbLine
 10
-2.419740226109451
 20
4.536181119305804
 30
0.0
 11
-2.493475343752892
 21
4.556466164270077
 31
0.0
  0
LINE
  5
B8
330
8F
100
AcDbEntity
  8
AM_4
100
AcDbLine
 10
-2.699277777865678
 20
4.437646073535179
 30
0.0
 11
-2.493475343752892
 21
4.556466164270077
 31
0.0
  0
LINE
  5
B9
330
8F
100
AcDbEntity
  8
AM_4
100
AcDbLine
 10
-2.749443057077845
 20
4.324675067376325
 30
0.0
 11
-2.370556942922153
 21
4.543425067376325
 31
0.0
  0
LINE
  5
BA
330
8F
100
AcDbEntity
  8
AM_4
100
AcDbLine
 10
-2.320556942922153
 20
4.456822526997882
 30
0.0
 11
-2.370556942922153
 21
4.543425067376325
 31
0.0
  0
LINE
  5
BB
330
8F
100
AcDbEntity
  8
AM_4
100
AcDbLine
 10
-2.749443057077845
 20
4.324675067376325
 30
0.0
 11
-2.699443057077845
 21
4.238072526997882
 31
0.0
  0
LINE
  5
BC
330
8F
100
AcDbEntity
  8
AM_4
100
AcDbLine
 10
-2.718577972431429
 20
4.363647066022788
 30
0.0
 11
-2.745112930058923
 21
4.327175067376325
 31
0.0
  0
LINE
  5
BD
330
8F
100
AcDbEntity
  8
AM_4
100
AcDbLine
 10
-2.374887069941076
 20
4.540925067376326
 30
0.0
 11
-2.419740226109451
 21
4.536181119305804
 31
0.0
  0
LINE
  5
BE
330
8F
100
AcDbEntity
  8
AM_4
100
AcDbLine
 10
-2.718577972431429
 20
4.363647066022788
 30
0.0
 11
-2.419740226109451
 21
4.536181119305804
 31
0.0
  0
LINE
  5
BF
330
8F
100
AcDbEntity
  8
AM_4
100
AcDbLine
 10
-2.744909257229538
 20
4.316822295687709
 30
0.0
 11
-2.654721528538922
 21
4.379362567376325
 31
0.0
  0
LINE
  5
C0
330
8F
100
AcDbEntity
  8
AM_4
100
AcDbLine
 10
-2.604721528538922
 20
4.292760026997882
 30
0.0
 11
-2.703976856926152
 21
4.245925298686497
 31
0.0
  0
LINE
  5
C1
330
8F
100
AcDbEntity
  8
AM_4
100
AcDbLine
 10
-2.654721528538922
 20
4.379362567376325
 30
0.0
 11
-2.555466200151692
 21
4.426197295687709
 31
0.0
  0
LINE
  5
C2
330
8F
100
AcDbEntity
  8
AM_4
100
AcDbLine
 10
-2.514533799848306
 20
4.355300298686497
 30
0.0
 11
-2.604721528538922
 21
4.292760026997882
 31
0.0
  0
LINE
  5
C3
330
8F
100
AcDbEntity
  8
AM_4
100
AcDbLine
 10
-2.465278471461076
 20
4.488737567376326
 30
0.0
 11
-2.366023143073846
 21
4.535572295687709
 31
0.0
  0
LINE
  5
C4
330
8F
100
AcDbEntity
  8
AM_4
100
AcDbLine
 10
-2.555466200151692
 20
4.426197295687709
 30
0.0
 11
-2.465278471461076
 21
4.488737567376326
 31
0.0
  0
LINE
  5
C5
330
8F
100
AcDbEntity
  8
AM_4
100
AcDbLine
 10
-2.555466200151692
 20
4.426197295687709
 30
0.0
 11
-2.514533799848306
 21
4.355300298686497
 31
0.0
  0
LINE
  5
C6
330
8F
100
AcDbEntity
  8
AM_4
100
AcDbLine
 10
-2.415278471461076
 20
4.402135026997882
 30
0.0
 11
-2.514533799848306
 21
4.355300298686497
 31
0.0
  0
LINE
  5
C7
330
8F
100
AcDbEntity
  8
AM_4
100
AcDbLine
 10
-2.325090742770461
 20
4.464675298686497
 30
0.0
 11
-2.415278471461076
 21
4.402135026997882
 31
0.0
  0
ENDBLK
  5
92
330
8F
100
AcDbEntity
  8
0
100
AcDbBlockEnd
  0
BLOCK
  5
CA
330
C8
100
AcDbEntity
  8
0
100
AcDbBlockBegin
  2
3_ASME_B18_3_1_4_1_0_in_071217_0
 70
     2
 10
0.0
 20
0.0
 30
0.0
  3
3_ASME_B18_3_1_4_1_0_in_071217_0
  1

  0
ATTDEF
  5
CC
330
C8
100
AcDbEntity
  8
AM_6
100
AcDbText
 10
5.229425
 20
-2.623513888888889
 30
0.0
 40
0.5
  1
ANSI/ASME B18.3-1998
100
AcDbAttributeDefinition
  3

  2
NN
 70
     8
280
     0
  0
ATTDEF
  5
CD
330
C8
100
AcDbEntity
  8
AM_6
100
AcDbText
 10
5.229425
 20
-3.123513888888889
 30
0.0
 40
0.5
  1
Socket Button Head Cap Screws
100
AcDbAttributeDefinition
  3

  2
NT
 70
     8
280
     0
  0
ATTDEF
  5
CE
330
C8
100
AcDbEntity
  8
AM_6
100
AcDbText
 10
5.229425
 20
-3.623513888888889
 30
0.0
 40
0.5
  1
ASME B18.3-1/4
100
AcDbAttributeDefinition
  3

  2
NB
 70
     8
280
     0
  0
ATTDEF
  5
CF
330
C8
100
AcDbEntity
  8
AM_6
100
AcDbText
 10
5.229425
 20
-4.123513888888889
 30
0.0
 40
0.5
  1
ASME B18.3-$NS.
100
AcDbAttributeDefinition
  3

  2
NBSYN
 70
     8
280
     0
  0
ATTDEF
  5
D0
330
C8
100
AcDbEntity
  8
AM_6
100
AcDbText
 10
5.229425
 20
-4.623513888888889
 30
0.0
 40
0.5
  1
ASME B18.3-1/4
100
AcDbAttributeDefinition
  3

  2
LINA
 70
     8
280
     0
  0
ATTDEF
  5
D1
330
C8
100
AcDbEntity
  8
AM_6
100
AcDbText
 10
5.229425
 20
-5.123513888888889
 30
0.0
 40
0.5
  1
1/4
100
AcDbAttributeDefinition
  3

  2
NS
 70
     8
280
     0
  0
ATTDEF
  5
D2
330
C8
100
AcDbEntity
  8
AM_6
100
AcDbText
 10
5.229425
 20
-5.623513888888889
 30
0.0
 40
0.5
  1
0.437
100
AcDbAttributeDefinition
  3

  2
A
 70
     8
280
     0
  0
ATTDEF
  5
D3
330
C8
100
AcDbEntity
  8
AM_6
100
AcDbText
 10
5.229425
 20
-6.123513888888889
 30
0.0
 40
0.5
  1
0.132
100
AcDbAttributeDefinition
  3

  2
H
 70
     8
280
     0
  0
ATTDEF
  5
D4
330
C8
100
AcDbEntity
  8
AM_6
100
AcDbText
 10
5.229425
 20
-6.623513888888889
 30
0.0
 40
0.5
  1
0.800
100
AcDbAttributeDefinition
  3

  2
L
 70
     8
280
     0
  0
ATTDEF
  5
D5
330
C8
100
AcDbEntity
  8
AM_6
100
AcDbText
 10
5.229425
 20
-7.123513888888889
 30
0.0
 40
0.5
  1
0.031
100
AcDbAttributeDefinition
  3

  2
S
 70
     8
280
     0
  0
ATTDEF
  5
D6
330
C8
100
AcDbEntity
  8
AM_6
100
AcDbText
 10
5.229425
 20
-7.623513888888889
 30
0.0
 40
0.5
  1
0.156250
100
AcDbAttributeDefinition
  3

  2
J
 70
     8
280
     0
  0
ATTDEF
  5
D7
330
C8
100
AcDbEntity
  8
AM_6
100
AcDbText
 10
5.229425
 20
-8.123513888888889
 30
0.0
 40
0.5
  1
baldor
100
AcDbAttributeDefinition
  3

  2
COMPANY
 70
     8
280
     0
  0
ARC
  5
D8
330
C8
100
AcDbEntity
  8
AM_5
100
AcDbCircle
 10
0.0
 20
-2.842013888888889
 30
0.0
 40
0.0952500000000001
100
AcDbArc
 50
75.00000000000001
 51
15.00000000000004
  0
LINE
  5
DB
330
C8
100
AcDbEntity
  8
AM_7
100
AcDbLine
 10
-0.2294250000000002
 20
-2.842013888888889
 30
0.0
 11
0.2294250000000002
 21
-2.842013888888889
 31
0.0
  0
LINE
  5
DC
330
C8
100
AcDbEntity
  8
AM_4
100
AcDbLine
 10
0.0
 20
-2.75180290932801
 30
0.0
 11
0.078125
 21
-2.796908399108449
 31
0.0
  0
LINE
  5
DD
330
C8
100
AcDbEntity
  8
AM_4
100
AcDbLine
 10
0.0
 20
-2.932224868449768
 30
0.0
 11
-0.078125
 21
-2.887119378669329
 31
0.0
  0
CIRCLE
  5
DE
330
C8
100
AcDbEntity
  8
AM_4
100
AcDbCircle
 10
0.0
 20
-2.842013888888889
 30
0.0
 40
0.1175
  0
LINE
  5
DF
330
C8
100
AcDbEntity
  8
AM_4
100
AcDbLine
 10
-0.078125
 20
-2.887119378669329
 30
0.0
 11
-0.078125
 21
-2.796908399108449
 31
0.0
  0
LINE
  5
E0
330
C8
100
AcDbEntity
  8
AM_4
100
AcDbLine
 10
-0.078125
 20
-2.796908399108449
 30
0.0
 11
0.0
 21
-2.75180290932801
 31
0.0
  0
LINE
  5
E1
330
C8
100
AcDbEntity
  8
AM_4
100
AcDbLine
 10
0.078125
 20
-2.796908399108449
 30
0.0
 11
0.078125
 21
-2.887119378669329
 31
0.0
  0
LINE
  5
E2
330
C8
100
AcDbEntity
  8
AM_4
100
AcDbLine
 10
0.078125
 20
-2.887119378669329
 30
0.0
 11
0.0
 21
-2.932224868449768
 31
0.0
  0
ARC
  5
E3
330
C8
100
AcDbEntity
  8
AM_5
100
AcDbCircle
 10
0.0
 20
-2.842013888888889
 30
0.0
 40
0.09525
100
AcDbArc
 50
345.0
 51
285.0
  0
CIRCLE
  5
E4
330
C8
100
AcDbEntity
  8
AM_4
100
AcDbCircle
 10
0.0
 20
-2.842013888888889
 30
0.0
 40
0.2185000000000001
  0
CIRCLE
  5
E5
330
C8
100
AcDbEntity
  8
AM_5
100
AcDbCircle
 10
0.0000000000000005
 20
-2.842013888888889
 30
0.0
 40
0.1063999999999998
  0
ENDBLK
  5
CB
330
C8
100
AcDbEntity
  8
0
100
AcDbBlockEnd
  0
BLOCK
  5
E8
330
E6
100
AcDbEntity
  8
0
100
AcDbBlockBegin
  2
4_ASME_B18_3_1_4_2_0_in_071217_0
 70
     2
 10
0.0
 20
0.0
 30
0.0
  3
4_ASME_B18_3_1_4_2_0_in_071217_0
  1

  0
ATTDEF
  5
EA
330
E6
100
AcDbEntity
  8
AM_6
100
AcDbText
 10
5.229425
 20
3.060513888888889
 30
0.0
 40
0.5
  1
ANSI/ASME B18.3-1998
100
AcDbAttributeDefinition
  3

  2
NN
 70
     8
280
     0
  0
ATTDEF
  5
EB
330
E6
100
AcDbEntity
  8
AM_6
100
AcDbText
 10
5.229425
 20
2.560513888888889
 30
0.0
 40
0.5
  1
Socket Button Head Cap Screws
100
AcDbAttributeDefinition
  3

  2
NT
 70
     8
280
     0
  0
ATTDEF
  5
EC
330
E6
100
AcDbEntity
  8
AM_6
100
AcDbText
 10
5.229425
 20
2.060513888888889
 30
0.0
 40
0.5
  1
ASME B18.3-1/4
100
AcDbAttributeDefinition
  3

  2
NB
 70
     8
280
     0
  0
ATTDEF
  5
ED
330
E6
100
AcDbEntity
  8
AM_6
100
AcDbText
 10
5.229425
 20
1.560513888888889
 30
0.0
 40
0.5
  1
ASME B18.3-$NS.
100
AcDbAttributeDefinition
  3

  2
NBSYN
 70
     8
280
     0
  0
ATTDEF
  5
EE
330
E6
100
AcDbEntity
  8
AM_6
100
AcDbText
 10
5.229425
 20
1.060513888888889
 30
0.0
 40
0.5
  1
ASME B18.3-1/4
100
AcDbAttributeDefinition
  3

  2
LINA
 70
     8
280
     0
  0
ATTDEF
  5
EF
330
E6
100
AcDbEntity
  8
AM_6
100
AcDbText
 10
5.229425
 20
0.5605138888888894
 30
0.0
 40
0.5
  1
1/4
100
AcDbAttributeDefinition
  3

  2
NS
 70
     8
280
     0
  0
ATTDEF
  5
F0
330
E6
100
AcDbEntity
  8
AM_6
100
AcDbText
 10
5.229425
 20
0.0605138888888894
 30
0.0
 40
0.5
  1
0.437
100
AcDbAttributeDefinition
  3

  2
A
 70
     8
280
     0
  0
ATTDEF
  5
F1
330
E6
100
AcDbEntity
  8
AM_6
100
AcDbText
 10
5.229425
 20
-0.4394861111111106
 30
0.0
 40
0.5
  1
0.132
100
AcDbAttributeDefinition
  3

  2
H
 70
     8
280
     0
  0
ATTDEF
  5
F2
330
E6
100
AcDbEntity
  8
AM_6
100
AcDbText
 10
5.229425
 20
-0.9394861111111106
 30
0.0
 40
0.5
  1
0.800
100
AcDbAttributeDefinition
  3

  2
L
 70
     8
280
     0
  0
ATTDEF
  5
F3
330
E6
100
AcDbEntity
  8
AM_6
100
AcDbText
 10
5.229425
 20
-1.439486111111111
 30
0.0
 40
0.5
  1
0.031
100
AcDbAttributeDefinition
  3

  2
S
 70
     8
280
     0
  0
ATTDEF
  5
F4
330
E6
100
AcDbEntity
  8
AM_6
100
AcDbText
 10
5.229425
 20
-1.939486111111111
 30
0.0
 40
0.5
  1
0.156250
100
AcDbAttributeDefinition
  3

  2
J
 70
     8
280
     0
  0
ATTDEF
  5
F5
330
E6
100
AcDbEntity
  8
AM_6
100
AcDbText
 10
5.229425
 20
-2.439486111111111
 30
0.0
 40
0.5
  1
baldor
100
AcDbAttributeDefinition
  3

  2
COMPANY
 70
     8
280
     0
  0
ARC
  5
F6
330
E6
100
AcDbEntity
  8
AM_5
100
AcDbCircle
 10
0.0
 20
2.842013888888889
 30
0.0
 40
0.0952500000000001
100
AcDbArc
 50
75.00000000000001
 51
15.00000000000004
  0
LINE
  5
F7
330
E6
100
AcDbEntity
  8
AM_7
100
AcDbLine
 10
-0.2294250000000002
 20
2.842013888888889
 30
0.0
 11
0.2294250000000002
 21
2.842013888888889
 31
0.0
  0
LINE
  5
F8
330
E6
100
AcDbEntity
  8
AM_4
100
AcDbLine
 10
0.0
 20
2.932224868449768
 30
0.0
 11
0.078125
 21
2.887119378669329
 31
0.0
  0
LINE
  5
F9
330
E6
100
AcDbEntity
  8
AM_4
100
AcDbLine
 10
-0.078125
 20
2.887119378669329
 30
0.0
 11
0.0
 21
2.932224868449768
 31
0.0
  0
LINE
  5
FA
330
E6
100
AcDbEntity
  8
AM_4
100
AcDbLine
 10
0.078125
 20
2.887119378669329
 30
0.0
 11
0.078125
 21
2.796908399108449
 31
0.0
  0
LINE
  5
FB
330
E6
100
AcDbEntity
  8
AM_4
100
AcDbLine
 10
0.078125
 20
2.796908399108449
 30
0.0
 11
0.0
 21
2.75180290932801
 31
0.0
  0
LINE
  5
FC
330
E6
100
AcDbEntity
  8
AM_4
100
AcDbLine
 10
0.0
 20
2.75180290932801
 30
0.0
 11
-0.078125
 21
2.796908399108449
 31
0.0
  0
LINE
  5
FD
330
E6
100
AcDbEntity
  8
AM_4
100
AcDbLine
 10
-0.078125
 20
2.796908399108449
 30
0.0
 11
-0.078125
 21
2.887119378669329
 31
0.0
  0
CIRCLE
  5
FE
330
E6
100
AcDbEntity
  8
AM_4
100
AcDbCircle
 10
0.0
 20
2.842013888888889
 30
0.0
 40
0.1175
  0
ARC
  5
FF
330
E6
100
AcDbEntity
  8
AM_5
100
AcDbCircle
 10
0.0
 20
2.842013888888889
 30
0.0
 40
0.09525
100
AcDbArc
 50
345.0
 51
285.0
  0
CIRCLE
  5
100
330
E6
100
AcDbEntity
  8
AM_4
100
AcDbCircle
 10
0.0
 20
2.842013888888889
 30
0.0
 40
0.2185000000000001
  0
CIRCLE
  5
101
330
E6
100
AcDbEntity
  8
AM_5
100
AcDbCircle
 10
0.0000000000000005
 20
2.842013888888888
 30
0.0
 40
0.1063999999999998
  0
ENDBLK
  5
E9
330
E6
100
AcDbEntity
  8
0
100
AcDbBlockEnd
  0
BLOCK
  5
104
330
102
100
AcDbEntity
  8
0
100
AcDbBlockBegin
  2
5_070908LWE_0_in_071217_0
 70
     2
 10
0.0
 20
0.0
 30
0.0
  3
5_070908LWE_0_in_071217_0
  1

  0
ATTDEF
  5
106
330
102
100
AcDbEntity
  8
AM_6
100
AcDbText
 10
8.22
 20
3.22
 30
0.0
 40
0.5
  1
Imperial/E Insert Lockwasher -Inch
100
AcDbAttributeDefinition
  3

  2
NN
 70
     8
280
     0
  0
ATTDEF
  5
107
330
102
100
AcDbEntity
  8
AM_6
100
AcDbText
 10
8.22
 20
2.72
 30
0.0
 40
0.5
  1
Imperial/E Bearings
100
AcDbAttributeDefinition
  3

  2
NT
 70
     8
280
     0
  0
ATTDEF
  5
108
330
102
100
AcDbEntity
  8
AM_6
100
AcDbText
 10
8.22
 20
2.22
 30
0.0
 40
0.5
  1
070908LWE
100
AcDbAttributeDefinition
  3

  2
NB
 70
     8
280
     0
  0
ATTDEF
  5
109
330
102
100
AcDbEntity
  8
AM_6
100
AcDbText
 10
8.22
 20
1.72
 30
0.0
 40
0.5
  1
$PN.LWE
100
AcDbAttributeDefinition
  3

  2
NBSYN
 70
     8
280
     0
  0
ATTDEF
  5
10A
330
102
100
AcDbEntity
  8
AM_6
100
AcDbText
 10
8.22
 20
1.22
 30
0.0
 40
0.5
  1
070908
100
AcDbAttributeDefinition
  3

  2
LINA
 70
     8
280
     0
  0
ATTDEF
  5
10B
330
102
100
AcDbEntity
  8
AM_6
100
AcDbText
 10
8.22
 20
0.7200000000000002
 30
0.0
 40
0.5
  1
4-7/16
100
AcDbAttributeDefinition
  3

  2
SS
 70
     8
280
     0
  0
ATTDEF
  5
10C
330
102
100
AcDbEntity
  8
AM_6
100
AcDbText
 10
8.22
 20
0.2200000000000002
 30
0.0
 40
0.5
  1
6.440000
100
AcDbAttributeDefinition
  3

  2
E1
 70
     8
280
     0
  0
ATTDEF
  5
10D
330
102
100
AcDbEntity
  8
AM_6
100
AcDbText
 10
8.22
 20
-0.2799999999999998
 30
0.0
 40
0.5
  1
4.437500
100
AcDbAttributeDefinition
  3

  2
SS1
 70
     8
280
     0
  0
ATTDEF
  5
10E
330
102
100
AcDbEntity
  8
AM_6
100
AcDbText
 10
8.22
 20
-0.7799999999999998
 30
0.0
 40
0.5
  1
070908
100
AcDbAttributeDefinition
  3

  2
PN
 70
     8
280
     0
  0
ATTDEF
  5
10F
330
102
100
AcDbEntity
  8
AM_6
100
AcDbText
 10
8.22
 20
-1.28
 30
0.0
 40
0.5
  1
INS-IP-407R
100
AcDbAttributeDefinition
  3

  2
DESCRIPTION
 70
     8
280
     0
  0
ATTDEF
  5
110
330
102
100
AcDbEntity
  8
AM_6
100
AcDbText
 10
8.22
 20
-1.78
 30
0.0
 40
0.5
  1
7.8740
100
AcDbAttributeDefinition
  3

  2
A
 70
     8
280
     0
  0
ATTDEF
  5
111
330
102
100
AcDbEntity
  8
AM_6
100
AcDbText
 10
8.22
 20
-2.28
 30
0.0
 40
0.5
  1
2-5/32
100
AcDbAttributeDefinition
  3

  2
B
 70
     8
280
     0
  0
ATTDEF
  5
112
330
102
100
AcDbEntity
  8
AM_6
100
AcDbText
 10
8.22
 20
-2.78
 30
0.0
 40
0.5
  1
2.156250
100
AcDbAttributeDefinition
  3

  2
B1
 70
     8
280
     0
  0
ATTDEF
  5
113
330
102
100
AcDbEntity
  8
AM_6
100
AcDbText
 10
8.22
 20
-3.28
 30
0.0
 40
0.5
  1
5-15/64
100
AcDbAttributeDefinition
  3

  2
C
 70
     8
280
     0
  0
ATTDEF
  5
114
330
102
100
AcDbEntity
  8
AM_6
100
AcDbText
 10
8.22
 20
-3.78
 30
0.0
 40
0.5
  1
5.234375
100
AcDbAttributeDefinition
  3

  2
C1
 70
     8
280
     0
  0
ATTDEF
  5
115
330
102
100
AcDbEntity
  8
AM_6
100
AcDbText
 10
8.22
 20
-4.279999999999999
 30
0.0
 40
0.5
  1
1.935
100
AcDbAttributeDefinition
  3

  2
D
 70
     8
280
     0
  0
ATTDEF
  5
116
330
102
100
AcDbEntity
  8
AM_6
100
AcDbText
 10
8.22
 20
-4.779999999999999
 30
0.0
 40
0.5
  1
6-7/16
100
AcDbAttributeDefinition
  3

  2
E
 70
     8
280
     0
  0
ATTDEF
  5
117
330
102
100
AcDbEntity
  8
AM_6
100
AcDbText
 10
8.22
 20
-5.279999999999999
 30
0.0
 40
0.5
  1
0.2500
100
AcDbAttributeDefinition
  3

  2
NDM
 70
     8
280
     0
  0
ATTDEF
  5
118
330
102
100
AcDbEntity
  8
AM_6
100
AcDbText
 10
8.22
 20
-5.779999999999999
 30
0.0
 40
0.5
  1
0.1960
100
AcDbAttributeDefinition
  3

  2
KDM
 70
     8
280
     0
  0
ATTDEF
  5
119
330
102
100
AcDbEntity
  8
AM_6
100
AcDbText
 10
8.22
 20
-6.279999999999999
 30
0.0
 40
0.5
  1
5.60
100
AcDbAttributeDefinition
  3

  2
AL
 70
     8
280
     0
  0
ATTDEF
  5
11A
330
102
100
AcDbEntity
  8
AM_6
100
AcDbText
 10
8.22
 20
-6.779999999999999
 30
0.0
 40
0.5
  1
0.50
100
AcDbAttributeDefinition
  3

  2
BL
 70
     8
280
     0
  0
ATTDEF
  5
11B
330
102
100
AcDbEntity
  8
AM_6
100
AcDbText
 10
8.22
 20
-7.279999999999999
 30
0.0
 40
0.5
  1
0.07
100
AcDbAttributeDefinition
  3

  2
CL
 70
     8
280
     0
  0
ATTDEF
  5
11C
330
102
100
AcDbEntity
  8
AM_6
100
AcDbText
 10
8.22
 20
-7.779999999999999
 30
0.0
 40
0.5
  1
0.50
100
AcDbAttributeDefinition
  3

  2
DL
 70
     8
280
     0
  0
ATTDEF
  5
11D
330
102
100
AcDbEntity
  8
AM_6
100
AcDbText
 10
8.22
 20
-8.28
 30
0.0
 40
0.5
  1
baldor
100
AcDbAttributeDefinition
  3

  2
COMPANY
 70
     8
280
     0
  0
ARC
  5
11E
330
102
100
AcDbEntity
  8
AM_9
100
AcDbCircle
 10
0.0000000000001529
 20
-0.0000000000003615
 30
0.0
 40
2.335526315789866
100
AcDbArc
 50
109.4319994110542
 51
115.5680005889459
  0
LINE
  5
11F
330
102
100
AcDbEntity
  8
AM_9
100
AcDbLine
 10
0.1249999999999999
 20
2.84263888888889
 30
0.0
 11
0.125
 21
2.662801026627275
 31
0.0
  0
ARC
  5
120
330
102
100
AcDbEntity
  8
AM_9
100
AcDbCircle
 10
0.0
 20
2.842669124016683
 30
0.0
 40
0.1250000036566516
100
AcDbArc
 50
359.9861412385495
 51
180.0138587614505
  0
ARC
  5
121
330
102
100
AcDbEntity
  8
AM_9
100
AcDbCircle
 10
0.0000000000000008
 20
-2.842669124016683
 30
0.0
 40
0.1250000036566519
100
AcDbArc
 50
179.9861412385495
 51
0.0138587614504793
  0
LINE
  5
122
330
102
100
AcDbEntity
  8
AM_9
100
AcDbLine
 10
0.1250000000000006
 20
-2.662801026627276
 30
0.0
 11
0.125000000000001
 21
-2.84263888888889
 31
0.0
  0
LINE
  5
123
330
102
100
AcDbEntity
  8
AM_9
100
AcDbLine
 10
-0.1249999999999995
 20
2.662801026627275
 30
0.0
 11
-0.1249999999999996
 21
2.84263888888889
 31
0.0
  0
LINE
  5
124
330
102
100
AcDbEntity
  8
AM_9
100
AcDbLine
 10
-0.1249999999999993
 20
-2.84263888888889
 30
0.0
 11
-0.1249999999999993
 21
-2.662801026627275
 31
0.0
  0
LINE
  5
125
330
102
100
AcDbEntity
  8
AM_7
100
AcDbLine
 10
2.842669124016683
 20
-0.1312500038394843
 30
0.0
 11
2.842669124016683
 21
0.1312500038394844
 31
0.0
  0
LINE
  5
126
330
102
100
AcDbEntity
  8
AM_7
100
AcDbLine
 10
1.878820610422336
 20
2.010070614261819
 30
0.0
 11
2.141320618101304
 21
2.010070614261819
 31
0.0
  0
LINE
  5
127
330
102
100
AcDbEntity
  8
AM_7
100
AcDbLine
 10
2.01007061426182
 20
1.878820610422335
 30
0.0
 11
2.01007061426182
 21
2.141320618101303
 31
0.0
  0
LINE
  5
128
330
102
100
AcDbEntity
  8
AM_7
100
AcDbLine
 10
-2.141320618101303
 20
2.010070614261819
 30
0.0
 11
-1.878820610422335
 21
2.010070614261819
 31
0.0
  0
LINE
  5
129
330
102
100
AcDbEntity
  8
AM_7
100
AcDbLine
 10
-2.010070614261819
 20
1.878820610422335
 30
0.0
 11
-2.010070614261819
 21
2.141320618101303
 31
0.0
  0
LINE
  5
12A
330
102
100
AcDbEntity
  8
AM_7
100
AcDbLine
 10
1.878820610422335
 20
-2.010070614261819
 30
0.0
 11
2.141320618101304
 21
-2.010070614261819
 31
0.0
  0
LINE
  5
12B
330
102
100
AcDbEntity
  8
AM_7
100
AcDbLine
 10
2.010070614261819
 20
-2.141320618101303
 30
0.0
 11
2.010070614261819
 21
-1.878820610422335
 31
0.0
  0
LINE
  5
12C
330
102
100
AcDbEntity
  8
AM_7
100
AcDbLine
 10
-0.131250003839484
 20
-2.842669124016682
 30
0.0
 11
0.1312500038394857
 21
-2.842669124016682
 31
0.0
  0
LINE
  5
12D
330
102
100
AcDbEntity
  8
AM_7
100
AcDbLine
 10
-0.1312500038394837
 20
2.842669124016683
 30
0.0
 11
0.131250003839484
 21
2.842669124016683
 31
0.0
  0
LINE
  5
12E
330
102
100
AcDbEntity
  8
AM_7
100
AcDbLine
 10
-2.141320618101303
 20
-2.010070614261819
 30
0.0
 11
-1.878820610422333
 21
-2.010070614261819
 31
0.0
  0
LINE
  5
12F
330
102
100
AcDbEntity
  8
AM_7
100
AcDbLine
 10
-2.010070614261818
 20
-2.141320618101304
 30
0.0
 11
-2.010070614261818
 21
-1.878820610422335
 31
0.0
  0
LINE
  5
130
330
102
100
AcDbEntity
  8
AM_7
100
AcDbLine
 10
-2.842669124016682
 20
-0.1312500038394858
 30
0.0
 11
-2.842669124016682
 21
0.1312500038394847
 31
0.0
  0
ARC
  5
131
330
102
100
AcDbEntity
  8
AM_4
100
AcDbCircle
 10
0.0
 20
-0.0000000000000004
 30
0.0
 40
2.398648648648649
100
AcDbArc
 50
47.98718950616694
 51
87.01281049383324
  0
ARC
  5
132
330
102
100
AcDbEntity
  8
AM_4
100
AcDbCircle
 10
0.0000000000000031
 20
0.000000000000006
 30
0.0
 40
2.398648648648655
100
AcDbArc
 50
227.9871895061669
 51
267.0128104938332
  0
LINE
  5
133
330
102
100
AcDbEntity
  8
AM_4
100
AcDbLine
 10
0.125
 20
2.662801026627275
 30
0.0
 11
0.1250000000000003
 21
2.395389392074697
 31
0.0
  0
ARC
  5
134
330
102
100
AcDbEntity
  8
AM_4
100
AcDbCircle
 10
0.0000000000000075
 20
0.0000000000000023
 30
0.0
 40
2.398648648648656
100
AcDbArc
 50
182.9871895061668
 51
222.0128104938332
  0
ARC
  5
135
330
102
100
AcDbEntity
  8
AM_4
100
AcDbCircle
 10
-2.010070614261818
 20
-2.010070614261819
 30
0.0
 40
0.1250000036566523
100
AcDbArc
 50
134.9861412385464
 51
315.0138587614536
  0
LINE
  5
136
330
102
100
AcDbEntity
  8
AM_4
100
AcDbLine
 10
-1.605407735070019
 20
-1.782184430366661
 30
0.0
 11
-1.921660887149608
 21
-2.098437582446246
 31
0.0
  0
ARC
  5
137
330
102
100
AcDbEntity
  8
AM_4
100
AcDbCircle
 10
-2.842669124016682
 20
-0.0000000000000005
 30
0.0
 40
0.1250000036566522
100
AcDbArc
 50
89.98614123854628
 51
270.0138587614537
  0
LINE
  5
138
330
102
100
AcDbEntity
  8
AM_4
100
AcDbLine
 10
0.1250000000000011
 20
-2.395389392074697
 30
0.0
 11
0.1250000000000006
 21
-2.662801026627276
 31
0.0
  0
ARC
  5
139
330
102
100
AcDbEntity
  8
AM_4
100
AcDbCircle
 10
-0.0000000000000004
 20
0.0
 30
0.0
 40
2.398648648648649
100
AcDbArc
 50
272.9871895061668
 51
312.0128104938333
  0
LINE
  5
13A
330
102
100
AcDbEntity
  8
AM_4
100
AcDbLine
 10
1.921660887149655
 20
-2.098437582446292
 30
0.0
 11
1.605407735070022
 21
-1.782184430366658
 31
0.0
  0
ARC
  5
13B
330
102
100
AcDbEntity
  8
AM_4
100
AcDbCircle
 10
2.01007061426182
 20
-2.010070614261819
 30
0.0
 40
0.125000003656652
100
AcDbArc
 50
224.9861412385758
 51
45.01385876145413
  0
LINE
  5
13C
330
102
100
AcDbEntity
  8
AM_4
100
AcDbLine
 10
1.782184430366658
 20
-1.605407735070022
 30
0.0
 11
2.098437582446246
 21
-1.921660887149609
 31
0.0
  0
ARC
  5
13D
330
102
100
AcDbEntity
  8
AM_4
100
AcDbCircle
 10
0.000000000000008
 20
-0.000000000000002
 30
0.0
 40
2.398648648648641
100
AcDbArc
 50
317.9871895061666
 51
357.0128104938333
  0
LINE
  5
13E
330
102
100
AcDbEntity
  8
AM_4
100
AcDbLine
 10
2.84263888888889
 20
-0.1249999999999999
 30
0.0
 11
2.395389392074698
 21
-0.1249999999999996
 31
0.0
  0
ARC
  5
13F
330
102
100
AcDbEntity
  8
AM_4
100
AcDbCircle
 10
2.842669124016683
 20
0.0
 30
0.0
 40
0.1250000036566516
100
AcDbArc
 50
269.9861412385458
 51
90.01385876145413
  0
LINE
  5
140
330
102
100
AcDbEntity
  8
AM_4
100
AcDbLine
 10
2.395389392074698
 20
0.1250000000000006
 30
0.0
 11
2.84263888888889
 21
0.1249999999999999
 31
0.0
  0
ARC
  5
141
330
102
100
AcDbEntity
  8
AM_4
100
AcDbCircle
 10
-0.0000000000000107
 20
-0.0000000000000056
 30
0.0
 40
2.39864864864866
100
AcDbArc
 50
2.987189506166932
 51
42.01281049383319
  0
LINE
  5
142
330
102
100
AcDbEntity
  8
AM_4
100
AcDbLine
 10
2.098437582446246
 20
1.921660887149609
 30
0.0
 11
1.782184430366658
 21
1.605407735070022
 31
0.0
  0
LINE
  5
143
330
102
100
AcDbEntity
  8
AM_4
100
AcDbLine
 10
-0.1249999999999999
 20
2.395389392074697
 30
0.0
 11
-0.1249999999999995
 21
2.662801026627275
 31
0.0
  0
LINE
  5
144
330
102
100
AcDbEntity
  8
AM_4
100
AcDbLine
 10
-0.1249999999999993
 20
-2.662801026627275
 30
0.0
 11
-0.1249999999999991
 21
-2.395389392074698
 31
0.0
  0
ARC
  5
145
330
102
100
AcDbEntity
  8
AM_4
100
AcDbCircle
 10
0.0000000000000037
 20
-0.0000000000000191
 30
0.0
 40
2.398648648648668
100
AcDbArc
 50
92.98718950616683
 51
109.5128104938332
  0
LINE
  5
146
330
102
100
AcDbEntity
  8
AM_4
100
AcDbLine
 10
-0.7770012642779635
 20
2.202487731419996
 30
0.0
 11
-0.80119089284616
 21
2.260886660778103
 31
0.0
  0
ARC
  5
147
330
102
100
AcDbEntity
  8
AM_4
100
AcDbCircle
 10
0.0000000000000245
 20
-0.0000000000000471
 30
0.0
 40
2.218750000000053
100
AcDbArc
 50
109.2703587549942
 51
115.729641245006
  0
LINE
  5
148
330
102
100
AcDbEntity
  8
AM_4
100
AcDbLine
 10
-1.032160775973981
 20
2.165215802686831
 30
0.0
 11
-1.007971147405785
 21
2.106816873328724
 31
0.0
  0
LINE
  5
149
330
102
100
AcDbEntity
  8
AM_4
100
AcDbLine
 10
1.605407735070016
 20
1.782184430366664
 30
0.0
 11
1.921660887149609
 21
2.098437582446246
 31
0.0
  0
ARC
  5
14A
330
102
100
AcDbEntity
  8
AM_4
100
AcDbCircle
 10
2.01007061426182
 20
2.010070614261819
 30
0.0
 40
0.1250000036566515
100
AcDbArc
 50
314.9861412385459
 51
135.0138587614542
  0
LINE
  5
14B
330
102
100
AcDbEntity
  8
AM_4
100
AcDbLine
 10
-2.098437582446246
 20
-1.921660887149609
 30
0.0
 11
-1.782184430366658
 21
-1.605407735070023
 31
0.0
  0
LINE
  5
14C
330
102
100
AcDbEntity
  8
AM_4
100
AcDbLine
 10
-2.395389392074697
 20
-0.1250000000000004
 30
0.0
 11
-2.84263888888889
 21
-0.125000000000001
 31
0.0
  0
LINE
  5
14D
330
102
100
AcDbEntity
  8
AM_4
100
AcDbLine
 10
-2.84263888888889
 20
0.1249999999999999
 30
0.0
 11
-2.395389392074698
 21
0.1249999999999992
 31
0.0
  0
ARC
  5
14E
330
102
100
AcDbEntity
  8
AM_4
100
AcDbCircle
 10
-0.0000000000000075
 20
0.0000000000000027
 30
0.0
 40
2.398648648648641
100
AcDbArc
 50
137.9871895061667
 51
177.0128104938335
  0
LINE
  5
14F
330
102
100
AcDbEntity
  8
AM_4
100
AcDbLine
 10
-1.782184430366659
 20
1.605407735070021
 30
0.0
 11
-2.098437582446245
 21
1.921660887149609
 31
0.0
  0
ARC
  5
150
330
102
100
AcDbEntity
  8
AM_4
100
AcDbCircle
 10
-2.010070614261819
 20
2.01007061426182
 30
0.0
 40
0.1250000036566515
100
AcDbArc
 50
44.98614123852313
 51
225.0138587614541
  0
LINE
  5
151
330
102
100
AcDbEntity
  8
AM_4
100
AcDbLine
 10
-1.921660887149573
 20
2.098437582446211
 30
0.0
 11
-1.605407735070021
 21
1.782184430366659
 31
0.0
  0
ARC
  5
152
330
102
100
AcDbEntity
  8
AM_4
100
AcDbCircle
 10
-0.0000000000000044
 20
0.0000000000000084
 30
0.0
 40
2.398648648648639
100
AcDbArc
 50
115.4871895061667
 51
132.0128104938333
  0
CIRCLE
  5
153
330
102
100
AcDbEntity
  8
AM_4
100
AcDbCircle
 10
0.0
 20
0.0
 30
0.0
 40
3.22
  0
ENDBLK
  5
105
330
102
100
AcDbEntity
  8
0
100
AcDbBlockEnd
  0
BLOCK
  5
156
330
154
100
AcDbEntity
  8
0
100
AcDbBlockBegin
  2
6_070908E_0_in_071217_0
 70
     2
 10
0.0
 20
0.0
 30
0.0
  3
6_070908E_0_in_071217_0
  1

  0
ATTDEF
  5
158
330
154
100
AcDbEntity
  8
AM_6
100
AcDbText
 10
8.927
 20
3.927
 30
0.0
 40
0.5
  1
Imperial/E Insert -Inch
100
AcDbAttributeDefinition
  3

  2
NN
 70
     8
280
     0
  0
ATTDEF
  5
159
330
154
100
AcDbEntity
  8
AM_6
100
AcDbText
 10
8.927
 20
3.427
 30
0.0
 40
0.5
  1
Imperial Bearings
100
AcDbAttributeDefinition
  3

  2
NT
 70
     8
280
     0
  0
ATTDEF
  5
15A
330
154
100
AcDbEntity
  8
AM_6
100
AcDbText
 10
8.927
 20
2.927
 30
0.0
 40
0.5
  1
070908E
100
AcDbAttributeDefinition
  3

  2
NB
 70
     8
280
     0
  0
ATTDEF
  5
15B
330
154
100
AcDbEntity
  8
AM_6
100
AcDbText
 10
8.927
 20
2.427
 30
0.0
 40
0.5
  1
$PN.
100
AcDbAttributeDefinition
  3

  2
NBSYN
 70
     8
280
     0
  0
ATTDEF
  5
15C
330
154
100
AcDbEntity
  8
AM_6
100
AcDbText
 10
8.927
 20
1.927
 30
0.0
 40
0.5
  1
070908E
100
AcDbAttributeDefinition
  3

  2
LINA
 70
     8
280
     0
  0
ATTDEF
  5
15D
330
154
100
AcDbEntity
  8
AM_6
100
AcDbText
 10
8.927
 20
1.427
 30
0.0
 40
0.5
  1
4-7/16
100
AcDbAttributeDefinition
  3

  2
SS
 70
     8
280
     0
  0
ATTDEF
  5
15E
330
154
100
AcDbEntity
  8
AM_6
100
AcDbText
 10
8.927
 20
0.9270000000000005
 30
0.0
 40
0.5
  1
4.437500
100
AcDbAttributeDefinition
  3

  2
SS1
 70
     8
280
     0
  0
ATTDEF
  5
15F
330
154
100
AcDbEntity
  8
AM_6
100
AcDbText
 10
8.927
 20
0.4270000000000005
 30
0.0
 40
0.5
  1
070908E
100
AcDbAttributeDefinition
  3

  2
PN
 70
     8
280
     0
  0
ATTDEF
  5
160
330
154
100
AcDbEntity
  8
AM_6
100
AcDbText
 10
8.927
 20
-0.0729999999999995
 30
0.0
 40
0.5
  1
INS-IP-407R
100
AcDbAttributeDefinition
  3

  2
DESCRIPTION
 70
     8
280
     0
  0
ATTDEF
  5
161
330
154
100
AcDbEntity
  8
AM_6
100
AcDbText
 10
8.927
 20
-0.5729999999999995
 30
0.0
 40
0.5
  1
Contact Seal
100
AcDbAttributeDefinition
  3

  2
ST
 70
     8
280
     0
  0
ATTDEF
  5
162
330
154
100
AcDbEntity
  8
AM_6
100
AcDbText
 10
8.927
 20
-1.073
 30
0.0
 40
0.5
  1
1
100
AcDbAttributeDefinition
  3

  2
ST1
 70
     8
280
     0
  0
ATTDEF
  5
163
330
154
100
AcDbEntity
  8
AM_6
100
AcDbText
 10
8.927
 20
-1.573
 30
0.0
 40
0.5
  1
7.8740
100
AcDbAttributeDefinition
  3

  2
A
 70
     8
280
     0
  0
ATTDEF
  5
164
330
154
100
AcDbEntity
  8
AM_6
100
AcDbText
 10
8.927
 20
-2.073
 30
0.0
 40
0.5
  1
2-5/32
100
AcDbAttributeDefinition
  3

  2
B
 70
     8
280
     0
  0
ATTDEF
  5
165
330
154
100
AcDbEntity
  8
AM_6
100
AcDbText
 10
8.927
 20
-2.573
 30
0.0
 40
0.5
  1
2.156250
100
AcDbAttributeDefinition
  3

  2
B1
 70
     8
280
     0
  0
ATTDEF
  5
166
330
154
100
AcDbEntity
  8
AM_6
100
AcDbText
 10
8.927
 20
-3.073
 30
0.0
 40
0.5
  1
5-15/64
100
AcDbAttributeDefinition
  3

  2
C
 70
     8
280
     0
  0
ATTDEF
  5
167
330
154
100
AcDbEntity
  8
AM_6
100
AcDbText
 10
8.927
 20
-3.573
 30
0.0
 40
0.5
  1
5.230000
100
AcDbAttributeDefinition
  3

  2
C1
 70
     8
280
     0
  0
ATTDEF
  5
168
330
154
100
AcDbEntity
  8
AM_6
100
AcDbText
 10
8.927
 20
-4.073
 30
0.0
 40
0.5
  1
7.12000
100
AcDbAttributeDefinition
  3

  2
CR
 70
     8
280
     0
  0
ATTDEF
  5
169
330
154
100
AcDbEntity
  8
AM_6
100
AcDbText
 10
8.927
 20
-4.573
 30
0.0
 40
0.5
  1
1.935
100
AcDbAttributeDefinition
  3

  2
D
 70
     8
280
     0
  0
ATTDEF
  5
16A
330
154
100
AcDbEntity
  8
AM_6
100
AcDbText
 10
8.927
 20
-5.073
 30
0.0
 40
0.5
  1
6-7/16
100
AcDbAttributeDefinition
  3

  2
E
 70
     8
280
     0
  0
ATTDEF
  5
16B
330
154
100
AcDbEntity
  8
AM_6
100
AcDbText
 10
8.927
 20
-5.573
 30
0.0
 40
0.5
  1
6.437500
100
AcDbAttributeDefinition
  3

  2
E1
 70
     8
280
     0
  0
ATTDEF
  5
16C
330
154
100
AcDbEntity
  8
AM_6
100
AcDbText
 10
8.927
 20
-6.073
 30
0.0
 40
0.5
  1
0.2500
100
AcDbAttributeDefinition
  3

  2
NDM
 70
     8
280
     0
  0
ATTDEF
  5
16D
330
154
100
AcDbEntity
  8
AM_6
100
AcDbText
 10
8.927
 20
-6.573
 30
0.0
 40
0.5
  1
0.1960
100
AcDbAttributeDefinition
  3

  2
KDM
 70
     8
280
     0
  0
ATTDEF
  5
16E
330
154
100
AcDbEntity
  8
AM_6
100
AcDbText
 10
8.927
 20
-7.073
 30
0.0
 40
0.5
  1
5.60
100
AcDbAttributeDefinition
  3

  2
AL
 70
     8
280
     0
  0
ATTDEF
  5
16F
330
154
100
AcDbEntity
  8
AM_6
100
AcDbText
 10
8.927
 20
-7.573
 30
0.0
 40
0.5
  1
0.50
100
AcDbAttributeDefinition
  3

  2
BL
 70
     8
280
     0
  0
ATTDEF
  5
170
330
154
100
AcDbEntity
  8
AM_6
100
AcDbText
 10
8.927
 20
-8.073
 30
0.0
 40
0.5
  1
0.07
100
AcDbAttributeDefinition
  3

  2
CL
 70
     8
280
     0
  0
ATTDEF
  5
171
330
154
100
AcDbEntity
  8
AM_6
100
AcDbText
 10
8.927
 20
-8.573
 30
0.0
 40
0.5
  1
0.50
100
AcDbAttributeDefinition
  3

  2
DL
 70
     8
280
     0
  0
ATTDEF
  5
172
330
154
100
AcDbEntity
  8
AM_6
100
AcDbText
 10
8.927
 20
-9.073
 30
0.0
 40
0.5
  1
0.8000
100
AcDbAttributeDefinition
  3

  2
LL
 70
     8
280
     0
  0
ATTDEF
  5
173
330
154
100
AcDbEntity
  8
AM_6
100
AcDbText
 10
8.927
 20
-9.573
 30
0.0
 40
0.5
  1
0.036
100
AcDbAttributeDefinition
  3

  2
Y
 70
     8
280
     0
  0
ATTDEF
  5
174
330
154
100
AcDbEntity
  8
AM_6
100
AcDbText
 10
8.927
 20
-10.073
 30
0.0
 40
0.5
  1
0.036000
100
AcDbAttributeDefinition
  3

  2
Y1
 70
     8
280
     0
  0
ATTDEF
  5
175
330
154
100
AcDbEntity
  8
AM_6
100
AcDbText
 10
8.927
 20
-10.573
 30
0.0
 40
0.5
  1
5
100
AcDbAttributeDefinition
  3

  2
Z
 70
     8
280
     0
  0
ATTDEF
  5
176
330
154
100
AcDbEntity
  8
AM_6
100
AcDbText
 10
8.927
 20
-11.073
 30
0.0
 40
0.5
  1
5.000000
100
AcDbAttributeDefinition
  3

  2
Z1
 70
     8
280
     0
  0
ATTDEF
  5
177
330
154
100
AcDbEntity
  8
AM_6
100
AcDbText
 10
8.927
 20
-11.573
 30
0.0
 40
0.5
  1
1.89000
100
AcDbAttributeDefinition
  3

  2
P1
 70
     8
280
     0
  0
ATTDEF
  5
178
330
154
100
AcDbEntity
  8
AM_6
100
AcDbText
 10
8.927
 20
-12.073
 30
0.0
 40
0.5
  1
2.43000
100
AcDbAttributeDefinition
  3

  2
H1
 70
     8
280
     0
  0
ATTDEF
  5
179
330
154
100
AcDbEntity
  8
AM_6
100
AcDbText
 10
8.927
 20
-12.573
 30
0.0
 40
0.5
  1
1.42000
100
AcDbAttributeDefinition
  3

  2
G1
 70
     8
280
     0
  0
ATTDEF
  5
17A
330
154
100
AcDbEntity
  8
AM_6
100
AcDbText
 10
8.927
 20
-13.073
 30
0.0
 40
0.5
  1
0.13200
100
AcDbAttributeDefinition
  3

  2
CW
 70
     8
280
     0
  0
ATTDEF
  5
17B
330
154
100
AcDbEntity
  8
AM_6
100
AcDbText
 10
8.927
 20
-13.573
 30
0.0
 40
0.5
  1
6.44000
100
AcDbAttributeDefinition
  3

  2
L1
 70
     8
280
     0
  0
ATTDEF
  5
17C
330
154
100
AcDbEntity
  8
AM_6
100
AcDbText
 10
8.927
 20
-14.073
 30
0.0
 40
0.5
  1
baldor
100
AcDbAttributeDefinition
  3

  2
COMPANY
 70
     8
280
     0
  0
CIRCLE
  5
17D
330
154
100
AcDbEntity
  8
AM_9
100
AcDbCircle
 10
0.0
 20
0.0
 30
0.0
 40
2.5
  0
CIRCLE
  5
17E
330
154
100
AcDbEntity
  8
AM_9
100
AcDbCircle
 10
0.0
 20
0.0
 30
0.0
 40
3.430282670983127
  0
CIRCLE
  5
17F
330
154
100
AcDbEntity
  8
AM_9
100
AcDbCircle
 10
0.0
 20
0.0
 30
0.0
 40
3.333333333333333
  0
CIRCLE
  5
180
330
154
100
AcDbEntity
  8
AM_9
100
AcDbCircle
 10
0.0
 20
0.0
 30
0.0
 40
3.516885209871455
  0
CIRCLE
  5
181
330
154
100
AcDbEntity
  8
AM_9
100
AcDbCircle
 10
0.0
 20
0.0
 30
0.0
 40
3.737
  0
CIRCLE
  5
182
330
154
100
AcDbEntity
  8
AM_9
100
AcDbCircle
 10
0.0
 20
0.0
 30
0.0
 40
3.887
  0
CIRCLE
  5
183
330
154
100
AcDbEntity
  8
AM_9
100
AcDbCircle
 10
0.0
 20
0.0
 30
0.0
 40
3.8291875
  0
CIRCLE
  5
184
330
154
100
AcDbEntity
  8
AM_9
100
AcDbCircle
 10
0.0
 20
2.842013888888889
 30
0.0
 40
0.09795
  0
CIRCLE
  5
185
330
154
100
AcDbEntity
  8
AM_9
100
AcDbCircle
 10
0.0
 20
-2.842013888888889
 30
0.0
 40
0.09795
  0
LINE
  5
186
330
154
100
AcDbEntity
  8
AM_9
100
AcDbLine
 10
1.803122292025697
 20
2.156675682618969
 30
0.0
 11
2.092347757273121
 21
2.445901147866394
 31
0.0
  0
ARC
  5
187
330
154
100
AcDbEntity
  8
AM_9
100
AcDbCircle
 10
0.0000000000000004
 20
0.0000000000000013
 30
0.0
 40
3.21875
100
AcDbArc
 50
49.45464416935424
 51
130.5453558306458
  0
LINE
  5
188
330
154
100
AcDbEntity
  8
AM_9
100
AcDbLine
 10
-2.092347757273121
 20
2.445901147866394
 30
0.0
 11
-1.803122292025696
 21
2.15667568261897
 31
0.0
  0
LINE
  5
189
330
154
100
AcDbEntity
  8
AM_9
100
AcDbLine
 10
-2.068287334970651
 20
1.891510639674015
 30
0.0
 11
-2.156675682618969
 21
1.803122292025697
 31
0.0
  0
LINE
  5
18A
330
154
100
AcDbEntity
  8
AM_9
100
AcDbLine
 10
-1.803122292025696
 20
2.15667568261897
 30
0.0
 11
-1.891510639674014
 21
2.068287334970652
 31
0.0
  0
LINE
  5
18B
330
154
100
AcDbEntity
  8
AM_9
100
AcDbLine
 10
-2.156675682618969
 20
1.803122292025697
 30
0.0
 11
-2.445901147866394
 21
2.092347757273121
 31
0.0
  0
ARC
  5
18C
330
154
100
AcDbEntity
  8
AM_9
100
AcDbCircle
 10
-0.0000000000000018
 20
-0.0000000000000002
 30
0.0
 40
3.218749999999999
100
AcDbArc
 50
139.4546441693542
 51
220.5453558306458
  0
LINE
  5
18D
330
154
100
AcDbEntity
  8
AM_9
100
AcDbLine
 10
-2.445901147866394
 20
-2.092347757273121
 30
0.0
 11
-2.15667568261897
 21
-1.803122292025696
 31
0.0
  0
LINE
  5
18E
330
154
100
AcDbEntity
  8
AM_9
100
AcDbLine
 10
-1.891510639674014
 20
-2.068287334970652
 30
0.0
 11
-1.803122292025696
 21
-2.156675682618969
 31
0.0
  0
LINE
  5
18F
330
154
100
AcDbEntity
  8
AM_9
100
AcDbLine
 10
-2.15667568261897
 20
-1.803122292025696
 30
0.0
 11
-2.068287334970651
 21
-1.891510639674015
 31
0.0
  0
LINE
  5
190
330
154
100
AcDbEntity
  8
AM_9
100
AcDbLine
 10
-1.803122292025696
 20
-2.156675682618969
 30
0.0
 11
-2.092347757273121
 21
-2.445901147866394
 31
0.0
  0
ARC
  5
191
330
154
100
AcDbEntity
  8
AM_9
100
AcDbCircle
 10
0.0000000000000002
 20
-0.0000000000000018
 30
0.0
 40
3.218749999999999
100
AcDbArc
 50
229.4546441693542
 51
310.5453558306458
  0
LINE
  5
192
330
154
100
AcDbEntity
  8
AM_9
100
AcDbLine
 10
2.092347757273121
 20
-2.445901147866394
 30
0.0
 11
1.803122292025696
 21
-2.15667568261897
 31
0.0
  0
LINE
  5
193
330
154
100
AcDbEntity
  8
AM_9
100
AcDbLine
 10
2.068287334970651
 20
-1.891510639674014
 30
0.0
 11
2.15667568261897
 21
-1.803122292025696
 31
0.0
  0
LINE
  5
194
330
154
100
AcDbEntity
  8
AM_9
100
AcDbLine
 10
1.803122292025696
 20
-2.15667568261897
 30
0.0
 11
1.891510639674015
 21
-2.068287334970651
 31
0.0
  0
LINE
  5
195
330
154
100
AcDbEntity
  8
AM_9
100
AcDbLine
 10
2.15667568261897
 20
-1.803122292025696
 30
0.0
 11
2.445901147866394
 21
-2.092347757273121
 31
0.0
  0
ARC
  5
196
330
154
100
AcDbEntity
  8
AM_9
100
AcDbCircle
 10
0.0000000000000013
 20
0.0000000000000004
 30
0.0
 40
3.21875
100
AcDbArc
 50
319.4546441693542
 51
40.54535583064576
  0
LINE
  5
197
330
154
100
AcDbEntity
  8
AM_9
100
AcDbLine
 10
2.445901147866394
 20
2.092347757273121
 30
0.0
 11
2.15667568261897
 21
1.803122292025696
 31
0.0
  0
LINE
  5
198
330
154
100
AcDbEntity
  8
AM_9
100
AcDbLine
 10
1.891510639674014
 20
2.068287334970652
 30
0.0
 11
1.803122292025697
 21
2.156675682618969
 31
0.0
  0
LINE
  5
199
330
154
100
AcDbEntity
  8
AM_9
100
AcDbLine
 10
2.15667568261897
 20
1.803122292025696
 30
0.0
 11
2.068287334970651
 21
1.891510639674014
 31
0.0
  0
ARC
  5
19A
330
154
100
AcDbEntity
  8
AM_9
100
AcDbCircle
 10
0.0000000000000879
 20
-0.0000000000002154
 30
0.0
 40
2.341688654353795
100
AcDbArc
 50
109.4400807915806
 51
115.5599192084194
  0
ARC
  5
19B
330
154
100
AcDbEntity
  8
AM_5
100
AcDbCircle
 10
0.0000000000000005
 20
2.842013888888889
 30
0.0
 40
0.1250000000000001
100
AcDbArc
 50
75.0000000000001
 51
14.99999999999997
  0
ARC
  5
19C
330
154
100
AcDbEntity
  8
AM_5
100
AcDbCircle
 10
0.0000000000000003
 20
-2.842013888888889
 30
0.0
 40
0.1250000000000001
100
AcDbArc
 50
75.0000000000001
 51
14.99999999999994
  0
CIRCLE
  5
19D
330
154
100
AcDbEntity
  8
AM_4
100
AcDbCircle
 10
0.0
 20
0.0
 30
0.0
 40
3.927
  0
CIRCLE
  5
19E
330
154
100
AcDbEntity
  8
AM_4
100
AcDbCircle
 10
0.0
 20
0.0
 30
0.0
 40
3.299729447234204
  0
LINE
  5
19F
330
154
100
AcDbEntity
  8
AM_4
100
AcDbLine
 10
2.098537703040505
 20
-2.452091093633778
 30
0.0
 11
2.092347757273121
 21
-2.445901147866394
 31
0.0
  0
LINE
  5
1A0
330
154
100
AcDbEntity
  8
AM_4
100
AcDbLine
 10
2.445901147866394
 20
-2.092347757273121
 30
0.0
 11
2.452091093633777
 21
-2.098537703040505
 31
0.0
  0
LINE
  5
1A1
330
154
100
AcDbEntity
  8
AM_4
100
AcDbLine
 10
-2.445901147866394
 20
2.092347757273121
 30
0.0
 11
-2.452091093633777
 21
2.098537703040505
 31
0.0
  0
LINE
  5
1A2
330
154
100
AcDbEntity
  8
AM_4
100
AcDbLine
 10
-2.098537703040505
 20
2.452091093633778
 30
0.0
 11
-2.092347757273121
 21
2.445901147866394
 31
0.0
  0
LINE
  5
1A3
330
154
100
AcDbEntity
  8
AM_4
100
AcDbLine
 10
-2.092347757273121
 20
-2.445901147866394
 30
0.0
 11
-2.098537703040505
 21
-2.452091093633777
 31
0.0
  0
CIRCLE
  5
1A4
330
154
100
AcDbEntity
  8
AM_4
100
AcDbCircle
 10
0.0
 20
0.0
 30
0.0
 40
3.249737062476383
  0
ARC
  5
1A5
330
154
100
AcDbEntity
  8
AM_4
100
AcDbCircle
 10
0.0000000000000808
 20
-0.0000000000000866
 30
0.0
 40
3.227477532463991
100
AcDbArc
 50
310.5574260180213
 51
319.4425739819789
  0
ARC
  5
1A6
330
154
100
AcDbEntity
  8
AM_4
100
AcDbCircle
 10
-0.0000000000000866
 20
-0.0000000000000808
 30
0.0
 40
3.227477532463991
100
AcDbArc
 50
220.5574260180213
 51
229.4425739819789
  0
LINE
  5
1A7
330
154
100
AcDbEntity
  8
AM_4
100
AcDbLine
 10
-2.452091093633778
 20
-2.098537703040505
 30
0.0
 11
-2.445901147866394
 21
-2.092347757273121
 31
0.0
  0
ARC
  5
1A8
330
154
100
AcDbEntity
  8
AM_4
100
AcDbCircle
 10
-0.0000000000001559
 20
0.0000000000001616
 30
0.0
 40
3.227477532463885
100
AcDbArc
 50
130.5574260180211
 51
139.442573981979
  0
LINE
  5
1A9
330
154
100
AcDbEntity
  8
AM_4
100
AcDbLine
 10
2.092347757273121
 20
2.445901147866394
 30
0.0
 11
2.098537703040505
 21
2.452091093633778
 31
0.0
  0
ARC
  5
1AA
330
154
100
AcDbEntity
  8
AM_4
100
AcDbCircle
 10
-0.0000000000001044
 20
-0.0000000000001021
 30
0.0
 40
3.227477532464255
100
AcDbArc
 50
40.55742601802152
 51
49.44257398197842
  0
LINE
  5
1AB
330
154
100
AcDbEntity
  8
AM_4
100
AcDbLine
 10
2.452091093633778
 20
2.098537703040505
 30
0.0
 11
2.445901147866394
 21
2.092347757273121
 31
0.0
  0
LINE
  5
1AC
330
154
100
AcDbEntity
  8
AM_4
100
AcDbLine
 10
-1.891510639674014
 20
2.068287334970652
 30
0.0
 11
-2.068287334970651
 21
1.891510639674015
 31
0.0
  0
LINE
  5
1AD
330
154
100
AcDbEntity
  8
AM_4
100
AcDbLine
 10
-2.068287334970651
 20
-1.891510639674015
 30
0.0
 11
-1.891510639674014
 21
-2.068287334970652
 31
0.0
  0
LINE
  5
1AE
330
154
100
AcDbEntity
  8
AM_4
100
AcDbLine
 10
1.891510639674015
 20
-2.068287334970651
 30
0.0
 11
2.068287334970651
 21
-1.891510639674014
 31
0.0
  0
LINE
  5
1AF
330
154
100
AcDbEntity
  8
AM_4
100
AcDbLine
 10
2.068287334970651
 20
1.891510639674014
 30
0.0
 11
1.891510639674014
 21
2.068287334970652
 31
0.0
  0
LINE
  5
1B0
330
154
100
AcDbEntity
  8
AM_4
100
AcDbLine
 10
-0.7322453762074598
 20
2.094437459444133
 30
0.0
 11
-0.7770012642779638
 21
2.202487731419996
 31
0.0
  0
ARC
  5
1B1
330
154
100
AcDbEntity
  8
AM_4
100
AcDbCircle
 10
-0.0000000000000045
 20
-0.0000000000000017
 30
0.0
 40
2.21875
100
AcDbArc
 50
115.7296412450059
 51
109.2703587549939
  0
LINE
  5
1B2
330
154
100
AcDbEntity
  8
AM_4
100
AcDbLine
 10
-1.007971147405786
 20
2.106816873328723
 30
0.0
 11
-0.9632152593352817
 21
1.998766601352861
 31
0.0
  0
ARC
  5
1B3
330
154
100
AcDbEntity
  8
AM_4
100
AcDbCircle
 10
-0.0000000000000048
 20
-0.0000000000000023
 30
0.0
 40
2.335526315789474
100
AcDbArc
 50
115.5680005889462
 51
109.4319994110535
  0
ARC
  5
1B4
330
154
100
AcDbEntity
  8
AM_5
100
AcDbCircle
 10
-0.0000000000000002
 20
2.842013888888889
 30
0.0
 40
0.1249999999999998
100
AcDbArc
 50
165.0000000000001
 51
104.9999999999999
  0
ARC
  5
1B5
330
154
100
AcDbEntity
  8
AM_5
100
AcDbCircle
 10
-0.0000000000000002
 20
-2.842013888888889
 30
0.0
 40
0.1249999999999998
100
AcDbArc
 50
165.0000000000001
 51
104.9999999999999
  0
ARC
  5
1B6
330
154
100
AcDbEntity
  8
AM_5
100
AcDbCircle
 10
0.0000000000000001
 20
2.842013888888889
 30
0.0
 40
0.1250000000000002
100
AcDbArc
 50
105.0
 51
14.99999999999992
  0
ARC
  5
1B7
330
154
100
AcDbEntity
  8
AM_5
100
AcDbCircle
 10
0.0000000000000001
 20
-2.842013888888889
 30
0.0
 40
0.1250000000000002
100
AcDbArc
 50
105.0
 51
14.99999999999992
  0
ENDBLK
  5
157
330
154
100
AcDbEntity
  8
0
100
AcDbBlockEnd
  0
BLOCK
  5
1BA
330
1B8
100
AcDbEntity
  8
0
100
AcDbBlockBegin
  2
7_071217H_0_in_071217_0
 70
     2
 10
0.0
 20
0.0
 30
0.0
  3
7_071217H_0_in_071217_0
  1

  0
ATTDEF
  5
1BC
330
1B8
100
AcDbEntity
  8
AM_6
100
AcDbText
 10
13.315
 20
4.92
 30
0.0
 40
0.5
  1
EP4B-IP -(Contact Seal)-Housing -Inch
100
AcDbAttributeDefinition
  3

  2
NN
 70
     8
280
     0
  0
ATTDEF
  5
1BD
330
1B8
100
AcDbEntity
  8
AM_6
100
AcDbText
 10
13.315
 20
4.42
 30
0.0
 40
0.5
  1
Imperial/E 4 Bolt Piliow Block Bearings
100
AcDbAttributeDefinition
  3

  2
NT
 70
     8
280
     0
  0
ATTDEF
  5
1BE
330
1B8
100
AcDbEntity
  8
AM_6
100
AcDbText
 10
13.315
 20
3.92
 30
0.0
 40
0.5
  1
071217H
100
AcDbAttributeDefinition
  3

  2
NB
 70
     8
280
     0
  0
ATTDEF
  5
1BF
330
1B8
100
AcDbEntity
  8
AM_6
100
AcDbText
 10
13.315
 20
3.42
 30
0.0
 40
0.5
  1
$PN.H
100
AcDbAttributeDefinition
  3

  2
NBSYN
 70
     8
280
     0
  0
ATTDEF
  5
1C0
330
1B8
100
AcDbEntity
  8
AM_6
100
AcDbText
 10
13.315
 20
2.92
 30
0.0
 40
0.5
  1
071217
100
AcDbAttributeDefinition
  3

  2
LINA
 70
     8
280
     0
  0
ATTDEF
  5
1C1
330
1B8
100
AcDbEntity
  8
AM_6
100
AcDbText
 10
13.315
 20
2.42
 30
0.0
 40
0.5
  1
4-7/16
100
AcDbAttributeDefinition
  3

  2
SS
 70
     8
280
     0
  0
ATTDEF
  5
1C2
330
1B8
100
AcDbEntity
  8
AM_6
100
AcDbText
 10
13.315
 20
1.92
 30
0.0
 40
0.5
  1
4.437500
100
AcDbAttributeDefinition
  3

  2
SS1
 70
     8
280
     0
  0
ATTDEF
  5
1C3
330
1B8
100
AcDbEntity
  8
AM_6
100
AcDbText
 10
13.315
 20
1.42
 30
0.0
 40
0.5
  1
Non-Expansion
100
AcDbAttributeDefinition
  3

  2
TYPE
 70
     8
280
     0
  0
ATTDEF
  5
1C4
330
1B8
100
AcDbEntity
  8
AM_6
100
AcDbText
 10
13.315
 20
0.9199999999999999
 30
0.0
 40
0.5
  1
071217
100
AcDbAttributeDefinition
  3

  2
PN1
 70
     8
280
     0
  0
ATTDEF
  5
1C5
330
1B8
100
AcDbEntity
  8
AM_6
100
AcDbText
 10
13.315
 20
0.4199999999999999
 30
0.0
 40
0.5
  1
071234
100
AcDbAttributeDefinition
  3

  2
PN2
 70
     8
280
     0
  0
ATTDEF
  5
1C6
330
1B8
100
AcDbEntity
  8
AM_6
100
AcDbText
 10
13.315
 20
-0.0800000000000001
 30
0.0
 40
0.5
  1
EP4B-IP-407R
100
AcDbAttributeDefinition
  3

  2
DESCRIPTION
 70
     8
280
     0
  0
ATTDEF
  5
1C7
330
1B8
100
AcDbEntity
  8
AM_6
100
AcDbText
 10
13.315
 20
-0.5800000000000001
 30
0.0
 40
0.5
  1
Non-Expansion Type
100
AcDbAttributeDefinition
  3

  2
EF
 70
     8
280
     0
  0
ATTDEF
  5
1C8
330
1B8
100
AcDbEntity
  8
AM_6
100
AcDbText
 10
13.315
 20
-1.08
 30
0.0
 40
0.5
  1
1
100
AcDbAttributeDefinition
  3

  2
EF1
 70
     8
280
     0
  0
ATTDEF
  5
1C9
330
1B8
100
AcDbEntity
  8
AM_6
100
AcDbText
 10
13.315
 20
-1.58
 30
0.0
 40
0.5
  1
Contact Seal
100
AcDbAttributeDefinition
  3

  2
ST
 70
     8
280
     0
  0
ATTDEF
  5
1CA
330
1B8
100
AcDbEntity
  8
AM_6
100
AcDbText
 10
13.315
 20
-2.08
 30
0.0
 40
0.5
  1
1
100
AcDbAttributeDefinition
  3

  2
ST1
 70
     8
280
     0
  0
ATTDEF
  5
1CB
330
1B8
100
AcDbEntity
  8
AM_6
100
AcDbText
 10
13.315
 20
-2.58
 30
0.0
 40
0.5
  1
5.23
100
AcDbAttributeDefinition
  3

  2
A
 70
     8
280
     0
  0
ATTDEF
  5
1CC
330
1B8
100
AcDbEntity
  8
AM_6
100
AcDbText
 10
13.315
 20
-3.08
 30
0.0
 40
0.5
  1
5.2300000
100
AcDbAttributeDefinition
  3

  2
A1
 70
     8
280
     0
  0
ATTDEF
  5
1CD
330
1B8
100
AcDbEntity
  8
AM_6
100
AcDbText
 10
13.315
 20
-3.58
 30
0.0
 40
0.5
  1
16.63
100
AcDbAttributeDefinition
  3

  2
B
 70
     8
280
     0
  0
ATTDEF
  5
1CE
330
1B8
100
AcDbEntity
  8
AM_6
100
AcDbText
 10
13.315
 20
-4.08
 30
0.0
 40
0.5
  1
16.6300000
100
AcDbAttributeDefinition
  3

  2
B1
 70
     8
280
     0
  0
ATTDEF
  5
1CF
330
1B8
100
AcDbEntity
  8
AM_6
100
AcDbText
 10
13.315
 20
-4.58
 30
0.0
 40
0.5
  1
4.63
100
AcDbAttributeDefinition
  3

  2
C
 70
     8
280
     0
  0
ATTDEF
  5
1D0
330
1B8
100
AcDbEntity
  8
AM_6
100
AcDbText
 10
13.315
 20
-5.08
 30
0.0
 40
0.5
  1
4.6300000
100
AcDbAttributeDefinition
  3

  2
C1
 70
     8
280
     0
  0
ATTDEF
  5
1D1
330
1B8
100
AcDbEntity
  8
AM_6
100
AcDbText
 10
13.315
 20
-5.58
 30
0.0
 40
0.5
  1
13.25
100
AcDbAttributeDefinition
  3

  2
DMIN
 70
     8
280
     0
  0
ATTDEF
  5
1D2
330
1B8
100
AcDbEntity
  8
AM_6
100
AcDbText
 10
13.315
 20
-6.08
 30
0.0
 40
0.5
  1
13.2500000
100
AcDbAttributeDefinition
  3

  2
DMIN1
 70
     8
280
     0
  0
ATTDEF
  5
1D3
330
1B8
100
AcDbEntity
  8
AM_6
100
AcDbText
 10
13.315
 20
-6.58
 30
0.0
 40
0.5
  1
13.75
100
AcDbAttributeDefinition
  3

  2
DMAX
 70
     8
280
     0
  0
ATTDEF
  5
1D4
330
1B8
100
AcDbEntity
  8
AM_6
100
AcDbText
 10
13.315
 20
-7.08
 30
0.0
 40
0.5
  1
13.7500000
100
AcDbAttributeDefinition
  3

  2
DMAX1
 70
     8
280
     0
  0
ATTDEF
  5
1D5
330
1B8
100
AcDbEntity
  8
AM_6
100
AcDbText
 10
13.315
 20
-7.58
 30
0.0
 40
0.5
  1
2.5
100
AcDbAttributeDefinition
  3

  2
E
 70
     8
280
     0
  0
ATTDEF
  5
1D6
330
1B8
100
AcDbEntity
  8
AM_6
100
AcDbText
 10
13.315
 20
-8.08
 30
0.0
 40
0.5
  1
2.500000
100
AcDbAttributeDefinition
  3

  2
E1
 70
     8
280
     0
  0
ATTDEF
  5
1D7
330
1B8
100
AcDbEntity
  8
AM_6
100
AcDbText
 10
13.315
 20
-8.58
 30
0.0
 40
0.5
  1
3/4
100
AcDbAttributeDefinition
  3

  2
F
 70
     8
280
     0
  0
ATTDEF
  5
1D8
330
1B8
100
AcDbEntity
  8
AM_6
100
AcDbText
 10
13.315
 20
-9.08
 30
0.0
 40
0.5
  1
0.7500000
100
AcDbAttributeDefinition
  3

  2
F1
 70
     8
280
     0
  0
ATTDEF
  5
1D9
330
1B8
100
AcDbEntity
  8
AM_6
100
AcDbText
 10
13.315
 20
-9.58
 30
0.0
 40
0.5
  1
1.13
100
AcDbAttributeDefinition
  3

  2
G
 70
     8
280
     0
  0
ATTDEF
  5
1DA
330
1B8
100
AcDbEntity
  8
AM_6
100
AcDbText
 10
13.315
 20
-10.08
 30
0.0
 40
0.5
  1
1.130000
100
AcDbAttributeDefinition
  3

  2
G1
 70
     8
280
     0
  0
ATTDEF
  5
1DB
330
1B8
100
AcDbEntity
  8
AM_6
100
AcDbText
 10
13.315
 20
-10.58
 30
0.0
 40
0.5
  1
2.75
100
AcDbAttributeDefinition
  3

  2
H
 70
     8
280
     0
  0
ATTDEF
  5
1DC
330
1B8
100
AcDbEntity
  8
AM_6
100
AcDbText
 10
13.315
 20
-11.08
 30
0.0
 40
0.5
  1
2.7500000
100
AcDbAttributeDefinition
  3

  2
H1
 70
     8
280
     0
  0
ATTDEF
  5
1DD
330
1B8
100
AcDbEntity
  8
AM_6
100
AcDbText
 10
13.315
 20
-11.58
 30
0.0
 40
0.5
  1
9.67
100
AcDbAttributeDefinition
  3

  2
J
 70
     8
280
     0
  0
ATTDEF
  5
1DE
330
1B8
100
AcDbEntity
  8
AM_6
100
AcDbText
 10
13.315
 20
-12.08
 30
0.0
 40
0.5
  1
9.670000
100
AcDbAttributeDefinition
  3

  2
J1
 70
     8
280
     0
  0
ATTDEF
  5
1DF
330
1B8
100
AcDbEntity
  8
AM_6
100
AcDbText
 10
13.315
 20
-12.58
 30
0.0
 40
0.5
  1
6.44
100
AcDbAttributeDefinition
  3

  2
L
 70
     8
280
     0
  0
ATTDEF
  5
1E0
330
1B8
100
AcDbEntity
  8
AM_6
100
AcDbText
 10
13.315
 20
-13.08
 30
0.0
 40
0.5
  1
6.4400000
100
AcDbAttributeDefinition
  3

  2
L1
 70
     8
280
     0
  0
ATTDEF
  5
1E1
330
1B8
100
AcDbEntity
  8
AM_6
100
AcDbText
 10
13.315
 20
-13.58
 30
0.0
 40
0.5
  1
4.75
100
AcDbAttributeDefinition
  3

  2
M
 70
     8
280
     0
  0
ATTDEF
  5
1E2
330
1B8
100
AcDbEntity
  8
AM_6
100
AcDbText
 10
13.315
 20
-14.08
 30
0.0
 40
0.5
  1
4.750000
100
AcDbAttributeDefinition
  3

  2
M1
 70
     8
280
     0
  0
ATTDEF
  5
1E3
330
1B8
100
AcDbEntity
  8
AM_6
100
AcDbText
 10
13.315
 20
-14.58
 30
0.0
 40
0.5
  1
1.82
100
AcDbAttributeDefinition
  3

  2
R
 70
     8
280
     0
  0
ATTDEF
  5
1E4
330
1B8
100
AcDbEntity
  8
AM_6
100
AcDbText
 10
13.315
 20
-15.08
 30
0.0
 40
0.5
  1
1.820000
100
AcDbAttributeDefinition
  3

  2
R1
 70
     8
280
     0
  0
ATTDEF
  5
1E5
330
1B8
100
AcDbEntity
  8
AM_6
100
AcDbText
 10
13.315
 20
-15.58
 30
0.0
 40
0.5
  1
3.41
100
AcDbAttributeDefinition
  3

  2
S
 70
     8
280
     0
  0
ATTDEF
  5
1E6
330
1B8
100
AcDbEntity
  8
AM_6
100
AcDbText
 10
13.315
 20
-16.08
 30
0.0
 40
0.5
  1
3.410000
100
AcDbAttributeDefinition
  3

  2
S1
 70
     8
280
     0
  0
ATTDEF
  5
1E7
330
1B8
100
AcDbEntity
  8
AM_6
100
AcDbText
 10
13.315
 20
-16.58
 30
0.0
 40
0.5
  1
0.38
100
AcDbAttributeDefinition
  3

  2
X
 70
     8
280
     0
  0
ATTDEF
  5
1E8
330
1B8
100
AcDbEntity
  8
AM_6
100
AcDbText
 10
13.315
 20
-17.08
 30
0.0
 40
0.5
  1
0.380000
100
AcDbAttributeDefinition
  3

  2
X1
 70
     8
280
     0
  0
ATTDEF
  5
1E9
330
1B8
100
AcDbEntity
  8
AM_6
100
AcDbText
 10
13.315
 20
-17.58
 30
0.0
 40
0.5
  1
0.036
100
AcDbAttributeDefinition
  3

  2
Y
 70
     8
280
     0
  0
ATTDEF
  5
1EA
330
1B8
100
AcDbEntity
  8
AM_6
100
AcDbText
 10
13.315
 20
-18.08
 30
0.0
 40
0.5
  1
5.00
100
AcDbAttributeDefinition
  3

  2
Z
 70
     8
280
     0
  0
ATTDEF
  5
1EB
330
1B8
100
AcDbEntity
  8
AM_6
100
AcDbText
 10
13.315
 20
-18.58
 30
0.0
 40
0.5
  1
5.000000
100
AcDbAttributeDefinition
  3

  2
Z1
 70
     8
280
     0
  0
ATTDEF
  5
1EC
330
1B8
100
AcDbEntity
  8
AM_6
100
AcDbText
 10
13.315
 20
-19.08
 30
0.0
 40
0.5
  1
7.8740
100
AcDbAttributeDefinition
  3

  2
BORE
 70
     8
280
     0
  0
ATTDEF
  5
1ED
330
1B8
100
AcDbEntity
  8
AM_6
100
AcDbText
 10
13.315
 20
-19.58
 30
0.0
 40
0.5
  1
0.07000
100
AcDbAttributeDefinition
  3

  2
CR
 70
     8
280
     0
  0
ATTDEF
  5
1EE
330
1B8
100
AcDbEntity
  8
AM_6
100
AcDbText
 10
13.315
 20
-20.08
 30
0.0
 40
0.5
  1
baldor
100
AcDbAttributeDefinition
  3

  2
COMPANY
 70
     8
280
     0
  0
ARC
  5
1EF
330
1B8
100
AcDbEntity
  8
AM_9
100
AcDbCircle
 10
-5.0025
 20
-1.862500000000003
 30
0.0
 40
0.1375000000000004
100
AcDbArc
 50
270.0
 51
0.0
  0
LINE
  5
1F0
330
1B8
100
AcDbEntity
  8
AM_9
100
AcDbLine
 10
4.864999999999999
 20
0.7336041166732941
 30
0.0
 11
4.865
 21
-1.862500000000002
 31
0.0
  0
LINE
  5
1F1
330
1B8
100
AcDbEntity
  8
AM_9
100
AcDbLine
 10
-5.439000781965792
 20
-2.000000000000004
 30
0.0
 11
-5.0025
 21
-2.000000000000004
 31
0.0
  0
LINE
  5
1F2
330
1B8
100
AcDbEntity
  8
AM_9
100
AcDbLine
 10
-4.864999999999999
 20
-1.862500000000004
 30
0.0
 11
-4.865
 21
0.7336041166732866
 31
0.0
  0
LINE
  5
1F3
330
1B8
100
AcDbEntity
  8
AM_9
100
AcDbLine
 10
5.002499999999998
 20
-2.0
 30
0.0
 11
5.439000781965794
 21
-2.0
 31
0.0
  0
ARC
  5
1F4
330
1B8
100
AcDbEntity
  8
AM_9
100
AcDbCircle
 10
5.002499999999998
 20
-1.862500000000003
 30
0.0
 40
0.1374999999999975
100
AcDbArc
 50
180.0
 51
270.0
  0
ARC
  5
1F5
330
1B8
100
AcDbEntity
  8
AM_9
100
AcDbCircle
 10
-0.0000000000000075
 20
-0.0000000000000138
 30
0.0
 40
4.749999999999984
100
AcDbArc
 50
223.5256514268933
 51
253.1735511072589
  0
LINE
  5
1F6
330
1B8
100
AcDbEntity
  8
AM_9
100
AcDbLine
 10
-1.375000000000002
 20
-4.75
 30
0.0
 11
-1.375
 21
-4.546633369868302
 31
0.0
  0
ARC
  5
1F7
330
1B8
100
AcDbEntity
  8
AM_9
100
AcDbCircle
 10
-3.842850504508329
 20
-3.650000000000003
 30
0.0
 40
0.5500000000000025
100
AcDbArc
 50
43.52564162889721
 51
90.0
  0
LINE
  5
1F8
330
1B8
100
AcDbEntity
  8
AM_9
100
AcDbLine
 10
6.875
 20
-4.75
 30
0.0
 11
6.875
 21
-2.0
 31
0.0
  0
LINE
  5
1F9
330
1B8
100
AcDbEntity
  8
AM_9
100
AcDbLine
 10
7.314999999999999
 20
-2.0
 30
0.0
 11
7.314999999999999
 21
-4.75
 31
0.0
  0
ARC
  5
1FA
330
1B8
100
AcDbEntity
  8
AM_9
100
AcDbCircle
 10
-0.0000000000000078
 20
0.0000000000000142
 30
0.0
 40
4.750000000000016
100
AcDbArc
 50
286.8264488927411
 51
316.4743495898798
  0
LINE
  5
1FB
330
1B8
100
AcDbEntity
  8
AM_9
100
AcDbLine
 10
-6.624999999999999
 20
-2.0
 30
0.0
 11
-6.624999999999999
 21
-3.1
 31
0.0
  0
LINE
  5
1FC
330
1B8
100
AcDbEntity
  8
AM_9
100
AcDbLine
 10
-6.185
 20
-3.1
 30
0.0
 11
-6.185
 21
-2.0
 31
0.0
  0
LINE
  5
1FD
330
1B8
100
AcDbEntity
  8
AM_9
100
AcDbLine
 10
1.374999999999996
 20
-4.546633369868304
 30
0.0
 11
1.375
 21
-4.75
 31
0.0
  0
LINE
  5
1FE
330
1B8
100
AcDbEntity
  8
AM_9
100
AcDbLine
 10
7.314999999999999
 20
-3.1
 30
0.0
 11
3.842850504508339
 21
-3.1
 31
0.0
  0
ARC
  5
1FF
330
1B8
100
AcDbEntity
  8
AM_9
100
AcDbCircle
 10
3.842850504508338
 20
-3.649999999999997
 30
0.0
 40
0.5499999999999972
100
AcDbArc
 50
90.0
 51
136.47434958988
  0
LINE
  5
200
330
1B8
100
AcDbEntity
  8
AM_9
100
AcDbLine
 10
6.625000000000001
 20
-2.0
 30
0.0
 11
6.625000000000001
 21
-3.1
 31
0.0
  0
LINE
  5
201
330
1B8
100
AcDbEntity
  8
AM_9
100
AcDbLine
 10
6.185
 20
-2.0
 30
0.0
 11
6.185
 21
-3.1
 31
0.0
  0
LINE
  5
202
330
1B8
100
AcDbEntity
  8
AM_9
100
AcDbLine
 10
-3.842850504508327
 20
-3.1
 30
0.0
 11
-7.314999999999999
 21
-3.1
 31
0.0
  0
LINE
  5
203
330
1B8
100
AcDbEntity
  8
AM_9
100
AcDbLine
 10
-6.874999999999999
 20
-2.0
 30
0.0
 11
-6.874999999999999
 21
-4.75
 31
0.0
  0
LINE
  5
204
330
1B8
100
AcDbEntity
  8
AM_9
100
AcDbLine
 10
-7.314999999999999
 20
-2.0
 30
0.0
 11
-7.314999999999999
 21
-4.75
 31
0.0
  0
LINE
  5
205
330
1B8
100
AcDbEntity
  8
AM_7
100
AcDbLine
 10
-4.13385
 20
0.0
 30
0.0
 11
4.13385
 21
0.0
 31
0.0
  0
LINE
  5
206
330
1B8
100
AcDbEntity
  8
AM_7
100
AcDbLine
 10
0.0
 20
-4.13385
 30
0.0
 11
0.0
 21
4.13385
 31
0.0
  0
LINE
  5
207
330
1B8
100
AcDbEntity
  8
AM_7
100
AcDbLine
 10
-2.713499999999999
 20
4.699919866338148
 30
0.0
 11
-2.18137903873437
 21
3.778259325653686
 31
0.0
  0
LINE
  5
208
330
1B8
100
AcDbEntity
  8
AM_4
100
AcDbLine
 10
-2.014335725873556
 20
4.488931820714134
 30
0.0
 11
-2.02698729810778
 21
4.510844986619437
 31
0.0
  0
LINE
  5
209
330
1B8
100
AcDbEntity
  8
AM_4
100
AcDbLine
 10
-2.893012701892218
 20
4.010844986619438
 30
0.0
 11
-2.02698729810778
 21
4.510844986619437
 31
0.0
  0
LINE
  5
20A
330
1B8
100
AcDbEntity
  8
AM_4
100
AcDbLine
 10
-2.856410161513775
 20
4.147447526997881
 30
0.0
 11
-2.163589842777835
 21
4.547447524520118
 31
0.0
  0
ARC
  5
20B
330
1B8
100
AcDbEntity
  8
AM_4
100
AcDbCircle
 10
-2.113589838486224
 20
4.460844986619439
 30
0.0
 40
0.0999999999999986
100
AcDbArc
 50
29.99999999999917
 51
120.0000000000003
  0
ARC
  5
20C
330
1B8
100
AcDbEntity
  8
AM_4
100
AcDbCircle
 10
-2.806410161513775
 20
4.060844986619438
 30
0.0
 40
0.0999999999999995
100
AcDbArc
 50
120.0
 51
210.0000000000001
  0
LINE
  5
20D
330
1B8
100
AcDbEntity
  8
AM_4
100
AcDbLine
 10
-2.893012701892218
 20
4.010844986619438
 30
0.0
 11
-2.880276480073883
 21
3.988785203333614
 31
0.0
  0
ARC
  5
20E
330
1B8
100
AcDbEntity
  8
AM_4
100
AcDbCircle
 10
-5.439000781965841
 20
-1.724999999999985
 30
0.0
 40
0.2750000000000516
100
AcDbArc
 50
332.5328679071782
 51
353.1637222228692
  0
ARC
  5
20F
330
1B8
100
AcDbEntity
  8
AM_4
100
AcDbCircle
 10
5.439000781965791
 20
-1.724999999999998
 30
0.0
 40
0.274999999999998
100
AcDbArc
 50
186.8362777771293
 51
207.4671320928225
  0
LINE
  5
210
330
1B8
100
AcDbEntity
  8
AM_4
100
AcDbLine
 10
4.885020470964424
 20
0.5856406733300898
 30
0.0
 11
5.165955938568391
 21
-1.757733980724751
 31
0.0
  0
ARC
  5
211
330
1B8
100
AcDbEntity
  8
AM_4
100
AcDbCircle
 10
-0.0000000000000018
 20
0.0000000000000009
 30
0.0
 40
4.919999999999997
100
AcDbArc
 50
105.4700376673302
 51
173.163722222871
  0
LINE
  5
212
330
1B8
100
AcDbEntity
  8
AM_4
100
AcDbLine
 10
-1.312333333333333
 20
4.741748751486335
 30
0.0
 11
-1.312333333333333
 21
4.782500000000002
 31
0.0
  0
LINE
  5
213
330
1B8
100
AcDbEntity
  8
AM_4
100
AcDbLine
 10
-1.174833333333335
 20
4.92
 30
0.0
 11
1.174833333333334
 21
4.92
 31
0.0
  0
CIRCLE
  5
214
330
1B8
100
AcDbEntity
  8
AM_4
100
AcDbCircle
 10
0.0
 20
0.0
 30
0.0
 40
3.936999999999999
  0
ARC
  5
215
330
1B8
100
AcDbEntity
  8
AM_4
100
AcDbCircle
 10
0.0000000000000115
 20
0.0000000000000089
 30
0.0
 40
4.919999999999988
100
AcDbArc
 50
6.836277777129039
 51
74.52996233266988
  0
LINE
  5
216
330
1B8
100
AcDbEntity
  8
AM_4
100
AcDbLine
 10
1.312333333333333
 20
4.782499999999999
 30
0.0
 11
1.312333333333333
 21
4.741748751486335
 31
0.0
  0
ARC
  5
217
330
1B8
100
AcDbEntity
  8
AM_4
100
AcDbCircle
 10
1.174833333333332
 20
4.782499999999998
 30
0.0
 40
0.1375000000000015
100
AcDbArc
 50
0.0
 51
90.0
  0
ARC
  5
218
330
1B8
100
AcDbEntity
  8
AM_4
100
AcDbCircle
 10
-1.174833333333333
 20
4.7825
 30
0.0
 40
0.1375000000000002
100
AcDbArc
 50
90.0
 51
180.0
  0
LINE
  5
219
330
1B8
100
AcDbEntity
  8
AM_4
100
AcDbLine
 10
-5.16595593856839
 20
-1.757733980724751
 30
0.0
 11
-4.885020470964423
 21
0.5856406733300907
 31
0.0
  0
LWPOLYLINE
  5
21A
330
1B8
100
AcDbEntity
  8
AM_4
100
AcDbPolyline
 90
        6
 70
     0
 43
0.0
 10
-8.039999999999997
 20
-2.0
 10
-8.083430955284879
 20
-2.003451197529721
 10
-8.120723995252746
 20
-2.012114784382167
 10
-8.17376126310545
 20
-2.034658975583637
 10
-8.205201127830385
 20
-2.055150989623404
 10
-8.214999999994577
 20
-2.062867965639562
  0
LINE
  5
21B
330
1B8
100
AcDbEntity
  8
AM_4
100
AcDbLine
 10
-8.214999999999998
 20
-2.061968692831196
 30
0.0
 11
-8.214999999999998
 21
-3.375
 31
0.0
  0
LINE
  5
21C
330
1B8
100
AcDbEntity
  8
AM_4
100
AcDbLine
 10
8.215000000000002
 20
-3.375
 30
0.0
 11
8.215000000000002
 21
-2.0619686928312
 31
0.0
  0
LWPOLYLINE
  5
21D
330
1B8
100
AcDbEntity
  8
AM_4
100
AcDbPolyline
 90
        7
 70
     0
 43
0.0
 10
8.21499999999458
 20
-2.062867965639562
 10
8.214952783331752
 20
-2.062385895589055
 10
8.202656934186212
 20
-2.053262042579211
 10
8.179718089421238
 20
-2.038116885065152
 10
8.14503693628012
 20
-2.020849961603609
 10
8.098416211182235
 20
-2.006220083865671
 10
8.040000000000004
 20
-2.0
  0
LWPOLYLINE
  5
21E
330
1B8
100
AcDbEntity
  8
AM_4
100
AcDbPolyline
 90
       13
 70
     0
 43
0.0
 10
-5.195
 20
-1.851840917688586
 10
-5.206983411033174
 20
-1.872624319085699
 10
-5.220732614355064
 20
-1.892284210276568
 10
-5.236142970226394
 20
-1.910670967618266
 10
-5.253097196533957
 20
-1.927644656785192
 10
-5.271466261378309
 20
-1.943076097753794
 10
-5.291110365084442
 20
-1.956847847940542
 10
-5.311880004161718
 20
-1.968855096010904
 10
-5.333617109115706
 20
-1.97900645955689
 10
-5.356156247452485
 20
-1.987224680572355
 10
-5.379325882719807
 20
-1.993447213433073
 10
-5.402949680003082
 20
-1.997626700906706
 10
-5.4265
 20
-1.999715726616158
  0
LINE
  5
21F
330
1B8
100
AcDbEntity
  8
AM_4
100
AcDbLine
 10
-5.195
 20
-1.851840917688586
 30
0.0
 11
-5.195
 21
-4.75
 31
0.0
  0
LINE
  5
220
330
1B8
100
AcDbEntity
  8
AM_4
100
AcDbLine
 10
8.040000000000001
 20
-2.0
 30
0.0
 11
5.439000781965794
 21
-2.0
 31
0.0
  0
ARC
  5
221
330
1B8
100
AcDbEntity
  8
AM_4
100
AcDbCircle
 10
5.439000781965747
 20
-1.725000000002473
 30
0.0
 40
0.2749999999975268
100
AcDbArc
 50
267.3945856451147
 51
270.0
  0
LINE
  5
222
330
1B8
100
AcDbEntity
  8
AM_4
100
AcDbLine
 10
8.02471634848185
 20
-2.0
 30
0.0
 11
8.02471634848185
 21
-3.375
 31
0.0
  0
LINE
  5
223
330
1B8
100
AcDbEntity
  8
AM_4
100
AcDbLine
 10
7.852
 20
-2.0
 30
0.0
 11
7.851999999999999
 21
-4.75
 31
0.0
  0
LINE
  5
224
330
1B8
100
AcDbEntity
  8
AM_4
100
AcDbLine
 10
8.315
 20
-3.375
 30
0.0
 11
8.315
 21
-4.75
 31
0.0
  0
LINE
  5
225
330
1B8
100
AcDbEntity
  8
AM_4
100
AcDbLine
 10
8.02471634848185
 20
-3.375
 30
0.0
 11
8.315
 21
-3.375
 31
0.0
  0
ARC
  5
226
330
1B8
100
AcDbEntity
  8
AM_4
100
AcDbCircle
 10
-5.439000781965764
 20
-1.725000000000889
 30
0.0
 40
0.2749999999991117
100
AcDbArc
 50
270.0
 51
272.6054143548737
  0
LINE
  5
227
330
1B8
100
AcDbEntity
  8
AM_4
100
AcDbLine
 10
-5.439000781965792
 20
-2.0
 30
0.0
 11
-8.039999999999996
 21
-2.0
 31
0.0
  0
LINE
  5
228
330
1B8
100
AcDbEntity
  8
AM_4
100
AcDbLine
 10
-5.4265
 20
-1.999715726616158
 30
0.0
 11
-5.4265
 21
-4.75
 31
0.0
  0
LINE
  5
229
330
1B8
100
AcDbEntity
  8
AM_4
100
AcDbLine
 10
8.315
 20
-4.75
 30
0.0
 11
-8.315
 21
-4.75
 31
0.0
  0
LINE
  5
22A
330
1B8
100
AcDbEntity
  8
AM_4
100
AcDbLine
 10
-8.024716348481848
 20
-3.375
 30
0.0
 11
-8.024716348481848
 21
-2.0
 31
0.0
  0
LINE
  5
22B
330
1B8
100
AcDbEntity
  8
AM_4
100
AcDbLine
 10
-8.315
 20
-3.375
 30
0.0
 11
-8.024716348481848
 21
-3.375
 31
0.0
  0
LINE
  5
22C
330
1B8
100
AcDbEntity
  8
AM_4
100
AcDbLine
 10
-8.315
 20
-3.375
 30
0.0
 11
-8.315
 21
-4.75
 31
0.0
  0
LINE
  5
22D
330
1B8
100
AcDbEntity
  8
AM_4
100
AcDbLine
 10
-7.851999999999999
 20
-4.75
 30
0.0
 11
-7.851999999999999
 21
-2.0
 31
0.0
  0
LWPOLYLINE
  5
22E
330
1B8
100
AcDbEntity
  8
AM_4
100
AcDbPolyline
 90
       13
 70
     0
 43
0.0
 10
5.4265
 20
-1.999715726616158
 10
5.402604516051775
 20
-1.997580835400283
 10
5.378986029663823
 20
-1.993371439438202
 10
5.355824291778785
 20
-1.987119574774892
 10
5.33329557720741
 20
-1.978872821875418
 10
5.311571343070793
 20
-1.968693943508872
 10
5.290816923908166
 20
-1.956660407085796
 10
5.271190273381217
 20
-1.942863795084419
 10
5.252840762151354
 20
-1.927409108052694
 10
5.235908041078771
 20
-1.910413965490726
 10
5.220520978395087
 20
-1.892007710695361
 10
5.20679667893829
 20
-1.872330426379591
 10
5.194999999999999
 20
-1.851840917688578
  0
LINE
  5
22F
330
1B8
100
AcDbEntity
  8
AM_4
100
AcDbLine
 10
5.4265
 20
-4.75
 30
0.0
 11
5.4265
 21
-1.999715726616158
 31
0.0
  0
LINE
  5
230
330
1B8
100
AcDbEntity
  8
AM_4
100
AcDbLine
 10
5.194999999999999
 20
-1.851840917688577
 30
0.0
 11
5.194999999999999
 21
-4.75
 31
0.0
  0
ENDBLK
  5
1BB
330
1B8
100
AcDbEntity
  8
0
100
AcDbBlockEnd
  0
ENDSEC
  0
SECTION
  2
ENTITIES
  0
INSERT
  5
6F
330
1F
100
AcDbEntity
  8
0
100
AcDbBlockReference
  2
1_071217_0
 10
0.0
 20
0.0
 30
0.0
  0
POINT
  5
232
330
1F
100
AcDbEntity
  8
ConnectionPoints
100
AcDbPoint
 10
0.0
 20
-2.842013888888889
 30
3.0875
  0
POINT
  5
233
330
1F
100
AcDbEntity
  8
ConnectionPoints
100
AcDbPoint
 10
0.0
 20
2.842013888888889
 30
3.0875
  0
POINT
  5
234
330
1F
100
AcDbEntity
  8
ConnectionPoints
100
AcDbPoint
 10
0.0
 20
0.0
 30
3.0175
  0
POINT
  5
235
330
1F
100
AcDbEntity
  8
ConnectionPoints
100
AcDbPoint
 10
0.0
 20
0.0
 30
3.41
  0
POINT
  5
236
330
1F
100
AcDbEntity
  8
ConnectionPoints
100
AcDbPoint
 10
0.0
 20
0.0
 30
3.2165
  0
POINT
  5
237
330
1F
100
AcDbEntity
  8
ConnectionPoints
100
AcDbPoint
 10
0.0
 20
2.842013888888889
 30
3.0175
  0
POINT
  5
238
330
1F
100
AcDbEntity
  8
ConnectionPoints
100
AcDbPoint
 10
0.0
 20
-2.842013888888889
 30
3.0175
  0
POINT
  5
239
330
1F
100
AcDbEntity
  8
ConnectionPoints
100
AcDbPoint
 10
0.0
 20
0.0
 30
3.0175
  0
POINT
  5
23A
330
1F
100
AcDbEntity
  8
ConnectionPoints
100
AcDbPoint
 10
-2.509999999999999
 20
4.347447526997882
 30
0.0
  0
POINT
  5
23B
330
1F
100
AcDbEntity
  8
ConnectionPoints
100
AcDbPoint
 10
0.0
 20
0.0
 30
3.03
  0
POINT
  5
23C
330
1F
100
AcDbEntity
  8
ConnectionPoints
100
AcDbPoint
 10
0.0
 20
0.0
 30
3.41
  0
ENDSEC
  0
SECTION
  2
OBJECTS
  0
DICTIONARY
  5
C
330
0
100
AcDbDictionary
281
     1
  3
ACAD_DETAILVIEWSTYLE
350
244
  3
ACAD_GROUP
350
D
  3
ACAD_LAYOUT
350
1A
  3
ACAD_MATERIAL
350
43
  3
ACAD_MLEADERSTYLE
350
6B
  3
ACAD_MLINESTYLE
350
17
  3
ACAD_PLOTSETTINGS
350
19
  3
ACAD_PLOTSTYLENAME
350
E
  3
ACAD_SCALELIST
350
47
  3
ACAD_SECTIONVIEWSTYLE
350
245
  3
ACAD_TABLESTYLE
350
69
  3
ACAD_VISUALSTYLE
350
2A
  3
ACDB_RECOMPOSE_DATA
350
241
  3
AcDbVariableDictionary
350
23D
  0
SUN
  5
6D
330
29
100
AcDbSun
 90
        1
290
     0
 63
     7
421
 16777215
 40
1.0
291
     1
 91
  2455826
 92
 54000000
292
     0
 70
     2
 71
   256
280
     1
  0
DICTIONARY
  5
244
102
{ACAD_REACTORS
330
C
102
}
330
C
100
AcDbDictionary
281
     1
  0
DICTIONARY
  5
D
102
{ACAD_REACTORS
330
C
102
}
330
C
100
AcDbDictionary
281
     1
  0
DICTIONARY
  5
1A
102
{ACAD_REACTORS
330
C
102
}
330
C
100
AcDbDictionary
281
     1
  3
Layout1
350
1E
  3
Layout2
350
26
  3
Model
350
22
  0
DICTIONARY
  5
43
102
{ACAD_REACTORS
330
C
102
}
330
C
100
AcDbDictionary
281
     1
  3
ByBlock
350
45
  3
ByLayer
350
44
  3
Global
350
46
  0
DICTIONARY
  5
6B
102
{ACAD_REACTORS
330
C
102
}
330
C
100
AcDbDictionary
281
     1
  3
Standard
350
6C
  0
DICTIONARY
  5
17
102
{ACAD_REACTORS
330
C
102
}
330
C
100
AcDbDictionary
281
     1
  3
Standard
350
18
  0
DICTIONARY
  5
19
102
{ACAD_REACTORS
330
C
102
}
330
C
100
AcDbDictionary
281
     1
  0
ACDBDICTIONARYWDFLT
  5
E
102
{ACAD_REACTORS
330
C
102
}
330
C
100
AcDbDictionary
281
     1
  3
Normal
350
F
100
AcDbDictionaryWithDefault
340
F
  0
DICTIONARY
  5
47
102
{ACAD_REACTORS
330
C
102
}
330
C
100
AcDbDictionary
281
     1
  3
A0
350
48
  3
A1
350
49
  3
A2
350
4A
  3
A3
350
4B
  3
A4
350
4C
  3
A5
350
4D
  3
A6
350
4E
  3
A7
350
4F
  3
A8
350
50
  3
A9
350
51
  3
B0
350
52
  3
B1
350
53
  3
B2
350
54
  3
B3
350
55
  3
B4
350
56
  3
B5
350
57
  3
B6
350
58
  3
B7
350
59
  3
B8
350
5A
  3
B9
350
5B
  3
C0
350
5C
  3
C1
350
5D
  3
C2
350
5E
  3
C3
350
5F
  3
C4
350
60
  3
C5
350
61
  3
C6
350
62
  3
C7
350
63
  3
C8
350
64
  3
C9
350
65
  3
D0
350
66
  3
D1
350
67
  3
D2
350
68
  0
DICTIONARY
  5
245
102
{ACAD_REACTORS
330
C
102
}
330
C
100
AcDbDictionary
281
     1
  0
DICTIONARY
  5
69
102
{ACAD_REACTORS
330
C
102
}
330
C
100
AcDbDictionary
281
     1
  3
Standard
350
6A
  0
DICTIONARY
  5
2A
102
{ACAD_REACTORS
330
C
102
}
330
C
100
AcDbDictionary
281
     1
  3
2dWireframe
350
2F
  3
Basic
350
32
  3
Brighten
350
36
  3
ColorChange
350
3A
  3
Conceptual
350
34
  3
Dim
350
35
  3
EdgeColorOff
350
3D
  3
Facepattern
350
39
  3
Flat
350
2B
  3
FlatWithEdges
350
2C
  3
Gouraud
350
2D
  3
GouraudWithEdges
350
2E
  3
Hidden
350
31
  3
JitterOff
350
3B
  3
Linepattern
350
38
  3
OverhangOff
350
3C
  3
Realistic
350
33
  3
Shaded
350
42
  3
Shaded with edges
350
41
  3
Shades of Gray
350
3E
  3
Sketchy
350
3F
  3
Thicken
350
37
  3
Wireframe
350
30
  3
X-Ray
350
40
  0
XRECORD
  5
241
102
{ACAD_REACTORS
330
C
102
}
330
C
100
AcDbXrecord
280
     1
 90
        1
330
6A
  0
DICTIONARY
  5
23D
102
{ACAD_REACTORS
330
C
102
}
330
C
100
AcDbDictionary
281
     1
  3
CANNOSCALE
350
23E
  3
CMLEADERSTYLE
350
243
  3
CTABLESTYLE
350
242
  0
LAYOUT
  5
1E
102
{ACAD_REACTORS
330
1A
102
}
330
1A
100
AcDbPlotSettings
  1

  2
none_device
  4

  6

 40
0.0
 41
0.0
 42
0.0
 43
0.0
 44
0.0
 45
0.0
 46
0.0
 47
0.0
 48
0.0
 49
0.0
140
0.0
141
0.0
142
1.0
143
1.0
 70
   688
 72
     0
 73
     0
 74
     5
  7

 75
    16
 76
     0
 77
     2
 78
   300
147
1.0
148
0.0
149
0.0
100
AcDbLayout
  1
Layout1
 70
     1
 71
     1
 10
0.0
 20
0.0
 11
12.0
 21
9.0
 12
0.0
 22
0.0
 32
0.0
 14
1.000000000000000E+20
 24
1.000000000000000E+20
 34
1.000000000000000E+20
 15
-1.000000000000000E+20
 25
-1.000000000000000E+20
 35
-1.000000000000000E+20
146
0.0
 13
0.0
 23
0.0
 33
0.0
 16
1.0
 26
0.0
 36
0.0
 17
0.0
 27
1.0
 37
0.0
 76
     0
330
1B
  0
LAYOUT
  5
26
102
{ACAD_REACTORS
330
1A
102
}
330
1A
100
AcDbPlotSettings
  1

  2
none_device
  4

  6

 40
0.0
 41
0.0
 42
0.0
 43
0.0
 44
0.0
 45
0.0
 46
0.0
 47
0.0
 48
0.0
 49
0.0
140
0.0
141
0.0
142
1.0
143
1.0
 70
   688
 72
     0
 73
     0
 74
     5
  7

 75
    16
 76
     0
 77
     2
 78
   300
147
1.0
148
0.0
149
0.0
100
AcDbLayout
  1
Layout2
 70
     1
 71
     2
 10
0.0
 20
0.0
 11
0.0
 21
0.0
 12
0.0
 22
0.0
 32
0.0
 14
0.0
 24
0.0
 34
0.0
 15
0.0
 25
0.0
 35
0.0
146
0.0
 13
0.0
 23
0.0
 33
0.0
 16
1.0
 26
0.0
 36
0.0
 17
0.0
 27
1.0
 37
0.0
 76
     0
330
23
  0
LAYOUT
  5
22
102
{ACAD_REACTORS
330
1A
102
}
330
1A
100
AcDbPlotSettings
  1

  2
none_device
  4
Letter_(8.50_x_11.00_Inches)
  6

 40
6.35
 41
6.35
 42
6.35000508
 43
6.35000508
 44
215.9
 45
279.4
 46
0.0
 47
0.0
 48
0.0
 49
0.0
140
0.0
141
0.0
142
1.0
143
1.0
 70
  1712
 72
     0
 73
     0
 74
     0
  7

 75
     0
 76
     0
 77
     2
 78
   300
147
1.0
148
0.0
149
0.0
100
AcDbLayout
  1
Model
 70
     1
 71
     0
 10
0.0
 20
0.0
 11
12.0
 21
9.0
 12
0.0
 22
0.0
 32
0.0
 14
1.000000000000000E+20
 24
1.000000000000000E+20
 34
1.000000000000000E+20
 15
-1.000000000000000E+20
 25
-1.000000000000000E+20
 35
-1.000000000000000E+20
146
0.0
 13
0.0
 23
0.0
 33
0.0
 16
1.0
 26
0.0
 36
0.0
 17
0.0
 27
1.0
 37
0.0
 76
     0
330
1F
331
29
  0
MATERIAL
  5
45
102
{ACAD_REACTORS
330
43
102
}
330
43
100
AcDbMaterial
  1
ByBlock
 72
     1
 94
      127
  0
MATERIAL
  5
44
102
{ACAD_REACTORS
330
43
102
}
330
43
100
AcDbMaterial
  1
ByLayer
 72
     1
 94
      127
  0
MATERIAL
  5
46
102
{ACAD_REACTORS
330
43
102
}
330
43
100
AcDbMaterial
  1
Global
 72
     1
 94
      127
  0
MLEADERSTYLE
  5
6C
102
{ACAD_REACTORS
330
6B
102
}
330
6B
100
AcDbMLeaderStyle
179
     2
170
     2
171
     1
172
     0
 90
        2
 40
0.0
 41
0.0
173
     1
 91
-1056964608
340
14
 92
       -2
290
     1
 42
0.09
291
     1
 43
0.36
  3
Standard
341
0
 44
0.18
300

342
11
174
     1
178
     6
175
     1
176
     0
 93
-1056964608
 45
0.18
292
     0
297
     0
 46
0.18
343
0
 94
-1056964608
 47
1.0
 49
1.0
140
1.0
293
     1
141
0.0
294
     1
177
     0
142
1.0
295
     0
296
     0
143
0.125
271
     0
272
     9
273
     9
298
     0
  0
MLINESTYLE
  5
18
102
{ACAD_REACTORS
330
17
102
}
330
17
100
AcDbMlineStyle
  2
Standard
 70
     0
  3

 62
   256
 51
90.0
 52
90.0
 71
     2
 49
0.5
 62
   256
  6
BYLAYER
 49
-0.5
 62
   256
  6
BYLAYER
  0
ACDBPLACEHOLDER
  5
F
102
{ACAD_REACTORS
330
E
102
}
330
E
  0
SCALE
  5
48
102
{ACAD_REACTORS
330
47
102
}
330
47
100
AcDbScale
 70
     0
300
1:1
140
1.0
141
1.0
290
     1
  0
SCALE
  5
49
102
{ACAD_REACTORS
330
47
102
}
330
47
100
AcDbScale
 70
     0
300
1:2
140
1.0
141
2.0
290
     0
  0
SCALE
  5
4A
102
{ACAD_REACTORS
330
47
102
}
330
47
100
AcDbScale
 70
     0
300
1:4
140
1.0
141
4.0
290
     0
  0
SCALE
  5
4B
102
{ACAD_REACTORS
330
47
102
}
330
47
100
AcDbScale
 70
     0
300
1:5
140
1.0
141
5.0
290
     0
  0
SCALE
  5
4C
102
{ACAD_REACTORS
330
47
102
}
330
47
100
AcDbScale
 70
     0
300
1:8
140
1.0
141
8.0
290
     0
  0
SCALE
  5
4D
102
{ACAD_REACTORS
330
47
102
}
330
47
100
AcDbScale
 70
     0
300
1:10
140
1.0
141
10.0
290
     0
  0
SCALE
  5
4E
102
{ACAD_REACTORS
330
47
102
}
330
47
100
AcDbScale
 70
     0
300
1:16
140
1.0
141
16.0
290
     0
  0
SCALE
  5
4F
102
{ACAD_REACTORS
330
47
102
}
330
47
100
AcDbScale
 70
     0
300
1:20
140
1.0
141
20.0
290
     0
  0
SCALE
  5
50
102
{ACAD_REACTORS
330
47
102
}
330
47
100
AcDbScale
 70
     0
300
1:30
140
1.0
141
30.0
290
     0
  0
SCALE
  5
51
102
{ACAD_REACTORS
330
47
102
}
330
47
100
AcDbScale
 70
     0
300
1:40
140
1.0
141
40.0
290
     0
  0
SCALE
  5
52
102
{ACAD_REACTORS
330
47
102
}
330
47
100
AcDbScale
 70
     0
300
1:50
140
1.0
141
50.0
290
     0
  0
SCALE
  5
53
102
{ACAD_REACTORS
330
47
102
}
330
47
100
AcDbScale
 70
     0
300
1:100
140
1.0
141
100.0
290
     0
  0
SCALE
  5
54
102
{ACAD_REACTORS
330
47
102
}
330
47
100
AcDbScale
 70
     0
300
2:1
140
2.0
141
1.0
290
     0
  0
SCALE
  5
55
102
{ACAD_REACTORS
330
47
102
}
330
47
100
AcDbScale
 70
     0
300
4:1
140
4.0
141
1.0
290
     0
  0
SCALE
  5
56
102
{ACAD_REACTORS
330
47
102
}
330
47
100
AcDbScale
 70
     0
300
8:1
140
8.0
141
1.0
290
     0
  0
SCALE
  5
57
102
{ACAD_REACTORS
330
47
102
}
330
47
100
AcDbScale
 70
     0
300
10:1
140
10.0
141
1.0
290
     0
  0
SCALE
  5
58
102
{ACAD_REACTORS
330
47
102
}
330
47
100
AcDbScale
 70
     0
300
100:1
140
100.0
141
1.0
290
     0
  0
SCALE
  5
59
102
{ACAD_REACTORS
330
47
102
}
330
47
100
AcDbScale
 70
     0
300
1/128" = 1'-0"
140
0.0078125
141
12.0
290
     0
  0
SCALE
  5
5A
102
{ACAD_REACTORS
330
47
102
}
330
47
100
AcDbScale
 70
     0
300
1/64" = 1'-0"
140
0.015625
141
12.0
290
     0
  0
SCALE
  5
5B
102
{ACAD_REACTORS
330
47
102
}
330
47
100
AcDbScale
 70
     0
300
1/32" = 1'-0"
140
0.03125
141
12.0
290
     0
  0
SCALE
  5
5C
102
{ACAD_REACTORS
330
47
102
}
330
47
100
AcDbScale
 70
     0
300
1/16" = 1'-0"
140
0.0625
141
12.0
290
     0
  0
SCALE
  5
5D
102
{ACAD_REACTORS
330
47
102
}
330
47
100
AcDbScale
 70
     0
300
3/32" = 1'-0"
140
0.09375
141
12.0
290
     0
  0
SCALE
  5
5E
102
{ACAD_REACTORS
330
47
102
}
330
47
100
AcDbScale
 70
     0
300
1/8" = 1'-0"
140
0.125
141
12.0
290
     0
  0
SCALE
  5
5F
102
{ACAD_REACTORS
330
47
102
}
330
47
100
AcDbScale
 70
     0
300
3/16" = 1'-0"
140
0.1875
141
12.0
290
     0
  0
SCALE
  5
60
102
{ACAD_REACTORS
330
47
102
}
330
47
100
AcDbScale
 70
     0
300
1/4" = 1'-0"
140
0.25
141
12.0
290
     0
  0
SCALE
  5
61
102
{ACAD_REACTORS
330
47
102
}
330
47
100
AcDbScale
 70
     0
300
3/8" = 1'-0"
140
0.375
141
12.0
290
     0
  0
SCALE
  5
62
102
{ACAD_REACTORS
330
47
102
}
330
47
100
AcDbScale
 70
     0
300
1/2" = 1'-0"
140
0.5
141
12.0
290
     0
  0
SCALE
  5
63
102
{ACAD_REACTORS
330
47
102
}
330
47
100
AcDbScale
 70
     0
300
3/4" = 1'-0"
140
0.75
141
12.0
290
     0
  0
SCALE
  5
64
102
{ACAD_REACTORS
330
47
102
}
330
47
100
AcDbScale
 70
     0
300
1" = 1'-0"
140
1.0
141
12.0
290
     0
  0
SCALE
  5
65
102
{ACAD_REACTORS
330
47
102
}
330
47
100
AcDbScale
 70
     0
300
1-1/2" = 1'-0"
140
1.5
141
12.0
290
     0
  0
SCALE
  5
66
102
{ACAD_REACTORS
330
47
102
}
330
47
100
AcDbScale
 70
     0
300
3" = 1'-0"
140
3.0
141
12.0
290
     0
  0
SCALE
  5
67
102
{ACAD_REACTORS
330
47
102
}
330
47
100
AcDbScale
 70
     0
300
6" = 1'-0"
140
6.0
141
12.0
290
     0
  0
SCALE
  5
68
102
{ACAD_REACTORS
330
47
102
}
330
47
100
AcDbScale
 70
     0
300
1'-0" = 1'-0"
140
12.0
141
12.0
290
     0
  0
TABLESTYLE
  5
6A
102
{ACAD_REACTORS
330
69
102
}
102
{ACAD_XDICTIONARY
360
23F
102
}
330
69
100
AcDbTableStyle
  3
Standard
 70
     0
 71
     0
 40
0.06
 41
0.06
280
     0
281
     0
  7
Standard
140
0.18
170
     2
 62
     0
 63
   257
283
     0
 90
        4
 91
        0
  1

274
    -2
284
     1
 64
     0
275
    -2
285
     1
 65
     0
276
    -2
286
     1
 66
     0
277
    -2
287
     1
 67
     0
278
    -2
288
     1
 68
     0
279
    -2
289
     1
 69
     0
  7
Standard
140
0.25
170
     5
 62
     0
 63
   257
283
     0
 90
        4
 91
        0
  1

274
    -2
284
     1
 64
     0
275
    -2
285
     1
 65
     0
276
    -2
286
     1
 66
     0
277
    -2
287
     1
 67
     0
278
    -2
288
     1
 68
     0
279
    -2
289
     1
 69
     0
  7
Standard
140
0.18
170
     5
 62
     0
 63
   257
283
     0
 90
        4
 91
        0
  1

274
    -2
284
     1
 64
     0
275
    -2
285
     1
 65
     0
276
    -2
286
     1
 66
     0
277
    -2
287
     1
 67
     0
278
    -2
288
     1
 68
     0
279
    -2
289
     1
 69
     0
  0
VISUALSTYLE
  5
2F
102
{ACAD_REACTORS
330
2A
102
}
330
2A
100
AcDbVisualStyle
  2
2dWireframe
 70
     4
177
     3
291
     0
 70
    58
 90
        0
176
     1
 90
        2
176
     1
 90
        0
176
     1
 90
        0
176
     1
 40
0.6
176
     1
 40
30.0
176
     1
 62
     7
420
 16777215
176
     1
 90
        1
176
     1
 90
        4
176
     1
 62
     7
176
     1
 62
   257
176
     1
 90
        1
176
     1
 90
        1
176
     1
 40
1.0
176
     1
 90
        0
176
     1
 62
   257
176
     1
 40
1.0
176
     1
 90
        1
176
     1
 90
        6
176
     1
 90
        2
176
     1
 62
     7
176
     1
 90
        5
176
     1
 90
        0
176
     1
 90
        0
176
     1
290
     0
176
     1
 90
        1
176
     1
 40
0.0
176
     1
 90
        0
176
     1
290
     1
176
     1
290
     1
176
     1
290
     0
176
     1
290
     0
176
     1
290
     0
176
     1
290
     0
176
     1
290
     0
176
     1
290
     0
176
     1
290
     0
176
     1
 90
       50
176
     1
 40
0.0
176
     1
 40
1.0
176
     1
 90
        0
176
     1
 62
    18
420
        0
176
     1
 90
       50
176
     1
 90
        3
176
     1
 62
     5
420
      255
176
     1
290
     0
176
     1
 90
       50
176
     1
 90
       50
176
     1
 90
       50
176
     1
290
     0
176
     1
 90
       50
176
     1
 62
   256
176
     0
 40
1.0
176
     0
 90
        2
176
     1
  1
strokes_ogs.tif
176
     1
290
     0
176
     1
 40
1.0
176
     1
 40
1.0
176
     1
  0
VISUALSTYLE
  5
32
102
{ACAD_REACTORS
330
2A
102
}
330
2A
100
AcDbVisualStyle
  2
Basic
 70
     7
177
     3
291
     1
 70
    58
 90
        1
176
     1
 90
        0
176
     1
 90
        1
176
     1
 90
        0
176
     1
 40
0.6
176
     1
 40
30.0
176
     1
 62
     7
420
 16777215
176
     1
 90
        0
176
     1
 90
        4
176
     1
 62
     7
176
     1
 62
   257
176
     1
 90
        1
176
     1
 90
        1
176
     1
 40
1.0
176
     1
 90
        8
176
     1
 62
     7
176
     1
 40
1.0
176
     1
 90
        1
176
     1
 90
        6
176
     1
 90
        2
176
     1
 62
     7
176
     1
 90
        5
176
     1
 90
        0
176
     1
 90
        0
176
     1
290
     0
176
     1
 90
        1
176
     1
 40
0.0
176
     1
 90
        0
176
     1
290
     0
176
     1
290
     1
176
     1
290
     1
176
     1
290
     0
176
     1
290
     0
176
     1
290
     0
176
     1
290
     0
176
     1
290
     0
176
     1
290
     0
176
     1
 90
       50
176
     1
 40
0.0
176
     1
 40
1.0
176
     1
 90
        0
176
     1
 62
    18
420
        0
176
     1
 90
       50
176
     1
 90
        3
176
     1
 62
     5
420
      255
176
     1
290
     0
176
     1
 90
       50
176
     1
 90
       50
176
     1
 90
       50
176
     1
290
     0
176
     1
 90
       50
176
     1
 62
   256
176
     0
 40
1.0
176
     0
 90
        2
176
     1
  1
strokes_ogs.tif
176
     1
290
     0
176
     1
 40
1.0
176
     1
 40
1.0
176
     1
  0
VISUALSTYLE
  5
36
102
{ACAD_REACTORS
330
2A
102
}
330
2A
100
AcDbVisualStyle
  2
Brighten
 70
    12
177
     3
291
     1
 70
    58
 90
        2
176
     1
 90
        2
176
     1
 90
        0
176
     1
 90
        0
176
     1
 40
0.6
176
     1
 40
30.0
176
     1
 62
     7
420
 16777215
176
     1
 90
        1
176
     1
 90
        4
176
     1
 62
     7
176
     1
 62
   257
176
     1
 90
        1
176
     1
 90
        1
176
     1
 40
1.0
176
     1
 90
        8
176
     1
 62
     7
176
     1
 40
1.0
176
     1
 90
        1
176
     1
 90
        6
176
     1
 90
        2
176
     1
 62
     7
176
     1
 90
        5
176
     1
 90
        0
176
     1
 90
        0
176
     1
290
     0
176
     1
 90
        1
176
     1
 40
50.0
176
     1
 90
        0
176
     1
290
     0
176
     1
290
     1
176
     1
290
     1
176
     1
290
     0
176
     1
290
     0
176
     1
290
     0
176
     1
290
     0
176
     1
290
     0
176
     1
290
     0
176
     1
 90
       50
176
     1
 40
0.0
176
     1
 40
1.0
176
     1
 90
        0
176
     1
 62
    18
420
        0
176
     1
 90
       50
176
     1
 90
        3
176
     1
 62
     5
420
      255
176
     1
290
     0
176
     1
 90
       50
176
     1
 90
       50
176
     1
 90
       50
176
     1
290
     0
176
     1
 90
       50
176
     1
 62
   256
176
     0
 40
1.0
176
     0
 90
        2
176
     1
  1
strokes_ogs.tif
176
     1
290
     0
176
     1
 40
1.0
176
     1
 40
1.0
176
     1
  0
VISUALSTYLE
  5
3A
102
{ACAD_REACTORS
330
2A
102
}
330
2A
100
AcDbVisualStyle
  2
ColorChange
 70
    16
177
     3
291
     1
 70
    58
 90
        2
176
     1
 90
        2
176
     1
 90
        3
176
     1
 90
        0
176
     1
 40
0.6
176
     1
 40
30.0
176
     1
 62
     8
420
  8421504
176
     1
 90
        1
176
     1
 90
        4
176
     1
 62
     7
176
     1
 62
   257
176
     1
 90
        1
176
     1
 90
        1
176
     1
 40
1.0
176
     1
 90
        8
176
     1
 62
     8
420
  8421504
176
     1
 40
1.0
176
     1
 90
        1
176
     1
 90
        6
176
     1
 90
        2
176
     1
 62
     7
176
     1
 90
        5
176
     1
 90
        0
176
     1
 90
        0
176
     1
290
     0
176
     1
 90
        1
176
     1
 40
0.0
176
     1
 90
        0
176
     1
290
     0
176
     1
290
     1
176
     1
290
     1
176
     1
290
     0
176
     1
290
     0
176
     1
290
     0
176
     1
290
     0
176
     1
290
     0
176
     1
290
     0
176
     1
 90
       50
176
     1
 40
0.0
176
     1
 40
1.0
176
     1
 90
        0
176
     1
 62
    18
420
        0
176
     1
 90
       50
176
     1
 90
        3
176
     1
 62
     5
420
      255
176
     1
290
     0
176
     1
 90
       50
176
     1
 90
       50
176
     1
 90
       50
176
     1
290
     0
176
     1
 90
       50
176
     1
 62
   256
176
     0
 40
1.0
176
     0
 90
        2
176
     1
  1
strokes_ogs.tif
176
     1
290
     0
176
     1
 40
1.0
176
     1
 40
1.0
176
     1
  0
VISUALSTYLE
  5
34
102
{ACAD_REACTORS
330
2A
102
}
330
2A
100
AcDbVisualStyle
  2
Conceptual
 70
     9
177
     3
291
     0
 70
    58
 90
        3
176
     1
 90
        2
176
     1
 90
        0
176
     1
 90
        0
176
     1
 40
0.6
176
     1
 40
30.0
176
     1
 62
     7
420
 16777215
176
     1
 90
        2
176
     1
 90
        2
176
     1
 62
     7
176
     1
 62
   257
176
     1
 90
        1
176
     1
 90
        1
176
     1
 40
179.0
176
     1
 90
        8
176
     1
 62
     7
176
     1
 40
1.0
176
     1
 90
        1
176
     1
 90
        6
176
     1
 90
        2
176
     1
 62
     7
176
     1
 90
        3
176
     1
 90
        0
176
     1
 90
        0
176
     1
290
     0
176
     1
 90
        1
176
     1
 40
0.0
176
     1
 90
        0
176
     1
290
     0
176
     1
290
     1
176
     1
290
     1
176
     1
290
     0
176
     1
290
     0
176
     1
290
     0
176
     1
290
     0
176
     1
290
     0
176
     1
290
     0
176
     1
 90
       50
176
     1
 40
0.0
176
     1
 40
1.0
176
     1
 90
        0
176
     1
 62
    18
420
        0
176
     1
 90
       50
176
     1
 90
        3
176
     1
 62
     5
420
      255
176
     1
290
     0
176
     1
 90
       50
176
     1
 90
       50
176
     1
 90
       50
176
     1
290
     0
176
     1
 90
       50
176
     1
 62
   256
176
     0
 40
1.0
176
     0
 90
        2
176
     1
  1
strokes_ogs.tif
176
     1
290
     0
176
     1
 40
1.0
176
     1
 40
1.0
176
     1
  0
VISUALSTYLE
  5
35
102
{ACAD_REACTORS
330
2A
102
}
330
2A
100
AcDbVisualStyle
  2
Dim
 70
    11
177
     3
291
     1
 70
    58
 90
        2
176
     1
 90
        2
176
     1
 90
        0
176
     1
 90
        0
176
     1
 40
0.6
176
     1
 40
30.0
176
     1
 62
     7
420
 16777215
176
     1
 90
        1
176
     1
 90
        4
176
     1
 62
     7
176
     1
 62
   257
176
     1
 90
        1
176
     1
 90
        1
176
     1
 40
1.0
176
     1
 90
        8
176
     1
 62
     7
176
     1
 40
1.0
176
     1
 90
        1
176
     1
 90
        6
176
     1
 90
        2
176
     1
 62
     7
176
     1
 90
        5
176
     1
 90
        0
176
     1
 90
        0
176
     1
290
     0
176
     1
 90
        1
176
     1
 40
-50.0
176
     1
 90
        0
176
     1
290
     0
176
     1
290
     1
176
     1
290
     1
176
     1
290
     0
176
     1
290
     0
176
     1
290
     0
176
     1
290
     0
176
     1
290
     0
176
     1
290
     0
176
     1
 90
       50
176
     1
 40
0.0
176
     1
 40
1.0
176
     1
 90
        0
176
     1
 62
    18
420
        0
176
     1
 90
       50
176
     1
 90
        3
176
     1
 62
     5
420
      255
176
     1
290
     0
176
     1
 90
       50
176
     1
 90
       50
176
     1
 90
       50
176
     1
290
     0
176
     1
 90
       50
176
     1
 62
   256
176
     0
 40
1.0
176
     0
 90
        2
176
     1
  1
strokes_ogs.tif
176
     1
290
     0
176
     1
 40
1.0
176
     1
 40
1.0
176
     1
  0
VISUALSTYLE
  5
3D
102
{ACAD_REACTORS
330
2A
102
}
330
2A
100
AcDbVisualStyle
  2
EdgeColorOff
 70
    22
177
     3
291
     1
 70
    58
 90
        2
176
     0
 90
        2
176
     0
 90
        0
176
     0
 90
        0
176
     0
 40
0.6
176
     0
 40
30.0
176
     0
 62
     7
420
 16777215
176
     0
 90
        1
176
     0
 90
        4
176
     0
 62
     7
176
     0
 62
   257
176
     0
 90
        1
176
     0
 90
        1
176
     0
 40
1.0
176
     0
 90
        8
176
     2
 62
     7
176
     0
 40
1.0
176
     0
 90
        1
176
     0
 90
        6
176
     0
 90
        2
176
     0
 62
     7
176
     0
 90
        5
176
     0
 90
        0
176
     0
 90
        0
176
     0
290
     0
176
     0
 90
        1
176
     0
 40
0.0
176
     0
 90
        0
176
     0
290
     0
176
     0
290
     1
176
     0
290
     1
176
     0
290
     0
176
     0
290
     0
176
     0
290
     0
176
     0
290
     0
176
     0
290
     0
176
     0
290
     0
176
     0
 90
       50
176
     0
 40
0.0
176
     0
 40
1.0
176
     0
 90
        0
176
     0
 62
    18
420
        0
176
     0
 90
       50
176
     0
 90
        3
176
     0
 62
     5
420
      255
176
     0
290
     0
176
     0
 90
       50
176
     0
 90
       50
176
     0
 90
       50
176
     0
290
     0
176
     0
 90
       50
176
     0
 62
   256
176
     0
 40
1.0
176
     0
 90
        2
176
     0
  1
strokes_ogs.tif
176
     0
290
     0
176
     0
 40
1.0
176
     0
 40
1.0
176
     0
  0
VISUALSTYLE
  5
39
102
{ACAD_REACTORS
330
2A
102
}
330
2A
100
AcDbVisualStyle
  2
Facepattern
 70
    15
177
     3
291
     1
 70
    58
 90
        2
176
     1
 90
        2
176
     1
 90
        0
176
     1
 90
        0
176
     1
 40
0.6
176
     1
 40
30.0
176
     1
 62
     7
420
 16777215
176
     1
 90
        1
176
     1
 90
        4
176
     1
 62
     7
176
     1
 62
   257
176
     1
 90
        1
176
     1
 90
        1
176
     1
 40
1.0
176
     1
 90
        8
176
     1
 62
     7
176
     1
 40
1.0
176
     1
 90
        1
176
     1
 90
        6
176
     1
 90
        2
176
     1
 62
     7
176
     1
 90
        5
176
     1
 90
        0
176
     1
 90
        0
176
     1
290
     0
176
     1
 90
        1
176
     1
 40
0.0
176
     1
 90
        0
176
     1
290
     0
176
     1
290
     1
176
     1
290
     1
176
     1
290
     0
176
     1
290
     0
176
     1
290
     0
176
     1
290
     0
176
     1
290
     0
176
     1
290
     0
176
     1
 90
       50
176
     1
 40
0.0
176
     1
 40
1.0
176
     1
 90
        0
176
     1
 62
    18
420
        0
176
     1
 90
       50
176
     1
 90
        3
176
     1
 62
     5
420
      255
176
     1
290
     0
176
     1
 90
       50
176
     1
 90
       50
176
     1
 90
       50
176
     1
290
     0
176
     1
 90
       50
176
     1
 62
   256
176
     0
 40
1.0
176
     0
 90
        2
176
     1
  1
strokes_ogs.tif
176
     1
290
     0
176
     1
 40
1.0
176
     1
 40
1.0
176
     1
  0
VISUALSTYLE
  5
2B
102
{ACAD_REACTORS
330
2A
102
}
330
2A
100
AcDbVisualStyle
  2
Flat
 70
     0
177
     3
291
     1
 70
    58
 90
        2
176
     1
 90
        1
176
     1
 90
        1
176
     1
 90
        2
176
     1
 40
0.6
176
     1
 40
30.0
176
     1
 62
     7
420
 16777215
176
     1
 90
        0
176
     1
 90
        0
176
     1
 62
     7
176
     1
 62
   257
176
     1
 90
        1
176
     1
 90
        1
176
     1
 40
1.0
176
     1
 90
        8
176
     1
 62
     7
176
     1
 40
1.0
176
     1
 90
        1
176
     1
 90
        6
176
     1
 90
        2
176
     1
 62
     7
176
     1
 90
        5
176
     1
 90
        0
176
     1
 90
        0
176
     1
290
     0
176
     1
 90
       13
176
     1
 40
0.0
176
     1
 90
        0
176
     1
290
     0
176
     1
290
     1
176
     1
290
     1
176
     1
290
     0
176
     1
290
     0
176
     1
290
     0
176
     1
290
     0
176
     1
290
     0
176
     1
290
     0
176
     1
 90
       50
176
     1
 40
0.0
176
     1
 40
1.0
176
     1
 90
        0
176
     1
 62
    18
420
        0
176
     1
 90
       50
176
     1
 90
        3
176
     1
 62
     5
420
      255
176
     1
290
     0
176
     1
 90
       50
176
     1
 90
       50
176
     1
 90
       50
176
     1
290
     0
176
     1
 90
       50
176
     1
 62
   256
176
     0
 40
1.0
176
     0
 90
        2
176
     1
  1
strokes_ogs.tif
176
     1
290
     0
176
     1
 40
1.0
176
     1
 40
1.0
176
     1
  0
VISUALSTYLE
  5
2C
102
{ACAD_REACTORS
330
2A
102
}
330
2A
100
AcDbVisualStyle
  2
FlatWithEdges
 70
     1
177
     3
291
     1
 70
    58
 90
        2
176
     1
 90
        1
176
     1
 90
        1
176
     1
 90
        2
176
     1
 40
0.6
176
     1
 40
30.0
176
     1
 62
     7
420
 16777215
176
     1
 90
        1
176
     1
 90
        0
176
     1
 62
     7
176
     1
 62
   257
176
     1
 90
        1
176
     1
 90
        1
176
     1
 40
1.0
176
     1
 90
        0
176
     1
 62
   257
176
     1
 40
1.0
176
     1
 90
        1
176
     1
 90
        6
176
     1
 90
        2
176
     1
 62
     7
176
     1
 90
        5
176
     1
 90
        0
176
     1
 90
        0
176
     1
290
     0
176
     1
 90
       13
176
     1
 40
0.0
176
     1
 90
        0
176
     1
290
     0
176
     1
290
     1
176
     1
290
     1
176
     1
290
     0
176
     1
290
     0
176
     1
290
     0
176
     1
290
     0
176
     1
290
     0
176
     1
290
     0
176
     1
 90
       50
176
     1
 40
0.0
176
     1
 40
1.0
176
     1
 90
        0
176
     1
 62
    18
420
        0
176
     1
 90
       50
176
     1
 90
        3
176
     1
 62
     5
420
      255
176
     1
290
     0
176
     1
 90
       50
176
     1
 90
       50
176
     1
 90
       50
176
     1
290
     0
176
     1
 90
       50
176
     1
 62
   256
176
     0
 40
1.0
176
     0
 90
        2
176
     1
  1
strokes_ogs.tif
176
     1
290
     0
176
     1
 40
1.0
176
     1
 40
1.0
176
     1
  0
VISUALSTYLE
  5
2D
102
{ACAD_REACTORS
330
2A
102
}
330
2A
100
AcDbVisualStyle
  2
Gouraud
 70
     2
177
     3
291
     1
 70
    58
 90
        2
176
     1
 90
        2
176
     1
 90
        1
176
     1
 90
        2
176
     1
 40
0.6
176
     1
 40
30.0
176
     1
 62
     7
420
 16777215
176
     1
 90
        0
176
     1
 90
        0
176
     1
 62
     7
176
     1
 62
   257
176
     1
 90
        1
176
     1
 90
        1
176
     1
 40
1.0
176
     1
 90
        0
176
     1
 62
     7
176
     1
 40
1.0
176
     1
 90
        1
176
     1
 90
        6
176
     1
 90
        2
176
     1
 62
     7
176
     1
 90
        5
176
     1
 90
        0
176
     1
 90
        0
176
     1
290
     0
176
     1
 90
       13
176
     1
 40
0.0
176
     1
 90
        0
176
     1
290
     0
176
     1
290
     1
176
     1
290
     1
176
     1
290
     0
176
     1
290
     0
176
     1
290
     0
176
     1
290
     0
176
     1
290
     0
176
     1
290
     0
176
     1
 90
       50
176
     1
 40
0.0
176
     1
 40
1.0
176
     1
 90
        0
176
     1
 62
    18
420
        0
176
     1
 90
       50
176
     1
 90
        3
176
     1
 62
     5
420
      255
176
     1
290
     0
176
     1
 90
       50
176
     1
 90
       50
176
     1
 90
       50
176
     1
290
     0
176
     1
 90
       50
176
     1
 62
   256
176
     0
 40
1.0
176
     0
 90
        2
176
     1
  1
strokes_ogs.tif
176
     1
290
     0
176
     1
 40
1.0
176
     1
 40
1.0
176
     1
  0
VISUALSTYLE
  5
2E
102
{ACAD_REACTORS
330
2A
102
}
330
2A
100
AcDbVisualStyle
  2
GouraudWithEdges
 70
     3
177
     3
291
     1
 70
    58
 90
        2
176
     1
 90
        2
176
     1
 90
        1
176
     1
 90
        2
176
     1
 40
0.6
176
     1
 40
30.0
176
     1
 62
     7
420
 16777215
176
     1
 90
        1
176
     1
 90
        0
176
     1
 62
     7
176
     1
 62
   257
176
     1
 90
        1
176
     1
 90
        1
176
     1
 40
1.0
176
     1
 90
        0
176
     1
 62
   257
176
     1
 40
1.0
176
     1
 90
        1
176
     1
 90
        6
176
     1
 90
        2
176
     1
 62
     7
176
     1
 90
        5
176
     1
 90
        0
176
     1
 90
        0
176
     1
290
     0
176
     1
 90
       13
176
     1
 40
0.0
176
     1
 90
        0
176
     1
290
     0
176
     1
290
     1
176
     1
290
     1
176
     1
290
     0
176
     1
290
     0
176
     1
290
     0
176
     1
290
     0
176
     1
290
     0
176
     1
290
     0
176
     1
 90
       50
176
     1
 40
0.0
176
     1
 40
1.0
176
     1
 90
        0
176
     1
 62
    18
420
        0
176
     1
 90
       50
176
     1
 90
        3
176
     1
 62
     5
420
      255
176
     1
290
     0
176
     1
 90
       50
176
     1
 90
       50
176
     1
 90
       50
176
     1
290
     0
176
     1
 90
       50
176
     1
 62
   256
176
     0
 40
1.0
176
     0
 90
        2
176
     1
  1
strokes_ogs.tif
176
     1
290
     0
176
     1
 40
1.0
176
     1
 40
1.0
176
     1
  0
VISUALSTYLE
  5
31
102
{ACAD_REACTORS
330
2A
102
}
330
2A
100
AcDbVisualStyle
  2
Hidden
 70
     6
177
     3
291
     0
 70
    58
 90
        1
176
     1
 90
        2
176
     1
 90
        2
176
     1
 90
        0
176
     1
 40
0.6
176
     1
 40
30.0
176
     1
 62
     7
420
 16777215
176
     1
 90
        2
176
     1
 90
        2
176
     1
 62
     7
176
     1
 62
   257
176
     1
 90
        2
176
     1
 90
        1
176
     1
 40
40.0
176
     1
 90
        0
176
     1
 62
   257
176
     1
 40
1.0
176
     1
 90
        1
176
     1
 90
        6
176
     1
 90
        2
176
     1
 62
     7
176
     1
 90
        3
176
     1
 90
        0
176
     1
 90
        0
176
     1
290
     0
176
     1
 90
        1
176
     1
 40
0.0
176
     1
 90
        0
176
     1
290
     0
176
     1
290
     1
176
     1
290
     1
176
     1
290
     0
176
     1
290
     0
176
     1
290
     0
176
     1
290
     0
176
     1
290
     0
176
     1
290
     0
176
     1
 90
       50
176
     1
 40
0.0
176
     1
 40
1.0
176
     1
 90
        0
176
     1
 62
    18
420
        0
176
     1
 90
       50
176
     1
 90
        3
176
     1
 62
     5
420
      255
176
     1
290
     0
176
     1
 90
       50
176
     1
 90
       50
176
     1
 90
       50
176
     1
290
     0
176
     1
 90
       50
176
     1
 62
   256
176
     0
 40
1.0
176
     0
 90
        2
176
     1
  1
strokes_ogs.tif
176
     1
290
     0
176
     1
 40
1.0
176
     1
 40
1.0
176
     1
  0
VISUALSTYLE
  5
3B
102
{ACAD_REACTORS
330
2A
102
}
330
2A
100
AcDbVisualStyle
  2
JitterOff
 70
    20
177
     3
291
     1
 70
    58
 90
        2
176
     0
 90
        2
176
     0
 90
        0
176
     0
 90
        0
176
     0
 40
0.6
176
     0
 40
30.0
176
     0
 62
     7
420
 16777215
176
     0
 90
        1
176
     0
 90
        4
176
     0
 62
     7
176
     0
 62
   257
176
     0
 90
        1
176
     0
 90
        1
176
     0
 40
1.0
176
     0
 90
       10
176
     2
 62
     7
176
     0
 40
1.0
176
     0
 90
        1
176
     0
 90
        6
176
     0
 90
        2
176
     0
 62
     7
176
     0
 90
        5
176
     0
 90
        0
176
     0
 90
        0
176
     0
290
     0
176
     0
 90
        1
176
     0
 40
0.0
176
     0
 90
        0
176
     0
290
     0
176
     0
290
     1
176
     0
290
     1
176
     0
290
     0
176
     0
290
     0
176
     0
290
     0
176
     0
290
     0
176
     0
290
     0
176
     0
290
     0
176
     0
 90
       50
176
     0
 40
0.0
176
     0
 40
1.0
176
     0
 90
        0
176
     0
 62
    18
420
        0
176
     0
 90
       50
176
     0
 90
        3
176
     0
 62
     5
420
      255
176
     0
290
     0
176
     0
 90
       50
176
     0
 90
       50
176
     0
 90
       50
176
     0
290
     0
176
     0
 90
       50
176
     0
 62
   256
176
     0
 40
1.0
176
     0
 90
        2
176
     0
  1
strokes_ogs.tif
176
     0
290
     0
176
     0
 40
1.0
176
     0
 40
1.0
176
     0
  0
VISUALSTYLE
  5
38
102
{ACAD_REACTORS
330
2A
102
}
330
2A
100
AcDbVisualStyle
  2
Linepattern
 70
    14
177
     3
291
     1
 70
    58
 90
        2
176
     1
 90
        2
176
     1
 90
        0
176
     1
 90
        0
176
     1
 40
0.6
176
     1
 40
30.0
176
     1
 62
     7
420
 16777215
176
     1
 90
        1
176
     1
 90
        4
176
     1
 62
     7
176
     1
 62
   257
176
     1
 90
        7
176
     1
 90
        7
176
     1
 40
1.0
176
     1
 90
        8
176
     1
 62
     7
176
     1
 40
1.0
176
     1
 90
        1
176
     1
 90
        6
176
     1
 90
        2
176
     1
 62
     7
176
     1
 90
        5
176
     1
 90
        0
176
     1
 90
        0
176
     1
290
     0
176
     1
 90
        1
176
     1
 40
0.0
176
     1
 90
        0
176
     1
290
     0
176
     1
290
     1
176
     1
290
     1
176
     1
290
     0
176
     1
290
     0
176
     1
290
     0
176
     1
290
     0
176
     1
290
     0
176
     1
290
     0
176
     1
 90
       50
176
     1
 40
0.0
176
     1
 40
1.0
176
     1
 90
        0
176
     1
 62
    18
420
        0
176
     1
 90
       50
176
     1
 90
        3
176
     1
 62
     5
420
      255
176
     1
290
     0
176
     1
 90
       50
176
     1
 90
       50
176
     1
 90
       50
176
     1
290
     0
176
     1
 90
       50
176
     1
 62
   256
176
     0
 40
1.0
176
     0
 90
        2
176
     1
  1
strokes_ogs.tif
176
     1
290
     0
176
     1
 40
1.0
176
     1
 40
1.0
176
     1
  0
VISUALSTYLE
  5
3C
102
{ACAD_REACTORS
330
2A
102
}
330
2A
100
AcDbVisualStyle
  2
OverhangOff
 70
    21
177
     3
291
     1
 70
    58
 90
        2
176
     0
 90
        2
176
     0
 90
        0
176
     0
 90
        0
176
     0
 40
0.6
176
     0
 40
30.0
176
     0
 62
     7
420
 16777215
176
     0
 90
        1
176
     0
 90
        4
176
     0
 62
     7
176
     0
 62
   257
176
     0
 90
        1
176
     0
 90
        1
176
     0
 40
1.0
176
     0
 90
        9
176
     2
 62
     7
176
     0
 40
1.0
176
     0
 90
        1
176
     0
 90
        6
176
     0
 90
        2
176
     0
 62
     7
176
     0
 90
        5
176
     0
 90
        0
176
     0
 90
        0
176
     0
290
     0
176
     0
 90
        1
176
     0
 40
0.0
176
     0
 90
        0
176
     0
290
     0
176
     0
290
     1
176
     0
290
     1
176
     0
290
     0
176
     0
290
     0
176
     0
290
     0
176
     0
290
     0
176
     0
290
     0
176
     0
290
     0
176
     0
 90
       50
176
     0
 40
0.0
176
     0
 40
1.0
176
     0
 90
        0
176
     0
 62
    18
420
        0
176
     0
 90
       50
176
     0
 90
        3
176
     0
 62
     5
420
      255
176
     0
290
     0
176
     0
 90
       50
176
     0
 90
       50
176
     0
 90
       50
176
     0
290
     0
176
     0
 90
       50
176
     0
 62
   256
176
     0
 40
1.0
176
     0
 90
        2
176
     0
  1
strokes_ogs.tif
176
     0
290
     0
176
     0
 40
1.0
176
     0
 40
1.0
176
     0
  0
VISUALSTYLE
  5
33
102
{ACAD_REACTORS
330
2A
102
}
330
2A
100
AcDbVisualStyle
  2
Realistic
 70
     8
177
     3
291
     0
 70
    58
 90
        2
176
     1
 90
        3
176
     1
 90
        0
176
     1
 90
        2
176
     1
 40
0.6
176
     1
 40
30.0
176
     1
 62
     7
420
 16777215
176
     1
 90
        0
176
     1
 90
        0
176
     1
 62
     7
176
     1
 62
   257
176
     1
 90
        1
176
     1
 90
        1
176
     1
 40
1.0
176
     1
 90
        8
176
     1
 62
   257
176
     1
 40
1.0
176
     1
 90
        1
176
     1
 90
        6
176
     1
 90
        2
176
     1
 62
     7
176
     1
 90
        3
176
     1
 90
        0
176
     1
 90
        0
176
     1
290
     0
176
     1
 90
       13
176
     1
 40
0.0
176
     1
 90
        0
176
     1
290
     0
176
     1
290
     1
176
     1
290
     1
176
     1
290
     0
176
     1
290
     0
176
     1
290
     0
176
     1
290
     0
176
     1
290
     0
176
     1
290
     0
176
     1
 90
       50
176
     1
 40
0.0
176
     1
 40
1.0
176
     1
 90
        0
176
     1
 62
    18
420
        0
176
     1
 90
       50
176
     1
 90
        3
176
     1
 62
     5
420
      255
176
     1
290
     0
176
     1
 90
       50
176
     1
 90
       50
176
     1
 90
       50
176
     1
290
     0
176
     1
 90
       50
176
     1
 62
   256
176
     0
 40
1.0
176
     0
 90
        2
176
     1
  1
strokes_ogs.tif
176
     1
290
     0
176
     1
 40
1.0
176
     1
 40
1.0
176
     1
  0
VISUALSTYLE
  5
42
102
{ACAD_REACTORS
330
2A
102
}
330
2A
100
AcDbVisualStyle
  2
Shaded
 70
    27
177
     3
291
     0
 70
    58
 90
        2
176
     1
 90
        2
176
     1
 90
        1
176
     1
 90
        2
176
     1
 40
0.6
176
     1
 40
30.0
176
     1
 62
     7
420
 16777215
176
     1
 90
        0
176
     1
 90
        4
176
     1
 62
     7
176
     1
 62
   257
176
     1
 90
        1
176
     1
 90
        1
176
     1
 40
1.0
176
     1
 90
        8
176
     1
 62
   257
176
     1
 40
1.0
176
     1
 90
        1
176
     1
 90
        6
176
     1
 90
        2
176
     1
 62
     8
420
  7895160
176
     1
 90
        3
176
     1
 90
        0
176
     1
 90
        0
176
     1
290
     0
176
     1
 90
        5
176
     1
 40
0.0
176
     1
 90
        0
176
     1
290
     0
176
     1
290
     1
176
     1
290
     1
176
     1
290
     0
176
     1
290
     0
176
     1
290
     0
176
     1
290
     0
176
     1
290
     0
176
     1
290
     0
176
     1
 90
       50
176
     1
 40
0.0
176
     1
 40
1.0
176
     1
 90
        0
176
     1
 62
    18
420
        0
176
     1
 90
       50
176
     1
 90
        3
176
     1
 62
     5
420
      255
176
     1
290
     0
176
     1
 90
       50
176
     1
 90
       50
176
     1
 90
       50
176
     1
290
     0
176
     1
 90
       50
176
     1
 62
   256
176
     0
 40
1.0
176
     0
 90
        2
176
     1
  1
strokes_ogs.tif
176
     1
290
     0
176
     1
 40
1.0
176
     1
 40
1.0
176
     1
  0
VISUALSTYLE
  5
41
102
{ACAD_REACTORS
330
2A
102
}
330
2A
100
AcDbVisualStyle
  2
Shaded with edges
 70
    26
177
     3
291
     0
 70
    58
 90
        2
176
     1
 90
        2
176
     1
 90
        1
176
     1
 90
        2
176
     1
 40
0.6
176
     1
 40
30.0
176
     1
 62
     7
420
 16777215
176
     1
 90
        1
176
     1
 90
       10
176
     1
 62
     7
176
     1
 62
   257
176
     1
 90
        2
176
     1
 90
        1
176
     1
 40
1.0
176
     1
 90
        8
176
     1
 62
   257
176
     1
 40
1.0
176
     1
 90
        1
176
     1
 90
        6
176
     1
 90
        2
176
     1
 62
     7
176
     1
 90
        3
176
     1
 90
        0
176
     1
 90
        0
176
     1
290
     0
176
     1
 90
        5
176
     1
 40
0.0
176
     1
 90
        0
176
     1
290
     0
176
     1
290
     1
176
     1
290
     1
176
     1
290
     0
176
     1
290
     0
176
     1
290
     0
176
     1
290
     0
176
     1
290
     0
176
     1
290
     0
176
     1
 90
       50
176
     1
 40
0.0
176
     1
 40
1.0
176
     1
 90
        0
176
     1
 62
    18
420
        0
176
     1
 90
       50
176
     1
 90
        3
176
     1
 62
     5
420
      255
176
     1
290
     0
176
     1
 90
       50
176
     1
 90
       50
176
     1
 90
       50
176
     1
290
     0
176
     1
 90
       50
176
     1
 62
   256
176
     0
 40
1.0
176
     0
 90
        2
176
     1
  1
strokes_ogs.tif
176
     1
290
     0
176
     1
 40
1.0
176
     1
 40
1.0
176
     1
  0
VISUALSTYLE
  5
3E
102
{ACAD_REACTORS
330
2A
102
}
330
2A
100
AcDbVisualStyle
  2
Shades of Gray
 70
    23
177
     3
291
     0
 70
    58
 90
        2
176
     1
 90
        2
176
     1
 90
        3
176
     1
 90
        0
176
     1
 40
0.6
176
     1
 40
30.0
176
     1
 62
     7
420
 16777215
176
     1
 90
        2
176
     1
 90
        2
176
     1
 62
     7
176
     1
 62
     7
176
     1
 90
        1
176
     1
 90
        1
176
     1
 40
40.0
176
     1
 90
        8
176
     1
 62
     7
176
     1
 40
1.0
176
     1
 90
        1
176
     1
 90
        6
176
     1
 90
        2
176
     1
 62
     7
176
     1
 90
        3
176
     1
 90
        0
176
     1
 90
        0
176
     1
290
     0
176
     1
 90
        1
176
     1
 40
0.0
176
     1
 90
        0
176
     1
290
     0
176
     1
290
     1
176
     1
290
     1
176
     1
290
     0
176
     1
290
     0
176
     1
290
     0
176
     1
290
     0
176
     1
290
     0
176
     1
290
     0
176
     1
 90
       50
176
     1
 40
0.0
176
     1
 40
1.0
176
     1
 90
        0
176
     1
 62
    18
420
        0
176
     1
 90
       50
176
     1
 90
        3
176
     1
 62
     5
420
      255
176
     1
290
     0
176
     1
 90
       50
176
     1
 90
       50
176
     1
 90
       50
176
     1
290
     0
176
     1
 90
       50
176
     1
 62
   256
176
     0
 40
1.0
176
     0
 90
        2
176
     1
  1
strokes_ogs.tif
176
     1
290
     0
176
     1
 40
1.0
176
     1
 40
1.0
176
     1
  0
VISUALSTYLE
  5
3F
102
{ACAD_REACTORS
330
2A
102
}
330
2A
100
AcDbVisualStyle
  2
Sketchy
 70
    24
177
     3
291
     0
 70
    58
 90
        1
176
     1
 90
        2
176
     1
 90
        2
176
     1
 90
        0
176
     1
 40
0.6
176
     1
 40
30.0
176
     1
 62
     7
420
 16777215
176
     1
 90
        2
176
     1
 90
        2
176
     1
 62
     7
176
     1
 62
     7
176
     1
 90
        1
176
     1
 90
        1
176
     1
 40
40.0
176
     1
 90
       11
176
     1
 62
     7
176
     1
 40
1.0
176
     1
 90
        1
176
     1
 90
        6
176
     1
 90
        2
176
     1
 62
     7
176
     1
 90
        6
176
     1
 90
        0
176
     1
 90
        0
176
     1
290
     0
176
     1
 90
        1
176
     1
 40
0.0
176
     1
 90
        0
176
     1
290
     0
176
     1
290
     1
176
     1
290
     1
176
     1
290
     0
176
     1
290
     0
176
     1
290
     0
176
     1
290
     0
176
     1
290
     0
176
     1
290
     0
176
     1
 90
       50
176
     1
 40
0.0
176
     1
 40
1.0
176
     1
 90
        0
176
     1
 62
    18
420
        0
176
     1
 90
       50
176
     1
 90
        3
176
     1
 62
     5
420
      255
176
     1
290
     0
176
     1
 90
       50
176
     1
 90
       50
176
     1
 90
       50
176
     1
290
     0
176
     1
 90
       50
176
     1
 62
   256
176
     0
 40
1.0
176
     0
 90
        2
176
     1
  1
strokes_ogs.tif
176
     1
290
     0
176
     1
 40
1.0
176
     1
 40
1.0
176
     1
  0
VISUALSTYLE
  5
37
102
{ACAD_REACTORS
330
2A
102
}
330
2A
100
AcDbVisualStyle
  2
Thicken
 70
    13
177
     3
291
     1
 70
    58
 90
        2
176
     1
 90
        2
176
     1
 90
        0
176
     1
 90
        0
176
     1
 40
0.6
176
     1
 40
30.0
176
     1
 62
     7
420
 16777215
176
     1
 90
        1
176
     1
 90
        4
176
     1
 62
     7
176
     1
 62
   257
176
     1
 90
        1
176
     1
 90
        1
176
     1
 40
1.0
176
     1
 90
       12
176
     1
 62
     7
176
     1
 40
1.0
176
     1
 90
        1
176
     1
 90
        6
176
     1
 90
        2
176
     1
 62
     7
176
     1
 90
        5
176
     1
 90
        0
176
     1
 90
        0
176
     1
290
     0
176
     1
 90
        1
176
     1
 40
0.0
176
     1
 90
        0
176
     1
290
     0
176
     1
290
     1
176
     1
290
     1
176
     1
290
     0
176
     1
290
     0
176
     1
290
     0
176
     1
290
     0
176
     1
290
     0
176
     1
290
     0
176
     1
 90
       50
176
     1
 40
0.0
176
     1
 40
1.0
176
     1
 90
        0
176
     1
 62
    18
420
        0
176
     1
 90
       50
176
     1
 90
        3
176
     1
 62
     5
420
      255
176
     1
290
     0
176
     1
 90
       50
176
     1
 90
       50
176
     1
 90
       50
176
     1
290
     0
176
     1
 90
       50
176
     1
 62
   256
176
     0
 40
1.0
176
     0
 90
        2
176
     1
  1
strokes_ogs.tif
176
     1
290
     0
176
     1
 40
1.0
176
     1
 40
1.0
176
     1
  0
VISUALSTYLE
  5
30
102
{ACAD_REACTORS
330
2A
102
}
330
2A
100
AcDbVisualStyle
  2
Wireframe
 70
     5
177
     3
291
     0
 70
    58
 90
        0
176
     1
 90
        2
176
     1
 90
        0
176
     1
 90
        0
176
     1
 40
0.6
176
     1
 40
30.0
176
     1
 62
     7
420
 16777215
176
     1
 90
        1
176
     1
 90
        4
176
     1
 62
     7
176
     1
 62
   257
176
     1
 90
        1
176
     1
 90
        1
176
     1
 40
1.0
176
     1
 90
        0
176
     1
 62
   257
176
     1
 40
1.0
176
     1
 90
        1
176
     1
 90
        6
176
     1
 90
        2
176
     1
 62
     7
176
     1
 90
        3
176
     1
 90
        0
176
     1
 90
        0
176
     1
290
     0
176
     1
 90
        1
176
     1
 40
0.0
176
     1
 90
        0
176
     1
290
     0
176
     1
290
     1
176
     1
290
     1
176
     1
290
     0
176
     1
290
     0
176
     1
290
     0
176
     1
290
     0
176
     1
290
     0
176
     1
290
     0
176
     1
 90
       50
176
     1
 40
0.0
176
     1
 40
1.0
176
     1
 90
        0
176
     1
 62
    18
420
        0
176
     1
 90
       50
176
     1
 90
        3
176
     1
 62
     5
420
      255
176
     1
290
     0
176
     1
 90
       50
176
     1
 90
       50
176
     1
 90
       50
176
     1
290
     0
176
     1
 90
       50
176
     1
 62
   256
176
     0
 40
1.0
176
     0
 90
        2
176
     1
  1
strokes_ogs.tif
176
     1
290
     0
176
     1
 40
1.0
176
     1
 40
1.0
176
     1
  0
VISUALSTYLE
  5
40
102
{ACAD_REACTORS
330
2A
102
}
330
2A
100
AcDbVisualStyle
  2
X-Ray
 70
    25
177
     3
291
     0
 70
    58
 90
        2
176
     1
 90
        2
176
     1
 90
        1
176
     1
 90
        1
176
     1
 40
0.5
176
     1
 40
30.0
176
     1
 62
     7
420
 16777215
176
     1
 90
        1
176
     1
 90
        0
176
     1
 62
     7
176
     1
 62
   257
176
     1
 90
        1
176
     1
 90
        1
176
     1
 40
1.0
176
     1
 90
        8
176
     1
 62
     7
176
     1
 40
1.0
176
     1
 90
        1
176
     1
 90
        6
176
     1
 90
        2
176
     1
 62
     7
176
     1
 90
        3
176
     1
 90
        0
176
     1
 90
        0
176
     1
290
     0
176
     1
 90
       13
176
     1
 40
0.0
176
     1
 90
        0
176
     1
290
     0
176
     1
290
     1
176
     1
290
     1
176
     1
290
     0
176
     1
290
     0
176
     1
290
     0
176
     1
290
     0
176
     1
290
     0
176
     1
290
     0
176
     1
 90
       50
176
     1
 40
0.0
176
     1
 40
1.0
176
     1
 90
        0
176
     1
 62
    18
420
        0
176
     1
 90
       50
176
     1
 90
        3
176
     1
 62
     5
420
      255
176
     1
290
     0
176
     1
 90
       50
176
     1
 90
       50
176
     1
 90
       50
176
     1
290
     0
176
     1
 90
       50
176
     1
 62
   256
176
     0
 40
1.0
176
     0
 90
        2
176
     1
  1
strokes_ogs.tif
176
     1
290
     0
176
     1
 40
1.0
176
     1
 40
1.0
176
     1
  0
DICTIONARYVAR
  5
23E
102
{ACAD_REACTORS
330
23D
102
}
330
23D
100
DictionaryVariables
280
     0
  1
1:1
  0
DICTIONARYVAR
  5
243
102
{ACAD_REACTORS
330
23D
102
}
330
23D
100
DictionaryVariables
280
     0
  1
Standard
  0
DICTIONARYVAR
  5
242
102
{ACAD_REACTORS
330
23D
102
}
330
23D
100
DictionaryVariables
280
     0
  1
Standard
  0
DICTIONARY
  5
23F
330
6A
100
AcDbDictionary
280
     1
281
     1
  3
ACAD_ROUNDTRIP_2008_TABLESTYLE_CELLSTYLEMAP
360
240
  0
CELLSTYLEMAP
  5
240
102
{ACAD_REACTORS
330
23F
102
}
330
23F
100
AcDbCellStyleMap
 90
        3
300
CELLSTYLE
  1
TABLEFORMAT_BEGIN
 90
        5
170
     1
 91
        0
 92
    32768
 62
   257
 93
        1
300
CONTENTFORMAT
  1
CONTENTFORMAT_BEGIN
 90
        0
 91
        0
 92
        4
 93
        0
300

 40
0.0
140
1.0
 94
        5
 62
     0
340
11
144
0.25
309
CONTENTFORMAT_END
171
     1
301
MARGIN
  1
CELLMARGIN_BEGIN
 40
0.06
 40
0.06
 40
0.06
 40
0.06
 40
0.06
 40
0.06
309
CELLMARGIN_END
 94
        6
 95
        1
302
GRIDFORMAT
  1
GRIDFORMAT_BEGIN
 90
        0
 91
        1
 62
     0
 92
       -2
340
14
 93
        0
 40
0.045
309
GRIDFORMAT_END
 95
        2
302
GRIDFORMAT
  1
GRIDFORMAT_BEGIN
 90
        0
 91
        1
 62
     0
 92
       -2
340
14
 93
        0
 40
0.045
309
GRIDFORMAT_END
 95
        4
302
GRIDFORMAT
  1
GRIDFORMAT_BEGIN
 90
        0
 91
        1
 62
     0
 92
       -2
340
14
 93
        0
 40
0.045
309
GRIDFORMAT_END
 95
        8
302
GRIDFORMAT
  1
GRIDFORMAT_BEGIN
 90
        0
 91
        1
 62
     0
 92
       -2
340
14
 93
        0
 40
0.045
309
GRIDFORMAT_END
 95
       16
302
GRIDFORMAT
  1
GRIDFORMAT_BEGIN
 90
        0
 91
        1
 62
     0
 92
       -2
340
14
 93
        0
 40
0.045
309
GRIDFORMAT_END
 95
       32
302
GRIDFORMAT
  1
GRIDFORMAT_BEGIN
 90
        0
 91
        1
 62
     0
 92
       -2
340
14
 93
        0
 40
0.045
309
GRIDFORMAT_END
309
TABLEFORMAT_END
  1
CELLSTYLE_BEGIN
 90
        1
 91
        1
300
_TITLE
309
CELLSTYLE_END
300
CELLSTYLE
  1
TABLEFORMAT_BEGIN
 90
        5
170
     1
 91
        0
 92
        0
 62
   257
 93
        1
300
CONTENTFORMAT
  1
CONTENTFORMAT_BEGIN
 90
        0
 91
        0
 92
        4
 93
        0
300

 40
0.0
140
1.0
 94
        5
 62
     0
340
11
144
0.18
309
CONTENTFORMAT_END
171
     1
301
MARGIN
  1
CELLMARGIN_BEGIN
 40
0.06
 40
0.06
 40
0.06
 40
0.06
 40
0.06
 40
0.06
309
CELLMARGIN_END
 94
        6
 95
        1
302
GRIDFORMAT
  1
GRIDFORMAT_BEGIN
 90
        0
 91
        1
 62
     0
 92
       -2
340
14
 93
        0
 40
0.045
309
GRIDFORMAT_END
 95
        2
302
GRIDFORMAT
  1
GRIDFORMAT_BEGIN
 90
        0
 91
        1
 62
     0
 92
       -2
340
14
 93
        0
 40
0.045
309
GRIDFORMAT_END
 95
        4
302
GRIDFORMAT
  1
GRIDFORMAT_BEGIN
 90
        0
 91
        1
 62
     0
 92
       -2
340
14
 93
        0
 40
0.045
309
GRIDFORMAT_END
 95
        8
302
GRIDFORMAT
  1
GRIDFORMAT_BEGIN
 90
        0
 91
        1
 62
     0
 92
       -2
340
14
 93
        0
 40
0.045
309
GRIDFORMAT_END
 95
       16
302
GRIDFORMAT
  1
GRIDFORMAT_BEGIN
 90
        0
 91
        1
 62
     0
 92
       -2
340
14
 93
        0
 40
0.045
309
GRIDFORMAT_END
 95
       32
302
GRIDFORMAT
  1
GRIDFORMAT_BEGIN
 90
        0
 91
        1
 62
     0
 92
       -2
340
14
 93
        0
 40
0.045
309
GRIDFORMAT_END
309
TABLEFORMAT_END
  1
CELLSTYLE_BEGIN
 90
        2
 91
        1
300
_HEADER
309
CELLSTYLE_END
300
CELLSTYLE
  1
TABLEFORMAT_BEGIN
 90
        5
170
     1
 91
        0
 92
        0
 62
   257
 93
        1
300
CONTENTFORMAT
  1
CONTENTFORMAT_BEGIN
 90
        0
 91
        0
 92
        4
 93
        0
300

 40
0.0
140
1.0
 94
        2
 62
     0
340
11
144
0.18
309
CONTENTFORMAT_END
171
     1
301
MARGIN
  1
CELLMARGIN_BEGIN
 40
0.06
 40
0.06
 40
0.06
 40
0.06
 40
0.06
 40
0.06
309
CELLMARGIN_END
 94
        6
 95
        1
302
GRIDFORMAT
  1
GRIDFORMAT_BEGIN
 90
        0
 91
        1
 62
     0
 92
       -2
340
14
 93
        0
 40
0.045
309
GRIDFORMAT_END
 95
        2
302
GRIDFORMAT
  1
GRIDFORMAT_BEGIN
 90
        0
 91
        1
 62
     0
 92
       -2
340
14
 93
        0
 40
0.045
309
GRIDFORMAT_END
 95
        4
302
GRIDFORMAT
  1
GRIDFORMAT_BEGIN
 90
        0
 91
        1
 62
     0
 92
       -2
340
14
 93
        0
 40
0.045
309
GRIDFORMAT_END
 95
        8
302
GRIDFORMAT
  1
GRIDFORMAT_BEGIN
 90
        0
 91
        1
 62
     0
 92
       -2
340
14
 93
        0
 40
0.045
309
GRIDFORMAT_END
 95
       16
302
GRIDFORMAT
  1
GRIDFORMAT_BEGIN
 90
        0
 91
        1
 62
     0
 92
       -2
340
14
 93
        0
 40
0.045
309
GRIDFORMAT_END
 95
       32
302
GRIDFORMAT
  1
GRIDFORMAT_BEGIN
 90
        0
 91
        1
 62
     0
 92
       -2
340
14
 93
        0
 40
0.045
309
GRIDFORMAT_END
309
TABLEFORMAT_END
  1
CELLSTYLE_BEGIN
 90
        3
 91
        2
300
_DATA
309
CELLSTYLE_END
  0
ENDSEC
  0
EOF