0
SECTION
  2
HEADER
  9
$ACADVER
  1
AC1027
  9
$ACADMAINTVER
 70
     8
  9
$DWGCODEPAGE
  3
ANSI_1252
  9
$REQUIREDVERSIONS
160
                 0
  9
$COMMENTS
  1
File was created by Cadenas
  9
$CUSTOMPROPERTYTAG
  1
NN
  9
$CUSTOMPROPERTY
  1
Imperial - IP Pillow Block with Type E Dimensions 2-1/4 thru 7 inch 4-Bolt Trident Seal Expansion
  9
$CUSTOMPROPERTYTAG
  1
NT
  9
$CUSTOMPROPERTY
  1
Imperial/E 4 Bolt Piliow Block Bearings
  9
$CUSTOMPROPERTYTAG
  1
NB
  9
$CUSTOMPROPERTY
  1
071215
  9
$CUSTOMPROPERTYTAG
  1
NBSYN
  9
$CUSTOMPROPERTY
  1
$PN.
  9
$CUSTOMPROPERTYTAG
  1
LINA
  9
$CUSTOMPROPERTY
  1
071215
  9
$CUSTOMPROPERTYTAG
  1
SS
  9
$CUSTOMPROPERTY
  1
3-15/16
  9
$CUSTOMPROPERTYTAG
  1
TYPE
  9
$CUSTOMPROPERTY
  1
Non-Expansion
  9
$CUSTOMPROPERTYTAG
  1
PN
  9
$CUSTOMPROPERTY
  1
071215
  9
$CUSTOMPROPERTYTAG
  1
DESCRIPTION
  9
$CUSTOMPROPERTY
  1
EP4B-IP-315R
  9
$CUSTOMPROPERTYTAG
  1
ST
  9
$CUSTOMPROPERTY
  1
Contact Seal
  9
$CUSTOMPROPERTYTAG
  1
A
  9
$CUSTOMPROPERTY
  1
4.7
  9
$CUSTOMPROPERTYTAG
  1
B
  9
$CUSTOMPROPERTY
  1
15.25
  9
$CUSTOMPROPERTYTAG
  1
C
  9
$CUSTOMPROPERTY
  1
4.5
  9
$CUSTOMPROPERTYTAG
  1
DMIN
  9
$CUSTOMPROPERTY
  1
12.25
  9
$CUSTOMPROPERTYTAG
  1
DMAX
  9
$CUSTOMPROPERTY
  1
12.75
  9
$CUSTOMPROPERTYTAG
  1
E
  9
$CUSTOMPROPERTY
  1
2.25
  9
$CUSTOMPROPERTYTAG
  1
F
  9
$CUSTOMPROPERTY
  1
3/4
  9
$CUSTOMPROPERTYTAG
  1
G
  9
$CUSTOMPROPERTY
  1
1.13
  9
$CUSTOMPROPERTYTAG
  1
H
  9
$CUSTOMPROPERTY
  1
2.44
  9
$CUSTOMPROPERTYTAG
  1
J
  9
$CUSTOMPROPERTY
  1
8.7
  9
$CUSTOMPROPERTYTAG
  1
L
  9
$CUSTOMPROPERTY
  1
5.56
  9
$CUSTOMPROPERTYTAG
  1
M
  9
$CUSTOMPROPERTY
  1
4.25
  9
$CUSTOMPROPERTYTAG
  1
R
  9
$CUSTOMPROPERTY
  1
1.35
  9
$CUSTOMPROPERTYTAG
  1
S
  9
$CUSTOMPROPERTY
  1
3.35
  9
$CUSTOMPROPERTYTAG
  1
X
  9
$CUSTOMPROPERTY
  1
0.31
  9
$CUSTOMPROPERTYTAG
  1
Y
  9
$CUSTOMPROPERTY
  1
0.025
  9
$CUSTOMPROPERTYTAG
  1
Z
  9
$CUSTOMPROPERTY
  1
4.5
  9
$CUSTOMPROPERTYTAG
  1
COMPANY
  9
$CUSTOMPROPERTY
  1
baldor
  9
$INSBASE
 10
0.0
 20
0.0
 30
0.0
  9
$EXTMIN
 10
1.000000000000000E+20
 20
1.000000000000000E+20
 30
1.000000000000000E+20
  9
$EXTMAX
 10
-1.000000000000000E+20
 20
-1.000000000000000E+20
 30
-1.000000000000000E+20
  9
$LIMMIN
 10
0.0
 20
0.0
  9
$LIMMAX
 10
12.0
 20
9.0
  9
$ORTHOMODE
 70
     0
  9
$REGENMODE
 70
     1
  9
$FILLMODE
 70
     1
  9
$QTEXTMODE
 70
     0
  9
$MIRRTEXT
 70
     1
  9
$LTSCALE
 40
1.0
  9
$ATTMODE
 70
     1
  9
$TEXTSIZE
 40
0.2
  9
$TRACEWID
 40
0.05
  9
$TEXTSTYLE
  7
Standard
  9
$CLAYER
  8
0
  9
$CELTYPE
  6
ByLayer
  9
$CECOLOR
 62
   256
  9
$CELTSCALE
 40
1.0
  9
$DISPSILH
 70
     0
  9
$DIMSCALE
 40
1.0
  9
$DIMASZ
 40
0.18
  9
$DIMEXO
 40
0.0625
  9
$DIMDLI
 40
0.38
  9
$DIMRND
 40
0.0
  9
$DIMDLE
 40
0.0
  9
$DIMEXE
 40
0.18
  9
$DIMTP
 40
0.0
  9
$DIMTM
 40
0.0
  9
$DIMTXT
 40
0.18
  9
$DIMCEN
 40
0.09
  9
$DIMTSZ
 40
0.0
  9
$DIMTOL
 70
     0
  9
$DIMLIM
 70
     0
  9
$DIMTIH
 70
     1
  9
$DIMTOH
 70
     1
  9
$DIMSE1
 70
     0
  9
$DIMSE2
 70
     0
  9
$DIMTAD
 70
     0
  9
$DIMZIN
 70
     0
  9
$DIMBLK
  1

  9
$DIMASO
 70
     1
  9
$DIMSHO
 70
     1
  9
$DIMPOST
  1

  9
$DIMAPOST
  1

  9
$DIMALT
 70
     0
  9
$DIMALTD
 70
     2
  9
$DIMALTF
 40
25.4
  9
$DIMLFAC
 40
1.0
  9
$DIMTOFL
 70
     0
  9
$DIMTVP
 40
0.0
  9
$DIMTIX
 70
     0
  9
$DIMSOXD
 70
     0
  9
$DIMSAH
 70
     0
  9
$DIMBLK1
  1

  9
$DIMBLK2
  1

  9
$DIMSTYLE
  2
Standard
  9
$DIMCLRD
 70
     0
  9
$DIMCLRE
 70
     0
  9
$DIMCLRT
 70
     0
  9
$DIMTFAC
 40
1.0
  9
$DIMGAP
 40
0.09
  9
$DIMJUST
 70
     0
  9
$DIMSD1
 70
     0
  9
$DIMSD2
 70
     0
  9
$DIMTOLJ
 70
     1
  9
$DIMTZIN
 70
     0
  9
$DIMALTZ
 70
     0
  9
$DIMALTTZ
 70
     0
  9
$DIMUPT
 70
     0
  9
$DIMDEC
 70
     4
  9
$DIMTDEC
 70
     4
  9
$DIMALTU
 70
     2
  9
$DIMALTTD
 70
     2
  9
$DIMTXSTY
  7
Standard
  9
$DIMAUNIT
 70
     0
  9
$DIMADEC
 70
     0
  9
$DIMALTRND
 40
0.0
  9
$DIMAZIN
 70
     0
  9
$DIMDSEP
 70
    46
  9
$DIMATFIT
 70
     3
  9
$DIMFRAC
 70
     0
  9
$DIMLDRBLK
  1

  9
$DIMLUNIT
 70
     2
  9
$DIMLWD
 70
    -2
  9
$DIMLWE
 70
    -2
  9
$DIMTMOVE
 70
     0
  9
$DIMFXL
 40
1.0
  9
$DIMFXLON
 70
     0
  9
$DIMJOGANG
 40
0.7853981633974483
  9
$DIMTFILL
 70
     0
  9
$DIMTFILLCLR
 70
     0
  9
$DIMARCSYM
 70
     0
  9
$DIMLTYPE
  6

  9
$DIMLTEX1
  6

  9
$DIMLTEX2
  6

  9
$DIMTXTDIRECTION
 70
     0
  9
$LUNITS
 70
     2
  9
$LUPREC
 70
     4
  9
$SKETCHINC
 40
0.1
  9
$FILLETRAD
 40
0.5
  9
$AUNITS
 70
     0
  9
$AUPREC
 70
     0
  9
$MENU
  1
.
  9
$ELEVATION
 40
0.0
  9
$PELEVATION
 40
0.0
  9
$THICKNESS
 40
0.0
  9
$LIMCHECK
 70
     0
  9
$CHAMFERA
 40
0.0
  9
$CHAMFERB
 40
0.0
  9
$CHAMFERC
 40
0.0
  9
$CHAMFERD
 40
0.0
  9
$SKPOLY
 70
     0
  9
$TDCREATE
 40
2458168.982348634
  9
$TDUCREATE
 40
2458168.940681967
  9
$TDUPDATE
 40
2458168.982348819
  9
$TDUUPDATE
 40
2458168.940682153
  9
$TDINDWG
 40
0.0000000116
  9
$TDUSRTIMER
 40
0.0000000116
  9
$USRTIMER
 70
     1
  9
$ANGBASE
 50
0.0
  9
$ANGDIR
 70
     0
  9
$PDMODE
 70
     0
  9
$PDSIZE
 40
0.0
  9
$PLINEWID
 40
0.0
  9
$SPLFRAME
 70
     0
  9
$SPLINETYPE
 70
     6
  9
$SPLINESEGS
 70
     8
  9
$HANDSEED
  5
279
  9
$SURFTAB1
 70
     6
  9
$SURFTAB2
 70
     6
  9
$SURFTYPE
 70
     6
  9
$SURFU
 70
     6
  9
$SURFV
 70
     6
  9
$UCSBASE
  2

  9
$UCSNAME
  2

  9
$UCSORG
 10
0.0
 20
0.0
 30
0.0
  9
$UCSXDIR
 10
1.0
 20
0.0
 30
0.0
  9
$UCSYDIR
 10
0.0
 20
1.0
 30
0.0
  9
$UCSORTHOREF
  2

  9
$UCSORTHOVIEW
 70
     0
  9
$UCSORGTOP
 10
0.0
 20
0.0
 30
0.0
  9
$UCSORGBOTTOM
 10
0.0
 20
0.0
 30
0.0
  9
$UCSORGLEFT
 10
0.0
 20
0.0
 30
0.0
  9
$UCSORGRIGHT
 10
0.0
 20
0.0
 30
0.0
  9
$UCSORGFRONT
 10
0.0
 20
0.0
 30
0.0
  9
$UCSORGBACK
 10
0.0
 20
0.0
 30
0.0
  9
$PUCSBASE
  2

  9
$PUCSNAME
  2

  9
$PUCSORG
 10
0.0
 20
0.0
 30
0.0
  9
$PUCSXDIR
 10
1.0
 20
0.0
 30
0.0
  9
$PUCSYDIR
 10
0.0
 20
1.0
 30
0.0
  9
$PUCSORTHOREF
  2

  9
$PUCSORTHOVIEW
 70
     0
  9
$PUCSORGTOP
 10
0.0
 20
0.0
 30
0.0
  9
$PUCSORGBOTTOM
 10
0.0
 20
0.0
 30
0.0
  9
$PUCSORGLEFT
 10
0.0
 20
0.0
 30
0.0
  9
$PUCSORGRIGHT
 10
0.0
 20
0.0
 30
0.0
  9
$PUCSORGFRONT
 10
0.0
 20
0.0
 30
0.0
  9
$PUCSORGBACK
 10
0.0
 20
0.0
 30
0.0
  9
$USERI1
 70
     0
  9
$USERI2
 70
     0
  9
$USERI3
 70
     0
  9
$USERI4
 70
     0
  9
$USERI5
 70
     0
  9
$USERR1
 40
0.0
  9
$USERR2
 40
0.0
  9
$USERR3
 40
0.0
  9
$USERR4
 40
0.0
  9
$USERR5
 40
0.0
  9
$WORLDVIEW
 70
     1
  9
$SHADEDGE
 70
     3
  9
$SHADEDIF
 70
    70
  9
$TILEMODE
 70
     1
  9
$MAXACTVP
 70
    64
  9
$PINSBASE
 10
0.0
 20
0.0
 30
0.0
  9
$PLIMCHECK
 70
     0
  9
$PEXTMIN
 10
1.000000000000000E+20
 20
1.000000000000000E+20
 30
1.000000000000000E+20
  9
$PEXTMAX
 10
-1.000000000000000E+20
 20
-1.000000000000000E+20
 30
-1.000000000000000E+20
  9
$PLIMMIN
 10
0.0
 20
0.0
  9
$PLIMMAX
 10
12.0
 20
9.0
  9
$UNITMODE
 70
     0
  9
$VISRETAIN
 70
     1
  9
$PLINEGEN
 70
     0
  9
$PSLTSCALE
 70
     1
  9
$TREEDEPTH
 70
  3020
  9
$CMLSTYLE
  2
Standard
  9
$CMLJUST
 70
     0
  9
$CMLSCALE
 40
1.0
  9
$PROXYGRAPHICS
 70
     1
  9
$MEASUREMENT
 70
     0
  9
$CELWEIGHT
370
    -1
  9
$ENDCAPS
280
     0
  9
$JOINSTYLE
280
     0
  9
$LWDISPLAY
290
     0
  9
$INSUNITS
 70
     1
  9
$HYPERLINKBASE
  1

  9
$STYLESHEET
  1

  9
$XEDIT
290
     1
  9
$CEPSNTYPE
380
     0
  9
$PSTYLEMODE
290
     1
  9
$FINGERPRINTGUID
  2
{A554D2D0-FD03-478A-BEE5-BE2946751533}
  9
$VERSIONGUID
  2
{FAEB1C32-E019-11D5-929B-00C0DF256EC4}
  9
$EXTNAMES
290
     1
  9
$PSVPSCALE
 40
0.0
  9
$OLESTARTUP
290
     0
  9
$SORTENTS
280
   127
  9
$INDEXCTL
280
     0
  9
$HIDETEXT
280
     1
  9
$XCLIPFRAME
280
     2
  9
$HALOGAP
280
     0
  9
$OBSCOLOR
 70
   257
  9
$OBSLTYPE
280
     0
  9
$INTERSECTIONDISPLAY
280
     0
  9
$INTERSECTIONCOLOR
 70
   257
  9
$DIMASSOC
280
     2
  9
$PROJECTNAME
  1

  9
$CAMERADISPLAY
290
     0
  9
$LENSLENGTH
 40
50.0
  9
$CAMERAHEIGHT
 40
0.0
  9
$STEPSPERSEC
 40
2.0
  9
$STEPSIZE
 40
6.0
  9
$3DDWFPREC
 40
2.0
  9
$PSOLWIDTH
 40
0.25
  9
$PSOLHEIGHT
 40
4.0
  9
$LOFTANG1
 40
1.570796326794897
  9
$LOFTANG2
 40
1.570796326794897
  9
$LOFTMAG1
 40
0.0
  9
$LOFTMAG2
 40
0.0
  9
$LOFTPARAM
 70
     7
  9
$LOFTNORMALS
280
     1
  9
$LATITUDE
 40
37.795
  9
$LONGITUDE
 40
-122.394
  9
$NORTHDIRECTION
 40
0.0
  9
$TIMEZONE
 70
 -8000
  9
$LIGHTGLYPHDISPLAY
280
     1
  9
$TILEMODELIGHTSYNCH
280
     1
  9
$CMATERIAL
347
44
  9
$SOLIDHIST
280
     0
  9
$SHOWHIST
280
     1
  9
$DWFFRAME
280
     2
  9
$DGNFRAME
280
     2
  9
$REALWORLDSCALE
290
     1
  9
$INTERFERECOLOR
 62
   256
  9
$CSHADOW
280
     0
  9
$SHADOWPLANELOCATION
 40
0.0
  0
ENDSEC
  0
SECTION
  2
CLASSES
  0
CLASS
  1
ACDBDICTIONARYWDFLT
  2
AcDbDictionaryWithDefault
  3
ObjectDBX Classes
 90
        0
 91
        4
280
     0
281
     0
  0
CLASS
  1
VISUALSTYLE
  2
AcDbVisualStyle
  3
ObjectDBX Classes
 90
     4095
 91
        4
280
     0
281
     0
  0
CLASS
  1
MATERIAL
  2
AcDbMaterial
  3
ObjectDBX Classes
 90
     1153
 91
        4
280
     0
281
     0
  0
CLASS
  1
SCALE
  2
AcDbScale
  3
ObjectDBX Classes
 90
     1153
 91
        4
280
     0
281
     0
  0
CLASS
  1
TABLESTYLE
  2
AcDbTableStyle
  3
ObjectDBX Classes
 90
     4095
 91
        4
280
     0
281
     0
  0
CLASS
  1
MLEADERSTYLE
  2
AcDbMLeaderStyle
  3
ACDB_MLEADERSTYLE_CLASS
 90
     4095
 91
        4
280
     0
281
     0
  0
CLASS
  1
SUN
  2
AcDbSun
  3
SCENEOE
 90
     1153
 91
        4
280
     0
281
     0
  0
CLASS
  1
DICTIONARYVAR
  2
AcDbDictionaryVar
  3
ObjectDBX Classes
 90
        0
 91
        4
280
     0
281
     0
  0
CLASS
  1
CELLSTYLEMAP
  2
AcDbCellStyleMap
  3
ObjectDBX Classes
 90
     1152
 91
        4
280
     0
281
     0
  0
ENDSEC
  0
SECTION
  2
TABLES
  0
TABLE
  2
VPORT
  5
8
330
0
100
AcDbSymbolTable
 70
     1
  0
VPORT
  5
29
330
8
100
AcDbSymbolTableRecord
100
AcDbViewportTableRecord
  2
*Active
 70
     0
 10
0.0
 20
0.0
 11
1.0
 21
1.0
 12
0.0
 22
-0.555625
 13
0.0
 23
0.0
 14
0.5
 24
0.5
 15
0.5
 25
0.5
 16
0.0
 26
0.0
 36
1.0
 17
0.0
 27
0.0
 37
0.0
 40
6.182474999999999
 41
2.515982676840586
 42
50.0
 43
0.0
 44
0.0
 50
0.0
 51
0.0
 71
     0
 72
   100
 73
     1
 74
     3
 75
     0
 76
     0
 77
     0
 78
     0
281
     0
 65
     1
110
0.0
120
0.0
130
0.0
111
1.0
121
0.0
131
0.0
112
0.0
122
1.0
132
0.0
 79
     0
146
0.0
348
2F
 60
     3
 61
     5
292
     1
282
     1
141
0.0
142
0.0
 63
   250
361
6D
  0
ENDTAB
  0
TABLE
  2
LTYPE
  5
5
330
0
100
AcDbSymbolTable
 70
     3
  0
LTYPE
  5
14
330
5
100
AcDbSymbolTableRecord
100
AcDbLinetypeTableRecord
  2
ByBlock
 70
     0
  3

 72
    65
 73
     0
 40
0.0
  0
LTYPE
  5
15
330
5
100
AcDbSymbolTableRecord
100
AcDbLinetypeTableRecord
  2
ByLayer
 70
     0
  3

 72
    65
 73
     0
 40
0.0
  0
LTYPE
  5
16
330
5
100
AcDbSymbolTableRecord
100
AcDbLinetypeTableRecord
  2
Continuous
 70
     0
  3
Solid line
 72
    65
 73
     0
 40
0.0
  0
LTYPE
  5
9B
330
5
100
AcDbSymbolTableRecord
100
AcDbLinetypeTableRecord
  2
Dashed
 70
     0
  3

 72
    65
 73
     2
 40
2.0
 49
1.0
 74
     0
 49
-1.0
 74
     0
  0
LTYPE
  5
210
330
5
100
AcDbSymbolTableRecord
100
AcDbLinetypeTableRecord
  2
Center
 70
     0
  3

 72
    65
 73
     4
 40
1.5
 49
0.45
 74
     0
 49
-0.5
 74
     0
 49
0.05
 74
     0
 49
-0.5
 74
     0
  0
ENDTAB
  0
TABLE
  2
LAYER
  5
2
330
0
100
AcDbSymbolTable
 70
     7
  0
LAYER
  5
10
330
2
100
AcDbSymbolTableRecord
100
AcDbLayerTableRecord
  2
0
 70
     0
 62
     7
  6
Continuous
370
    -3
390
F
347
46
348
0
  0
LAYER
  5
72
330
2
100
AcDbSymbolTableRecord
100
AcDbLayerTableRecord
  2
AM_6
 70
     0
 62
    -2
  6
Continuous
370
    35
390
F
347
46
348
0
  0
LAYER
  5
9C
330
2
100
AcDbSymbolTableRecord
100
AcDbLayerTableRecord
  2
AM_9
 70
     0
 62
     6
  6
Dashed
370
    25
390
F
347
46
348
0
  0
LAYER
  5
B9
330
2
100
AcDbSymbolTableRecord
100
AcDbLayerTableRecord
  2
AM_4
 70
     0
 62
     7
  6
Continuous
370
    50
390
F
347
46
348
0
  0
LAYER
  5
EC
330
2
100
AcDbSymbolTableRecord
100
AcDbLayerTableRecord
  2
AM_5
 70
     0
 62
     3
  6
Continuous
370
    25
390
F
347
46
348
0
  0
LAYER
  5
211
330
2
100
AcDbSymbolTableRecord
100
AcDbLayerTableRecord
  2
AM_7
 70
     0
 62
     7
  6
Center
370
    25
390
F
347
46
348
0
  0
LAYER
  5
264
330
2
100
AcDbSymbolTableRecord
100
AcDbLayerTableRecord
  2
ConnectionPoints
 70
     0
 62
     7
  6
Continuous
370
    50
390
F
347
46
348
0
  0
ENDTAB
  0
TABLE
  2
STYLE
  5
3
330
0
100
AcDbSymbolTable
 70
     1
  0
STYLE
  5
11
330
3
100
AcDbSymbolTableRecord
100
AcDbTextStyleTableRecord
  2
Standard
 70
     0
 40
0.0
 41
1.0
 50
0.0
 71
     0
 42
0.2
  3
txt
  4

  0
ENDTAB
  0
TABLE
  2
VIEW
  5
6
330
0
100
AcDbSymbolTable
 70
     0
  0
ENDTAB
  0
TABLE
  2
UCS
  5
7
330
0
100
AcDbSymbolTable
 70
     0
  0
ENDTAB
  0
TABLE
  2
APPID
  5
9
330
0
100
AcDbSymbolTable
 70
     1
  0
APPID
  5
12
330
9
100
AcDbSymbolTableRecord
100
AcDbRegAppTableRecord
  2
ACAD
 70
     0
  0
ENDTAB
  0
TABLE
  2
DIMSTYLE
  5
A
330
0
100
AcDbSymbolTable
 70
     1
100
AcDbDimStyleTable
  0
DIMSTYLE
105
27
330
A
100
AcDbSymbolTableRecord
100
AcDbDimStyleTableRecord
  2
Standard
 70
     0
178
     0
340
11
  0
ENDTAB
  0
TABLE
  2
BLOCK_RECORD
  5
1
330
0
100
AcDbSymbolTable
 70
     8
  0
BLOCK_RECORD
  5
1F
330
1
100
AcDbSymbolTableRecord
100
AcDbBlockTableRecord
  2
*Model_Space
340
22
 70
     0
280
     1
281
     0
  0
BLOCK_RECORD
  5
1B
330
1
100
AcDbSymbolTableRecord
100
AcDbBlockTableRecord
  2
*Paper_Space
340
1E
 70
     0
280
     1
281
     0
  0
BLOCK_RECORD
  5
23
330
1
100
AcDbSymbolTableRecord
100
AcDbBlockTableRecord
  2
*Paper_Space0
340
26
 70
     0
280
     1
281
     0
  0
BLOCK_RECORD
  5
6E
330
1
100
AcDbSymbolTableRecord
100
AcDbBlockTableRecord
  2
1_071215_4
340
0
102
{BLKREFS
331
6F
102
}
 70
     0
280
     1
281
     0
  0
BLOCK_RECORD
  5
8F
330
1
100
AcDbSymbolTableRecord
100
AcDbBlockTableRecord
  2
2_405015E_Inch_0_in_071215_4
340
0
102
{BLKREFS
331
90
102
}
 70
     0
280
     1
281
     0
  0
BLOCK_RECORD
  5
DC
330
1
100
AcDbSymbolTableRecord
100
AcDbBlockTableRecord
  2
3_ASME_B18_3_1_4_1_0_in_071215_4
340
0
102
{BLKREFS
331
DD
102
}
 70
     0
280
     1
281
     0
  0
BLOCK_RECORD
  5
EE
330
1
100
AcDbSymbolTableRecord
100
AcDbBlockTableRecord
  2
4_ASME_B18_3_1_4_2_0_in_071215_4
340
0
102
{BLKREFS
331
EF
102
}
 70
     0
280
     1
281
     0
  0
BLOCK_RECORD
  5
10F
330
1
100
AcDbSymbolTableRecord
100
AcDbBlockTableRecord
  2
5_070906LWE_0_in_071215_4
340
0
102
{BLKREFS
331
110
102
}
 70
     0
280
     1
281
     0
  0
BLOCK_RECORD
  5
147
330
1
100
AcDbSymbolTableRecord
100
AcDbBlockTableRecord
  2
6_070906E_0_in_071215_4
340
0
102
{BLKREFS
331
148
102
}
 70
     0
280
     1
281
     0
  0
BLOCK_RECORD
  5
1C6
330
1
100
AcDbSymbolTableRecord
100
AcDbBlockTableRecord
  2
7_071215H_0_in_071215_4
340
0
102
{BLKREFS
331
1C7
102
}
 70
     0
280
     1
281
     0
  0
ENDTAB
  0
ENDSEC
  0
SECTION
  2
BLOCKS
  0
BLOCK
  5
20
330
1F
100
AcDbEntity
  8
0
100
AcDbBlockBegin
  2
*Model_Space
 70
     0
 10
0.0
 20
0.0
 30
0.0
  3
*Model_Space
  1

  0
ENDBLK
  5
21
330
1F
100
AcDbEntity
  8
0
100
AcDbBlockEnd
  0
BLOCK
  5
1C
330
1B
100
AcDbEntity
 67
     1
  8
0
100
AcDbBlockBegin
  2
*Paper_Space
 70
     0
 10
0.0
 20
0.0
 30
0.0
  3
*Paper_Space
  1

  0
ENDBLK
  5
1D
330
1B
100
AcDbEntity
 67
     1
  8
0
100
AcDbBlockEnd
  0
BLOCK
  5
24
330
23
100
AcDbEntity
  8
0
100
AcDbBlockBegin
  2
*Paper_Space0
 70
     0
 10
0.0
 20
0.0
 30
0.0
  3
*Paper_Space0
  1

  0
ENDBLK
  5
25
330
23
100
AcDbEntity
  8
0
100
AcDbBlockEnd
  0
BLOCK
  5
70
330
6E
100
AcDbEntity
  8
0
100
AcDbBlockBegin
  2
1_071215_4
 70
     2
 10
0.0
 20
0.0
 30
0.0
  3
1_071215_4
  1

  0
ATTDEF
  5
73
330
6E
100
AcDbEntity
  8
AM_6
100
AcDbText
 10
12.625
 20
2.475
 30
0.0
 40
0.5
  1
Imperial - IP Pillow Block with Type E Dimensions 2-1/4 thru 7 inch 4-Bolt Trident Seal Expansion
100
AcDbAttributeDefinition
  3

  2
NN
 70
     8
280
     0
  0
ATTDEF
  5
74
330
6E
100
AcDbEntity
  8
AM_6
100
AcDbText
 10
12.625
 20
1.975
 30
0.0
 40
0.5
  1
Imperial/E 4 Bolt Piliow Block Bearings
100
AcDbAttributeDefinition
  3

  2
NT
 70
     8
280
     0
  0
ATTDEF
  5
75
330
6E
100
AcDbEntity
  8
AM_6
100
AcDbText
 10
12.625
 20
1.475
 30
0.0
 40
0.5
  1
071215
100
AcDbAttributeDefinition
  3

  2
NB
 70
     8
280
     0
  0
ATTDEF
  5
76
330
6E
100
AcDbEntity
  8
AM_6
100
AcDbText
 10
12.625
 20
0.9750000000000001
 30
0.0
 40
0.5
  1
$PN.
100
AcDbAttributeDefinition
  3

  2
NBSYN
 70
     8
280
     0
  0
ATTDEF
  5
77
330
6E
100
AcDbEntity
  8
AM_6
100
AcDbText
 10
12.625
 20
0.4750000000000001
 30
0.0
 40
0.5
  1
071215
100
AcDbAttributeDefinition
  3

  2
LINA
 70
     8
280
     0
  0
ATTDEF
  5
78
330
6E
100
AcDbEntity
  8
AM_6
100
AcDbText
 10
12.625
 20
-0.0249999999999999
 30
0.0
 40
0.5
  1
3-15/16
100
AcDbAttributeDefinition
  3

  2
SS
 70
     8
280
     0
  0
ATTDEF
  5
79
330
6E
100
AcDbEntity
  8
AM_6
100
AcDbText
 10
12.625
 20
-0.5249999999999999
 30
0.0
 40
0.5
  1
Non-Expansion
100
AcDbAttributeDefinition
  3

  2
TYPE
 70
     8
280
     0
  0
ATTDEF
  5
7A
330
6E
100
AcDbEntity
  8
AM_6
100
AcDbText
 10
12.625
 20
-1.025
 30
0.0
 40
0.5
  1
071215
100
AcDbAttributeDefinition
  3

  2
PN
 70
     8
280
     0
  0
ATTDEF
  5
7B
330
6E
100
AcDbEntity
  8
AM_6
100
AcDbText
 10
12.625
 20
-1.525
 30
0.0
 40
0.5
  1
EP4B-IP-315R
100
AcDbAttributeDefinition
  3

  2
DESCRIPTION
 70
     8
280
     0
  0
ATTDEF
  5
7C
330
6E
100
AcDbEntity
  8
AM_6
100
AcDbText
 10
12.625
 20
-2.025
 30
0.0
 40
0.5
  1
Contact Seal
100
AcDbAttributeDefinition
  3

  2
ST
 70
     8
280
     0
  0
ATTDEF
  5
7D
330
6E
100
AcDbEntity
  8
AM_6
100
AcDbText
 10
12.625
 20
-2.525
 30
0.0
 40
0.5
  1
4.7
100
AcDbAttributeDefinition
  3

  2
A
 70
     8
280
     0
  0
ATTDEF
  5
7E
330
6E
100
AcDbEntity
  8
AM_6
100
AcDbText
 10
12.625
 20
-3.025
 30
0.0
 40
0.5
  1
15.25
100
AcDbAttributeDefinition
  3

  2
B
 70
     8
280
     0
  0
ATTDEF
  5
7F
330
6E
100
AcDbEntity
  8
AM_6
100
AcDbText
 10
12.625
 20
-3.525
 30
0.0
 40
0.5
  1
4.5
100
AcDbAttributeDefinition
  3

  2
C
 70
     8
280
     0
  0
ATTDEF
  5
80
330
6E
100
AcDbEntity
  8
AM_6
100
AcDbText
 10
12.625
 20
-4.025
 30
0.0
 40
0.5
  1
12.25
100
AcDbAttributeDefinition
  3

  2
DMIN
 70
     8
280
     0
  0
ATTDEF
  5
81
330
6E
100
AcDbEntity
  8
AM_6
100
AcDbText
 10
12.625
 20
-4.525
 30
0.0
 40
0.5
  1
12.75
100
AcDbAttributeDefinition
  3

  2
DMAX
 70
     8
280
     0
  0
ATTDEF
  5
82
330
6E
100
AcDbEntity
  8
AM_6
100
AcDbText
 10
12.625
 20
-5.025
 30
0.0
 40
0.5
  1
2.25
100
AcDbAttributeDefinition
  3

  2
E
 70
     8
280
     0
  0
ATTDEF
  5
83
330
6E
100
AcDbEntity
  8
AM_6
100
AcDbText
 10
12.625
 20
-5.525
 30
0.0
 40
0.5
  1
3/4
100
AcDbAttributeDefinition
  3

  2
F
 70
     8
280
     0
  0
ATTDEF
  5
84
330
6E
100
AcDbEntity
  8
AM_6
100
AcDbText
 10
12.625
 20
-6.025
 30
0.0
 40
0.5
  1
1.13
100
AcDbAttributeDefinition
  3

  2
G
 70
     8
280
     0
  0
ATTDEF
  5
85
330
6E
100
AcDbEntity
  8
AM_6
100
AcDbText
 10
12.625
 20
-6.525
 30
0.0
 40
0.5
  1
2.44
100
AcDbAttributeDefinition
  3

  2
H
 70
     8
280
     0
  0
ATTDEF
  5
86
330
6E
100
AcDbEntity
  8
AM_6
100
AcDbText
 10
12.625
 20
-7.025
 30
0.0
 40
0.5
  1
8.7
100
AcDbAttributeDefinition
  3

  2
J
 70
     8
280
     0
  0
ATTDEF
  5
87
330
6E
100
AcDbEntity
  8
AM_6
100
AcDbText
 10
12.625
 20
-7.525
 30
0.0
 40
0.5
  1
5.56
100
AcDbAttributeDefinition
  3

  2
L
 70
     8
280
     0
  0
ATTDEF
  5
88
330
6E
100
AcDbEntity
  8
AM_6
100
AcDbText
 10
12.625
 20
-8.025
 30
0.0
 40
0.5
  1
4.25
100
AcDbAttributeDefinition
  3

  2
M
 70
     8
280
     0
  0
ATTDEF
  5
89
330
6E
100
AcDbEntity
  8
AM_6
100
AcDbText
 10
12.625
 20
-8.525
 30
0.0
 40
0.5
  1
1.35
100
AcDbAttributeDefinition
  3

  2
R
 70
     8
280
     0
  0
ATTDEF
  5
8A
330
6E
100
AcDbEntity
  8
AM_6
100
AcDbText
 10
12.625
 20
-9.025
 30
0.0
 40
0.5
  1
3.35
100
AcDbAttributeDefinition
  3

  2
S
 70
     8
280
     0
  0
ATTDEF
  5
8B
330
6E
100
AcDbEntity
  8
AM_6
100
AcDbText
 10
12.625
 20
-9.525
 30
0.0
 40
0.5
  1
0.31
100
AcDbAttributeDefinition
  3

  2
X
 70
     8
280
     0
  0
ATTDEF
  5
8C
330
6E
100
AcDbEntity
  8
AM_6
100
AcDbText
 10
12.625
 20
-10.025
 30
0.0
 40
0.5
  1
0.025
100
AcDbAttributeDefinition
  3

  2
Y
 70
     8
280
     0
  0
ATTDEF
  5
8D
330
6E
100
AcDbEntity
  8
AM_6
100
AcDbText
 10
12.625
 20
-10.525
 30
0.0
 40
0.5
  1
4.5
100
AcDbAttributeDefinition
  3

  2
Z
 70
     8
280
     0
  0
ATTDEF
  5
8E
330
6E
100
AcDbEntity
  8
AM_6
100
AcDbText
 10
12.625
 20
-11.025
 30
0.0
 40
0.5
  1
baldor
100
AcDbAttributeDefinition
  3

  2
COMPANY
 70
     8
280
     0
  0
INSERT
  5
90
330
6E
100
AcDbEntity
  8
0
100
AcDbBlockReference
  2
2_405015E_Inch_0_in_071215_4
 10
0.0
 20
0.0
 30
0.0
  0
INSERT
  5
DD
330
6E
100
AcDbEntity
  8
0
100
AcDbBlockReference
  2
3_ASME_B18_3_1_4_1_0_in_071215_4
 10
0.0
 20
0.0
 30
0.0
  0
INSERT
  5
EF
330
6E
100
AcDbEntity
  8
0
100
AcDbBlockReference
  2
4_ASME_B18_3_1_4_2_0_in_071215_4
 10
0.0
 20
0.0
 30
0.0
  0
INSERT
  5
110
330
6E
100
AcDbEntity
  8
0
100
AcDbBlockReference
  2
5_070906LWE_0_in_071215_4
 10
0.0
 20
0.0
 30
0.0
  0
INSERT
  5
148
330
6E
100
AcDbEntity
  8
0
100
AcDbBlockReference
  2
6_070906E_0_in_071215_4
 10
0.0
 20
0.0
 30
0.0
  0
INSERT
  5
1C7
330
6E
100
AcDbEntity
  8
0
100
AcDbBlockReference
  2
7_071215H_0_in_071215_4
 10
0.0
 20
0.0
 30
0.0
  0
ENDBLK
  5
71
330
6E
100
AcDbEntity
  8
0
100
AcDbBlockEnd
  0
BLOCK
  5
91
330
8F
100
AcDbEntity
  8
0
100
AcDbBlockBegin
  2
2_405015E_Inch_0_in_071215_4
 70
     2
 10
0.0
 20
0.0
 30
0.0
  3
2_405015E_Inch_0_in_071215_4
  1

  0
ATTDEF
  5
93
330
8F
100
AcDbEntity
  8
AM_6
100
AcDbText
 10
3.011150533277437
 20
0.2525907427704615
 30
0.0
 40
0.5
  1
405015E -Inch
100
AcDbAttributeDefinition
  3

  2
NN
 70
     8
280
     0
  0
ATTDEF
  5
94
330
8F
100
AcDbEntity
  8
AM_6
100
AcDbText
 10
3.011150533277437
 20
-0.2474092572295385
 30
0.0
 40
0.5
  1
Grease Fitting
100
AcDbAttributeDefinition
  3

  2
NT
 70
     8
280
     0
  0
ATTDEF
  5
95
330
8F
100
AcDbEntity
  8
AM_6
100
AcDbText
 10
3.011150533277437
 20
-0.7474092572295385
 30
0.0
 40
0.5
  1
405015E-Inch
100
AcDbAttributeDefinition
  3

  2
NB
 70
     8
280
     0
  0
ATTDEF
  5
96
330
8F
100
AcDbEntity
  8
AM_6
100
AcDbText
 10
3.011150533277437
 20
-1.247409257229539
 30
0.0
 40
0.5
  1
$MN.-Inch
100
AcDbAttributeDefinition
  3

  2
NBSYN
 70
     8
280
     0
  0
ATTDEF
  5
97
330
8F
100
AcDbEntity
  8
AM_6
100
AcDbText
 10
3.011150533277437
 20
-1.747409257229539
 30
0.0
 40
0.5
  1
405015E
100
AcDbAttributeDefinition
  3

  2
LINA
 70
     8
280
     0
  0
ATTDEF
  5
98
330
8F
100
AcDbEntity
  8
AM_6
100
AcDbText
 10
3.011150533277437
 20
-2.247409257229538
 30
0.0
 40
0.5
  1
405015E
100
AcDbAttributeDefinition
  3

  2
MN
 70
     8
280
     0
  0
ATTDEF
  5
99
330
8F
100
AcDbEntity
  8
AM_6
100
AcDbText
 10
3.011150533277437
 20
-2.747409257229538
 30
0.0
 40
0.5
  1
1/8 x 27PTF
100
AcDbAttributeDefinition
  3

  2
T
 70
     8
280
     0
  0
ATTDEF
  5
9A
330
8F
100
AcDbEntity
  8
AM_6
100
AcDbText
 10
3.011150533277437
 20
-3.247409257229538
 30
0.0
 40
0.5
  1
baldor
100
AcDbAttributeDefinition
  3

  2
COMPANY
 70
     8
280
     0
  0
ELLIPSE
  5
9D
330
8F
100
AcDbEntity
  8
AM_9
100
AcDbEllipse
 10
-2.142499999999999
 20
0.0000000000000002
 30
0.0
 11
-2.974107518188895E-17
 21
-0.161902872472269
 31
0.0
210
0.0
220
0.0
230
1.0
 40
0.8660254037844368
 41
0.0
 42
6.283185307179586
  0
LWPOLYLINE
  5
9E
330
8F
100
AcDbEntity
  8
AM_9
100
AcDbPolyline
 90
        3
 70
     0
 43
0.0
 10
-2.468976856926152
 20
0.1262953713852309
 10
-2.41850250203231
 20
0.1577272497321278
 10
-2.369721528538922
 20
0.1894430570778462
  0
LWPOLYLINE
  5
9F
330
8F
100
AcDbEntity
  8
AM_9
100
AcDbPolyline
 90
        3
 70
     0
 43
0.0
 10
-2.464443057077845
 20
0.0000000000000002
 10
-2.465639747470362
 20
0.0631476856926156
 10
-2.468976856926152
 20
0.1262953713852309
  0
LWPOLYLINE
  5
A0
330
8F
100
AcDbEntity
  8
AM_9
100
AcDbPolyline
 90
        3
 70
     0
 43
0.0
 10
-2.369721528538922
 20
-0.1894430570778457
 10
-2.418278983200901
 20
-0.157869214231538
 10
-2.468976856926152
 20
-0.1262953713852304
  0
LINE
  5
A1
330
8F
100
AcDbEntity
  8
AM_9
100
AcDbLine
 10
-2.464579057640953
 20
-0.0210984918342108
 30
0.0
 11
-2.464443057077845
 21
0.0000000000000002
 31
0.0
  0
LWPOLYLINE
  5
A2
330
8F
100
AcDbEntity
  8
AM_9
100
AcDbPolyline
 90
        4
 70
     0
 43
0.0
 10
-2.468976856926152
 20
-0.1262953713852304
 10
-2.467184263336767
 20
-0.0967996321117975
 10
-2.465155971199381
 20
-0.0485424412477541
 10
-2.464579057640953
 20
-0.0210984918342108
  0
LINE
  5
A3
330
8F
100
AcDbEntity
  8
AM_9
100
AcDbLine
 10
-2.509909257229538
 20
0.1262953713852309
 30
0.0
 11
-2.468976856926152
 21
0.1262953713852309
 31
0.0
  0
LINE
  5
A4
330
8F
100
AcDbEntity
  8
AM_9
100
AcDbLine
 10
-2.509909257229538
 20
-0.1262953713852304
 30
0.0
 11
-2.468976856926152
 21
-0.1262953713852304
 31
0.0
  0
LWPOLYLINE
  5
A5
330
8F
100
AcDbEntity
  8
AM_9
100
AcDbPolyline
 90
        3
 70
     0
 43
0.0
 10
-2.514443057077845
 20
0.0000000000000002
 10
-2.513734276719276
 20
-0.0483998160558987
 10
-2.512177270281704
 20
-0.0876643906215055
  0
LWPOLYLINE
  5
A6
330
8F
100
AcDbEntity
  8
AM_9
100
AcDbPolyline
 90
        3
 70
     0
 43
0.0
 10
-2.512168054366514
 20
0.0878491423263092
 10
-2.513235794603035
 20
0.063431614691437
 10
-2.514443057077845
 20
0.0000000000000002
  0
LWPOLYLINE
  5
A7
330
8F
100
AcDbEntity
  8
AM_9
100
AcDbPolyline
 90
        3
 70
     0
 43
0.0
 10
-2.279533799848307
 20
-0.252590742770461
 10
-2.323355079995154
 20
-0.221158864423564
 10
-2.369721528538922
 20
-0.1894430570778457
  0
LWPOLYLINE
  5
A8
330
8F
100
AcDbEntity
  8
AM_9
100
AcDbPolyline
 90
        3
 70
     0
 43
0.0
 10
-2.369721528538922
 20
0.1894430570778462
 10
-2.323557454661978
 20
0.2210168999241538
 10
-2.279533799848307
 20
0.2525907427704615
  0
LINE
  5
A9
330
8F
100
AcDbEntity
  8
AM_9
100
AcDbLine
 10
-2.151546710626154
 20
0.1983264404626882
 30
0.0
 11
-2.265354897832289
 21
0.2054502516015137
 31
0.0
  0
LINE
  5
AA
330
8F
100
AcDbEntity
  8
AM_9
100
AcDbLine
 10
-2.265354897832289
 20
-0.2054502516015132
 30
0.0
 11
-2.151546710626154
 21
-0.1983264404626877
 31
0.0
  0
ELLIPSE
  5
AB
330
8F
100
AcDbEntity
  8
AM_9
100
AcDbEllipse
 10
-2.325000000000004
 20
0.0000000000000016
 30
0.0
 11
1.339457436567393E-17
 21
0.2187499999999961
 31
0.0
210
0.0
220
0.0
230
1.0
 40
0.8660254037844334
 41
1.032970329615031
 42
2.108622323974773
  0
ELLIPSE
  5
AC
330
8F
100
AcDbEntity
  8
AM_9
100
AcDbEllipse
 10
-2.324999999999998
 20
0.0000000000000002
 30
0.0
 11
1.308841266588746E-17
 21
0.213750000000002
 31
0.0
210
0.0
220
0.0
230
1.0
 40
0.866025403784435
 41
0.9862868522353097
 42
2.155305801354484
  0
ELLIPSE
  5
AD
330
8F
100
AcDbEntity
  8
AM_9
100
AcDbEllipse
 10
-2.33415909927044
 20
0.0000000000000003
 30
0.0
 11
1.056466380484822E-17
 21
0.172534053283016
 31
0.0
210
0.0
220
0.0
230
1.0
 40
0.8660254037844372
 41
0.6732704101477358
 42
2.468322243442058
  0
LINE
  5
AE
330
8F
100
AcDbEntity
  8
AM_9
100
AcDbLine
 10
-2.444999999999999
 20
-0.0703562363973514
 30
0.0
 11
-2.437760904853148
 21
-0.0796165180238018
 31
0.0
  0
LINE
  5
AF
330
8F
100
AcDbEntity
  8
AM_9
100
AcDbLine
 10
-2.437760904853148
 20
0.0796165180238023
 30
0.0
 11
-2.444999999999999
 21
0.0703562363973519
 31
0.0
  0
ELLIPSE
  5
B0
330
8F
100
AcDbEntity
  8
AM_9
100
AcDbEllipse
 10
-2.361376560809283
 20
0.0000000000000021
 30
0.0
 11
7.275632189644634E-18
 21
0.1188200907348994
 31
0.0
210
0.0
220
0.0
230
1.0
 40
0.8660254037844448
 41
0.0521714424108817
 42
3.089421211178909
  0
LINE
  5
B1
330
8F
100
AcDbEntity
  8
AM_9
100
AcDbLine
 10
-2.377499999999999
 20
0.1050000000000003
 30
0.0
 11
-2.392499999999999
 21
0.1050000000000003
 31
0.0
  0
LINE
  5
B2
330
8F
100
AcDbEntity
  8
AM_9
100
AcDbLine
 10
-2.392499999999999
 20
-0.1049999999999997
 30
0.0
 11
-2.377499999999999
 21
-0.1049999999999997
 31
0.0
  0
ELLIPSE
  5
B3
330
8F
100
AcDbEntity
  8
AM_9
100
AcDbEllipse
 10
-2.392499999999999
 20
0.0000000000000001
 30
0.0
 11
6.429395695523603E-18
 21
0.105
 31
0.0
210
0.0
220
0.0
230
1.0
 40
0.8660254037844408
 41
5.235987755982992
 42
10.47197551196598
  0
ELLIPSE
  5
B4
330
8F
100
AcDbEntity
  8
AM_9
100
AcDbEllipse
 10
-2.377499999999999
 20
0.0000000000000028
 30
0.0
 11
6.429395695523449E-18
 21
0.1049999999999975
 31
0.0
210
0.0
220
0.0
230
1.0
 40
0.8660254037844446
 41
5.858105981271446
 42
9.849857286677498
  0
ELLIPSE
  5
B5
330
8F
100
AcDbEntity
  8
AM_9
100
AcDbEllipse
 10
-2.4225
 20
0.0000000000000003
 30
0.0
 11
8.266365894244633E-18
 21
0.135
 31
0.0
210
0.0
220
0.0
230
1.0
 40
0.8660254037844314
 41
0.77510901071512
 42
2.366483642874674
  0
ELLIPSE
  5
B6
330
8F
100
AcDbEntity
  8
AM_9
100
AcDbEllipse
 10
-2.274999999999999
 20
-0.0000000000000006
 30
0.0
 11
1.339457436567424E-17
 21
0.2187500000000011
 31
0.0
210
0.0
220
0.0
230
1.0
 40
0.8660254037844335
 41
0.0
 42
6.283185307179586
  0
ELLIPSE
  5
B7
330
8F
100
AcDbEntity
  8
AM_9
100
AcDbEllipse
 10
-2.274999999999999
 20
0.0000000000000001
 30
0.0
 11
1.259867011763636E-17
 21
0.2057518972230695
 31
0.0
210
0.0
220
0.0
230
1.0
 40
0.8660254037844315
 41
0.0
 42
6.283185307179586
  0
ELLIPSE
  5
B8
330
8F
100
AcDbEntity
  8
AM_9
100
AcDbEllipse
 10
-2.160857377154472
 20
0.0000000000000003
 30
0.0
 11
1.216182204459297E-17
 21
0.1986176267812156
 31
0.0
210
0.0
220
0.0
230
1.0
 40
0.8660254037844364
 41
0.0
 42
6.283185307179586
  0
LWPOLYLINE
  5
BA
330
8F
100
AcDbEntity
  8
AM_4
100
AcDbPolyline
 90
        3
 70
     0
 43
0.0
 10
-2.509909257229538
 20
-0.1262953713852304
 10
-2.466087977082689
 20
-0.1577272497321274
 10
-2.419721528538922
 20
-0.1894430570778457
  0
LINE
  5
BB
330
8F
100
AcDbEntity
  8
AM_4
100
AcDbLine
 10
-2.512177270281704
 20
-0.0876643906215055
 30
0.0
 11
-2.509909257229538
 21
-0.1262953713852304
 31
0.0
  0
LWPOLYLINE
  5
BC
330
8F
100
AcDbEntity
  8
AM_4
100
AcDbPolyline
 90
        3
 70
     0
 43
0.0
 10
-2.419721528538922
 20
0.1894430570778462
 10
-2.465885602415866
 20
0.1578692142315386
 10
-2.509909257229538
 20
0.1262953713852309
  0
LINE
  5
BD
330
8F
100
AcDbEntity
  8
AM_4
100
AcDbLine
 10
-2.509909257229538
 20
0.1262953713852309
 30
0.0
 11
-2.512168054366514
 21
0.0878491423263092
 31
0.0
  0
LWPOLYLINE
  5
BE
330
8F
100
AcDbEntity
  8
AM_4
100
AcDbPolyline
 90
        3
 70
     0
 43
0.0
 10
-2.320466200151692
 20
0.2525907427704615
 10
-2.370940555045534
 20
0.2211588644235646
 10
-2.419721528538922
 20
0.1894430570778462
  0
LWPOLYLINE
  5
BF
330
8F
100
AcDbEntity
  8
AM_4
100
AcDbPolyline
 90
        3
 70
     0
 43
0.0
 10
-2.419721528538922
 20
-0.1894430570778457
 10
-2.371164073876943
 20
-0.2210168999241534
 10
-2.320466200151692
 20
-0.252590742770461
  0
ELLIPSE
  5
C0
330
8F
100
AcDbEntity
  8
AM_4
100
AcDbEllipse
 10
-2.324999999999998
 20
0.0000000000000006
 30
0.0
 11
1.339457436567416E-17
 21
0.2187499999999997
 31
0.0
210
0.0
220
0.0
230
1.0
 40
0.8660254037844374
 41
2.108622323974756
 42
7.316155636794626
  0
LINE
  5
C1
330
8F
100
AcDbEntity
  8
AM_4
100
AcDbLine
 10
-2.320466200151692
 20
0.2525907427704615
 30
0.0
 11
-2.279533799848307
 21
0.2525907427704615
 31
0.0
  0
LWPOLYLINE
  5
C2
330
8F
100
AcDbEntity
  8
AM_4
100
AcDbPolyline
 90
        3
 70
     0
 43
0.0
 10
-2.230278471461076
 20
0.1894430570778462
 10
-2.27644254533802
 20
0.2210168999241538
 10
-2.320466200151692
 20
0.2525907427704615
  0
LWPOLYLINE
  5
C3
330
8F
100
AcDbEntity
  8
AM_4
100
AcDbPolyline
 90
        3
 70
     0
 43
0.0
 10
-2.180278471461076
 20
0.1894430570778462
 10
-2.134114397584132
 20
0.1578692142315385
 10
-2.09009074277046
 20
0.1262953713852309
  0
LWPOLYLINE
  5
C4
330
8F
100
AcDbEntity
  8
AM_4
100
AcDbPolyline
 90
        3
 70
     0
 43
0.0
 10
-2.279533799848307
 20
0.2525907427704615
 10
-2.229059444954464
 20
0.2211588644235645
 10
-2.180278471461076
 20
0.1894430570778462
  0
LINE
  5
C5
330
8F
100
AcDbEntity
  8
AM_4
100
AcDbLine
 10
-2.131023143073846
 20
0.1262953713852309
 30
0.0
 11
-2.09009074277046
 21
0.1262953713852309
 31
0.0
  0
LWPOLYLINE
  5
C6
330
8F
100
AcDbEntity
  8
AM_4
100
AcDbPolyline
 90
        4
 70
     0
 43
0.0
 10
-2.131023143073846
 20
-0.1262953713852304
 10
-2.132815736663231
 20
-0.0967996321117976
 10
-2.134844028800617
 20
-0.0485424412477541
 10
-2.135556942922153
 20
0.0000000000000003
  0
LWPOLYLINE
  5
C7
330
8F
100
AcDbEntity
  8
AM_4
100
AcDbPolyline
 90
        4
 70
     0
 43
0.0
 10
-2.085556942922153
 20
0.0000000000000002
 10
-2.086265723280722
 20
-0.0483998160558986
 10
-2.088298149181075
 20
-0.0967996321117975
 10
-2.09009074277046
 20
-0.1262953713852304
  0
LWPOLYLINE
  5
C8
330
8F
100
AcDbEntity
  8
AM_4
100
AcDbPolyline
 90
        3
 70
     0
 43
0.0
 10
-2.09009074277046
 20
0.1262953713852309
 10
-2.086764205396963
 20
0.063431614691437
 10
-2.085556942922153
 20
0.0000000000000002
  0
LWPOLYLINE
  5
C9
330
8F
100
AcDbEntity
  8
AM_4
100
AcDbPolyline
 90
        3
 70
     0
 43
0.0
 10
-2.135556942922153
 20
0.0000000000000003
 10
-2.134360252529636
 20
0.0631476856926156
 10
-2.131023143073846
 20
0.1262953713852309
  0
LWPOLYLINE
  5
CA
330
8F
100
AcDbEntity
  8
AM_4
100
AcDbPolyline
 90
        3
 70
     0
 43
0.0
 10
-2.131023143073846
 20
0.1262953713852309
 10
-2.181497497967689
 20
0.1577272497321278
 10
-2.230278471461076
 20
0.1894430570778462
  0
LINE
  5
CB
330
8F
100
AcDbEntity
  8
AM_4
100
AcDbLine
 10
-2.131023143073846
 20
-0.1262953713852304
 30
0.0
 11
-2.09009074277046
 21
-0.1262953713852304
 31
0.0
  0
LWPOLYLINE
  5
CC
330
8F
100
AcDbEntity
  8
AM_4
100
AcDbPolyline
 90
        3
 70
     0
 43
0.0
 10
-2.230278471461076
 20
-0.1894430570778457
 10
-2.181721016799097
 20
-0.1578692142315381
 10
-2.131023143073846
 20
-0.1262953713852304
  0
LWPOLYLINE
  5
CD
330
8F
100
AcDbEntity
  8
AM_4
100
AcDbPolyline
 90
        3
 70
     0
 43
0.0
 10
-2.320466200151692
 20
-0.252590742770461
 10
-2.276644920004844
 20
-0.2211588644235641
 10
-2.230278471461076
 20
-0.1894430570778457
  0
LINE
  5
CE
330
8F
100
AcDbEntity
  8
AM_4
100
AcDbLine
 10
-2.320466200151692
 20
-0.252590742770461
 30
0.0
 11
-2.279533799848307
 21
-0.252590742770461
 31
0.0
  0
LWPOLYLINE
  5
CF
330
8F
100
AcDbEntity
  8
AM_4
100
AcDbPolyline
 90
        3
 70
     0
 43
0.0
 10
-2.180278471461076
 20
-0.1894430570778457
 10
-2.228835926123055
 20
-0.2210168999241534
 10
-2.279533799848307
 20
-0.252590742770461
  0
LWPOLYLINE
  5
D0
330
8F
100
AcDbEntity
  8
AM_4
100
AcDbPolyline
 90
        3
 70
     0
 43
0.0
 10
-2.09009074277046
 20
-0.1262953713852304
 10
-2.133912022917309
 20
-0.1577272497321274
 10
-2.180278471461076
 20
-0.1894430570778457
  0
ELLIPSE
  5
D1
330
8F
100
AcDbEntity
  8
AM_4
100
AcDbEllipse
 10
-2.324999999999999
 20
0.0000000000000001
 30
0.0
 11
1.308841266588735E-17
 21
0.2137500000000003
 31
0.0
210
0.0
220
0.0
230
1.0
 40
0.8660254037844397
 41
2.155305801354489
 42
7.269472159414889
  0
ELLIPSE
  5
D2
330
8F
100
AcDbEntity
  8
AM_4
100
AcDbEllipse
 10
-2.33415909927044
 20
0.0000000000000005
 30
0.0
 11
1.056466380484820E-17
 21
0.1725340532830157
 31
0.0
210
0.0
220
0.0
230
1.0
 40
0.8660254037844388
 41
2.468322243442061
 42
6.956455717327319
  0
ELLIPSE
  5
D3
330
8F
100
AcDbEntity
  8
AM_4
100
AcDbEllipse
 10
-2.36137656080871
 20
-0.0000000000000244
 30
0.0
 11
7.275632189646026E-18
 21
0.1188200907349222
 31
0.0
210
0.0
220
0.0
230
1.0
 40
0.8660254037845183
 41
3.089421211173344
 42
6.335356749596016
  0
ELLIPSE
  5
D4
330
8F
100
AcDbEntity
  8
AM_4
100
AcDbEllipse
 10
-2.377499999999999
 20
0.0000000000000003
 30
0.0
 11
6.429395695523572E-18
 21
0.1049999999999995
 31
0.0
210
0.0
220
0.0
230
1.0
 40
0.8660254037844365
 41
3.566671979497928
 42
5.858105981271452
  0
LINE
  5
D5
330
8F
100
AcDbEntity
  8
AM_4
100
AcDbLine
 10
-2.313749999999999
 20
0.0525000000000004
 30
0.0
 11
-2.32125
 21
0.0675000000000005
 31
0.0
  0
LINE
  5
D6
330
8F
100
AcDbEntity
  8
AM_4
100
AcDbLine
 10
-2.32125
 20
-0.0675
 30
0.0
 11
-2.313749999999999
 21
-0.0524999999999999
 31
0.0
  0
ELLIPSE
  5
D7
330
8F
100
AcDbEntity
  8
AM_4
100
AcDbEllipse
 10
-2.392500000000004
 20
0.0000000000000002
 30
0.0
 11
6.429395695523694E-18
 21
0.1050000000000015
 31
0.0
210
0.0
220
0.0
230
1.0
 40
0.8660254037844708
 41
4.188790204786397
 42
5.235987755982983
  0
ELLIPSE
  5
D8
330
8F
100
AcDbEntity
  8
AM_4
100
AcDbEllipse
 10
-2.422499999999999
 20
-0.0000000000000032
 30
0.0
 11
8.266365894244839E-18
 21
0.1350000000000033
 31
0.0
210
0.0
220
0.0
230
1.0
 40
0.8660254037844362
 41
2.366483642874648
 42
7.058294317894694
  0
LINE
  5
D9
330
8F
100
AcDbEntity
  8
AM_4
100
AcDbLine
 10
-2.524726847792106
 20
-0.0733474205218685
 30
0.0
 11
-2.504315310731618
 21
-0.0964365416902989
 31
0.0
  0
LINE
  5
DA
330
8F
100
AcDbEntity
  8
AM_4
100
AcDbLine
 10
-2.504315310731618
 20
0.0964365416902994
 30
0.0
 11
-2.524726847792106
 21
0.0733474205218691
 31
0.0
  0
ELLIPSE
  5
DB
330
8F
100
AcDbEntity
  8
AM_4
100
AcDbEllipse
 10
-2.462500000000002
 20
0.0000000000000015
 30
0.0
 11
6.287208197282113E-18
 21
0.1026779019331862
 31
0.0
210
0.0
220
0.0
230
1.0
 40
0.8660254037844337
 41
0.0
 42
6.283185307179586
  0
ENDBLK
  5
92
330
8F
100
AcDbEntity
  8
0
100
AcDbBlockEnd
  0
BLOCK
  5
DE
330
DC
100
AcDbEntity
  8
0
100
AcDbBlockBegin
  2
3_ASME_B18_3_1_4_1_0_in_071215_4
 70
     2
 10
0.0
 20
0.0
 30
0.0
  3
3_ASME_B18_3_1_4_1_0_in_071215_4
  1

  0
ATTDEF
  5
E0
330
DC
100
AcDbEntity
  8
AM_6
100
AcDbText
 10
5.125
 20
-2.995666666666667
 30
0.0
 40
0.5
  1
ANSI/ASME B18.3-1998
100
AcDbAttributeDefinition
  3

  2
NN
 70
     8
280
     0
  0
ATTDEF
  5
E1
330
DC
100
AcDbEntity
  8
AM_6
100
AcDbText
 10
5.125
 20
-3.495666666666667
 30
0.0
 40
0.5
  1
Socket Button Head Cap Screws
100
AcDbAttributeDefinition
  3

  2
NT
 70
     8
280
     0
  0
ATTDEF
  5
E2
330
DC
100
AcDbEntity
  8
AM_6
100
AcDbText
 10
5.125
 20
-3.995666666666667
 30
0.0
 40
0.5
  1
ASME B18.3-1/4
100
AcDbAttributeDefinition
  3

  2
NB
 70
     8
280
     0
  0
ATTDEF
  5
E3
330
DC
100
AcDbEntity
  8
AM_6
100
AcDbText
 10
5.125
 20
-4.495666666666667
 30
0.0
 40
0.5
  1
ASME B18.3-$NS.
100
AcDbAttributeDefinition
  3

  2
NBSYN
 70
     8
280
     0
  0
ATTDEF
  5
E4
330
DC
100
AcDbEntity
  8
AM_6
100
AcDbText
 10
5.125
 20
-4.995666666666667
 30
0.0
 40
0.5
  1
ASME B18.3-1/4
100
AcDbAttributeDefinition
  3

  2
LINA
 70
     8
280
     0
  0
ATTDEF
  5
E5
330
DC
100
AcDbEntity
  8
AM_6
100
AcDbText
 10
5.125
 20
-5.495666666666667
 30
0.0
 40
0.5
  1
1/4
100
AcDbAttributeDefinition
  3

  2
NS
 70
     8
280
     0
  0
ATTDEF
  5
E6
330
DC
100
AcDbEntity
  8
AM_6
100
AcDbText
 10
5.125
 20
-5.995666666666667
 30
0.0
 40
0.5
  1
0.437
100
AcDbAttributeDefinition
  3

  2
A
 70
     8
280
     0
  0
ATTDEF
  5
E7
330
DC
100
AcDbEntity
  8
AM_6
100
AcDbText
 10
5.125
 20
-6.495666666666667
 30
0.0
 40
0.5
  1
0.132
100
AcDbAttributeDefinition
  3

  2
H
 70
     8
280
     0
  0
ATTDEF
  5
E8
330
DC
100
AcDbEntity
  8
AM_6
100
AcDbText
 10
5.125
 20
-6.995666666666667
 30
0.0
 40
0.5
  1
0.800
100
AcDbAttributeDefinition
  3

  2
L
 70
     8
280
     0
  0
ATTDEF
  5
E9
330
DC
100
AcDbEntity
  8
AM_6
100
AcDbText
 10
5.125
 20
-7.495666666666667
 30
0.0
 40
0.5
  1
0.031
100
AcDbAttributeDefinition
  3

  2
S
 70
     8
280
     0
  0
ATTDEF
  5
EA
330
DC
100
AcDbEntity
  8
AM_6
100
AcDbText
 10
5.125
 20
-7.995666666666667
 30
0.0
 40
0.5
  1
0.156250
100
AcDbAttributeDefinition
  3

  2
J
 70
     8
280
     0
  0
ATTDEF
  5
EB
330
DC
100
AcDbEntity
  8
AM_6
100
AcDbText
 10
5.125
 20
-8.495666666666667
 30
0.0
 40
0.5
  1
baldor
100
AcDbAttributeDefinition
  3

  2
COMPANY
 70
     8
280
     0
  0
LINE
  5
ED
330
DC
100
AcDbEntity
  8
AM_5
100
AcDbLine
 10
0.125
 20
-2.995666666666667
 30
0.0
 11
-0.125
 21
-2.995666666666667
 31
0.0
  0
ENDBLK
  5
DF
330
DC
100
AcDbEntity
  8
0
100
AcDbBlockEnd
  0
BLOCK
  5
F0
330
EE
100
AcDbEntity
  8
0
100
AcDbBlockBegin
  2
4_ASME_B18_3_1_4_2_0_in_071215_4
 70
     2
 10
0.0
 20
0.0
 30
0.0
  3
4_ASME_B18_3_1_4_2_0_in_071215_4
  1

  0
ATTDEF
  5
F2
330
EE
100
AcDbEntity
  8
AM_6
100
AcDbText
 10
5.2185
 20
-2.275666666666667
 30
0.0
 40
0.5
  1
ANSI/ASME B18.3-1998
100
AcDbAttributeDefinition
  3

  2
NN
 70
     8
280
     0
  0
ATTDEF
  5
F3
330
EE
100
AcDbEntity
  8
AM_6
100
AcDbText
 10
5.2185
 20
-2.775666666666667
 30
0.0
 40
0.5
  1
Socket Button Head Cap Screws
100
AcDbAttributeDefinition
  3

  2
NT
 70
     8
280
     0
  0
ATTDEF
  5
F4
330
EE
100
AcDbEntity
  8
AM_6
100
AcDbText
 10
5.2185
 20
-3.275666666666667
 30
0.0
 40
0.5
  1
ASME B18.3-1/4
100
AcDbAttributeDefinition
  3

  2
NB
 70
     8
280
     0
  0
ATTDEF
  5
F5
330
EE
100
AcDbEntity
  8
AM_6
100
AcDbText
 10
5.2185
 20
-3.775666666666667
 30
0.0
 40
0.5
  1
ASME B18.3-$NS.
100
AcDbAttributeDefinition
  3

  2
NBSYN
 70
     8
280
     0
  0
ATTDEF
  5
F6
330
EE
100
AcDbEntity
  8
AM_6
100
AcDbText
 10
5.2185
 20
-4.275666666666666
 30
0.0
 40
0.5
  1
ASME B18.3-1/4
100
AcDbAttributeDefinition
  3

  2
LINA
 70
     8
280
     0
  0
ATTDEF
  5
F7
330
EE
100
AcDbEntity
  8
AM_6
100
AcDbText
 10
5.2185
 20
-4.775666666666666
 30
0.0
 40
0.5
  1
1/4
100
AcDbAttributeDefinition
  3

  2
NS
 70
     8
280
     0
  0
ATTDEF
  5
F8
330
EE
100
AcDbEntity
  8
AM_6
100
AcDbText
 10
5.2185
 20
-5.275666666666666
 30
0.0
 40
0.5
  1
0.437
100
AcDbAttributeDefinition
  3

  2
A
 70
     8
280
     0
  0
ATTDEF
  5
F9
330
EE
100
AcDbEntity
  8
AM_6
100
AcDbText
 10
5.2185
 20
-5.775666666666666
 30
0.0
 40
0.5
  1
0.132
100
AcDbAttributeDefinition
  3

  2
H
 70
     8
280
     0
  0
ATTDEF
  5
FA
330
EE
100
AcDbEntity
  8
AM_6
100
AcDbText
 10
5.2185
 20
-6.275666666666666
 30
0.0
 40
0.5
  1
0.800
100
AcDbAttributeDefinition
  3

  2
L
 70
     8
280
     0
  0
ATTDEF
  5
FB
330
EE
100
AcDbEntity
  8
AM_6
100
AcDbText
 10
5.2185
 20
-6.775666666666666
 30
0.0
 40
0.5
  1
0.031
100
AcDbAttributeDefinition
  3

  2
S
 70
     8
280
     0
  0
ATTDEF
  5
FC
330
EE
100
AcDbEntity
  8
AM_6
100
AcDbText
 10
5.2185
 20
-7.275666666666666
 30
0.0
 40
0.5
  1
0.156250
100
AcDbAttributeDefinition
  3

  2
J
 70
     8
280
     0
  0
ATTDEF
  5
FD
330
EE
100
AcDbEntity
  8
AM_6
100
AcDbText
 10
5.2185
 20
-7.775666666666666
 30
0.0
 40
0.5
  1
baldor
100
AcDbAttributeDefinition
  3

  2
COMPANY
 70
     8
280
     0
  0
LINE
  5
FE
330
EE
100
AcDbEntity
  8
AM_9
100
AcDbLine
 10
0.078125
 20
-3.137666666666667
 30
0.0
 11
0.078125
 21
-3.207666666666667
 31
0.0
  0
LINE
  5
FF
330
EE
100
AcDbEntity
  8
AM_9
100
AcDbLine
 10
-0.078125
 20
-3.137666666666667
 30
0.0
 11
-0.078125
 21
-3.207666666666667
 31
0.0
  0
LINE
  5
100
330
EE
100
AcDbEntity
  8
AM_9
100
AcDbLine
 10
-0.078125
 20
-3.137666666666667
 30
0.0
 11
0.078125
 21
-3.137666666666667
 31
0.0
  0
LINE
  5
101
330
EE
100
AcDbEntity
  8
AM_9
100
AcDbLine
 10
0.0
 20
-3.137666666666667
 30
0.0
 11
0.0
 21
-3.207666666666667
 31
0.0
  0
LINE
  5
102
330
EE
100
AcDbEntity
  8
AM_9
100
AcDbLine
 10
0.125
 20
-3.075666666666667
 30
0.0
 11
0.125
 21
-2.294266666666667
 31
0.0
  0
LINE
  5
103
330
EE
100
AcDbEntity
  8
AM_9
100
AcDbLine
 10
-0.125
 20
-2.294266666666667
 30
0.0
 11
-0.125
 21
-3.075666666666667
 31
0.0
  0
LINE
  5
104
330
EE
100
AcDbEntity
  8
AM_9
100
AcDbLine
 10
-0.1064
 20
-2.275666666666667
 30
0.0
 11
-0.125
 21
-2.294266666666667
 31
0.0
  0
LINE
  5
105
330
EE
100
AcDbEntity
  8
AM_9
100
AcDbLine
 10
0.125
 20
-2.294266666666667
 30
0.0
 11
0.1064
 21
-2.275666666666667
 31
0.0
  0
LINE
  5
106
330
EE
100
AcDbEntity
  8
AM_9
100
AcDbLine
 10
-0.1064
 20
-2.275666666666667
 30
0.0
 11
0.1064
 21
-2.275666666666667
 31
0.0
  0
LINE
  5
107
330
EE
100
AcDbEntity
  8
AM_9
100
AcDbLine
 10
-0.125
 20
-2.294266666666667
 30
0.0
 11
0.125
 21
-2.294266666666667
 31
0.0
  0
LINE
  5
108
330
EE
100
AcDbEntity
  8
AM_5
100
AcDbLine
 10
-0.125
 20
-2.995666666666667
 30
0.0
 11
0.1250000000000003
 21
-2.995666666666667
 31
0.0
  0
LINE
  5
109
330
EE
100
AcDbEntity
  8
AM_4
100
AcDbLine
 10
0.2185
 20
-3.106666666666666
 30
0.0
 11
0.2185
 21
-3.075666666666667
 31
0.0
  0
LINE
  5
10A
330
EE
100
AcDbEntity
  8
AM_4
100
AcDbLine
 10
-0.2185
 20
-3.075666666666667
 30
0.0
 11
-0.2185
 21
-3.106666666666666
 31
0.0
  0
LINE
  5
10B
330
EE
100
AcDbEntity
  8
AM_4
100
AcDbLine
 10
-0.1174909683127148
 20
-3.207666666666667
 30
0.0
 11
0.1175
 21
-3.207666666666667
 31
0.0
  0
ARC
  5
10C
330
EE
100
AcDbEntity
  8
AM_4
100
AcDbCircle
 10
0.1174999999999995
 20
-3.106666666666666
 30
0.0
 40
0.1010000000000004
100
AcDbArc
 50
270.0
 51
0.0
  0
ARC
  5
10D
330
EE
100
AcDbEntity
  8
AM_4
100
AcDbCircle
 10
-0.1174999999999995
 20
-3.106666666666666
 30
0.0
 40
0.1010000000000006
100
AcDbArc
 50
180.0
 51
270.0
  0
LINE
  5
10E
330
EE
100
AcDbEntity
  8
AM_4
100
AcDbLine
 10
-0.2185
 20
-3.106666666666666
 30
0.0
 11
0.2185
 21
-3.106666666666666
 31
0.0
  0
ENDBLK
  5
F1
330
EE
100
AcDbEntity
  8
0
100
AcDbBlockEnd
  0
BLOCK
  5
111
330
10F
100
AcDbEntity
  8
0
100
AcDbBlockBegin
  2
5_070906LWE_0_in_071215_4
 70
     2
 10
0.0
 20
0.0
 30
0.0
  3
5_070906LWE_0_in_071215_4
  1

  0
ATTDEF
  5
113
330
10F
100
AcDbEntity
  8
AM_6
100
AcDbText
 10
7.78
 20
-2.575666666666667
 30
0.0
 40
0.5
  1
Imperial/E Insert Lockwasher -Inch
100
AcDbAttributeDefinition
  3

  2
NN
 70
     8
280
     0
  0
ATTDEF
  5
114
330
10F
100
AcDbEntity
  8
AM_6
100
AcDbText
 10
7.78
 20
-3.075666666666667
 30
0.0
 40
0.5
  1
Imperial/E Bearings
100
AcDbAttributeDefinition
  3

  2
NT
 70
     8
280
     0
  0
ATTDEF
  5
115
330
10F
100
AcDbEntity
  8
AM_6
100
AcDbText
 10
7.78
 20
-3.575666666666667
 30
0.0
 40
0.5
  1
070906LWE
100
AcDbAttributeDefinition
  3

  2
NB
 70
     8
280
     0
  0
ATTDEF
  5
116
330
10F
100
AcDbEntity
  8
AM_6
100
AcDbText
 10
7.78
 20
-4.075666666666667
 30
0.0
 40
0.5
  1
$PN.LWE
100
AcDbAttributeDefinition
  3

  2
NBSYN
 70
     8
280
     0
  0
ATTDEF
  5
117
330
10F
100
AcDbEntity
  8
AM_6
100
AcDbText
 10
7.78
 20
-4.575666666666667
 30
0.0
 40
0.5
  1
070906
100
AcDbAttributeDefinition
  3

  2
LINA
 70
     8
280
     0
  0
ATTDEF
  5
118
330
10F
100
AcDbEntity
  8
AM_6
100
AcDbText
 10
7.78
 20
-5.075666666666667
 30
0.0
 40
0.5
  1
3-15/16
100
AcDbAttributeDefinition
  3

  2
SS
 70
     8
280
     0
  0
ATTDEF
  5
119
330
10F
100
AcDbEntity
  8
AM_6
100
AcDbText
 10
7.78
 20
-5.575666666666667
 30
0.0
 40
0.5
  1
5.560000
100
AcDbAttributeDefinition
  3

  2
E1
 70
     8
280
     0
  0
ATTDEF
  5
11A
330
10F
100
AcDbEntity
  8
AM_6
100
AcDbText
 10
7.78
 20
-6.075666666666667
 30
0.0
 40
0.5
  1
3.937500
100
AcDbAttributeDefinition
  3

  2
SS1
 70
     8
280
     0
  0
ATTDEF
  5
11B
330
10F
100
AcDbEntity
  8
AM_6
100
AcDbText
 10
7.78
 20
-6.575666666666667
 30
0.0
 40
0.5
  1
070906
100
AcDbAttributeDefinition
  3

  2
PN
 70
     8
280
     0
  0
ATTDEF
  5
11C
330
10F
100
AcDbEntity
  8
AM_6
100
AcDbText
 10
7.78
 20
-7.075666666666667
 30
0.0
 40
0.5
  1
INS-IP-315R
100
AcDbAttributeDefinition
  3

  2
DESCRIPTION
 70
     8
280
     0
  0
ATTDEF
  5
11D
330
10F
100
AcDbEntity
  8
AM_6
100
AcDbText
 10
7.78
 20
-7.575666666666667
 30
0.0
 40
0.5
  1
7.0866
100
AcDbAttributeDefinition
  3

  2
A
 70
     8
280
     0
  0
ATTDEF
  5
11E
330
10F
100
AcDbEntity
  8
AM_6
100
AcDbText
 10
7.78
 20
-8.075666666666667
 30
0.0
 40
0.5
  1
1-7/8
100
AcDbAttributeDefinition
  3

  2
B
 70
     8
280
     0
  0
ATTDEF
  5
11F
330
10F
100
AcDbEntity
  8
AM_6
100
AcDbText
 10
7.78
 20
-8.575666666666667
 30
0.0
 40
0.5
  1
1.875000
100
AcDbAttributeDefinition
  3

  2
B1
 70
     8
280
     0
  0
ATTDEF
  5
120
330
10F
100
AcDbEntity
  8
AM_6
100
AcDbText
 10
7.78
 20
-9.075666666666667
 30
0.0
 40
0.5
  1
4-45/64
100
AcDbAttributeDefinition
  3

  2
C
 70
     8
280
     0
  0
ATTDEF
  5
121
330
10F
100
AcDbEntity
  8
AM_6
100
AcDbText
 10
7.78
 20
-9.575666666666667
 30
0.0
 40
0.5
  1
4.703125
100
AcDbAttributeDefinition
  3

  2
C1
 70
     8
280
     0
  0
ATTDEF
  5
122
330
10F
100
AcDbEntity
  8
AM_6
100
AcDbText
 10
7.78
 20
-10.07566666666667
 30
0.0
 40
0.5
  1
1.646
100
AcDbAttributeDefinition
  3

  2
D
 70
     8
280
     0
  0
ATTDEF
  5
123
330
10F
100
AcDbEntity
  8
AM_6
100
AcDbText
 10
7.78
 20
-10.57566666666667
 30
0.0
 40
0.5
  1
5-9/16
100
AcDbAttributeDefinition
  3

  2
E
 70
     8
280
     0
  0
ATTDEF
  5
124
330
10F
100
AcDbEntity
  8
AM_6
100
AcDbText
 10
7.78
 20
-11.07566666666667
 30
0.0
 40
0.5
  1
0.2500
100
AcDbAttributeDefinition
  3

  2
NDM
 70
     8
280
     0
  0
ATTDEF
  5
125
330
10F
100
AcDbEntity
  8
AM_6
100
AcDbText
 10
7.78
 20
-11.57566666666667
 30
0.0
 40
0.5
  1
0.1960
100
AcDbAttributeDefinition
  3

  2
KDM
 70
     8
280
     0
  0
ATTDEF
  5
126
330
10F
100
AcDbEntity
  8
AM_6
100
AcDbText
 10
7.78
 20
-12.07566666666667
 30
0.0
 40
0.5
  1
4.83
100
AcDbAttributeDefinition
  3

  2
AL
 70
     8
280
     0
  0
ATTDEF
  5
127
330
10F
100
AcDbEntity
  8
AM_6
100
AcDbText
 10
7.78
 20
-12.57566666666667
 30
0.0
 40
0.5
  1
0.50
100
AcDbAttributeDefinition
  3

  2
BL
 70
     8
280
     0
  0
ATTDEF
  5
128
330
10F
100
AcDbEntity
  8
AM_6
100
AcDbText
 10
7.78
 20
-13.07566666666667
 30
0.0
 40
0.5
  1
0.07
100
AcDbAttributeDefinition
  3

  2
CL
 70
     8
280
     0
  0
ATTDEF
  5
129
330
10F
100
AcDbEntity
  8
AM_6
100
AcDbText
 10
7.78
 20
-13.57566666666667
 30
0.0
 40
0.5
  1
0.50
100
AcDbAttributeDefinition
  3

  2
DL
 70
     8
280
     0
  0
ATTDEF
  5
12A
330
10F
100
AcDbEntity
  8
AM_6
100
AcDbText
 10
7.78
 20
-14.07566666666667
 30
0.0
 40
0.5
  1
baldor
100
AcDbAttributeDefinition
  3

  2
COMPANY
 70
     8
280
     0
  0
LINE
  5
12B
330
10F
100
AcDbEntity
  8
AM_9
100
AcDbLine
 10
-2.48375
 20
-3.005666666666667
 30
0.0
 11
-2.48375
 21
-3.075666666666667
 31
0.0
  0
LINE
  5
12C
330
10F
100
AcDbEntity
  8
AM_9
100
AcDbLine
 10
-2.608789619226237
 20
-3.005666666666667
 30
0.0
 11
-2.608789619226237
 21
-3.075666666666667
 31
0.0
  0
LINE
  5
12D
330
10F
100
AcDbEntity
  8
AM_9
100
AcDbLine
 10
2.483749999999999
 20
-3.005666666666667
 30
0.0
 11
2.483749999999999
 21
-3.075666666666667
 31
0.0
  0
LINE
  5
12E
330
10F
100
AcDbEntity
  8
AM_9
100
AcDbLine
 10
2.608789619226237
 20
-3.075666666666667
 30
0.0
 11
2.608789619226237
 21
-3.005666666666667
 31
0.0
  0
LINE
  5
12F
330
10F
100
AcDbEntity
  8
AM_9
100
AcDbLine
 10
-2.124704572769724
 20
-3.005666666666667
 30
0.0
 11
-2.124704572769724
 21
-3.075666666666667
 31
0.0
  0
LINE
  5
130
330
10F
100
AcDbEntity
  8
AM_9
100
AcDbLine
 10
2.124704572769724
 20
-3.005666666666667
 30
0.0
 11
2.124704572769724
 21
-3.075666666666667
 31
0.0
  0
LINE
  5
131
330
10F
100
AcDbEntity
  8
AM_9
100
AcDbLine
 10
1.590781359071856
 20
-3.005666666666667
 30
0.0
 11
1.590781359071856
 21
-3.075666666666667
 31
0.0
  0
LINE
  5
132
330
10F
100
AcDbEntity
  8
AM_9
100
AcDbLine
 10
-1.590781359071856
 20
-3.005666666666667
 30
0.0
 11
-1.590781359071856
 21
-3.075666666666667
 31
0.0
  0
LINE
  5
133
330
10F
100
AcDbEntity
  8
AM_9
100
AcDbLine
 10
1.414004663775219
 20
-3.005666666666667
 30
0.0
 11
1.414004663775216
 21
-3.075666666666667
 31
0.0
  0
LINE
  5
134
330
10F
100
AcDbEntity
  8
AM_9
100
AcDbLine
 10
-1.414004663775219
 20
-3.005666666666667
 30
0.0
 11
-1.414004663775219
 21
-3.075666666666667
 31
0.0
  0
LINE
  5
135
330
10F
100
AcDbEntity
  8
AM_9
100
AcDbLine
 10
-0.9285741802332305
 20
-3.005666666666667
 30
0.0
 11
-0.9285741802332305
 21
-3.075666666666667
 31
0.0
  0
LINE
  5
136
330
10F
100
AcDbEntity
  8
AM_9
100
AcDbLine
 10
-0.8673728304450146
 20
-2.575666666666667
 30
0.0
 11
-0.8673728304450146
 21
-3.075666666666667
 31
0.0
  0
LINE
  5
137
330
10F
100
AcDbEntity
  8
AM_9
100
AcDbLine
 10
-1.844664815420405
 20
-3.005666666666667
 30
0.0
 11
-1.844664815420405
 21
-3.075666666666667
 31
0.0
  0
LINE
  5
138
330
10F
100
AcDbEntity
  8
AM_9
100
AcDbLine
 10
-1.6678881201238
 20
-3.005666666666667
 30
0.0
 11
-1.6678881201238
 21
-3.075666666666667
 31
0.0
  0
LINE
  5
139
330
10F
100
AcDbEntity
  8
AM_9
100
AcDbLine
 10
-1.881304484634041
 20
-3.005666666666667
 30
0.0
 11
-1.881304484634041
 21
-3.075666666666667
 31
0.0
  0
LINE
  5
13A
330
10F
100
AcDbEntity
  8
AM_9
100
AcDbLine
 10
1.667888120123769
 20
-3.005666666666667
 30
0.0
 11
1.667888120123769
 21
-3.075666666666667
 31
0.0
  0
LINE
  5
13B
330
10F
100
AcDbEntity
  8
AM_9
100
AcDbLine
 10
1.844664815420406
 20
-3.005666666666667
 30
0.0
 11
1.844664815420406
 21
-3.075666666666667
 31
0.0
  0
LINE
  5
13C
330
10F
100
AcDbEntity
  8
AM_9
100
AcDbLine
 10
1.881304484634041
 20
-3.075666666666667
 30
0.0
 11
1.881304484634041
 21
-3.005666666666667
 31
0.0
  0
LINE
  5
13D
330
10F
100
AcDbEntity
  8
AM_9
100
AcDbLine
 10
-0.6976042971054084
 20
-3.005666666666667
 30
0.0
 11
-0.6976042971054084
 21
-3.075666666666667
 31
0.0
  0
LINE
  5
13E
330
10F
100
AcDbEntity
  8
AM_9
100
AcDbLine
 10
-0.6364029473171926
 20
-2.575666666666667
 30
0.0
 11
-0.9071020317021949
 21
-2.575666666666667
 31
0.0
  0
LINE
  5
13F
330
10F
100
AcDbEntity
  8
AM_9
100
AcDbLine
 10
-0.6364029473171926
 20
-2.575666666666667
 30
0.0
 11
-0.6364029473171926
 21
-3.075666666666667
 31
0.0
  0
LINE
  5
140
330
10F
100
AcDbEntity
  8
AM_9
100
AcDbLine
 10
-0.6761321485743729
 20
-3.005666666666667
 30
0.0
 11
-0.6761321485743729
 21
-2.575666666666667
 31
0.0
  0
LINE
  5
141
330
10F
100
AcDbEntity
  8
AM_9
100
AcDbLine
 10
-0.9071020317021949
 20
-2.575666666666667
 30
0.0
 11
-0.9071020317021952
 21
-3.005666666666667
 31
0.0
  0
LINE
  5
142
330
10F
100
AcDbEntity
  8
AM_4
100
AcDbLine
 10
-2.78
 20
-3.005666666666667
 30
0.0
 11
-2.78
 21
-3.075666666666667
 31
0.0
  0
LINE
  5
143
330
10F
100
AcDbEntity
  8
AM_4
100
AcDbLine
 10
2.78
 20
-3.075666666666667
 30
0.0
 11
2.78
 21
-3.005666666666667
 31
0.0
  0
LINE
  5
144
330
10F
100
AcDbEntity
  8
AM_4
100
AcDbLine
 10
-2.78
 20
-3.075666666666667
 30
0.0
 11
2.78
 21
-3.075666666666667
 31
0.0
  0
LINE
  5
145
330
10F
100
AcDbEntity
  8
AM_4
100
AcDbLine
 10
1.781902906182383
 20
-3.005666666666667
 30
0.0
 11
2.135456296775655
 21
-3.005666666666667
 31
0.0
  0
LINE
  5
146
330
10F
100
AcDbEntity
  8
AM_4
100
AcDbLine
 10
-2.135456296775655
 20
-3.005666666666667
 30
0.0
 11
-1.781902906182382
 21
-3.005666666666667
 31
0.0
  0
ENDBLK
  5
112
330
10F
100
AcDbEntity
  8
0
100
AcDbBlockEnd
  0
BLOCK
  5
149
330
147
100
AcDbEntity
  8
0
100
AcDbBlockBegin
  2
6_070906E_0_in_071215_4
 70
     2
 10
0.0
 20
0.0
 30
0.0
  3
6_070906E_0_in_071215_4
  1

  0
ATTDEF
  5
14B
330
147
100
AcDbEntity
  8
AM_6
100
AcDbText
 10
8.5433
 20
1.375000000000003
 30
0.0
 40
0.5
  1
Imperial/E Insert -Inch
100
AcDbAttributeDefinition
  3

  2
NN
 70
     8
280
     0
  0
ATTDEF
  5
14C
330
147
100
AcDbEntity
  8
AM_6
100
AcDbText
 10
8.5433
 20
0.8750000000000033
 30
0.0
 40
0.5
  1
Imperial Bearings
100
AcDbAttributeDefinition
  3

  2
NT
 70
     8
280
     0
  0
ATTDEF
  5
14D
330
147
100
AcDbEntity
  8
AM_6
100
AcDbText
 10
8.5433
 20
0.3750000000000033
 30
0.0
 40
0.5
  1
070906E
100
AcDbAttributeDefinition
  3

  2
NB
 70
     8
280
     0
  0
ATTDEF
  5
14E
330
147
100
AcDbEntity
  8
AM_6
100
AcDbText
 10
8.5433
 20
-0.1249999999999967
 30
0.0
 40
0.5
  1
$PN.
100
AcDbAttributeDefinition
  3

  2
NBSYN
 70
     8
280
     0
  0
ATTDEF
  5
14F
330
147
100
AcDbEntity
  8
AM_6
100
AcDbText
 10
8.5433
 20
-0.6249999999999967
 30
0.0
 40
0.5
  1
070906E
100
AcDbAttributeDefinition
  3

  2
LINA
 70
     8
280
     0
  0
ATTDEF
  5
150
330
147
100
AcDbEntity
  8
AM_6
100
AcDbText
 10
8.5433
 20
-1.124999999999997
 30
0.0
 40
0.5
  1
3-15/16
100
AcDbAttributeDefinition
  3

  2
SS
 70
     8
280
     0
  0
ATTDEF
  5
151
330
147
100
AcDbEntity
  8
AM_6
100
AcDbText
 10
8.5433
 20
-1.624999999999997
 30
0.0
 40
0.5
  1
3.937500
100
AcDbAttributeDefinition
  3

  2
SS1
 70
     8
280
     0
  0
ATTDEF
  5
152
330
147
100
AcDbEntity
  8
AM_6
100
AcDbText
 10
8.5433
 20
-2.124999999999996
 30
0.0
 40
0.5
  1
070906E
100
AcDbAttributeDefinition
  3

  2
PN
 70
     8
280
     0
  0
ATTDEF
  5
153
330
147
100
AcDbEntity
  8
AM_6
100
AcDbText
 10
8.5433
 20
-2.624999999999996
 30
0.0
 40
0.5
  1
INS-IP-315R
100
AcDbAttributeDefinition
  3

  2
DESCRIPTION
 70
     8
280
     0
  0
ATTDEF
  5
154
330
147
100
AcDbEntity
  8
AM_6
100
AcDbText
 10
8.5433
 20
-3.124999999999996
 30
0.0
 40
0.5
  1
Contact Seal
100
AcDbAttributeDefinition
  3

  2
ST
 70
     8
280
     0
  0
ATTDEF
  5
155
330
147
100
AcDbEntity
  8
AM_6
100
AcDbText
 10
8.5433
 20
-3.624999999999996
 30
0.0
 40
0.5
  1
1
100
AcDbAttributeDefinition
  3

  2
ST1
 70
     8
280
     0
  0
ATTDEF
  5
156
330
147
100
AcDbEntity
  8
AM_6
100
AcDbText
 10
8.5433
 20
-4.124999999999996
 30
0.0
 40
0.5
  1
7.0866
100
AcDbAttributeDefinition
  3

  2
A
 70
     8
280
     0
  0
ATTDEF
  5
157
330
147
100
AcDbEntity
  8
AM_6
100
AcDbText
 10
8.5433
 20
-4.624999999999996
 30
0.0
 40
0.5
  1
1-7/8
100
AcDbAttributeDefinition
  3

  2
B
 70
     8
280
     0
  0
ATTDEF
  5
158
330
147
100
AcDbEntity
  8
AM_6
100
AcDbText
 10
8.5433
 20
-5.124999999999996
 30
0.0
 40
0.5
  1
1.875000
100
AcDbAttributeDefinition
  3

  2
B1
 70
     8
280
     0
  0
ATTDEF
  5
159
330
147
100
AcDbEntity
  8
AM_6
100
AcDbText
 10
8.5433
 20
-5.624999999999996
 30
0.0
 40
0.5
  1
4-45/64
100
AcDbAttributeDefinition
  3

  2
C
 70
     8
280
     0
  0
ATTDEF
  5
15A
330
147
100
AcDbEntity
  8
AM_6
100
AcDbText
 10
8.5433
 20
-6.124999999999996
 30
0.0
 40
0.5
  1
4.700000
100
AcDbAttributeDefinition
  3

  2
C1
 70
     8
280
     0
  0
ATTDEF
  5
15B
330
147
100
AcDbEntity
  8
AM_6
100
AcDbText
 10
8.5433
 20
-6.624999999999996
 30
0.0
 40
0.5
  1
6.73000
100
AcDbAttributeDefinition
  3

  2
CR
 70
     8
280
     0
  0
ATTDEF
  5
15C
330
147
100
AcDbEntity
  8
AM_6
100
AcDbText
 10
8.5433
 20
-7.124999999999996
 30
0.0
 40
0.5
  1
1.646
100
AcDbAttributeDefinition
  3

  2
D
 70
     8
280
     0
  0
ATTDEF
  5
15D
330
147
100
AcDbEntity
  8
AM_6
100
AcDbText
 10
8.5433
 20
-7.624999999999996
 30
0.0
 40
0.5
  1
5-9/16
100
AcDbAttributeDefinition
  3

  2
E
 70
     8
280
     0
  0
ATTDEF
  5
15E
330
147
100
AcDbEntity
  8
AM_6
100
AcDbText
 10
8.5433
 20
-8.124999999999996
 30
0.0
 40
0.5
  1
5.562500
100
AcDbAttributeDefinition
  3

  2
E1
 70
     8
280
     0
  0
ATTDEF
  5
15F
330
147
100
AcDbEntity
  8
AM_6
100
AcDbText
 10
8.5433
 20
-8.624999999999996
 30
0.0
 40
0.5
  1
0.2500
100
AcDbAttributeDefinition
  3

  2
NDM
 70
     8
280
     0
  0
ATTDEF
  5
160
330
147
100
AcDbEntity
  8
AM_6
100
AcDbText
 10
8.5433
 20
-9.124999999999996
 30
0.0
 40
0.5
  1
0.1960
100
AcDbAttributeDefinition
  3

  2
KDM
 70
     8
280
     0
  0
ATTDEF
  5
161
330
147
100
AcDbEntity
  8
AM_6
100
AcDbText
 10
8.5433
 20
-9.624999999999996
 30
0.0
 40
0.5
  1
4.83
100
AcDbAttributeDefinition
  3

  2
AL
 70
     8
280
     0
  0
ATTDEF
  5
162
330
147
100
AcDbEntity
  8
AM_6
100
AcDbText
 10
8.5433
 20
-10.125
 30
0.0
 40
0.5
  1
0.50
100
AcDbAttributeDefinition
  3

  2
BL
 70
     8
280
     0
  0
ATTDEF
  5
163
330
147
100
AcDbEntity
  8
AM_6
100
AcDbText
 10
8.5433
 20
-10.625
 30
0.0
 40
0.5
  1
0.07
100
AcDbAttributeDefinition
  3

  2
CL
 70
     8
280
     0
  0
ATTDEF
  5
164
330
147
100
AcDbEntity
  8
AM_6
100
AcDbText
 10
8.5433
 20
-11.125
 30
0.0
 40
0.5
  1
0.50
100
AcDbAttributeDefinition
  3

  2
DL
 70
     8
280
     0
  0
ATTDEF
  5
165
330
147
100
AcDbEntity
  8
AM_6
100
AcDbText
 10
8.5433
 20
-11.625
 30
0.0
 40
0.5
  1
0.8000
100
AcDbAttributeDefinition
  3

  2
LL
 70
     8
280
     0
  0
ATTDEF
  5
166
330
147
100
AcDbEntity
  8
AM_6
100
AcDbText
 10
8.5433
 20
-12.125
 30
0.0
 40
0.5
  1
0.025
100
AcDbAttributeDefinition
  3

  2
Y
 70
     8
280
     0
  0
ATTDEF
  5
167
330
147
100
AcDbEntity
  8
AM_6
100
AcDbText
 10
8.5433
 20
-12.625
 30
0.0
 40
0.5
  1
0.025000
100
AcDbAttributeDefinition
  3

  2
Y1
 70
     8
280
     0
  0
ATTDEF
  5
168
330
147
100
AcDbEntity
  8
AM_6
100
AcDbText
 10
8.5433
 20
-13.125
 30
0.0
 40
0.5
  1
4-1/2
100
AcDbAttributeDefinition
  3

  2
Z
 70
     8
280
     0
  0
ATTDEF
  5
169
330
147
100
AcDbEntity
  8
AM_6
100
AcDbText
 10
8.5433
 20
-13.625
 30
0.0
 40
0.5
  1
4.500000
100
AcDbAttributeDefinition
  3

  2
Z1
 70
     8
280
     0
  0
ATTDEF
  5
16A
330
147
100
AcDbEntity
  8
AM_6
100
AcDbText
 10
8.5433
 20
-14.125
 30
0.0
 40
0.5
  1
2.02000
100
AcDbAttributeDefinition
  3

  2
P1
 70
     8
280
     0
  0
ATTDEF
  5
16B
330
147
100
AcDbEntity
  8
AM_6
100
AcDbText
 10
8.5433
 20
-14.625
 30
0.0
 40
0.5
  1
2.12000
100
AcDbAttributeDefinition
  3

  2
H1
 70
     8
280
     0
  0
ATTDEF
  5
16C
330
147
100
AcDbEntity
  8
AM_6
100
AcDbText
 10
8.5433
 20
-15.125
 30
0.0
 40
0.5
  1
1.22000
100
AcDbAttributeDefinition
  3

  2
G1
 70
     8
280
     0
  0
ATTDEF
  5
16D
330
147
100
AcDbEntity
  8
AM_6
100
AcDbText
 10
8.5433
 20
-15.625
 30
0.0
 40
0.5
  1
0.13200
100
AcDbAttributeDefinition
  3

  2
CW
 70
     8
280
     0
  0
ATTDEF
  5
16E
330
147
100
AcDbEntity
  8
AM_6
100
AcDbText
 10
8.5433
 20
-16.125
 30
0.0
 40
0.5
  1
5.56000
100
AcDbAttributeDefinition
  3

  2
L1
 70
     8
280
     0
  0
ATTDEF
  5
16F
330
147
100
AcDbEntity
  8
AM_6
100
AcDbText
 10
8.5433
 20
-16.625
 30
0.0
 40
0.5
  1
baldor
100
AcDbAttributeDefinition
  3

  2
COMPANY
 70
     8
280
     0
  0
LINE
  5
170
330
147
100
AcDbEntity
  8
AM_9
100
AcDbLine
 10
-0.9091983479225701
 20
0.6415000000000004
 30
0.0
 11
-0.9091983479225701
 21
-3.005666666666667
 31
0.0
  0
LINE
  5
171
330
147
100
AcDbEntity
  8
AM_9
100
AcDbLine
 10
1.530886181268876
 20
-2.505666666666667
 30
0.0
 11
1.530886181268876
 21
-3.005666666666667
 31
0.0
  0
LINE
  5
172
330
147
100
AcDbEntity
  8
AM_9
100
AcDbLine
 10
-1.530886181268875
 20
-2.505666666666667
 30
0.0
 11
-1.530886181268875
 21
-3.005666666666667
 31
0.0
  0
LINE
  5
173
330
147
100
AcDbEntity
  8
AM_9
100
AcDbLine
 10
-0.6782284647947485
 20
0.6415000000000004
 30
0.0
 11
-0.6782284647947485
 21
-3.005666666666667
 31
0.0
  0
LINE
  5
174
330
147
100
AcDbEntity
  8
AM_9
100
AcDbLine
 10
-0.6364029473171929
 20
0.6415000000000004
 30
0.0
 11
-0.6364029473171927
 21
-3.35
 31
0.0
  0
LINE
  5
175
330
147
100
AcDbEntity
  8
AM_9
100
AcDbLine
 10
-0.8673728304450146
 20
-3.075666666666667
 30
0.0
 11
-0.8673728304450146
 21
0.6415000000000004
 31
0.0
  0
LINE
  5
176
330
147
100
AcDbEntity
  8
AM_9
100
AcDbLine
 10
-1.96875
 20
0.6415000000000003
 30
0.0
 11
-1.96875
 21
-3.35
 31
0.0
  0
LINE
  5
177
330
147
100
AcDbEntity
  8
AM_9
100
AcDbLine
 10
1.96875
 20
-3.35
 30
0.0
 11
1.96875
 21
0.6415000000000003
 31
0.0
  0
LINE
  5
178
330
147
100
AcDbEntity
  8
AM_9
100
AcDbLine
 10
-2.072368421052632
 20
1.35
 30
0.0
 11
-2.072368421052632
 21
0.6415000000000003
 31
0.0
  0
LINE
  5
179
330
147
100
AcDbEntity
  8
AM_9
100
AcDbLine
 10
2.072368421052632
 20
0.6415000000000003
 30
0.0
 11
2.072368421052632
 21
1.35
 31
0.0
  0
LINE
  5
17A
330
147
100
AcDbEntity
  8
AM_9
100
AcDbLine
 10
-0.6761321485743731
 20
-3.075666666666667
 30
0.0
 11
-0.6761321485743731
 21
-3.005666666666667
 31
0.0
  0
LINE
  5
17B
330
147
100
AcDbEntity
  8
AM_9
100
AcDbLine
 10
-0.9071020317021949
 20
-3.005666666666667
 30
0.0
 11
-0.9071020317021946
 21
-3.075666666666667
 31
0.0
  0
LINE
  5
17C
330
147
100
AcDbEntity
  8
AM_9
100
AcDbLine
 10
-2.072368421052632
 20
-3.005666666666667
 30
0.0
 11
-2.072368421052632
 21
-3.075666666666667
 31
0.0
  0
LINE
  5
17D
330
147
100
AcDbEntity
  8
AM_9
100
AcDbLine
 10
2.072368421052632
 20
-3.075666666666667
 30
0.0
 11
2.072368421052632
 21
-3.005666666666667
 31
0.0
  0
LINE
  5
17E
330
147
100
AcDbEntity
  8
AM_9
100
AcDbLine
 10
1.530886181268876
 20
-2.505666666666667
 30
0.0
 11
1.78809920811998
 21
-2.505666666666667
 31
0.0
  0
LINE
  5
17F
330
147
100
AcDbEntity
  8
AM_9
100
AcDbLine
 10
-1.788099208119979
 20
-2.505666666666667
 30
0.0
 11
-1.530886181268875
 21
-2.505666666666667
 31
0.0
  0
LINE
  5
180
330
147
100
AcDbEntity
  8
AM_9
100
AcDbLine
 10
2.25
 20
1.35
 30
0.0
 11
-2.25
 21
1.35
 31
0.0
  0
LINE
  5
181
330
147
100
AcDbEntity
  8
AM_9
100
AcDbLine
 10
-2.25
 20
1.375000000000003
 30
0.0
 11
-2.25
 21
1.35
 31
0.0
  0
LINE
  5
182
330
147
100
AcDbEntity
  8
AM_9
100
AcDbLine
 10
2.25
 20
1.35
 30
0.0
 11
2.25
 21
1.375000000000003
 31
0.0
  0
LINE
  5
183
330
147
100
AcDbEntity
  8
AM_9
100
AcDbLine
 10
0.0
 20
-2.165666666666667
 30
0.0
 11
-0.09795
 21
-2.22221812553379
 31
0.0
  0
LINE
  5
184
330
147
100
AcDbEntity
  8
AM_9
100
AcDbLine
 10
0.09795
 20
-2.22221812553379
 30
0.0
 11
0.0
 21
-2.165666666666667
 31
0.0
  0
LINE
  5
185
330
147
100
AcDbEntity
  8
AM_9
100
AcDbLine
 10
0.09795
 20
-2.22221812553379
 30
0.0
 11
-0.09795
 21
-2.22221812553379
 31
0.0
  0
LINE
  5
186
330
147
100
AcDbEntity
  8
AM_9
100
AcDbLine
 10
-0.09795
 20
-2.22221812553379
 30
0.0
 11
-0.09795
 21
-2.978616666666667
 31
0.0
  0
LINE
  5
187
330
147
100
AcDbEntity
  8
AM_9
100
AcDbLine
 10
0.09795
 20
-2.978616666666667
 30
0.0
 11
0.09795
 21
-2.22221812553379
 31
0.0
  0
LINE
  5
188
330
147
100
AcDbEntity
  8
AM_9
100
AcDbLine
 10
0.09795
 20
-2.978616666666667
 30
0.0
 11
-0.09795
 21
-2.978616666666667
 31
0.0
  0
LINE
  5
189
330
147
100
AcDbEntity
  8
AM_9
100
AcDbLine
 10
-0.09795
 20
-2.978616666666667
 30
0.0
 11
-0.1249999999999999
 21
-3.005666666666667
 31
0.0
  0
LINE
  5
18A
330
147
100
AcDbEntity
  8
AM_9
100
AcDbLine
 10
0.1249999999999999
 20
-3.005666666666667
 30
0.0
 11
0.09795
 21
-2.978616666666667
 31
0.0
  0
LINE
  5
18B
330
147
100
AcDbEntity
  8
AM_9
100
AcDbLine
 10
2.798367600339608
 20
-2.025
 30
0.0
 11
2.811325762628257
 21
-1.282627379678136
 31
0.0
  0
LINE
  5
18C
330
147
100
AcDbEntity
  8
AM_9
100
AcDbLine
 10
-2.811325762628257
 20
-1.282627379678136
 30
0.0
 11
-2.798367600339608
 21
-2.025
 31
0.0
  0
LINE
  5
18D
330
147
100
AcDbEntity
  8
AM_9
100
AcDbLine
 10
2.811325762628257
 20
-1.282627379678136
 30
0.0
 11
-2.811325762628257
 21
-1.282627379678136
 31
0.0
  0
ARC
  5
18E
330
147
100
AcDbEntity
  8
AM_9
100
AcDbCircle
 10
-2.861318147386076
 20
-1.283500000000001
 30
0.0
 40
0.0500000000000003
100
AcDbArc
 50
1.000000000000629
 51
90.0
  0
ARC
  5
18F
330
147
100
AcDbEntity
  8
AM_9
100
AcDbCircle
 10
2.861318147386076
 20
-1.283500000000001
 30
0.0
 40
0.0500000000000007
100
AcDbArc
 50
90.0
 51
178.9999999999994
  0
LINE
  5
190
330
147
100
AcDbEntity
  8
AM_9
100
AcDbLine
 10
3.0
 20
1.375000000000003
 30
0.0
 11
-3.0
 21
1.375000000000003
 31
0.0
  0
LINE
  5
191
330
147
100
AcDbEntity
  8
AM_9
100
AcDbLine
 10
-3.0
 20
1.375000000000003
 30
0.0
 11
-3.0
 21
1.0165
 31
0.0
  0
LINE
  5
192
330
147
100
AcDbEntity
  8
AM_9
100
AcDbLine
 10
3.0
 20
1.0165
 30
0.0
 11
3.0
 21
1.375000000000003
 31
0.0
  0
LINE
  5
193
330
147
100
AcDbEntity
  8
AM_9
100
AcDbLine
 10
3.069058622134927
 20
1.0165
 30
0.0
 11
-3.06905862212243
 21
1.0165
 31
0.0
  0
ARC
  5
194
330
147
100
AcDbEntity
  8
AM_9
100
AcDbCircle
 10
-3.069058622134927
 20
0.9164999999999992
 30
0.0
 40
0.1000000000000012
100
AcDbArc
 50
90.0
 51
149.9999999999998
  0
ARC
  5
195
330
147
100
AcDbEntity
  8
AM_9
100
AcDbCircle
 10
3.069058622134927
 20
0.9164999999999992
 30
0.0
 40
0.1000000000000013
100
AcDbArc
 50
30.00000000000026
 51
90.0
  0
LINE
  5
196
330
147
100
AcDbEntity
  8
AM_9
100
AcDbLine
 10
3.155661162513371
 20
0.9665000000000002
 30
0.0
 11
-3.155661162513371
 21
0.9665000000000002
 31
0.0
  0
LINE
  5
197
330
147
100
AcDbEntity
  8
AM_9
100
AcDbLine
 10
-3.155661162513371
 20
0.9665000000000002
 30
0.0
 11
-3.3433
 21
0.6415000000000003
 31
0.0
  0
LINE
  5
198
330
147
100
AcDbEntity
  8
AM_9
100
AcDbLine
 10
3.3433
 20
0.6415000000000003
 30
0.0
 11
3.155661162513371
 21
0.9665000000000002
 31
0.0
  0
LINE
  5
199
330
147
100
AcDbEntity
  8
AM_9
100
AcDbLine
 10
-3.44955
 20
-0.2618734122634724
 30
0.0
 11
-3.44955
 21
-0.3701265877365268
 31
0.0
  0
LINE
  5
19A
330
147
100
AcDbEntity
  8
AM_9
100
AcDbLine
 10
3.44955
 20
-0.3701265877365268
 30
0.0
 11
3.44955
 21
-0.2618734122634724
 31
0.0
  0
LINE
  5
19B
330
147
100
AcDbEntity
  8
AM_9
100
AcDbLine
 10
3.44955
 20
-0.2618734122634724
 30
0.0
 11
-3.44955
 21
-0.2618734122634724
 31
0.0
  0
LINE
  5
19C
330
147
100
AcDbEntity
  8
AM_9
100
AcDbLine
 10
3.44955
 20
-0.2618734122634724
 30
0.0
 11
3.5433
 21
-0.2077468245269446
 31
0.0
  0
LINE
  5
19D
330
147
100
AcDbEntity
  8
AM_9
100
AcDbLine
 10
-3.5433
 20
-0.2077468245269446
 30
0.0
 11
-3.44955
 21
-0.2618734122634724
 31
0.0
  0
LINE
  5
19E
330
147
100
AcDbEntity
  8
AM_9
100
AcDbLine
 10
3.44955
 20
-0.3701265877365268
 30
0.0
 11
-3.44955
 21
-0.3701265877365268
 31
0.0
  0
LINE
  5
19F
330
147
100
AcDbEntity
  8
AM_9
100
AcDbLine
 10
-3.44955
 20
-0.3701265877365268
 30
0.0
 11
-3.5433
 21
-0.4242531754730546
 31
0.0
  0
LINE
  5
1A0
330
147
100
AcDbEntity
  8
AM_9
100
AcDbLine
 10
3.5433
 20
-0.4242531754730546
 30
0.0
 11
3.44955
 21
-0.3701265877365268
 31
0.0
  0
LINE
  5
1A1
330
147
100
AcDbEntity
  8
AM_9
100
AcDbLine
 10
3.533300000000001
 20
-1.2335
 30
0.0
 11
-3.53329999999055
 21
-1.2335
 31
0.0
  0
ARC
  5
1A2
330
147
100
AcDbEntity
  8
AM_9
100
AcDbCircle
 10
-3.533300000000001
 20
-1.223500000000001
 30
0.0
 40
0.0099999999999989
100
AcDbArc
 50
180.0
 51
270.0
  0
ARC
  5
1A3
330
147
100
AcDbEntity
  8
AM_9
100
AcDbCircle
 10
3.533300000000001
 20
-1.223500000000001
 30
0.0
 40
0.0099999999999991
100
AcDbArc
 50
270.0
 51
0.0
  0
LINE
  5
1A4
330
147
100
AcDbEntity
  8
AM_9
100
AcDbLine
 10
3.5433
 20
-0.2077468245269446
 30
0.0
 11
-3.5433
 21
-0.2077468245269446
 31
0.0
  0
LINE
  5
1A5
330
147
100
AcDbEntity
  8
AM_9
100
AcDbLine
 10
-3.5433
 20
0.5914999999999999
 30
0.0
 11
-3.5433
 21
-0.2077468245269446
 31
0.0
  0
LINE
  5
1A6
330
147
100
AcDbEntity
  8
AM_9
100
AcDbLine
 10
3.5433
 20
-0.2077468245269446
 30
0.0
 11
3.5433
 21
0.5914999999999999
 31
0.0
  0
LINE
  5
1A7
330
147
100
AcDbEntity
  8
AM_9
100
AcDbLine
 10
3.5433
 20
-0.4242531754730546
 30
0.0
 11
-3.5433
 21
-0.4242531754730546
 31
0.0
  0
LINE
  5
1A8
330
147
100
AcDbEntity
  8
AM_9
100
AcDbLine
 10
3.5433
 20
-1.2235
 30
0.0
 11
-3.5433
 21
-1.2235
 31
0.0
  0
LINE
  5
1A9
330
147
100
AcDbEntity
  8
AM_9
100
AcDbLine
 10
-3.5433
 20
-0.4242531754730546
 30
0.0
 11
-3.5433
 21
-1.2235
 31
0.0
  0
LINE
  5
1AA
330
147
100
AcDbEntity
  8
AM_9
100
AcDbLine
 10
3.5433
 20
-1.2235
 30
0.0
 11
3.5433
 21
-0.4242531754730546
 31
0.0
  0
LINE
  5
1AB
330
147
100
AcDbEntity
  8
AM_9
100
AcDbLine
 10
3.4933
 20
0.6415000000000003
 30
0.0
 11
-3.493299999987744
 21
0.6415000000000003
 31
0.0
  0
LINE
  5
1AC
330
147
100
AcDbEntity
  8
AM_9
100
AcDbLine
 10
3.5433
 20
0.5914999999999999
 30
0.0
 11
-3.5433
 21
0.5914999999999999
 31
0.0
  0
ARC
  5
1AD
330
147
100
AcDbEntity
  8
AM_9
100
AcDbCircle
 10
-3.4933
 20
0.5914999999999999
 30
0.0
 40
0.0500000000000004
100
AcDbArc
 50
90.0
 51
180.0
  0
ARC
  5
1AE
330
147
100
AcDbEntity
  8
AM_9
100
AcDbCircle
 10
3.4933
 20
0.5914999999999999
 30
0.0
 40
0.0500000000000003
100
AcDbArc
 50
0.0
 51
90.0
  0
LINE
  5
1AF
330
147
100
AcDbEntity
  8
AM_5
100
AcDbLine
 10
-0.1249999999999999
 20
-3.005666666666667
 30
0.0
 11
-0.1249999999999999
 21
-2.305666666666667
 31
0.0
  0
LINE
  5
1B0
330
147
100
AcDbEntity
  8
AM_5
100
AcDbLine
 10
0.1249999999999999
 20
-3.005666666666667
 30
0.0
 11
0.1249999999999999
 21
-2.305666666666667
 31
0.0
  0
LINE
  5
1B1
330
147
100
AcDbEntity
  8
AM_5
100
AcDbLine
 10
0.1250000000000001
 20
-2.305666666666683
 30
0.0
 11
0.1094273103968501
 21
-2.278693977063517
 31
0.0
  0
LINE
  5
1B2
330
147
100
AcDbEntity
  8
AM_5
100
AcDbLine
 10
-0.1250000000000001
 20
-2.305666666666683
 30
0.0
 11
-0.1094273103968501
 21
-2.278693977063517
 31
0.0
  0
LINE
  5
1B3
330
147
100
AcDbEntity
  8
AM_4
100
AcDbLine
 10
1.884439571862149
 20
-2.505666666666667
 30
0.0
 11
1.884439571862149
 21
-3.005666666666667
 31
0.0
  0
LINE
  5
1B4
330
147
100
AcDbEntity
  8
AM_4
100
AcDbLine
 10
-1.884439571862149
 20
-2.505666666666667
 30
0.0
 11
-1.884439571862149
 21
-3.005666666666667
 31
0.0
  0
LINE
  5
1B5
330
147
100
AcDbEntity
  8
AM_4
100
AcDbLine
 10
-0.8673728304450147
 20
-3.35
 30
0.0
 11
-0.8673728304450146
 21
-3.075666666666667
 31
0.0
  0
LINE
  5
1B6
330
147
100
AcDbEntity
  8
AM_4
100
AcDbLine
 10
-0.6761321485743731
 20
-3.35
 30
0.0
 11
-0.6761321485743731
 21
-3.075666666666667
 31
0.0
  0
LINE
  5
1B7
330
147
100
AcDbEntity
  8
AM_4
100
AcDbLine
 10
-0.9071020317021946
 20
-3.075666666666667
 30
0.0
 11
-0.9071020317021946
 21
-3.35
 31
0.0
  0
LINE
  5
1B8
330
147
100
AcDbEntity
  8
AM_4
100
AcDbLine
 10
-2.072368421052632
 20
-3.075666666666667
 30
0.0
 11
-2.072368421052632
 21
-3.35
 31
0.0
  0
LINE
  5
1B9
330
147
100
AcDbEntity
  8
AM_4
100
AcDbLine
 10
2.072368421052632
 20
-3.35
 30
0.0
 11
2.072368421052632
 21
-3.075666666666667
 31
0.0
  0
LINE
  5
1BA
330
147
100
AcDbEntity
  8
AM_4
100
AcDbLine
 10
2.072368421052632
 20
-3.35
 30
0.0
 11
-2.072368421052632
 21
-3.35
 31
0.0
  0
LINE
  5
1BB
330
147
100
AcDbEntity
  8
AM_4
100
AcDbLine
 10
-2.135456296775655
 20
-3.005666666666667
 30
0.0
 11
-2.781250000000003
 21
-3.005666666666667
 31
0.0
  0
LINE
  5
1BC
330
147
100
AcDbEntity
  8
AM_4
100
AcDbLine
 10
-2.135456296775655
 20
-3.005666666666667
 30
0.0
 11
-2.141652598713252
 21
-2.505666666666667
 31
0.0
  0
LINE
  5
1BD
330
147
100
AcDbEntity
  8
AM_4
100
AcDbLine
 10
-2.141652598713252
 20
-2.505666666666667
 30
0.0
 11
-1.788099208119979
 21
-2.505666666666667
 31
0.0
  0
LINE
  5
1BE
330
147
100
AcDbEntity
  8
AM_4
100
AcDbLine
 10
-1.788099208119979
 20
-2.505666666666667
 30
0.0
 11
-1.781902906182382
 21
-3.005666666666667
 31
0.0
  0
LINE
  5
1BF
330
147
100
AcDbEntity
  8
AM_4
100
AcDbLine
 10
1.781902906182383
 20
-3.005666666666667
 30
0.0
 11
-1.781902906182382
 21
-3.005666666666667
 31
0.0
  0
LINE
  5
1C0
330
147
100
AcDbEntity
  8
AM_4
100
AcDbLine
 10
1.781902906182383
 20
-3.005666666666667
 30
0.0
 11
1.78809920811998
 21
-2.505666666666667
 31
0.0
  0
LINE
  5
1C1
330
147
100
AcDbEntity
  8
AM_4
100
AcDbLine
 10
1.78809920811998
 20
-2.505666666666667
 30
0.0
 11
2.141652598713253
 21
-2.505666666666667
 31
0.0
  0
LINE
  5
1C2
330
147
100
AcDbEntity
  8
AM_4
100
AcDbLine
 10
2.141652598713253
 20
-2.505666666666667
 30
0.0
 11
2.135456296775655
 21
-3.005666666666667
 31
0.0
  0
LINE
  5
1C3
330
147
100
AcDbEntity
  8
AM_4
100
AcDbLine
 10
2.781250000000003
 20
-3.005666666666667
 30
0.0
 11
2.798367600339608
 21
-2.025
 31
0.0
  0
LINE
  5
1C4
330
147
100
AcDbEntity
  8
AM_4
100
AcDbLine
 10
-2.798367600339608
 20
-2.025
 30
0.0
 11
-2.781250000000003
 21
-3.005666666666667
 31
0.0
  0
LINE
  5
1C5
330
147
100
AcDbEntity
  8
AM_4
100
AcDbLine
 10
2.781250000000003
 20
-3.005666666666667
 30
0.0
 11
2.135456296775655
 21
-3.005666666666667
 31
0.0
  0
ENDBLK
  5
14A
330
147
100
AcDbEntity
  8
0
100
AcDbBlockEnd
  0
BLOCK
  5
1C8
330
1C6
100
AcDbEntity
  8
0
100
AcDbBlockBegin
  2
7_071215H_0_in_071215_4
 70
     2
 10
0.0
 20
0.0
 30
0.0
  3
7_071215H_0_in_071215_4
  1

  0
ATTDEF
  5
1CA
330
1C6
100
AcDbEntity
  8
AM_6
100
AcDbText
 10
12.625
 20
2.475
 30
0.0
 40
0.5
  1
EP4B-IP -(Contact Seal)-Housing -Inch
100
AcDbAttributeDefinition
  3

  2
NN
 70
     8
280
     0
  0
ATTDEF
  5
1CB
330
1C6
100
AcDbEntity
  8
AM_6
100
AcDbText
 10
12.625
 20
1.975
 30
0.0
 40
0.5
  1
Imperial/E 4 Bolt Piliow Block Bearings
100
AcDbAttributeDefinition
  3

  2
NT
 70
     8
280
     0
  0
ATTDEF
  5
1CC
330
1C6
100
AcDbEntity
  8
AM_6
100
AcDbText
 10
12.625
 20
1.475
 30
0.0
 40
0.5
  1
071215H
100
AcDbAttributeDefinition
  3

  2
NB
 70
     8
280
     0
  0
ATTDEF
  5
1CD
330
1C6
100
AcDbEntity
  8
AM_6
100
AcDbText
 10
12.625
 20
0.9750000000000001
 30
0.0
 40
0.5
  1
$PN.H
100
AcDbAttributeDefinition
  3

  2
NBSYN
 70
     8
280
     0
  0
ATTDEF
  5
1CE
330
1C6
100
AcDbEntity
  8
AM_6
100
AcDbText
 10
12.625
 20
0.4750000000000001
 30
0.0
 40
0.5
  1
071215
100
AcDbAttributeDefinition
  3

  2
LINA
 70
     8
280
     0
  0
ATTDEF
  5
1CF
330
1C6
100
AcDbEntity
  8
AM_6
100
AcDbText
 10
12.625
 20
-0.0249999999999999
 30
0.0
 40
0.5
  1
3-15/16
100
AcDbAttributeDefinition
  3

  2
SS
 70
     8
280
     0
  0
ATTDEF
  5
1D0
330
1C6
100
AcDbEntity
  8
AM_6
100
AcDbText
 10
12.625
 20
-0.5249999999999999
 30
0.0
 40
0.5
  1
3.937500
100
AcDbAttributeDefinition
  3

  2
SS1
 70
     8
280
     0
  0
ATTDEF
  5
1D1
330
1C6
100
AcDbEntity
  8
AM_6
100
AcDbText
 10
12.625
 20
-1.025
 30
0.0
 40
0.5
  1
Non-Expansion
100
AcDbAttributeDefinition
  3

  2
TYPE
 70
     8
280
     0
  0
ATTDEF
  5
1D2
330
1C6
100
AcDbEntity
  8
AM_6
100
AcDbText
 10
12.625
 20
-1.525
 30
0.0
 40
0.5
  1
071215
100
AcDbAttributeDefinition
  3

  2
PN1
 70
     8
280
     0
  0
ATTDEF
  5
1D3
330
1C6
100
AcDbEntity
  8
AM_6
100
AcDbText
 10
12.625
 20
-2.025
 30
0.0
 40
0.5
  1
071232
100
AcDbAttributeDefinition
  3

  2
PN2
 70
     8
280
     0
  0
ATTDEF
  5
1D4
330
1C6
100
AcDbEntity
  8
AM_6
100
AcDbText
 10
12.625
 20
-2.525
 30
0.0
 40
0.5
  1
EP4B-IP-315R
100
AcDbAttributeDefinition
  3

  2
DESCRIPTION
 70
     8
280
     0
  0
ATTDEF
  5
1D5
330
1C6
100
AcDbEntity
  8
AM_6
100
AcDbText
 10
12.625
 20
-3.025
 30
0.0
 40
0.5
  1
Non-Expansion Type
100
AcDbAttributeDefinition
  3

  2
EF
 70
     8
280
     0
  0
ATTDEF
  5
1D6
330
1C6
100
AcDbEntity
  8
AM_6
100
AcDbText
 10
12.625
 20
-3.525
 30
0.0
 40
0.5
  1
1
100
AcDbAttributeDefinition
  3

  2
EF1
 70
     8
280
     0
  0
ATTDEF
  5
1D7
330
1C6
100
AcDbEntity
  8
AM_6
100
AcDbText
 10
12.625
 20
-4.025
 30
0.0
 40
0.5
  1
Contact Seal
100
AcDbAttributeDefinition
  3

  2
ST
 70
     8
280
     0
  0
ATTDEF
  5
1D8
330
1C6
100
AcDbEntity
  8
AM_6
100
AcDbText
 10
12.625
 20
-4.525
 30
0.0
 40
0.5
  1
1
100
AcDbAttributeDefinition
  3

  2
ST1
 70
     8
280
     0
  0
ATTDEF
  5
1D9
330
1C6
100
AcDbEntity
  8
AM_6
100
AcDbText
 10
12.625
 20
-5.025
 30
0.0
 40
0.5
  1
4.7
100
AcDbAttributeDefinition
  3

  2
A
 70
     8
280
     0
  0
ATTDEF
  5
1DA
330
1C6
100
AcDbEntity
  8
AM_6
100
AcDbText
 10
12.625
 20
-5.525
 30
0.0
 40
0.5
  1
4.7000000
100
AcDbAttributeDefinition
  3

  2
A1
 70
     8
280
     0
  0
ATTDEF
  5
1DB
330
1C6
100
AcDbEntity
  8
AM_6
100
AcDbText
 10
12.625
 20
-6.025
 30
0.0
 40
0.5
  1
15.25
100
AcDbAttributeDefinition
  3

  2
B
 70
     8
280
     0
  0
ATTDEF
  5
1DC
330
1C6
100
AcDbEntity
  8
AM_6
100
AcDbText
 10
12.625
 20
-6.525
 30
0.0
 40
0.5
  1
15.2500000
100
AcDbAttributeDefinition
  3

  2
B1
 70
     8
280
     0
  0
ATTDEF
  5
1DD
330
1C6
100
AcDbEntity
  8
AM_6
100
AcDbText
 10
12.625
 20
-7.025
 30
0.0
 40
0.5
  1
4.5
100
AcDbAttributeDefinition
  3

  2
C
 70
     8
280
     0
  0
ATTDEF
  5
1DE
330
1C6
100
AcDbEntity
  8
AM_6
100
AcDbText
 10
12.625
 20
-7.525
 30
0.0
 40
0.5
  1
4.5000000
100
AcDbAttributeDefinition
  3

  2
C1
 70
     8
280
     0
  0
ATTDEF
  5
1DF
330
1C6
100
AcDbEntity
  8
AM_6
100
AcDbText
 10
12.625
 20
-8.025
 30
0.0
 40
0.5
  1
12.25
100
AcDbAttributeDefinition
  3

  2
DMIN
 70
     8
280
     0
  0
ATTDEF
  5
1E0
330
1C6
100
AcDbEntity
  8
AM_6
100
AcDbText
 10
12.625
 20
-8.525
 30
0.0
 40
0.5
  1
12.2500000
100
AcDbAttributeDefinition
  3

  2
DMIN1
 70
     8
280
     0
  0
ATTDEF
  5
1E1
330
1C6
100
AcDbEntity
  8
AM_6
100
AcDbText
 10
12.625
 20
-9.025
 30
0.0
 40
0.5
  1
12.75
100
AcDbAttributeDefinition
  3

  2
DMAX
 70
     8
280
     0
  0
ATTDEF
  5
1E2
330
1C6
100
AcDbEntity
  8
AM_6
100
AcDbText
 10
12.625
 20
-9.525
 30
0.0
 40
0.5
  1
12.7500000
100
AcDbAttributeDefinition
  3

  2
DMAX1
 70
     8
280
     0
  0
ATTDEF
  5
1E3
330
1C6
100
AcDbEntity
  8
AM_6
100
AcDbText
 10
12.625
 20
-10.025
 30
0.0
 40
0.5
  1
2.25
100
AcDbAttributeDefinition
  3

  2
E
 70
     8
280
     0
  0
ATTDEF
  5
1E4
330
1C6
100
AcDbEntity
  8
AM_6
100
AcDbText
 10
12.625
 20
-10.525
 30
0.0
 40
0.5
  1
2.250000
100
AcDbAttributeDefinition
  3

  2
E1
 70
     8
280
     0
  0
ATTDEF
  5
1E5
330
1C6
100
AcDbEntity
  8
AM_6
100
AcDbText
 10
12.625
 20
-11.025
 30
0.0
 40
0.5
  1
3/4
100
AcDbAttributeDefinition
  3

  2
F
 70
     8
280
     0
  0
ATTDEF
  5
1E6
330
1C6
100
AcDbEntity
  8
AM_6
100
AcDbText
 10
12.625
 20
-11.525
 30
0.0
 40
0.5
  1
0.7500000
100
AcDbAttributeDefinition
  3

  2
F1
 70
     8
280
     0
  0
ATTDEF
  5
1E7
330
1C6
100
AcDbEntity
  8
AM_6
100
AcDbText
 10
12.625
 20
-12.025
 30
0.0
 40
0.5
  1
1.13
100
AcDbAttributeDefinition
  3

  2
G
 70
     8
280
     0
  0
ATTDEF
  5
1E8
330
1C6
100
AcDbEntity
  8
AM_6
100
AcDbText
 10
12.625
 20
-12.525
 30
0.0
 40
0.5
  1
1.130000
100
AcDbAttributeDefinition
  3

  2
G1
 70
     8
280
     0
  0
ATTDEF
  5
1E9
330
1C6
100
AcDbEntity
  8
AM_6
100
AcDbText
 10
12.625
 20
-13.025
 30
0.0
 40
0.5
  1
2.44
100
AcDbAttributeDefinition
  3

  2
H
 70
     8
280
     0
  0
ATTDEF
  5
1EA
330
1C6
100
AcDbEntity
  8
AM_6
100
AcDbText
 10
12.625
 20
-13.525
 30
0.0
 40
0.5
  1
2.4400000
100
AcDbAttributeDefinition
  3

  2
H1
 70
     8
280
     0
  0
ATTDEF
  5
1EB
330
1C6
100
AcDbEntity
  8
AM_6
100
AcDbText
 10
12.625
 20
-14.025
 30
0.0
 40
0.5
  1
8.7
100
AcDbAttributeDefinition
  3

  2
J
 70
     8
280
     0
  0
ATTDEF
  5
1EC
330
1C6
100
AcDbEntity
  8
AM_6
100
AcDbText
 10
12.625
 20
-14.525
 30
0.0
 40
0.5
  1
8.700000
100
AcDbAttributeDefinition
  3

  2
J1
 70
     8
280
     0
  0
ATTDEF
  5
1ED
330
1C6
100
AcDbEntity
  8
AM_6
100
AcDbText
 10
12.625
 20
-15.025
 30
0.0
 40
0.5
  1
5.56
100
AcDbAttributeDefinition
  3

  2
L
 70
     8
280
     0
  0
ATTDEF
  5
1EE
330
1C6
100
AcDbEntity
  8
AM_6
100
AcDbText
 10
12.625
 20
-15.525
 30
0.0
 40
0.5
  1
5.5600000
100
AcDbAttributeDefinition
  3

  2
L1
 70
     8
280
     0
  0
ATTDEF
  5
1EF
330
1C6
100
AcDbEntity
  8
AM_6
100
AcDbText
 10
12.625
 20
-16.025
 30
0.0
 40
0.5
  1
4.25
100
AcDbAttributeDefinition
  3

  2
M
 70
     8
280
     0
  0
ATTDEF
  5
1F0
330
1C6
100
AcDbEntity
  8
AM_6
100
AcDbText
 10
12.625
 20
-16.525
 30
0.0
 40
0.5
  1
4.250000
100
AcDbAttributeDefinition
  3

  2
M1
 70
     8
280
     0
  0
ATTDEF
  5
1F1
330
1C6
100
AcDbEntity
  8
AM_6
100
AcDbText
 10
12.625
 20
-17.025
 30
0.0
 40
0.5
  1
1.35
100
AcDbAttributeDefinition
  3

  2
R
 70
     8
280
     0
  0
ATTDEF
  5
1F2
330
1C6
100
AcDbEntity
  8
AM_6
100
AcDbText
 10
12.625
 20
-17.525
 30
0.0
 40
0.5
  1
1.350000
100
AcDbAttributeDefinition
  3

  2
R1
 70
     8
280
     0
  0
ATTDEF
  5
1F3
330
1C6
100
AcDbEntity
  8
AM_6
100
AcDbText
 10
12.625
 20
-18.025
 30
0.0
 40
0.5
  1
3.35
100
AcDbAttributeDefinition
  3

  2
S
 70
     8
280
     0
  0
ATTDEF
  5
1F4
330
1C6
100
AcDbEntity
  8
AM_6
100
AcDbText
 10
12.625
 20
-18.525
 30
0.0
 40
0.5
  1
3.350000
100
AcDbAttributeDefinition
  3

  2
S1
 70
     8
280
     0
  0
ATTDEF
  5
1F5
330
1C6
100
AcDbEntity
  8
AM_6
100
AcDbText
 10
12.625
 20
-19.025
 30
0.0
 40
0.5
  1
0.31
100
AcDbAttributeDefinition
  3

  2
X
 70
     8
280
     0
  0
ATTDEF
  5
1F6
330
1C6
100
AcDbEntity
  8
AM_6
100
AcDbText
 10
12.625
 20
-19.525
 30
0.0
 40
0.5
  1
0.310000
100
AcDbAttributeDefinition
  3

  2
X1
 70
     8
280
     0
  0
ATTDEF
  5
1F7
330
1C6
100
AcDbEntity
  8
AM_6
100
AcDbText
 10
12.625
 20
-20.025
 30
0.0
 40
0.5
  1
0.036
100
AcDbAttributeDefinition
  3

  2
Y
 70
     8
280
     0
  0
ATTDEF
  5
1F8
330
1C6
100
AcDbEntity
  8
AM_6
100
AcDbText
 10
12.625
 20
-20.525
 30
0.0
 40
0.5
  1
4.5
100
AcDbAttributeDefinition
  3

  2
Z
 70
     8
280
     0
  0
ATTDEF
  5
1F9
330
1C6
100
AcDbEntity
  8
AM_6
100
AcDbText
 10
12.625
 20
-21.025
 30
0.0
 40
0.5
  1
4.500000
100
AcDbAttributeDefinition
  3

  2
Z1
 70
     8
280
     0
  0
ATTDEF
  5
1FA
330
1C6
100
AcDbEntity
  8
AM_6
100
AcDbText
 10
12.625
 20
-21.525
 30
0.0
 40
0.5
  1
7.0866
100
AcDbAttributeDefinition
  3

  2
BORE
 70
     8
280
     0
  0
ATTDEF
  5
1FB
330
1C6
100
AcDbEntity
  8
AM_6
100
AcDbText
 10
12.625
 20
-22.025
 30
0.0
 40
0.5
  1
0.07000
100
AcDbAttributeDefinition
  3

  2
CR
 70
     8
280
     0
  0
ATTDEF
  5
1FC
330
1C6
100
AcDbEntity
  8
AM_6
100
AcDbText
 10
12.625
 20
-22.525
 30
0.0
 40
0.5
  1
baldor
100
AcDbAttributeDefinition
  3

  2
COMPANY
 70
     8
280
     0
  0
LINE
  5
1FD
330
1C6
100
AcDbEntity
  8
AM_9
100
AcDbLine
 10
-1.22
 20
-1.565
 30
0.0
 11
-1.22
 21
1.565
 31
0.0
  0
LINE
  5
1FE
330
1C6
100
AcDbEntity
  8
AM_9
100
AcDbLine
 10
1.220000000000003
 20
-1.565
 30
0.0
 11
1.220000000000003
 21
1.565
 31
0.0
  0
LINE
  5
1FF
330
1C6
100
AcDbEntity
  8
AM_9
100
AcDbLine
 10
1.220000000000003
 20
-1.565
 30
0.0
 11
6.125
 21
-1.565
 31
0.0
  0
LINE
  5
200
330
1C6
100
AcDbEntity
  8
AM_9
100
AcDbLine
 10
1.220000000000003
 20
1.565
 30
0.0
 11
6.125
 21
1.565
 31
0.0
  0
LINE
  5
201
330
1C6
100
AcDbEntity
  8
AM_9
100
AcDbLine
 10
3.072096685174281
 20
-1.565
 30
0.0
 11
3.072096685174281
 21
1.565
 31
0.0
  0
LINE
  5
202
330
1C6
100
AcDbEntity
  8
AM_9
100
AcDbLine
 10
-3.072096703737164
 20
-1.565
 30
0.0
 11
-3.072096703737164
 21
1.565
 31
0.0
  0
LINE
  5
203
330
1C6
100
AcDbEntity
  8
AM_9
100
AcDbLine
 10
6.814999999999999
 20
-1.125000000000001
 30
0.0
 11
6.815
 21
1.125
 31
0.0
  0
LINE
  5
204
330
1C6
100
AcDbEntity
  8
AM_9
100
AcDbLine
 10
3.424845689954511
 20
-1.565
 30
0.0
 11
3.424845689954511
 21
1.565
 31
0.0
  0
LINE
  5
205
330
1C6
100
AcDbEntity
  8
AM_9
100
AcDbLine
 10
-6.815
 20
1.125
 30
0.0
 11
-6.815
 21
-1.125
 31
0.0
  0
LINE
  5
206
330
1C6
100
AcDbEntity
  8
AM_9
100
AcDbLine
 10
-3.424845689954513
 20
-1.565
 30
0.0
 11
-3.424845689954513
 21
1.565
 31
0.0
  0
LINE
  5
207
330
1C6
100
AcDbEntity
  8
AM_9
100
AcDbLine
 10
-1.22
 20
1.565
 30
0.0
 11
-6.125
 21
1.565
 31
0.0
  0
LINE
  5
208
330
1C6
100
AcDbEntity
  8
AM_9
100
AcDbLine
 10
-1.22
 20
-1.565
 30
0.0
 11
-6.125
 21
-1.565
 31
0.0
  0
LINE
  5
209
330
1C6
100
AcDbEntity
  8
AM_9
100
AcDbLine
 10
3.5433
 20
-2.025
 30
0.0
 11
3.5433
 21
2.024999999999999
 31
0.0
  0
LINE
  5
20A
330
1C6
100
AcDbEntity
  8
AM_9
100
AcDbLine
 10
-3.5433
 20
2.024999999999999
 30
0.0
 11
-3.5433
 21
-2.025
 31
0.0
  0
ELLIPSE
  5
20B
330
1C6
100
AcDbEntity
  8
AM_9
100
AcDbEllipse
 10
-2.224999999998635
 20
0.0000000000003688
 30
0.0
 11
3.061616997870640E-17
 21
0.5000000000003686
 31
0.0
210
0.0
220
0.0
230
1.0
 40
0.8660254037844937
 41
3.119159263486934
 42
3.141592653589793
  0
ELLIPSE
  5
20C
330
1C6
100
AcDbEntity
  8
AM_9
100
AcDbEllipse
 10
-2.224999999999999
 20
0.0000000000000002
 30
0.0
 11
3.061616997868383E-17
 21
0.5
 31
0.0
210
0.0
220
0.0
230
1.0
 40
0.8660254037844365
 41
0.0
 42
3.023782804222579
  0
LINE
  5
20D
330
1C6
100
AcDbEntity
  8
AM_9
100
AcDbLine
 10
-2.234555947575998
 20
-0.4998780556667741
 30
0.0
 11
-2.225000000000006
 21
-0.4999999999999998
 31
0.0
  0
LWPOLYLINE
  5
20E
330
1C6
100
AcDbEntity
  8
AM_9
100
AcDbPolyline
 90
       20
 70
     0
 43
0.0
 10
-2.230619969723495
 20
0.4999578506504923
 10
-2.297284281994925
 20
0.4928544233157856
 10
-2.366429639294839
 20
0.4719634531305401
 10
-2.430862952599663
 20
0.4377541936686078
 10
-2.48903337326761
 20
0.391374838704853
 10
-2.53965826942296
 20
0.3336294407082805
 10
-2.581303091533556
 20
0.26649573644006
 10
-2.612927984438461
 20
0.1915186217788704
 10
-2.633799322321591
 20
0.1110823334059673
 10
-2.641377990436153
 20
0.0558944700975504
 10
-2.64392314783977
 20
0.0000000000000002
 10
-2.638178559701591
 20
-0.0836373557738421
 10
-2.621230446276682
 20
-0.1649100036064977
 10
-2.593336977990453
 20
-0.2414514805123444
 10
-2.555284943146205
 20
-0.3112197651310257
 10
-2.507625678519056
 20
-0.3723921380713691
 10
-2.451748669443742
 20
-0.4230979268935179
 10
-2.388739094157547
 20
-0.461838227016923
 10
-2.320448578791624
 20
-0.4875201162107045
 10
-2.277110884330765
 20
-0.496337312260885
  0
LINE
  5
20F
330
1C6
100
AcDbEntity
  8
AM_9
100
AcDbLine
 10
-2.225000000000002
 20
0.5000000000000002
 30
0.0
 11
-2.230619969723495
 21
0.4999578506504923
 31
0.0
  0
LINE
  5
212
330
1C6
100
AcDbEntity
  8
AM_7
100
AcDbLine
 10
0.0
 20
2.475
 30
0.0
 11
0.0
 21
-3.586249999999999
 31
0.0
  0
LINE
  5
213
330
1C6
100
AcDbEntity
  8
AM_7
100
AcDbLine
 10
5.663
 20
1.125
 30
0.0
 11
6.836999999999999
 21
1.124999999999999
 31
0.0
  0
LINE
  5
214
330
1C6
100
AcDbEntity
  8
AM_7
100
AcDbLine
 10
6.374999999999999
 20
0.6629999999999998
 30
0.0
 11
6.374999999999999
 21
1.586999999999999
 31
0.0
  0
LINE
  5
215
330
1C6
100
AcDbEntity
  8
AM_7
100
AcDbLine
 10
5.663
 20
-1.125
 30
0.0
 11
6.836999999999999
 21
-1.125
 31
0.0
  0
LINE
  5
216
330
1C6
100
AcDbEntity
  8
AM_7
100
AcDbLine
 10
6.374999999999999
 20
-1.587
 30
0.0
 11
6.374999999999999
 21
-0.6630000000000009
 31
0.0
  0
LINE
  5
217
330
1C6
100
AcDbEntity
  8
AM_7
100
AcDbLine
 10
6.125
 20
0.6630000000000005
 30
0.0
 11
6.125
 21
1.587
 31
0.0
  0
LINE
  5
218
330
1C6
100
AcDbEntity
  8
AM_7
100
AcDbLine
 10
-6.836999999999999
 20
-1.125
 30
0.0
 11
-5.663
 21
-1.125
 31
0.0
  0
LINE
  5
219
330
1C6
100
AcDbEntity
  8
AM_7
100
AcDbLine
 10
-6.125
 20
-1.587
 30
0.0
 11
-6.125
 21
-0.6630000000000005
 31
0.0
  0
LINE
  5
21A
330
1C6
100
AcDbEntity
  8
AM_7
100
AcDbLine
 10
-6.836999999999999
 20
1.125
 30
0.0
 11
-5.663
 21
1.125
 31
0.0
  0
LINE
  5
21B
330
1C6
100
AcDbEntity
  8
AM_7
100
AcDbLine
 10
-6.374999999999999
 20
0.6630000000000005
 30
0.0
 11
-6.374999999999999
 21
1.587
 31
0.0
  0
LINE
  5
21C
330
1C6
100
AcDbEntity
  8
AM_7
100
AcDbLine
 10
-6.125
 20
0.6630000000000003
 30
0.0
 11
-6.125
 21
1.586999999999999
 31
0.0
  0
LINE
  5
21D
330
1C6
100
AcDbEntity
  8
AM_7
100
AcDbLine
 10
6.125
 20
-1.587
 30
0.0
 11
6.125
 21
-0.6630000000000005
 31
0.0
  0
LINE
  5
21E
330
1C6
100
AcDbEntity
  8
AM_7
100
AcDbLine
 10
-6.374999999999999
 20
-1.587
 30
0.0
 11
-6.374999999999999
 21
-0.6630000000000005
 31
0.0
  0
LINE
  5
21F
330
1C6
100
AcDbEntity
  8
AM_4
100
AcDbLine
 10
-7.625
 20
-1.8
 30
0.0
 11
-7.175
 21
-2.25
 31
0.0
  0
LINE
  5
220
330
1C6
100
AcDbEntity
  8
AM_4
100
AcDbLine
 10
-7.175
 20
2.25
 30
0.0
 11
-7.625
 21
1.8
 31
0.0
  0
LINE
  5
221
330
1C6
100
AcDbEntity
  8
AM_4
100
AcDbLine
 10
-7.625
 20
1.8
 30
0.0
 11
-7.625
 21
-1.8
 31
0.0
  0
LINE
  5
222
330
1C6
100
AcDbEntity
  8
AM_4
100
AcDbLine
 10
7.175
 20
-2.25
 30
0.0
 11
7.625
 21
-1.8
 31
0.0
  0
LINE
  5
223
330
1C6
100
AcDbEntity
  8
AM_4
100
AcDbLine
 10
7.625
 20
1.8
 30
0.0
 11
7.175
 21
2.25
 31
0.0
  0
LINE
  5
224
330
1C6
100
AcDbEntity
  8
AM_4
100
AcDbLine
 10
7.625
 20
-1.8
 30
0.0
 11
7.625
 21
1.8
 31
0.0
  0
LWPOLYLINE
  5
225
330
1C6
100
AcDbEntity
  8
AM_4
100
AcDbPolyline
 90
       13
 70
     0
 43
0.0
 10
7.380999999999999
 20
1.656205797858424
 10
7.420055214343424
 20
1.415331731604676
 10
7.452992585911365
 20
1.173385721480626
 10
7.491859956958158
 20
0.7968373464067209
 10
7.515874896143878
 20
0.4183926627844592
 10
7.522294560646813
 20
0.2278402210057155
 10
7.52492805861675
 20
0.0371583992020197
 10
7.523764064117435
 20
-0.1539889259094399
 10
7.518794750560665
 20
-0.345046655640236
 10
7.501340834625679
 20
-0.6734421305374787
 10
7.472612326087095
 20
-1.001358179327559
 10
7.432495314165152
 20
-1.329233116961928
 10
7.380999999999999
 20
-1.656205797858423
  0
LWPOLYLINE
  5
226
330
1C6
100
AcDbEntity
  8
AM_4
100
AcDbPolyline
 90
       12
 70
     0
 43
0.0
 10
-7.381000000000002
 20
-1.656205797858414
 10
-7.420055214343426
 20
-1.415331731604667
 10
-7.452992585911367
 20
-1.173385721480617
 10
-7.491883561557854
 20
-0.796537630097253
 10
-7.515874896143879
 20
-0.4183926627844469
 10
-7.523593788780055
 20
-0.1640133942541725
 10
-7.524567829728216
 20
0.0905962286095296
 10
-7.518794750560665
 20
0.3450466556402523
 10
-7.501325413405811
 20
0.6736466310521587
 10
-7.472612326087095
 20
1.001358179327563
 10
-7.432456090700555
 20
1.329497959963168
 10
-7.381000000000002
 20
1.656205797858415
  0
LINE
  5
227
330
1C6
100
AcDbEntity
  8
AM_4
100
AcDbLine
 10
4.918999999999999
 20
2.25
 30
0.0
 11
4.693999999999999
 21
2.025
 31
0.0
  0
LINE
  5
228
330
1C6
100
AcDbEntity
  8
AM_4
100
AcDbLine
 10
4.693999999999999
 20
-2.025
 30
0.0
 11
4.918999999999999
 21
-2.25
 31
0.0
  0
LINE
  5
229
330
1C6
100
AcDbEntity
  8
AM_4
100
AcDbLine
 10
7.175
 20
-2.25
 30
0.0
 11
4.918999999999999
 21
-2.25
 31
0.0
  0
LINE
  5
22A
330
1C6
100
AcDbEntity
  8
AM_4
100
AcDbLine
 10
6.374999999999998
 20
-0.6850000000000004
 30
0.0
 11
6.125
 21
-0.6850000000000002
 31
0.0
  0
ARC
  5
22B
330
1C6
100
AcDbEntity
  8
AM_4
100
AcDbCircle
 10
6.374999999999999
 20
-1.125
 30
0.0
 40
0.4399999999999995
100
AcDbArc
 50
270.0
 51
90.0
  0
LINE
  5
22C
330
1C6
100
AcDbEntity
  8
AM_4
100
AcDbLine
 10
6.125
 20
-1.565
 30
0.0
 11
6.375
 21
-1.565
 31
0.0
  0
ARC
  5
22D
330
1C6
100
AcDbEntity
  8
AM_4
100
AcDbCircle
 10
6.125
 20
-1.125
 30
0.0
 40
0.4399999999999998
100
AcDbArc
 50
90.0
 51
270.0
  0
LINE
  5
22E
330
1C6
100
AcDbEntity
  8
AM_4
100
AcDbLine
 10
6.374999999999998
 20
1.565
 30
0.0
 11
6.125
 21
1.565
 31
0.0
  0
ARC
  5
22F
330
1C6
100
AcDbEntity
  8
AM_4
100
AcDbCircle
 10
6.374999999999999
 20
1.124999999999999
 30
0.0
 40
0.4399999999999992
100
AcDbArc
 50
270.0
 51
90.0
  0
LINE
  5
230
330
1C6
100
AcDbEntity
  8
AM_4
100
AcDbLine
 10
6.125
 20
0.685
 30
0.0
 11
6.375
 21
0.6849999999999999
 31
0.0
  0
ARC
  5
231
330
1C6
100
AcDbEntity
  8
AM_4
100
AcDbCircle
 10
6.125
 20
1.125
 30
0.0
 40
0.4399999999999999
100
AcDbArc
 50
90.0
 51
270.0
  0
ARC
  5
232
330
1C6
100
AcDbEntity
  8
AM_4
100
AcDbCircle
 10
-2.07136682242964
 20
0.0000000000000593
 30
0.0
 40
9.596366822429635
100
AcDbArc
 50
9.938252574155067
 51
12.89849714082943
  0
LINE
  5
233
330
1C6
100
AcDbEntity
  8
AM_4
100
AcDbLine
 10
7.175
 20
2.25
 30
0.0
 11
4.918999999999999
 21
2.25
 31
0.0
  0
ARC
  5
234
330
1C6
100
AcDbEntity
  8
AM_4
100
AcDbCircle
 10
-2.071366822432927
 20
0.000000000000608
 30
0.0
 40
9.596366822432987
100
AcDbArc
 50
347.101502859171
 51
350.0617474258443
  0
LINE
  5
235
330
1C6
100
AcDbEntity
  8
AM_4
100
AcDbLine
 10
7.380999999999999
 20
-1.656205797858424
 30
0.0
 11
7.380999999999999
 21
1.656205797858424
 31
0.0
  0
LINE
  5
236
330
1C6
100
AcDbEntity
  8
AM_4
100
AcDbLine
 10
-4.918999999999997
 20
-2.25
 30
0.0
 11
-4.693999999999997
 21
-2.025
 31
0.0
  0
LINE
  5
237
330
1C6
100
AcDbEntity
  8
AM_4
100
AcDbLine
 10
-4.693999999999999
 20
2.024999999999999
 30
0.0
 11
-4.918999999999999
 21
2.25
 31
0.0
  0
LINE
  5
238
330
1C6
100
AcDbEntity
  8
AM_4
100
AcDbLine
 10
-6.125
 20
-0.6850000000000004
 30
0.0
 11
-6.374999999999998
 21
-0.6850000000000002
 31
0.0
  0
ARC
  5
239
330
1C6
100
AcDbEntity
  8
AM_4
100
AcDbCircle
 10
-6.125
 20
-1.125
 30
0.0
 40
0.4399999999999997
100
AcDbArc
 50
270.0
 51
90.0
  0
LINE
  5
23A
330
1C6
100
AcDbEntity
  8
AM_4
100
AcDbLine
 10
-6.374999999999998
 20
-1.565
 30
0.0
 11
-6.125
 21
-1.565
 31
0.0
  0
ARC
  5
23B
330
1C6
100
AcDbEntity
  8
AM_4
100
AcDbCircle
 10
-6.374999999999999
 20
-1.125
 30
0.0
 40
0.4399999999999998
100
AcDbArc
 50
90.0
 51
270.0
  0
LINE
  5
23C
330
1C6
100
AcDbEntity
  8
AM_4
100
AcDbLine
 10
-6.125
 20
1.565
 30
0.0
 11
-6.374999999999998
 21
1.565
 31
0.0
  0
ARC
  5
23D
330
1C6
100
AcDbEntity
  8
AM_4
100
AcDbCircle
 10
-6.125
 20
1.125
 30
0.0
 40
0.4400000000000001
100
AcDbArc
 50
270.0
 51
90.0
  0
LINE
  5
23E
330
1C6
100
AcDbEntity
  8
AM_4
100
AcDbLine
 10
-6.374999999999998
 20
0.685
 30
0.0
 11
-6.125
 21
0.6849999999999999
 31
0.0
  0
ARC
  5
23F
330
1C6
100
AcDbEntity
  8
AM_4
100
AcDbCircle
 10
-6.374999999999999
 20
1.125
 30
0.0
 40
0.4399999999999997
100
AcDbArc
 50
90.0
 51
270.0
  0
ARC
  5
240
330
1C6
100
AcDbEntity
  8
AM_4
100
AcDbCircle
 10
2.07136682243023
 20
0.0000000000000893
 30
0.0
 40
9.596366822430245
100
AcDbArc
 50
189.9382525741553
 51
192.8984971408295
  0
LINE
  5
241
330
1C6
100
AcDbEntity
  8
AM_4
100
AcDbLine
 10
-4.918999999999997
 20
-2.25
 30
0.0
 11
-7.175
 21
-2.25
 31
0.0
  0
LINE
  5
242
330
1C6
100
AcDbEntity
  8
AM_4
100
AcDbLine
 10
-4.918999999999999
 20
2.25
 30
0.0
 11
-7.175
 21
2.25
 31
0.0
  0
ARC
  5
243
330
1C6
100
AcDbEntity
  8
AM_4
100
AcDbCircle
 10
2.071366822434831
 20
-0.0000000000010179
 30
0.0
 40
9.596366822434936
100
AcDbArc
 50
167.1015028591712
 51
170.061747425844
  0
LINE
  5
244
330
1C6
100
AcDbEntity
  8
AM_4
100
AcDbLine
 10
-7.381000000000001
 20
-1.656205797858421
 30
0.0
 11
-7.381000000000001
 21
1.656205797858421
 31
0.0
  0
LINE
  5
245
330
1C6
100
AcDbEntity
  8
AM_4
100
AcDbLine
 10
-4.523199999999999
 20
-1.35
 30
0.0
 11
-4.523199999999999
 21
1.35
 31
0.0
  0
LINE
  5
246
330
1C6
100
AcDbEntity
  8
AM_4
100
AcDbLine
 10
4.523199999999999
 20
-1.35
 30
0.0
 11
4.523199999999999
 21
1.35
 31
0.0
  0
LINE
  5
247
330
1C6
100
AcDbEntity
  8
AM_4
100
AcDbLine
 10
4.910942794415067
 20
1.35
 30
0.0
 11
4.910942794415067
 21
2.241942794415069
 31
0.0
  0
LINE
  5
248
330
1C6
100
AcDbEntity
  8
AM_4
100
AcDbLine
 10
-4.910942794415065
 20
1.35
 30
0.0
 11
-4.910942794415065
 21
2.241942794415066
 31
0.0
  0
LINE
  5
249
330
1C6
100
AcDbEntity
  8
AM_4
100
AcDbLine
 10
4.910942794415067
 20
-2.241942794415069
 30
0.0
 11
4.910942794415067
 21
-1.35
 31
0.0
  0
LINE
  5
24A
330
1C6
100
AcDbEntity
  8
AM_4
100
AcDbLine
 10
-4.910942794415065
 20
-2.241942794415068
 30
0.0
 11
-4.910942794415065
 21
-1.35
 31
0.0
  0
LINE
  5
24B
330
1C6
100
AcDbEntity
  8
AM_4
100
AcDbLine
 10
4.668618500271222
 20
1.35
 30
0.0
 11
4.668618500271223
 21
2.024999999999999
 31
0.0
  0
LINE
  5
24C
330
1C6
100
AcDbEntity
  8
AM_4
100
AcDbLine
 10
4.668618500271223
 20
-2.025
 30
0.0
 11
4.668618500271222
 21
-1.35
 31
0.0
  0
LINE
  5
24D
330
1C6
100
AcDbEntity
  8
AM_4
100
AcDbLine
 10
-4.668618500271223
 20
1.35
 30
0.0
 11
-4.668618500271223
 21
2.024999999999999
 31
0.0
  0
LINE
  5
24E
330
1C6
100
AcDbEntity
  8
AM_4
100
AcDbLine
 10
-4.668618500271223
 20
-2.025
 30
0.0
 11
-4.668618500271223
 21
-1.35
 31
0.0
  0
ELLIPSE
  5
24F
330
1C6
100
AcDbEntity
  8
AM_4
100
AcDbEllipse
 10
-2.224999999999999
 20
0.0000000000000001
 30
0.0
 11
3.061616997868385E-17
 21
0.5000000000000003
 31
0.0
210
0.0
220
0.0
230
1.0
 40
0.8660254037844387
 41
3.141592653589793
 42
6.283185307179586
  0
ELLIPSE
  5
250
330
1C6
100
AcDbEntity
  8
AM_4
100
AcDbEllipse
 10
-2.274999999999999
 20
0.0000000000000002
 30
0.0
 11
-7.347880794884119E-17
 21
-0.4
 31
0.0
210
0.0
220
0.0
230
1.0
 40
0.8660254037844384
 41
0.0
 42
6.283185307179586
  0
LWPOLYLINE
  5
251
330
1C6
100
AcDbEntity
  8
AM_4
100
AcDbPolyline
 90
       19
 70
     0
 43
0.0
 10
-2.671410161513774
 20
0.0000000000000002
 10
-2.670821921213526
 20
-0.0257021465657237
 10
-2.666926721494942
 20
-0.0708004657128212
 10
-2.659404587715942
 20
-0.1153594862478786
 10
-2.648307624582559
 20
-0.1590034579438811
 10
-2.633716063052884
 20
-0.201371573353253
 10
-2.615739359263184
 20
-0.2421097846246092
 10
-2.594516887156528
 20
-0.2808735881277807
 10
-2.570218486051763
 20
-0.3173314130499113
 10
-2.543044558429582
 20
-0.351168666503322
 10
-2.513225354605021
 20
-0.3820923523141608
 10
-2.481019102583341
 20
-0.4098359844537956
 10
-2.44670877786041
 20
-0.4341643173836326
 10
-2.410597556901979
 20
-0.4548772933127984
 10
-2.373003300263026
 20
-0.471812636686773
 10
-2.334252664080667
 20
-0.4848467356901424
 10
-2.294675543959652
 20
-0.493893788094722
 10
-2.254600473114126
 20
-0.4989035440372018
 10
-2.223435576686226
 20
-0.4999969407151136
  0
LWPOLYLINE
  5
252
330
1C6
100
AcDbEntity
  8
AM_4
100
AcDbPolyline
 90
       19
 70
     0
 43
0.0
 10
-2.226963329669806
 20
0.4999951816471806
 10
-2.246157272852491
 20
0.4994401439269257
 10
-2.28617366580284
 20
0.4952997949379064
 10
-2.325643178997141
 20
0.4871716260388667
 10
-2.364265997665305
 20
0.4751285225275703
 10
-2.401749679846099
 20
0.4592666981192804
 10
-2.437808432588095
 20
0.439706173889726
 10
-2.472163140201753
 20
0.4165921418539474
 10
-2.504542471682572
 20
0.390096655526386
 10
-2.534685139789369
 20
0.3604200054059892
 10
-2.562343100138809
 20
0.3277912125311891
 10
-2.587285256413377
 20
0.2924672935899618
 10
-2.609301144829175
 20
0.2547312487381961
 10
-2.628204128651357
 20
0.2148890000833895
 10
-2.643833805188232
 20
0.1732656809844705
 10
-2.656057539808308
 20
0.1302017113905876
 10
-2.664771222151351
 20
0.0860490164186595
 10
-2.669899448378334
 20
0.0411676102268356
 10
-2.671410161513774
 20
0.0000000000000002
  0
LINE
  5
253
330
1C6
100
AcDbEntity
  8
AM_4
100
AcDbLine
 10
-4.4012
 20
-1.35
 30
0.0
 11
-4.4012
 21
1.35
 31
0.0
  0
LINE
  5
254
330
1C6
100
AcDbEntity
  8
AM_4
100
AcDbLine
 10
-4.4012
 20
-1.35
 30
0.0
 11
-4.910942794415065
 21
-1.35
 31
0.0
  0
LINE
  5
255
330
1C6
100
AcDbEntity
  8
AM_4
100
AcDbLine
 10
-4.419438971066008
 20
-2.025
 30
0.0
 11
-4.419438971066008
 21
-1.35
 31
0.0
  0
LINE
  5
256
330
1C6
100
AcDbEntity
  8
AM_4
100
AcDbLine
 10
-4.419438971066008
 20
1.35
 30
0.0
 11
-4.419438971066008
 21
2.024999999999999
 31
0.0
  0
LINE
  5
257
330
1C6
100
AcDbEntity
  8
AM_4
100
AcDbLine
 10
-4.4012
 20
1.35
 30
0.0
 11
-4.910942794415065
 21
1.35
 31
0.0
  0
LWPOLYLINE
  5
258
330
1C6
100
AcDbEntity
  8
AM_4
100
AcDbPolyline
 90
       20
 70
     0
 43
0.0
 10
-2.225000000000006
 20
-0.4999999999999998
 10
-2.175995423345207
 20
-0.4968111945505365
 10
-2.103992728221114
 20
-0.4803897763907671
 10
-2.034704711282155
 20
-0.4506073791750434
 10
-1.970109965014929
 20
-0.408030589150553
 10
-1.912257579904967
 20
-0.3540796124692355
 10
-1.862803069389183
 20
-0.2897326958180654
 10
-1.823548150845906
 20
-0.2171894251241513
 10
-1.795940821252015
 20
-0.138363002665757
 10
-1.780756835653496
 20
-0.0555883288956023
 10
-1.778688948885734
 20
0.0283382018048259
 10
-1.789496527317566
 20
0.1114623580921214
 10
-1.812916891225461
 20
0.1911804508206836
 10
-1.847995268444401
 20
0.2655450578996439
 10
-1.893955193865887
 20
0.3326695366379521
 10
-1.949050079836983
 20
0.3904687471835512
 10
-2.011964573991875
 20
0.4373766035172035
 10
-2.080422399886027
 20
0.4719298122613739
 10
-2.15204924484755
 20
0.4928801704498957
 10
-2.225000000000002
 20
0.5000000000000002
  0
LINE
  5
259
330
1C6
100
AcDbEntity
  8
AM_4
100
AcDbLine
 10
4.419438971066008
 20
-2.025
 30
0.0
 11
4.419438971066008
 21
-1.35
 31
0.0
  0
LINE
  5
25A
330
1C6
100
AcDbEntity
  8
AM_4
100
AcDbLine
 10
4.910942794415067
 20
-1.35
 30
0.0
 11
4.401199999999998
 21
-1.35
 31
0.0
  0
LINE
  5
25B
330
1C6
100
AcDbEntity
  8
AM_4
100
AcDbLine
 10
4.401199999999998
 20
1.35
 30
0.0
 11
4.401199999999998
 21
-1.35
 31
0.0
  0
LINE
  5
25C
330
1C6
100
AcDbEntity
  8
AM_4
100
AcDbLine
 10
4.910942794415067
 20
1.35
 30
0.0
 11
4.401199999999998
 21
1.35
 31
0.0
  0
LINE
  5
25D
330
1C6
100
AcDbEntity
  8
AM_4
100
AcDbLine
 10
4.419438971066008
 20
1.35
 30
0.0
 11
4.419438971066008
 21
2.024999999999999
 31
0.0
  0
LINE
  5
25E
330
1C6
100
AcDbEntity
  8
AM_4
100
AcDbLine
 10
1.1811
 20
-2.024999999999999
 30
0.0
 11
1.1811
 21
2.025
 31
0.0
  0
LINE
  5
25F
330
1C6
100
AcDbEntity
  8
AM_4
100
AcDbLine
 10
1.0591
 20
-2.024999999999999
 30
0.0
 11
1.0591
 21
2.025
 31
0.0
  0
LINE
  5
260
330
1C6
100
AcDbEntity
  8
AM_4
100
AcDbLine
 10
-4.693999999999997
 20
-2.025
 30
0.0
 11
4.693999999999999
 21
-2.025
 31
0.0
  0
LINE
  5
261
330
1C6
100
AcDbEntity
  8
AM_4
100
AcDbLine
 10
-1.0591
 20
-2.024999999999999
 30
0.0
 11
-1.0591
 21
2.025
 31
0.0
  0
LINE
  5
262
330
1C6
100
AcDbEntity
  8
AM_4
100
AcDbLine
 10
4.693999999999999
 20
2.025
 30
0.0
 11
-4.693999999999999
 21
2.024999999999999
 31
0.0
  0
LINE
  5
263
330
1C6
100
AcDbEntity
  8
AM_4
100
AcDbLine
 10
-1.1811
 20
-2.024999999999999
 30
0.0
 11
-1.1811
 21
2.025
 31
0.0
  0
ENDBLK
  5
1C9
330
1C6
100
AcDbEntity
  8
0
100
AcDbBlockEnd
  0
ENDSEC
  0
SECTION
  2
ENTITIES
  0
INSERT
  5
6F
330
1F
100
AcDbEntity
  8
0
100
AcDbBlockReference
  2
1_071215_4
 10
0.0
 20
0.0
 30
0.0
  0
POINT
  5
265
330
1F
100
AcDbEntity
  8
ConnectionPoints
100
AcDbPoint
 10
0.0
 20
-3.075666666666667
 30
-2.484375
  0
POINT
  5
266
330
1F
100
AcDbEntity
  8
ConnectionPoints
100
AcDbPoint
 10
0.0
 20
-3.075666666666667
 30
2.484375
  0
POINT
  5
267
330
1F
100
AcDbEntity
  8
ConnectionPoints
100
AcDbPoint
 10
0.0
 20
-3.005666666666667
 30
0.0000000000000002
  0
POINT
  5
268
330
1F
100
AcDbEntity
  8
ConnectionPoints
100
AcDbPoint
 10
0.0
 20
-3.35
 30
0.0000000000000002
  0
POINT
  5
269
330
1F
100
AcDbEntity
  8
ConnectionPoints
100
AcDbPoint
 10
0.0
 20
-3.204666666666667
 30
0.0000000000000002
  0
POINT
  5
26A
330
1F
100
AcDbEntity
  8
ConnectionPoints
100
AcDbPoint
 10
0.0
 20
-3.005666666666667
 30
2.484375
  0
POINT
  5
26B
330
1F
100
AcDbEntity
  8
ConnectionPoints
100
AcDbPoint
 10
0.0
 20
-3.005666666666667
 30
-2.484375
  0
POINT
  5
26C
330
1F
100
AcDbEntity
  8
ConnectionPoints
100
AcDbPoint
 10
0.0
 20
-3.005666666666667
 30
0.0000000000000002
  0
POINT
  5
26D
330
1F
100
AcDbEntity
  8
ConnectionPoints
100
AcDbPoint
 10
-2.274999999999999
 20
0.0000000000000002
 30
3.940415587219195
  0
POINT
  5
26E
330
1F
100
AcDbEntity
  8
ConnectionPoints
100
AcDbPoint
 10
0.0
 20
-3.04
 30
0.0000000000000002
  0
POINT
  5
26F
330
1F
100
AcDbEntity
  8
ConnectionPoints
100
AcDbPoint
 10
0.0
 20
-3.35
 30
0.0000000000000002
  0
ENDSEC
  0
SECTION
  2
OBJECTS
  0
DICTIONARY
  5
C
330
0
100
AcDbDictionary
281
     1
  3
ACAD_DETAILVIEWSTYLE
350
277
  3
ACAD_GROUP
350
D
  3
ACAD_LAYOUT
350
1A
  3
ACAD_MATERIAL
350
43
  3
ACAD_MLEADERSTYLE
350
6B
  3
ACAD_MLINESTYLE
350
17
  3
ACAD_PLOTSETTINGS
350
19
  3
ACAD_PLOTSTYLENAME
350
E
  3
ACAD_SCALELIST
350
47
  3
ACAD_SECTIONVIEWSTYLE
350
278
  3
ACAD_TABLESTYLE
350
69
  3
ACAD_VISUALSTYLE
350
2A
  3
ACDB_RECOMPOSE_DATA
350
274
  3
AcDbVariableDictionary
350
270
  0
SUN
  5
6D
330
29
100
AcDbSun
 90
        1
290
     0
 63
     7
421
 16777215
 40
1.0
291
     1
 91
  2455826
 92
 54000000
292
     0
 70
     2
 71
   256
280
     1
  0
DICTIONARY
  5
277
102
{ACAD_REACTORS
330
C
102
}
330
C
100
AcDbDictionary
281
     1
  0
DICTIONARY
  5
D
102
{ACAD_REACTORS
330
C
102
}
330
C
100
AcDbDictionary
281
     1
  0
DICTIONARY
  5
1A
102
{ACAD_REACTORS
330
C
102
}
330
C
100
AcDbDictionary
281
     1
  3
Layout1
350
1E
  3
Layout2
350
26
  3
Model
350
22
  0
DICTIONARY
  5
43
102
{ACAD_REACTORS
330
C
102
}
330
C
100
AcDbDictionary
281
     1
  3
ByBlock
350
45
  3
ByLayer
350
44
  3
Global
350
46
  0
DICTIONARY
  5
6B
102
{ACAD_REACTORS
330
C
102
}
330
C
100
AcDbDictionary
281
     1
  3
Standard
350
6C
  0
DICTIONARY
  5
17
102
{ACAD_REACTORS
330
C
102
}
330
C
100
AcDbDictionary
281
     1
  3
Standard
350
18
  0
DICTIONARY
  5
19
102
{ACAD_REACTORS
330
C
102
}
330
C
100
AcDbDictionary
281
     1
  0
ACDBDICTIONARYWDFLT
  5
E
102
{ACAD_REACTORS
330
C
102
}
330
C
100
AcDbDictionary
281
     1
  3
Normal
350
F
100
AcDbDictionaryWithDefault
340
F
  0
DICTIONARY
  5
47
102
{ACAD_REACTORS
330
C
102
}
330
C
100
AcDbDictionary
281
     1
  3
A0
350
48
  3
A1
350
49
  3
A2
350
4A
  3
A3
350
4B
  3
A4
350
4C
  3
A5
350
4D
  3
A6
350
4E
  3
A7
350
4F
  3
A8
350
50
  3
A9
350
51
  3
B0
350
52
  3
B1
350
53
  3
B2
350
54
  3
B3
350
55
  3
B4
350
56
  3
B5
350
57
  3
B6
350
58
  3
B7
350
59
  3
B8
350
5A
  3
B9
350
5B
  3
C0
350
5C
  3
C1
350
5D
  3
C2
350
5E
  3
C3
350
5F
  3
C4
350
60
  3
C5
350
61
  3
C6
350
62
  3
C7
350
63
  3
C8
350
64
  3
C9
350
65
  3
D0
350
66
  3
D1
350
67
  3
D2
350
68
  0
DICTIONARY
  5
278
102
{ACAD_REACTORS
330
C
102
}
330
C
100
AcDbDictionary
281
     1
  0
DICTIONARY
  5
69
102
{ACAD_REACTORS
330
C
102
}
330
C
100
AcDbDictionary
281
     1
  3
Standard
350
6A
  0
DICTIONARY
  5
2A
102
{ACAD_REACTORS
330
C
102
}
330
C
100
AcDbDictionary
281
     1
  3
2dWireframe
350
2F
  3
Basic
350
32
  3
Brighten
350
36
  3
ColorChange
350
3A
  3
Conceptual
350
34
  3
Dim
350
35
  3
EdgeColorOff
350
3D
  3
Facepattern
350
39
  3
Flat
350
2B
  3
FlatWithEdges
350
2C
  3
Gouraud
350
2D
  3
GouraudWithEdges
350
2E
  3
Hidden
350
31
  3
JitterOff
350
3B
  3
Linepattern
350
38
  3
OverhangOff
350
3C
  3
Realistic
350
33
  3
Shaded
350
42
  3
Shaded with edges
350
41
  3
Shades of Gray
350
3E
  3
Sketchy
350
3F
  3
Thicken
350
37
  3
Wireframe
350
30
  3
X-Ray
350
40
  0
XRECORD
  5
274
102
{ACAD_REACTORS
330
C
102
}
330
C
100
AcDbXrecord
280
     1
 90
        1
330
6A
  0
DICTIONARY
  5
270
102
{ACAD_REACTORS
330
C
102
}
330
C
100
AcDbDictionary
281
     1
  3
CANNOSCALE
350
271
  3
CMLEADERSTYLE
350
276
  3
CTABLESTYLE
350
275
  0
LAYOUT
  5
1E
102
{ACAD_REACTORS
330
1A
102
}
330
1A
100
AcDbPlotSettings
  1

  2
none_device
  4

  6

 40
0.0
 41
0.0
 42
0.0
 43
0.0
 44
0.0
 45
0.0
 46
0.0
 47
0.0
 48
0.0
 49
0.0
140
0.0
141
0.0
142
1.0
143
1.0
 70
   688
 72
     0
 73
     0
 74
     5
  7

 75
    16
 76
     0
 77
     2
 78
   300
147
1.0
148
0.0
149
0.0
100
AcDbLayout
  1
Layout1
 70
     1
 71
     1
 10
0.0
 20
0.0
 11
12.0
 21
9.0
 12
0.0
 22
0.0
 32
0.0
 14
1.000000000000000E+20
 24
1.000000000000000E+20
 34
1.000000000000000E+20
 15
-1.000000000000000E+20
 25
-1.000000000000000E+20
 35
-1.000000000000000E+20
146
0.0
 13
0.0
 23
0.0
 33
0.0
 16
1.0
 26
0.0
 36
0.0
 17
0.0
 27
1.0
 37
0.0
 76
     0
330
1B
  0
LAYOUT
  5
26
102
{ACAD_REACTORS
330
1A
102
}
330
1A
100
AcDbPlotSettings
  1

  2
none_device
  4

  6

 40
0.0
 41
0.0
 42
0.0
 43
0.0
 44
0.0
 45
0.0
 46
0.0
 47
0.0
 48
0.0
 49
0.0
140
0.0
141
0.0
142
1.0
143
1.0
 70
   688
 72
     0
 73
     0
 74
     5
  7

 75
    16
 76
     0
 77
     2
 78
   300
147
1.0
148
0.0
149
0.0
100
AcDbLayout
  1
Layout2
 70
     1
 71
     2
 10
0.0
 20
0.0
 11
0.0
 21
0.0
 12
0.0
 22
0.0
 32
0.0
 14
0.0
 24
0.0
 34
0.0
 15
0.0
 25
0.0
 35
0.0
146
0.0
 13
0.0
 23
0.0
 33
0.0
 16
1.0
 26
0.0
 36
0.0
 17
0.0
 27
1.0
 37
0.0
 76
     0
330
23
  0
LAYOUT
  5
22
102
{ACAD_REACTORS
330
1A
102
}
330
1A
100
AcDbPlotSettings
  1

  2
none_device
  4
Letter_(8.50_x_11.00_Inches)
  6

 40
6.35
 41
6.35
 42
6.35000508
 43
6.35000508
 44
215.9
 45
279.4
 46
0.0
 47
0.0
 48
0.0
 49
0.0
140
0.0
141
0.0
142
1.0
143
1.0
 70
  1712
 72
     0
 73
     0
 74
     0
  7

 75
     0
 76
     0
 77
     2
 78
   300
147
1.0
148
0.0
149
0.0
100
AcDbLayout
  1
Model
 70
     1
 71
     0
 10
0.0
 20
0.0
 11
12.0
 21
9.0
 12
0.0
 22
0.0
 32
0.0
 14
1.000000000000000E+20
 24
1.000000000000000E+20
 34
1.000000000000000E+20
 15
-1.000000000000000E+20
 25
-1.000000000000000E+20
 35
-1.000000000000000E+20
146
0.0
 13
0.0
 23
0.0
 33
0.0
 16
1.0
 26
0.0
 36
0.0
 17
0.0
 27
1.0
 37
0.0
 76
     0
330
1F
331
29
  0
MATERIAL
  5
45
102
{ACAD_REACTORS
330
43
102
}
330
43
100
AcDbMaterial
  1
ByBlock
 72
     1
 94
      127
  0
MATERIAL
  5
44
102
{ACAD_REACTORS
330
43
102
}
330
43
100
AcDbMaterial
  1
ByLayer
 72
     1
 94
      127
  0
MATERIAL
  5
46
102
{ACAD_REACTORS
330
43
102
}
330
43
100
AcDbMaterial
  1
Global
 72
     1
 94
      127
  0
MLEADERSTYLE
  5
6C
102
{ACAD_REACTORS
330
6B
102
}
330
6B
100
AcDbMLeaderStyle
179
     2
170
     2
171
     1
172
     0
 90
        2
 40
0.0
 41
0.0
173
     1
 91
-1056964608
340
14
 92
       -2
290
     1
 42
0.09
291
     1
 43
0.36
  3
Standard
341
0
 44
0.18
300

342
11
174
     1
178
     6
175
     1
176
     0
 93
-1056964608
 45
0.18
292
     0
297
     0
 46
0.18
343
0
 94
-1056964608
 47
1.0
 49
1.0
140
1.0
293
     1
141
0.0
294
     1
177
     0
142
1.0
295
     0
296
     0
143
0.125
271
     0
272
     9
273
     9
298
     0
  0
MLINESTYLE
  5
18
102
{ACAD_REACTORS
330
17
102
}
330
17
100
AcDbMlineStyle
  2
Standard
 70
     0
  3

 62
   256
 51
90.0
 52
90.0
 71
     2
 49
0.5
 62
   256
  6
BYLAYER
 49
-0.5
 62
   256
  6
BYLAYER
  0
ACDBPLACEHOLDER
  5
F
102
{ACAD_REACTORS
330
E
102
}
330
E
  0
SCALE
  5
48
102
{ACAD_REACTORS
330
47
102
}
330
47
100
AcDbScale
 70
     0
300
1:1
140
1.0
141
1.0
290
     1
  0
SCALE
  5
49
102
{ACAD_REACTORS
330
47
102
}
330
47
100
AcDbScale
 70
     0
300
1:2
140
1.0
141
2.0
290
     0
  0
SCALE
  5
4A
102
{ACAD_REACTORS
330
47
102
}
330
47
100
AcDbScale
 70
     0
300
1:4
140
1.0
141
4.0
290
     0
  0
SCALE
  5
4B
102
{ACAD_REACTORS
330
47
102
}
330
47
100
AcDbScale
 70
     0
300
1:5
140
1.0
141
5.0
290
     0
  0
SCALE
  5
4C
102
{ACAD_REACTORS
330
47
102
}
330
47
100
AcDbScale
 70
     0
300
1:8
140
1.0
141
8.0
290
     0
  0
SCALE
  5
4D
102
{ACAD_REACTORS
330
47
102
}
330
47
100
AcDbScale
 70
     0
300
1:10
140
1.0
141
10.0
290
     0
  0
SCALE
  5
4E
102
{ACAD_REACTORS
330
47
102
}
330
47
100
AcDbScale
 70
     0
300
1:16
140
1.0
141
16.0
290
     0
  0
SCALE
  5
4F
102
{ACAD_REACTORS
330
47
102
}
330
47
100
AcDbScale
 70
     0
300
1:20
140
1.0
141
20.0
290
     0
  0
SCALE
  5
50
102
{ACAD_REACTORS
330
47
102
}
330
47
100
AcDbScale
 70
     0
300
1:30
140
1.0
141
30.0
290
     0
  0
SCALE
  5
51
102
{ACAD_REACTORS
330
47
102
}
330
47
100
AcDbScale
 70
     0
300
1:40
140
1.0
141
40.0
290
     0
  0
SCALE
  5
52
102
{ACAD_REACTORS
330
47
102
}
330
47
100
AcDbScale
 70
     0
300
1:50
140
1.0
141
50.0
290
     0
  0
SCALE
  5
53
102
{ACAD_REACTORS
330
47
102
}
330
47
100
AcDbScale
 70
     0
300
1:100
140
1.0
141
100.0
290
     0
  0
SCALE
  5
54
102
{ACAD_REACTORS
330
47
102
}
330
47
100
AcDbScale
 70
     0
300
2:1
140
2.0
141
1.0
290
     0
  0
SCALE
  5
55
102
{ACAD_REACTORS
330
47
102
}
330
47
100
AcDbScale
 70
     0
300
4:1
140
4.0
141
1.0
290
     0
  0
SCALE
  5
56
102
{ACAD_REACTORS
330
47
102
}
330
47
100
AcDbScale
 70
     0
300
8:1
140
8.0
141
1.0
290
     0
  0
SCALE
  5
57
102
{ACAD_REACTORS
330
47
102
}
330
47
100
AcDbScale
 70
     0
300
10:1
140
10.0
141
1.0
290
     0
  0
SCALE
  5
58
102
{ACAD_REACTORS
330
47
102
}
330
47
100
AcDbScale
 70
     0
300
100:1
140
100.0
141
1.0
290
     0
  0
SCALE
  5
59
102
{ACAD_REACTORS
330
47
102
}
330
47
100
AcDbScale
 70
     0
300
1/128" = 1'-0"
140
0.0078125
141
12.0
290
     0
  0
SCALE
  5
5A
102
{ACAD_REACTORS
330
47
102
}
330
47
100
AcDbScale
 70
     0
300
1/64" = 1'-0"
140
0.015625
141
12.0
290
     0
  0
SCALE
  5
5B
102
{ACAD_REACTORS
330
47
102
}
330
47
100
AcDbScale
 70
     0
300
1/32" = 1'-0"
140
0.03125
141
12.0
290
     0
  0
SCALE
  5
5C
102
{ACAD_REACTORS
330
47
102
}
330
47
100
AcDbScale
 70
     0
300
1/16" = 1'-0"
140
0.0625
141
12.0
290
     0
  0
SCALE
  5
5D
102
{ACAD_REACTORS
330
47
102
}
330
47
100
AcDbScale
 70
     0
300
3/32" = 1'-0"
140
0.09375
141
12.0
290
     0
  0
SCALE
  5
5E
102
{ACAD_REACTORS
330
47
102
}
330
47
100
AcDbScale
 70
     0
300
1/8" = 1'-0"
140
0.125
141
12.0
290
     0
  0
SCALE
  5
5F
102
{ACAD_REACTORS
330
47
102
}
330
47
100
AcDbScale
 70
     0
300
3/16" = 1'-0"
140
0.1875
141
12.0
290
     0
  0
SCALE
  5
60
102
{ACAD_REACTORS
330
47
102
}
330
47
100
AcDbScale
 70
     0
300
1/4" = 1'-0"
140
0.25
141
12.0
290
     0
  0
SCALE
  5
61
102
{ACAD_REACTORS
330
47
102
}
330
47
100
AcDbScale
 70
     0
300
3/8" = 1'-0"
140
0.375
141
12.0
290
     0
  0
SCALE
  5
62
102
{ACAD_REACTORS
330
47
102
}
330
47
100
AcDbScale
 70
     0
300
1/2" = 1'-0"
140
0.5
141
12.0
290
     0
  0
SCALE
  5
63
102
{ACAD_REACTORS
330
47
102
}
330
47
100
AcDbScale
 70
     0
300
3/4" = 1'-0"
140
0.75
141
12.0
290
     0
  0
SCALE
  5
64
102
{ACAD_REACTORS
330
47
102
}
330
47
100
AcDbScale
 70
     0
300
1" = 1'-0"
140
1.0
141
12.0
290
     0
  0
SCALE
  5
65
102
{ACAD_REACTORS
330
47
102
}
330
47
100
AcDbScale
 70
     0
300
1-1/2" = 1'-0"
140
1.5
141
12.0
290
     0
  0
SCALE
  5
66
102
{ACAD_REACTORS
330
47
102
}
330
47
100
AcDbScale
 70
     0
300
3" = 1'-0"
140
3.0
141
12.0
290
     0
  0
SCALE
  5
67
102
{ACAD_REACTORS
330
47
102
}
330
47
100
AcDbScale
 70
     0
300
6" = 1'-0"
140
6.0
141
12.0
290
     0
  0
SCALE
  5
68
102
{ACAD_REACTORS
330
47
102
}
330
47
100
AcDbScale
 70
     0
300
1'-0" = 1'-0"
140
12.0
141
12.0
290
     0
  0
TABLESTYLE
  5
6A
102
{ACAD_REACTORS
330
69
102
}
102
{ACAD_XDICTIONARY
360
272
102
}
330
69
100
AcDbTableStyle
  3
Standard
 70
     0
 71
     0
 40
0.06
 41
0.06
280
     0
281
     0
  7
Standard
140
0.18
170
     2
 62
     0
 63
   257
283
     0
 90
        4
 91
        0
  1

274
    -2
284
     1
 64
     0
275
    -2
285
     1
 65
     0
276
    -2
286
     1
 66
     0
277
    -2
287
     1
 67
     0
278
    -2
288
     1
 68
     0
279
    -2
289
     1
 69
     0
  7
Standard
140
0.25
170
     5
 62
     0
 63
   257
283
     0
 90
        4
 91
        0
  1

274
    -2
284
     1
 64
     0
275
    -2
285
     1
 65
     0
276
    -2
286
     1
 66
     0
277
    -2
287
     1
 67
     0
278
    -2
288
     1
 68
     0
279
    -2
289
     1
 69
     0
  7
Standard
140
0.18
170
     5
 62
     0
 63
   257
283
     0
 90
        4
 91
        0
  1

274
    -2
284
     1
 64
     0
275
    -2
285
     1
 65
     0
276
    -2
286
     1
 66
     0
277
    -2
287
     1
 67
     0
278
    -2
288
     1
 68
     0
279
    -2
289
     1
 69
     0
  0
VISUALSTYLE
  5
2F
102
{ACAD_REACTORS
330
2A
102
}
330
2A
100
AcDbVisualStyle
  2
2dWireframe
 70
     4
177
     3
291
     0
 70
    58
 90
        0
176
     1
 90
        2
176
     1
 90
        0
176
     1
 90
        0
176
     1
 40
0.6
176
     1
 40
30.0
176
     1
 62
     7
420
 16777215
176
     1
 90
        1
176
     1
 90
        4
176
     1
 62
     7
176
     1
 62
   257
176
     1
 90
        1
176
     1
 90
        1
176
     1
 40
1.0
176
     1
 90
        0
176
     1
 62
   257
176
     1
 40
1.0
176
     1
 90
        1
176
     1
 90
        6
176
     1
 90
        2
176
     1
 62
     7
176
     1
 90
        5
176
     1
 90
        0
176
     1
 90
        0
176
     1
290
     0
176
     1
 90
        1
176
     1
 40
0.0
176
     1
 90
        0
176
     1
290
     1
176
     1
290
     1
176
     1
290
     0
176
     1
290
     0
176
     1
290
     0
176
     1
290
     0
176
     1
290
     0
176
     1
290
     0
176
     1
290
     0
176
     1
 90
       50
176
     1
 40
0.0
176
     1
 40
1.0
176
     1
 90
        0
176
     1
 62
    18
420
        0
176
     1
 90
       50
176
     1
 90
        3
176
     1
 62
     5
420
      255
176
     1
290
     0
176
     1
 90
       50
176
     1
 90
       50
176
     1
 90
       50
176
     1
290
     0
176
     1
 90
       50
176
     1
 62
   256
176
     0
 40
1.0
176
     0
 90
        2
176
     1
  1
strokes_ogs.tif
176
     1
290
     0
176
     1
 40
1.0
176
     1
 40
1.0
176
     1
  0
VISUALSTYLE
  5
32
102
{ACAD_REACTORS
330
2A
102
}
330
2A
100
AcDbVisualStyle
  2
Basic
 70
     7
177
     3
291
     1
 70
    58
 90
        1
176
     1
 90
        0
176
     1
 90
        1
176
     1
 90
        0
176
     1
 40
0.6
176
     1
 40
30.0
176
     1
 62
     7
420
 16777215
176
     1
 90
        0
176
     1
 90
        4
176
     1
 62
     7
176
     1
 62
   257
176
     1
 90
        1
176
     1
 90
        1
176
     1
 40
1.0
176
     1
 90
        8
176
     1
 62
     7
176
     1
 40
1.0
176
     1
 90
        1
176
     1
 90
        6
176
     1
 90
        2
176
     1
 62
     7
176
     1
 90
        5
176
     1
 90
        0
176
     1
 90
        0
176
     1
290
     0
176
     1
 90
        1
176
     1
 40
0.0
176
     1
 90
        0
176
     1
290
     0
176
     1
290
     1
176
     1
290
     1
176
     1
290
     0
176
     1
290
     0
176
     1
290
     0
176
     1
290
     0
176
     1
290
     0
176
     1
290
     0
176
     1
 90
       50
176
     1
 40
0.0
176
     1
 40
1.0
176
     1
 90
        0
176
     1
 62
    18
420
        0
176
     1
 90
       50
176
     1
 90
        3
176
     1
 62
     5
420
      255
176
     1
290
     0
176
     1
 90
       50
176
     1
 90
       50
176
     1
 90
       50
176
     1
290
     0
176
     1
 90
       50
176
     1
 62
   256
176
     0
 40
1.0
176
     0
 90
        2
176
     1
  1
strokes_ogs.tif
176
     1
290
     0
176
     1
 40
1.0
176
     1
 40
1.0
176
     1
  0
VISUALSTYLE
  5
36
102
{ACAD_REACTORS
330
2A
102
}
330
2A
100
AcDbVisualStyle
  2
Brighten
 70
    12
177
     3
291
     1
 70
    58
 90
        2
176
     1
 90
        2
176
     1
 90
        0
176
     1
 90
        0
176
     1
 40
0.6
176
     1
 40
30.0
176
     1
 62
     7
420
 16777215
176
     1
 90
        1
176
     1
 90
        4
176
     1
 62
     7
176
     1
 62
   257
176
     1
 90
        1
176
     1
 90
        1
176
     1
 40
1.0
176
     1
 90
        8
176
     1
 62
     7
176
     1
 40
1.0
176
     1
 90
        1
176
     1
 90
        6
176
     1
 90
        2
176
     1
 62
     7
176
     1
 90
        5
176
     1
 90
        0
176
     1
 90
        0
176
     1
290
     0
176
     1
 90
        1
176
     1
 40
50.0
176
     1
 90
        0
176
     1
290
     0
176
     1
290
     1
176
     1
290
     1
176
     1
290
     0
176
     1
290
     0
176
     1
290
     0
176
     1
290
     0
176
     1
290
     0
176
     1
290
     0
176
     1
 90
       50
176
     1
 40
0.0
176
     1
 40
1.0
176
     1
 90
        0
176
     1
 62
    18
420
        0
176
     1
 90
       50
176
     1
 90
        3
176
     1
 62
     5
420
      255
176
     1
290
     0
176
     1
 90
       50
176
     1
 90
       50
176
     1
 90
       50
176
     1
290
     0
176
     1
 90
       50
176
     1
 62
   256
176
     0
 40
1.0
176
     0
 90
        2
176
     1
  1
strokes_ogs.tif
176
     1
290
     0
176
     1
 40
1.0
176
     1
 40
1.0
176
     1
  0
VISUALSTYLE
  5
3A
102
{ACAD_REACTORS
330
2A
102
}
330
2A
100
AcDbVisualStyle
  2
ColorChange
 70
    16
177
     3
291
     1
 70
    58
 90
        2
176
     1
 90
        2
176
     1
 90
        3
176
     1
 90
        0
176
     1
 40
0.6
176
     1
 40
30.0
176
     1
 62
     8
420
  8421504
176
     1
 90
        1
176
     1
 90
        4
176
     1
 62
     7
176
     1
 62
   257
176
     1
 90
        1
176
     1
 90
        1
176
     1
 40
1.0
176
     1
 90
        8
176
     1
 62
     8
420
  8421504
176
     1
 40
1.0
176
     1
 90
        1
176
     1
 90
        6
176
     1
 90
        2
176
     1
 62
     7
176
     1
 90
        5
176
     1
 90
        0
176
     1
 90
        0
176
     1
290
     0
176
     1
 90
        1
176
     1
 40
0.0
176
     1
 90
        0
176
     1
290
     0
176
     1
290
     1
176
     1
290
     1
176
     1
290
     0
176
     1
290
     0
176
     1
290
     0
176
     1
290
     0
176
     1
290
     0
176
     1
290
     0
176
     1
 90
       50
176
     1
 40
0.0
176
     1
 40
1.0
176
     1
 90
        0
176
     1
 62
    18
420
        0
176
     1
 90
       50
176
     1
 90
        3
176
     1
 62
     5
420
      255
176
     1
290
     0
176
     1
 90
       50
176
     1
 90
       50
176
     1
 90
       50
176
     1
290
     0
176
     1
 90
       50
176
     1
 62
   256
176
     0
 40
1.0
176
     0
 90
        2
176
     1
  1
strokes_ogs.tif
176
     1
290
     0
176
     1
 40
1.0
176
     1
 40
1.0
176
     1
  0
VISUALSTYLE
  5
34
102
{ACAD_REACTORS
330
2A
102
}
330
2A
100
AcDbVisualStyle
  2
Conceptual
 70
     9
177
     3
291
     0
 70
    58
 90
        3
176
     1
 90
        2
176
     1
 90
        0
176
     1
 90
        0
176
     1
 40
0.6
176
     1
 40
30.0
176
     1
 62
     7
420
 16777215
176
     1
 90
        2
176
     1
 90
        2
176
     1
 62
     7
176
     1
 62
   257
176
     1
 90
        1
176
     1
 90
        1
176
     1
 40
179.0
176
     1
 90
        8
176
     1
 62
     7
176
     1
 40
1.0
176
     1
 90
        1
176
     1
 90
        6
176
     1
 90
        2
176
     1
 62
     7
176
     1
 90
        3
176
     1
 90
        0
176
     1
 90
        0
176
     1
290
     0
176
     1
 90
        1
176
     1
 40
0.0
176
     1
 90
        0
176
     1
290
     0
176
     1
290
     1
176
     1
290
     1
176
     1
290
     0
176
     1
290
     0
176
     1
290
     0
176
     1
290
     0
176
     1
290
     0
176
     1
290
     0
176
     1
 90
       50
176
     1
 40
0.0
176
     1
 40
1.0
176
     1
 90
        0
176
     1
 62
    18
420
        0
176
     1
 90
       50
176
     1
 90
        3
176
     1
 62
     5
420
      255
176
     1
290
     0
176
     1
 90
       50
176
     1
 90
       50
176
     1
 90
       50
176
     1
290
     0
176
     1
 90
       50
176
     1
 62
   256
176
     0
 40
1.0
176
     0
 90
        2
176
     1
  1
strokes_ogs.tif
176
     1
290
     0
176
     1
 40
1.0
176
     1
 40
1.0
176
     1
  0
VISUALSTYLE
  5
35
102
{ACAD_REACTORS
330
2A
102
}
330
2A
100
AcDbVisualStyle
  2
Dim
 70
    11
177
     3
291
     1
 70
    58
 90
        2
176
     1
 90
        2
176
     1
 90
        0
176
     1
 90
        0
176
     1
 40
0.6
176
     1
 40
30.0
176
     1
 62
     7
420
 16777215
176
     1
 90
        1
176
     1
 90
        4
176
     1
 62
     7
176
     1
 62
   257
176
     1
 90
        1
176
     1
 90
        1
176
     1
 40
1.0
176
     1
 90
        8
176
     1
 62
     7
176
     1
 40
1.0
176
     1
 90
        1
176
     1
 90
        6
176
     1
 90
        2
176
     1
 62
     7
176
     1
 90
        5
176
     1
 90
        0
176
     1
 90
        0
176
     1
290
     0
176
     1
 90
        1
176
     1
 40
-50.0
176
     1
 90
        0
176
     1
290
     0
176
     1
290
     1
176
     1
290
     1
176
     1
290
     0
176
     1
290
     0
176
     1
290
     0
176
     1
290
     0
176
     1
290
     0
176
     1
290
     0
176
     1
 90
       50
176
     1
 40
0.0
176
     1
 40
1.0
176
     1
 90
        0
176
     1
 62
    18
420
        0
176
     1
 90
       50
176
     1
 90
        3
176
     1
 62
     5
420
      255
176
     1
290
     0
176
     1
 90
       50
176
     1
 90
       50
176
     1
 90
       50
176
     1
290
     0
176
     1
 90
       50
176
     1
 62
   256
176
     0
 40
1.0
176
     0
 90
        2
176
     1
  1
strokes_ogs.tif
176
     1
290
     0
176
     1
 40
1.0
176
     1
 40
1.0
176
     1
  0
VISUALSTYLE
  5
3D
102
{ACAD_REACTORS
330
2A
102
}
330
2A
100
AcDbVisualStyle
  2
EdgeColorOff
 70
    22
177
     3
291
     1
 70
    58
 90
        2
176
     0
 90
        2
176
     0
 90
        0
176
     0
 90
        0
176
     0
 40
0.6
176
     0
 40
30.0
176
     0
 62
     7
420
 16777215
176
     0
 90
        1
176
     0
 90
        4
176
     0
 62
     7
176
     0
 62
   257
176
     0
 90
        1
176
     0
 90
        1
176
     0
 40
1.0
176
     0
 90
        8
176
     2
 62
     7
176
     0
 40
1.0
176
     0
 90
        1
176
     0
 90
        6
176
     0
 90
        2
176
     0
 62
     7
176
     0
 90
        5
176
     0
 90
        0
176
     0
 90
        0
176
     0
290
     0
176
     0
 90
        1
176
     0
 40
0.0
176
     0
 90
        0
176
     0
290
     0
176
     0
290
     1
176
     0
290
     1
176
     0
290
     0
176
     0
290
     0
176
     0
290
     0
176
     0
290
     0
176
     0
290
     0
176
     0
290
     0
176
     0
 90
       50
176
     0
 40
0.0
176
     0
 40
1.0
176
     0
 90
        0
176
     0
 62
    18
420
        0
176
     0
 90
       50
176
     0
 90
        3
176
     0
 62
     5
420
      255
176
     0
290
     0
176
     0
 90
       50
176
     0
 90
       50
176
     0
 90
       50
176
     0
290
     0
176
     0
 90
       50
176
     0
 62
   256
176
     0
 40
1.0
176
     0
 90
        2
176
     0
  1
strokes_ogs.tif
176
     0
290
     0
176
     0
 40
1.0
176
     0
 40
1.0
176
     0
  0
VISUALSTYLE
  5
39
102
{ACAD_REACTORS
330
2A
102
}
330
2A
100
AcDbVisualStyle
  2
Facepattern
 70
    15
177
     3
291
     1
 70
    58
 90
        2
176
     1
 90
        2
176
     1
 90
        0
176
     1
 90
        0
176
     1
 40
0.6
176
     1
 40
30.0
176
     1
 62
     7
420
 16777215
176
     1
 90
        1
176
     1
 90
        4
176
     1
 62
     7
176
     1
 62
   257
176
     1
 90
        1
176
     1
 90
        1
176
     1
 40
1.0
176
     1
 90
        8
176
     1
 62
     7
176
     1
 40
1.0
176
     1
 90
        1
176
     1
 90
        6
176
     1
 90
        2
176
     1
 62
     7
176
     1
 90
        5
176
     1
 90
        0
176
     1
 90
        0
176
     1
290
     0
176
     1
 90
        1
176
     1
 40
0.0
176
     1
 90
        0
176
     1
290
     0
176
     1
290
     1
176
     1
290
     1
176
     1
290
     0
176
     1
290
     0
176
     1
290
     0
176
     1
290
     0
176
     1
290
     0
176
     1
290
     0
176
     1
 90
       50
176
     1
 40
0.0
176
     1
 40
1.0
176
     1
 90
        0
176
     1
 62
    18
420
        0
176
     1
 90
       50
176
     1
 90
        3
176
     1
 62
     5
420
      255
176
     1
290
     0
176
     1
 90
       50
176
     1
 90
       50
176
     1
 90
       50
176
     1
290
     0
176
     1
 90
       50
176
     1
 62
   256
176
     0
 40
1.0
176
     0
 90
        2
176
     1
  1
strokes_ogs.tif
176
     1
290
     0
176
     1
 40
1.0
176
     1
 40
1.0
176
     1
  0
VISUALSTYLE
  5
2B
102
{ACAD_REACTORS
330
2A
102
}
330
2A
100
AcDbVisualStyle
  2
Flat
 70
     0
177
     3
291
     1
 70
    58
 90
        2
176
     1
 90
        1
176
     1
 90
        1
176
     1
 90
        2
176
     1
 40
0.6
176
     1
 40
30.0
176
     1
 62
     7
420
 16777215
176
     1
 90
        0
176
     1
 90
        0
176
     1
 62
     7
176
     1
 62
   257
176
     1
 90
        1
176
     1
 90
        1
176
     1
 40
1.0
176
     1
 90
        8
176
     1
 62
     7
176
     1
 40
1.0
176
     1
 90
        1
176
     1
 90
        6
176
     1
 90
        2
176
     1
 62
     7
176
     1
 90
        5
176
     1
 90
        0
176
     1
 90
        0
176
     1
290
     0
176
     1
 90
       13
176
     1
 40
0.0
176
     1
 90
        0
176
     1
290
     0
176
     1
290
     1
176
     1
290
     1
176
     1
290
     0
176
     1
290
     0
176
     1
290
     0
176
     1
290
     0
176
     1
290
     0
176
     1
290
     0
176
     1
 90
       50
176
     1
 40
0.0
176
     1
 40
1.0
176
     1
 90
        0
176
     1
 62
    18
420
        0
176
     1
 90
       50
176
     1
 90
        3
176
     1
 62
     5
420
      255
176
     1
290
     0
176
     1
 90
       50
176
     1
 90
       50
176
     1
 90
       50
176
     1
290
     0
176
     1
 90
       50
176
     1
 62
   256
176
     0
 40
1.0
176
     0
 90
        2
176
     1
  1
strokes_ogs.tif
176
     1
290
     0
176
     1
 40
1.0
176
     1
 40
1.0
176
     1
  0
VISUALSTYLE
  5
2C
102
{ACAD_REACTORS
330
2A
102
}
330
2A
100
AcDbVisualStyle
  2
FlatWithEdges
 70
     1
177
     3
291
     1
 70
    58
 90
        2
176
     1
 90
        1
176
     1
 90
        1
176
     1
 90
        2
176
     1
 40
0.6
176
     1
 40
30.0
176
     1
 62
     7
420
 16777215
176
     1
 90
        1
176
     1
 90
        0
176
     1
 62
     7
176
     1
 62
   257
176
     1
 90
        1
176
     1
 90
        1
176
     1
 40
1.0
176
     1
 90
        0
176
     1
 62
   257
176
     1
 40
1.0
176
     1
 90
        1
176
     1
 90
        6
176
     1
 90
        2
176
     1
 62
     7
176
     1
 90
        5
176
     1
 90
        0
176
     1
 90
        0
176
     1
290
     0
176
     1
 90
       13
176
     1
 40
0.0
176
     1
 90
        0
176
     1
290
     0
176
     1
290
     1
176
     1
290
     1
176
     1
290
     0
176
     1
290
     0
176
     1
290
     0
176
     1
290
     0
176
     1
290
     0
176
     1
290
     0
176
     1
 90
       50
176
     1
 40
0.0
176
     1
 40
1.0
176
     1
 90
        0
176
     1
 62
    18
420
        0
176
     1
 90
       50
176
     1
 90
        3
176
     1
 62
     5
420
      255
176
     1
290
     0
176
     1
 90
       50
176
     1
 90
       50
176
     1
 90
       50
176
     1
290
     0
176
     1
 90
       50
176
     1
 62
   256
176
     0
 40
1.0
176
     0
 90
        2
176
     1
  1
strokes_ogs.tif
176
     1
290
     0
176
     1
 40
1.0
176
     1
 40
1.0
176
     1
  0
VISUALSTYLE
  5
2D
102
{ACAD_REACTORS
330
2A
102
}
330
2A
100
AcDbVisualStyle
  2
Gouraud
 70
     2
177
     3
291
     1
 70
    58
 90
        2
176
     1
 90
        2
176
     1
 90
        1
176
     1
 90
        2
176
     1
 40
0.6
176
     1
 40
30.0
176
     1
 62
     7
420
 16777215
176
     1
 90
        0
176
     1
 90
        0
176
     1
 62
     7
176
     1
 62
   257
176
     1
 90
        1
176
     1
 90
        1
176
     1
 40
1.0
176
     1
 90
        0
176
     1
 62
     7
176
     1
 40
1.0
176
     1
 90
        1
176
     1
 90
        6
176
     1
 90
        2
176
     1
 62
     7
176
     1
 90
        5
176
     1
 90
        0
176
     1
 90
        0
176
     1
290
     0
176
     1
 90
       13
176
     1
 40
0.0
176
     1
 90
        0
176
     1
290
     0
176
     1
290
     1
176
     1
290
     1
176
     1
290
     0
176
     1
290
     0
176
     1
290
     0
176
     1
290
     0
176
     1
290
     0
176
     1
290
     0
176
     1
 90
       50
176
     1
 40
0.0
176
     1
 40
1.0
176
     1
 90
        0
176
     1
 62
    18
420
        0
176
     1
 90
       50
176
     1
 90
        3
176
     1
 62
     5
420
      255
176
     1
290
     0
176
     1
 90
       50
176
     1
 90
       50
176
     1
 90
       50
176
     1
290
     0
176
     1
 90
       50
176
     1
 62
   256
176
     0
 40
1.0
176
     0
 90
        2
176
     1
  1
strokes_ogs.tif
176
     1
290
     0
176
     1
 40
1.0
176
     1
 40
1.0
176
     1
  0
VISUALSTYLE
  5
2E
102
{ACAD_REACTORS
330
2A
102
}
330
2A
100
AcDbVisualStyle
  2
GouraudWithEdges
 70
     3
177
     3
291
     1
 70
    58
 90
        2
176
     1
 90
        2
176
     1
 90
        1
176
     1
 90
        2
176
     1
 40
0.6
176
     1
 40
30.0
176
     1
 62
     7
420
 16777215
176
     1
 90
        1
176
     1
 90
        0
176
     1
 62
     7
176
     1
 62
   257
176
     1
 90
        1
176
     1
 90
        1
176
     1
 40
1.0
176
     1
 90
        0
176
     1
 62
   257
176
     1
 40
1.0
176
     1
 90
        1
176
     1
 90
        6
176
     1
 90
        2
176
     1
 62
     7
176
     1
 90
        5
176
     1
 90
        0
176
     1
 90
        0
176
     1
290
     0
176
     1
 90
       13
176
     1
 40
0.0
176
     1
 90
        0
176
     1
290
     0
176
     1
290
     1
176
     1
290
     1
176
     1
290
     0
176
     1
290
     0
176
     1
290
     0
176
     1
290
     0
176
     1
290
     0
176
     1
290
     0
176
     1
 90
       50
176
     1
 40
0.0
176
     1
 40
1.0
176
     1
 90
        0
176
     1
 62
    18
420
        0
176
     1
 90
       50
176
     1
 90
        3
176
     1
 62
     5
420
      255
176
     1
290
     0
176
     1
 90
       50
176
     1
 90
       50
176
     1
 90
       50
176
     1
290
     0
176
     1
 90
       50
176
     1
 62
   256
176
     0
 40
1.0
176
     0
 90
        2
176
     1
  1
strokes_ogs.tif
176
     1
290
     0
176
     1
 40
1.0
176
     1
 40
1.0
176
     1
  0
VISUALSTYLE
  5
31
102
{ACAD_REACTORS
330
2A
102
}
330
2A
100
AcDbVisualStyle
  2
Hidden
 70
     6
177
     3
291
     0
 70
    58
 90
        1
176
     1
 90
        2
176
     1
 90
        2
176
     1
 90
        0
176
     1
 40
0.6
176
     1
 40
30.0
176
     1
 62
     7
420
 16777215
176
     1
 90
        2
176
     1
 90
        2
176
     1
 62
     7
176
     1
 62
   257
176
     1
 90
        2
176
     1
 90
        1
176
     1
 40
40.0
176
     1
 90
        0
176
     1
 62
   257
176
     1
 40
1.0
176
     1
 90
        1
176
     1
 90
        6
176
     1
 90
        2
176
     1
 62
     7
176
     1
 90
        3
176
     1
 90
        0
176
     1
 90
        0
176
     1
290
     0
176
     1
 90
        1
176
     1
 40
0.0
176
     1
 90
        0
176
     1
290
     0
176
     1
290
     1
176
     1
290
     1
176
     1
290
     0
176
     1
290
     0
176
     1
290
     0
176
     1
290
     0
176
     1
290
     0
176
     1
290
     0
176
     1
 90
       50
176
     1
 40
0.0
176
     1
 40
1.0
176
     1
 90
        0
176
     1
 62
    18
420
        0
176
     1
 90
       50
176
     1
 90
        3
176
     1
 62
     5
420
      255
176
     1
290
     0
176
     1
 90
       50
176
     1
 90
       50
176
     1
 90
       50
176
     1
290
     0
176
     1
 90
       50
176
     1
 62
   256
176
     0
 40
1.0
176
     0
 90
        2
176
     1
  1
strokes_ogs.tif
176
     1
290
     0
176
     1
 40
1.0
176
     1
 40
1.0
176
     1
  0
VISUALSTYLE
  5
3B
102
{ACAD_REACTORS
330
2A
102
}
330
2A
100
AcDbVisualStyle
  2
JitterOff
 70
    20
177
     3
291
     1
 70
    58
 90
        2
176
     0
 90
        2
176
     0
 90
        0
176
     0
 90
        0
176
     0
 40
0.6
176
     0
 40
30.0
176
     0
 62
     7
420
 16777215
176
     0
 90
        1
176
     0
 90
        4
176
     0
 62
     7
176
     0
 62
   257
176
     0
 90
        1
176
     0
 90
        1
176
     0
 40
1.0
176
     0
 90
       10
176
     2
 62
     7
176
     0
 40
1.0
176
     0
 90
        1
176
     0
 90
        6
176
     0
 90
        2
176
     0
 62
     7
176
     0
 90
        5
176
     0
 90
        0
176
     0
 90
        0
176
     0
290
     0
176
     0
 90
        1
176
     0
 40
0.0
176
     0
 90
        0
176
     0
290
     0
176
     0
290
     1
176
     0
290
     1
176
     0
290
     0
176
     0
290
     0
176
     0
290
     0
176
     0
290
     0
176
     0
290
     0
176
     0
290
     0
176
     0
 90
       50
176
     0
 40
0.0
176
     0
 40
1.0
176
     0
 90
        0
176
     0
 62
    18
420
        0
176
     0
 90
       50
176
     0
 90
        3
176
     0
 62
     5
420
      255
176
     0
290
     0
176
     0
 90
       50
176
     0
 90
       50
176
     0
 90
       50
176
     0
290
     0
176
     0
 90
       50
176
     0
 62
   256
176
     0
 40
1.0
176
     0
 90
        2
176
     0
  1
strokes_ogs.tif
176
     0
290
     0
176
     0
 40
1.0
176
     0
 40
1.0
176
     0
  0
VISUALSTYLE
  5
38
102
{ACAD_REACTORS
330
2A
102
}
330
2A
100
AcDbVisualStyle
  2
Linepattern
 70
    14
177
     3
291
     1
 70
    58
 90
        2
176
     1
 90
        2
176
     1
 90
        0
176
     1
 90
        0
176
     1
 40
0.6
176
     1
 40
30.0
176
     1
 62
     7
420
 16777215
176
     1
 90
        1
176
     1
 90
        4
176
     1
 62
     7
176
     1
 62
   257
176
     1
 90
        7
176
     1
 90
        7
176
     1
 40
1.0
176
     1
 90
        8
176
     1
 62
     7
176
     1
 40
1.0
176
     1
 90
        1
176
     1
 90
        6
176
     1
 90
        2
176
     1
 62
     7
176
     1
 90
        5
176
     1
 90
        0
176
     1
 90
        0
176
     1
290
     0
176
     1
 90
        1
176
     1
 40
0.0
176
     1
 90
        0
176
     1
290
     0
176
     1
290
     1
176
     1
290
     1
176
     1
290
     0
176
     1
290
     0
176
     1
290
     0
176
     1
290
     0
176
     1
290
     0
176
     1
290
     0
176
     1
 90
       50
176
     1
 40
0.0
176
     1
 40
1.0
176
     1
 90
        0
176
     1
 62
    18
420
        0
176
     1
 90
       50
176
     1
 90
        3
176
     1
 62
     5
420
      255
176
     1
290
     0
176
     1
 90
       50
176
     1
 90
       50
176
     1
 90
       50
176
     1
290
     0
176
     1
 90
       50
176
     1
 62
   256
176
     0
 40
1.0
176
     0
 90
        2
176
     1
  1
strokes_ogs.tif
176
     1
290
     0
176
     1
 40
1.0
176
     1
 40
1.0
176
     1
  0
VISUALSTYLE
  5
3C
102
{ACAD_REACTORS
330
2A
102
}
330
2A
100
AcDbVisualStyle
  2
OverhangOff
 70
    21
177
     3
291
     1
 70
    58
 90
        2
176
     0
 90
        2
176
     0
 90
        0
176
     0
 90
        0
176
     0
 40
0.6
176
     0
 40
30.0
176
     0
 62
     7
420
 16777215
176
     0
 90
        1
176
     0
 90
        4
176
     0
 62
     7
176
     0
 62
   257
176
     0
 90
        1
176
     0
 90
        1
176
     0
 40
1.0
176
     0
 90
        9
176
     2
 62
     7
176
     0
 40
1.0
176
     0
 90
        1
176
     0
 90
        6
176
     0
 90
        2
176
     0
 62
     7
176
     0
 90
        5
176
     0
 90
        0
176
     0
 90
        0
176
     0
290
     0
176
     0
 90
        1
176
     0
 40
0.0
176
     0
 90
        0
176
     0
290
     0
176
     0
290
     1
176
     0
290
     1
176
     0
290
     0
176
     0
290
     0
176
     0
290
     0
176
     0
290
     0
176
     0
290
     0
176
     0
290
     0
176
     0
 90
       50
176
     0
 40
0.0
176
     0
 40
1.0
176
     0
 90
        0
176
     0
 62
    18
420
        0
176
     0
 90
       50
176
     0
 90
        3
176
     0
 62
     5
420
      255
176
     0
290
     0
176
     0
 90
       50
176
     0
 90
       50
176
     0
 90
       50
176
     0
290
     0
176
     0
 90
       50
176
     0
 62
   256
176
     0
 40
1.0
176
     0
 90
        2
176
     0
  1
strokes_ogs.tif
176
     0
290
     0
176
     0
 40
1.0
176
     0
 40
1.0
176
     0
  0
VISUALSTYLE
  5
33
102
{ACAD_REACTORS
330
2A
102
}
330
2A
100
AcDbVisualStyle
  2
Realistic
 70
     8
177
     3
291
     0
 70
    58
 90
        2
176
     1
 90
        3
176
     1
 90
        0
176
     1
 90
        2
176
     1
 40
0.6
176
     1
 40
30.0
176
     1
 62
     7
420
 16777215
176
     1
 90
        0
176
     1
 90
        0
176
     1
 62
     7
176
     1
 62
   257
176
     1
 90
        1
176
     1
 90
        1
176
     1
 40
1.0
176
     1
 90
        8
176
     1
 62
   257
176
     1
 40
1.0
176
     1
 90
        1
176
     1
 90
        6
176
     1
 90
        2
176
     1
 62
     7
176
     1
 90
        3
176
     1
 90
        0
176
     1
 90
        0
176
     1
290
     0
176
     1
 90
       13
176
     1
 40
0.0
176
     1
 90
        0
176
     1
290
     0
176
     1
290
     1
176
     1
290
     1
176
     1
290
     0
176
     1
290
     0
176
     1
290
     0
176
     1
290
     0
176
     1
290
     0
176
     1
290
     0
176
     1
 90
       50
176
     1
 40
0.0
176
     1
 40
1.0
176
     1
 90
        0
176
     1
 62
    18
420
        0
176
     1
 90
       50
176
     1
 90
        3
176
     1
 62
     5
420
      255
176
     1
290
     0
176
     1
 90
       50
176
     1
 90
       50
176
     1
 90
       50
176
     1
290
     0
176
     1
 90
       50
176
     1
 62
   256
176
     0
 40
1.0
176
     0
 90
        2
176
     1
  1
strokes_ogs.tif
176
     1
290
     0
176
     1
 40
1.0
176
     1
 40
1.0
176
     1
  0
VISUALSTYLE
  5
42
102
{ACAD_REACTORS
330
2A
102
}
330
2A
100
AcDbVisualStyle
  2
Shaded
 70
    27
177
     3
291
     0
 70
    58
 90
        2
176
     1
 90
        2
176
     1
 90
        1
176
     1
 90
        2
176
     1
 40
0.6
176
     1
 40
30.0
176
     1
 62
     7
420
 16777215
176
     1
 90
        0
176
     1
 90
        4
176
     1
 62
     7
176
     1
 62
   257
176
     1
 90
        1
176
     1
 90
        1
176
     1
 40
1.0
176
     1
 90
        8
176
     1
 62
   257
176
     1
 40
1.0
176
     1
 90
        1
176
     1
 90
        6
176
     1
 90
        2
176
     1
 62
     8
420
  7895160
176
     1
 90
        3
176
     1
 90
        0
176
     1
 90
        0
176
     1
290
     0
176
     1
 90
        5
176
     1
 40
0.0
176
     1
 90
        0
176
     1
290
     0
176
     1
290
     1
176
     1
290
     1
176
     1
290
     0
176
     1
290
     0
176
     1
290
     0
176
     1
290
     0
176
     1
290
     0
176
     1
290
     0
176
     1
 90
       50
176
     1
 40
0.0
176
     1
 40
1.0
176
     1
 90
        0
176
     1
 62
    18
420
        0
176
     1
 90
       50
176
     1
 90
        3
176
     1
 62
     5
420
      255
176
     1
290
     0
176
     1
 90
       50
176
     1
 90
       50
176
     1
 90
       50
176
     1
290
     0
176
     1
 90
       50
176
     1
 62
   256
176
     0
 40
1.0
176
     0
 90
        2
176
     1
  1
strokes_ogs.tif
176
     1
290
     0
176
     1
 40
1.0
176
     1
 40
1.0
176
     1
  0
VISUALSTYLE
  5
41
102
{ACAD_REACTORS
330
2A
102
}
330
2A
100
AcDbVisualStyle
  2
Shaded with edges
 70
    26
177
     3
291
     0
 70
    58
 90
        2
176
     1
 90
        2
176
     1
 90
        1
176
     1
 90
        2
176
     1
 40
0.6
176
     1
 40
30.0
176
     1
 62
     7
420
 16777215
176
     1
 90
        1
176
     1
 90
       10
176
     1
 62
     7
176
     1
 62
   257
176
     1
 90
        2
176
     1
 90
        1
176
     1
 40
1.0
176
     1
 90
        8
176
     1
 62
   257
176
     1
 40
1.0
176
     1
 90
        1
176
     1
 90
        6
176
     1
 90
        2
176
     1
 62
     7
176
     1
 90
        3
176
     1
 90
        0
176
     1
 90
        0
176
     1
290
     0
176
     1
 90
        5
176
     1
 40
0.0
176
     1
 90
        0
176
     1
290
     0
176
     1
290
     1
176
     1
290
     1
176
     1
290
     0
176
     1
290
     0
176
     1
290
     0
176
     1
290
     0
176
     1
290
     0
176
     1
290
     0
176
     1
 90
       50
176
     1
 40
0.0
176
     1
 40
1.0
176
     1
 90
        0
176
     1
 62
    18
420
        0
176
     1
 90
       50
176
     1
 90
        3
176
     1
 62
     5
420
      255
176
     1
290
     0
176
     1
 90
       50
176
     1
 90
       50
176
     1
 90
       50
176
     1
290
     0
176
     1
 90
       50
176
     1
 62
   256
176
     0
 40
1.0
176
     0
 90
        2
176
     1
  1
strokes_ogs.tif
176
     1
290
     0
176
     1
 40
1.0
176
     1
 40
1.0
176
     1
  0
VISUALSTYLE
  5
3E
102
{ACAD_REACTORS
330
2A
102
}
330
2A
100
AcDbVisualStyle
  2
Shades of Gray
 70
    23
177
     3
291
     0
 70
    58
 90
        2
176
     1
 90
        2
176
     1
 90
        3
176
     1
 90
        0
176
     1
 40
0.6
176
     1
 40
30.0
176
     1
 62
     7
420
 16777215
176
     1
 90
        2
176
     1
 90
        2
176
     1
 62
     7
176
     1
 62
     7
176
     1
 90
        1
176
     1
 90
        1
176
     1
 40
40.0
176
     1
 90
        8
176
     1
 62
     7
176
     1
 40
1.0
176
     1
 90
        1
176
     1
 90
        6
176
     1
 90
        2
176
     1
 62
     7
176
     1
 90
        3
176
     1
 90
        0
176
     1
 90
        0
176
     1
290
     0
176
     1
 90
        1
176
     1
 40
0.0
176
     1
 90
        0
176
     1
290
     0
176
     1
290
     1
176
     1
290
     1
176
     1
290
     0
176
     1
290
     0
176
     1
290
     0
176
     1
290
     0
176
     1
290
     0
176
     1
290
     0
176
     1
 90
       50
176
     1
 40
0.0
176
     1
 40
1.0
176
     1
 90
        0
176
     1
 62
    18
420
        0
176
     1
 90
       50
176
     1
 90
        3
176
     1
 62
     5
420
      255
176
     1
290
     0
176
     1
 90
       50
176
     1
 90
       50
176
     1
 90
       50
176
     1
290
     0
176
     1
 90
       50
176
     1
 62
   256
176
     0
 40
1.0
176
     0
 90
        2
176
     1
  1
strokes_ogs.tif
176
     1
290
     0
176
     1
 40
1.0
176
     1
 40
1.0
176
     1
  0
VISUALSTYLE
  5
3F
102
{ACAD_REACTORS
330
2A
102
}
330
2A
100
AcDbVisualStyle
  2
Sketchy
 70
    24
177
     3
291
     0
 70
    58
 90
        1
176
     1
 90
        2
176
     1
 90
        2
176
     1
 90
        0
176
     1
 40
0.6
176
     1
 40
30.0
176
     1
 62
     7
420
 16777215
176
     1
 90
        2
176
     1
 90
        2
176
     1
 62
     7
176
     1
 62
     7
176
     1
 90
        1
176
     1
 90
        1
176
     1
 40
40.0
176
     1
 90
       11
176
     1
 62
     7
176
     1
 40
1.0
176
     1
 90
        1
176
     1
 90
        6
176
     1
 90
        2
176
     1
 62
     7
176
     1
 90
        6
176
     1
 90
        0
176
     1
 90
        0
176
     1
290
     0
176
     1
 90
        1
176
     1
 40
0.0
176
     1
 90
        0
176
     1
290
     0
176
     1
290
     1
176
     1
290
     1
176
     1
290
     0
176
     1
290
     0
176
     1
290
     0
176
     1
290
     0
176
     1
290
     0
176
     1
290
     0
176
     1
 90
       50
176
     1
 40
0.0
176
     1
 40
1.0
176
     1
 90
        0
176
     1
 62
    18
420
        0
176
     1
 90
       50
176
     1
 90
        3
176
     1
 62
     5
420
      255
176
     1
290
     0
176
     1
 90
       50
176
     1
 90
       50
176
     1
 90
       50
176
     1
290
     0
176
     1
 90
       50
176
     1
 62
   256
176
     0
 40
1.0
176
     0
 90
        2
176
     1
  1
strokes_ogs.tif
176
     1
290
     0
176
     1
 40
1.0
176
     1
 40
1.0
176
     1
  0
VISUALSTYLE
  5
37
102
{ACAD_REACTORS
330
2A
102
}
330
2A
100
AcDbVisualStyle
  2
Thicken
 70
    13
177
     3
291
     1
 70
    58
 90
        2
176
     1
 90
        2
176
     1
 90
        0
176
     1
 90
        0
176
     1
 40
0.6
176
     1
 40
30.0
176
     1
 62
     7
420
 16777215
176
     1
 90
        1
176
     1
 90
        4
176
     1
 62
     7
176
     1
 62
   257
176
     1
 90
        1
176
     1
 90
        1
176
     1
 40
1.0
176
     1
 90
       12
176
     1
 62
     7
176
     1
 40
1.0
176
     1
 90
        1
176
     1
 90
        6
176
     1
 90
        2
176
     1
 62
     7
176
     1
 90
        5
176
     1
 90
        0
176
     1
 90
        0
176
     1
290
     0
176
     1
 90
        1
176
     1
 40
0.0
176
     1
 90
        0
176
     1
290
     0
176
     1
290
     1
176
     1
290
     1
176
     1
290
     0
176
     1
290
     0
176
     1
290
     0
176
     1
290
     0
176
     1
290
     0
176
     1
290
     0
176
     1
 90
       50
176
     1
 40
0.0
176
     1
 40
1.0
176
     1
 90
        0
176
     1
 62
    18
420
        0
176
     1
 90
       50
176
     1
 90
        3
176
     1
 62
     5
420
      255
176
     1
290
     0
176
     1
 90
       50
176
     1
 90
       50
176
     1
 90
       50
176
     1
290
     0
176
     1
 90
       50
176
     1
 62
   256
176
     0
 40
1.0
176
     0
 90
        2
176
     1
  1
strokes_ogs.tif
176
     1
290
     0
176
     1
 40
1.0
176
     1
 40
1.0
176
     1
  0
VISUALSTYLE
  5
30
102
{ACAD_REACTORS
330
2A
102
}
330
2A
100
AcDbVisualStyle
  2
Wireframe
 70
     5
177
     3
291
     0
 70
    58
 90
        0
176
     1
 90
        2
176
     1
 90
        0
176
     1
 90
        0
176
     1
 40
0.6
176
     1
 40
30.0
176
     1
 62
     7
420
 16777215
176
     1
 90
        1
176
     1
 90
        4
176
     1
 62
     7
176
     1
 62
   257
176
     1
 90
        1
176
     1
 90
        1
176
     1
 40
1.0
176
     1
 90
        0
176
     1
 62
   257
176
     1
 40
1.0
176
     1
 90
        1
176
     1
 90
        6
176
     1
 90
        2
176
     1
 62
     7
176
     1
 90
        3
176
     1
 90
        0
176
     1
 90
        0
176
     1
290
     0
176
     1
 90
        1
176
     1
 40
0.0
176
     1
 90
        0
176
     1
290
     0
176
     1
290
     1
176
     1
290
     1
176
     1
290
     0
176
     1
290
     0
176
     1
290
     0
176
     1
290
     0
176
     1
290
     0
176
     1
290
     0
176
     1
 90
       50
176
     1
 40
0.0
176
     1
 40
1.0
176
     1
 90
        0
176
     1
 62
    18
420
        0
176
     1
 90
       50
176
     1
 90
        3
176
     1
 62
     5
420
      255
176
     1
290
     0
176
     1
 90
       50
176
     1
 90
       50
176
     1
 90
       50
176
     1
290
     0
176
     1
 90
       50
176
     1
 62
   256
176
     0
 40
1.0
176
     0
 90
        2
176
     1
  1
strokes_ogs.tif
176
     1
290
     0
176
     1
 40
1.0
176
     1
 40
1.0
176
     1
  0
VISUALSTYLE
  5
40
102
{ACAD_REACTORS
330
2A
102
}
330
2A
100
AcDbVisualStyle
  2
X-Ray
 70
    25
177
     3
291
     0
 70
    58
 90
        2
176
     1
 90
        2
176
     1
 90
        1
176
     1
 90
        1
176
     1
 40
0.5
176
     1
 40
30.0
176
     1
 62
     7
420
 16777215
176
     1
 90
        1
176
     1
 90
        0
176
     1
 62
     7
176
     1
 62
   257
176
     1
 90
        1
176
     1
 90
        1
176
     1
 40
1.0
176
     1
 90
        8
176
     1
 62
     7
176
     1
 40
1.0
176
     1
 90
        1
176
     1
 90
        6
176
     1
 90
        2
176
     1
 62
     7
176
     1
 90
        3
176
     1
 90
        0
176
     1
 90
        0
176
     1
290
     0
176
     1
 90
       13
176
     1
 40
0.0
176
     1
 90
        0
176
     1
290
     0
176
     1
290
     1
176
     1
290
     1
176
     1
290
     0
176
     1
290
     0
176
     1
290
     0
176
     1
290
     0
176
     1
290
     0
176
     1
290
     0
176
     1
 90
       50
176
     1
 40
0.0
176
     1
 40
1.0
176
     1
 90
        0
176
     1
 62
    18
420
        0
176
     1
 90
       50
176
     1
 90
        3
176
     1
 62
     5
420
      255
176
     1
290
     0
176
     1
 90
       50
176
     1
 90
       50
176
     1
 90
       50
176
     1
290
     0
176
     1
 90
       50
176
     1
 62
   256
176
     0
 40
1.0
176
     0
 90
        2
176
     1
  1
strokes_ogs.tif
176
     1
290
     0
176
     1
 40
1.0
176
     1
 40
1.0
176
     1
  0
DICTIONARYVAR
  5
271
102
{ACAD_REACTORS
330
270
102
}
330
270
100
DictionaryVariables
280
     0
  1
1:1
  0
DICTIONARYVAR
  5
276
102
{ACAD_REACTORS
330
270
102
}
330
270
100
DictionaryVariables
280
     0
  1
Standard
  0
DICTIONARYVAR
  5
275
102
{ACAD_REACTORS
330
270
102
}
330
270
100
DictionaryVariables
280
     0
  1
Standard
  0
DICTIONARY
  5
272
330
6A
100
AcDbDictionary
280
     1
281
     1
  3
ACAD_ROUNDTRIP_2008_TABLESTYLE_CELLSTYLEMAP
360
273
  0
CELLSTYLEMAP
  5
273
102
{ACAD_REACTORS
330
272
102
}
330
272
100
AcDbCellStyleMap
 90
        3
300
CELLSTYLE
  1
TABLEFORMAT_BEGIN
 90
        5
170
     1
 91
        0
 92
    32768
 62
   257
 93
        1
300
CONTENTFORMAT
  1
CONTENTFORMAT_BEGIN
 90
        0
 91
        0
 92
        4
 93
        0
300

 40
0.0
140
1.0
 94
        5
 62
     0
340
11
144
0.25
309
CONTENTFORMAT_END
171
     1
301
MARGIN
  1
CELLMARGIN_BEGIN
 40
0.06
 40
0.06
 40
0.06
 40
0.06
 40
0.06
 40
0.06
309
CELLMARGIN_END
 94
        6
 95
        1
302
GRIDFORMAT
  1
GRIDFORMAT_BEGIN
 90
        0
 91
        1
 62
     0
 92
       -2
340
14
 93
        0
 40
0.045
309
GRIDFORMAT_END
 95
        2
302
GRIDFORMAT
  1
GRIDFORMAT_BEGIN
 90
        0
 91
        1
 62
     0
 92
       -2
340
14
 93
        0
 40
0.045
309
GRIDFORMAT_END
 95
        4
302
GRIDFORMAT
  1
GRIDFORMAT_BEGIN
 90
        0
 91
        1
 62
     0
 92
       -2
340
14
 93
        0
 40
0.045
309
GRIDFORMAT_END
 95
        8
302
GRIDFORMAT
  1
GRIDFORMAT_BEGIN
 90
        0
 91
        1
 62
     0
 92
       -2
340
14
 93
        0
 40
0.045
309
GRIDFORMAT_END
 95
       16
302
GRIDFORMAT
  1
GRIDFORMAT_BEGIN
 90
        0
 91
        1
 62
     0
 92
       -2
340
14
 93
        0
 40
0.045
309
GRIDFORMAT_END
 95
       32
302
GRIDFORMAT
  1
GRIDFORMAT_BEGIN
 90
        0
 91
        1
 62
     0
 92
       -2
340
14
 93
        0
 40
0.045
309
GRIDFORMAT_END
309
TABLEFORMAT_END
  1
CELLSTYLE_BEGIN
 90
        1
 91
        1
300
_TITLE
309
CELLSTYLE_END
300
CELLSTYLE
  1
TABLEFORMAT_BEGIN
 90
        5
170
     1
 91
        0
 92
        0
 62
   257
 93
        1
300
CONTENTFORMAT
  1
CONTENTFORMAT_BEGIN
 90
        0
 91
        0
 92
        4
 93
        0
300

 40
0.0
140
1.0
 94
        5
 62
     0
340
11
144
0.18
309
CONTENTFORMAT_END
171
     1
301
MARGIN
  1
CELLMARGIN_BEGIN
 40
0.06
 40
0.06
 40
0.06
 40
0.06
 40
0.06
 40
0.06
309
CELLMARGIN_END
 94
        6
 95
        1
302
GRIDFORMAT
  1
GRIDFORMAT_BEGIN
 90
        0
 91
        1
 62
     0
 92
       -2
340
14
 93
        0
 40
0.045
309
GRIDFORMAT_END
 95
        2
302
GRIDFORMAT
  1
GRIDFORMAT_BEGIN
 90
        0
 91
        1
 62
     0
 92
       -2
340
14
 93
        0
 40
0.045
309
GRIDFORMAT_END
 95
        4
302
GRIDFORMAT
  1
GRIDFORMAT_BEGIN
 90
        0
 91
        1
 62
     0
 92
       -2
340
14
 93
        0
 40
0.045
309
GRIDFORMAT_END
 95
        8
302
GRIDFORMAT
  1
GRIDFORMAT_BEGIN
 90
        0
 91
        1
 62
     0
 92
       -2
340
14
 93
        0
 40
0.045
309
GRIDFORMAT_END
 95
       16
302
GRIDFORMAT
  1
GRIDFORMAT_BEGIN
 90
        0
 91
        1
 62
     0
 92
       -2
340
14
 93
        0
 40
0.045
309
GRIDFORMAT_END
 95
       32
302
GRIDFORMAT
  1
GRIDFORMAT_BEGIN
 90
        0
 91
        1
 62
     0
 92
       -2
340
14
 93
        0
 40
0.045
309
GRIDFORMAT_END
309
TABLEFORMAT_END
  1
CELLSTYLE_BEGIN
 90
        2
 91
        1
300
_HEADER
309
CELLSTYLE_END
300
CELLSTYLE
  1
TABLEFORMAT_BEGIN
 90
        5
170
     1
 91
        0
 92
        0
 62
   257
 93
        1
300
CONTENTFORMAT
  1
CONTENTFORMAT_BEGIN
 90
        0
 91
        0
 92
        4
 93
        0
300

 40
0.0
140
1.0
 94
        2
 62
     0
340
11
144
0.18
309
CONTENTFORMAT_END
171
     1
301
MARGIN
  1
CELLMARGIN_BEGIN
 40
0.06
 40
0.06
 40
0.06
 40
0.06
 40
0.06
 40
0.06
309
CELLMARGIN_END
 94
        6
 95
        1
302
GRIDFORMAT
  1
GRIDFORMAT_BEGIN
 90
        0
 91
        1
 62
     0
 92
       -2
340
14
 93
        0
 40
0.045
309
GRIDFORMAT_END
 95
        2
302
GRIDFORMAT
  1
GRIDFORMAT_BEGIN
 90
        0
 91
        1
 62
     0
 92
       -2
340
14
 93
        0
 40
0.045
309
GRIDFORMAT_END
 95
        4
302
GRIDFORMAT
  1
GRIDFORMAT_BEGIN
 90
        0
 91
        1
 62
     0
 92
       -2
340
14
 93
        0
 40
0.045
309
GRIDFORMAT_END
 95
        8
302
GRIDFORMAT
  1
GRIDFORMAT_BEGIN
 90
        0
 91
        1
 62
     0
 92
       -2
340
14
 93
        0
 40
0.045
309
GRIDFORMAT_END
 95
       16
302
GRIDFORMAT
  1
GRIDFORMAT_BEGIN
 90
        0
 91
        1
 62
     0
 92
       -2
340
14
 93
        0
 40
0.045
309
GRIDFORMAT_END
 95
       32
302
GRIDFORMAT
  1
GRIDFORMAT_BEGIN
 90
        0
 91
        1
 62
     0
 92
       -2
340
14
 93
        0
 40
0.045
309
GRIDFORMAT_END
309
TABLEFORMAT_END
  1
CELLSTYLE_BEGIN
 90
        3
 91
        2
300
_DATA
309
CELLSTYLE_END
  0
ENDSEC
  0
EOF