0
SECTION
  2
HEADER
  9
$ACADVER
  1
AC1027
  9
$ACADMAINTVER
 70
     8
  9
$DWGCODEPAGE
  3
ANSI_1252
  9
$REQUIREDVERSIONS
160
                 0
  9
$COMMENTS
  1
File was created by Cadenas
  9
$CUSTOMPROPERTYTAG
  1
NN
  9
$CUSTOMPROPERTY
  1
Imperial - IP Pillow Block with Type E Dimensions 1-3/8 thru 2-3/16 inch 2-Bolt Labyrinth Seal Expansion
  9
$CUSTOMPROPERTYTAG
  1
NT
  9
$CUSTOMPROPERTY
  1
Imperial/E 2 Bolt Piliow Block Bearings
  9
$CUSTOMPROPERTYTAG
  1
NB
  9
$CUSTOMPROPERTY
  1
071194
  9
$CUSTOMPROPERTYTAG
  1
NBSYN
  9
$CUSTOMPROPERTY
  1
$PN.
  9
$CUSTOMPROPERTYTAG
  1
LINA
  9
$CUSTOMPROPERTY
  1
071194
  9
$CUSTOMPROPERTYTAG
  1
SS
  9
$CUSTOMPROPERTY
  1
2-7/16
  9
$CUSTOMPROPERTYTAG
  1
TYPE
  9
$CUSTOMPROPERTY
  1
Expansion
  9
$CUSTOMPROPERTYTAG
  1
PN
  9
$CUSTOMPROPERTY
  1
071194
  9
$CUSTOMPROPERTYTAG
  1
DESCRIPTION
  9
$CUSTOMPROPERTY
  1
EP2B-IP-207LE
  9
$CUSTOMPROPERTYTAG
  1
ST
  9
$CUSTOMPROPERTY
  1
Labyrinth Seal
  9
$CUSTOMPROPERTYTAG
  1
A
  9
$CUSTOMPROPERTY
  1
3.42
  9
$CUSTOMPROPERTYTAG
  1
B
  9
$CUSTOMPROPERTY
  1
10.5
  9
$CUSTOMPROPERTYTAG
  1
C
  9
$CUSTOMPROPERTY
  1
2.87
  9
$CUSTOMPROPERTYTAG
  1
DMIN
  9
$CUSTOMPROPERTY
  1
8.38
  9
$CUSTOMPROPERTYTAG
  1
DMAX
  9
$CUSTOMPROPERTY
  1
8.62
  9
$CUSTOMPROPERTYTAG
  1
F
  9
$CUSTOMPROPERTY
  1
5/8
  9
$CUSTOMPROPERTYTAG
  1
G
  9
$CUSTOMPROPERTY
  1
0.88
  9
$CUSTOMPROPERTYTAG
  1
H
  9
$CUSTOMPROPERTY
  1
1.63
  9
$CUSTOMPROPERTYTAG
  1
J
  9
$CUSTOMPROPERTY
  1
5.71
  9
$CUSTOMPROPERTYTAG
  1
L
  9
$CUSTOMPROPERTY
  1
3.88
  9
$CUSTOMPROPERTYTAG
  1
M
  9
$CUSTOMPROPERTY
  1
2.75
  9
$CUSTOMPROPERTYTAG
  1
R
  9
$CUSTOMPROPERTY
  1
1.20
  9
$CUSTOMPROPERTYTAG
  1
S
  9
$CUSTOMPROPERTY
  1
2.22
  9
$CUSTOMPROPERTYTAG
  1
X
  9
$CUSTOMPROPERTY
  1
0.25
  9
$CUSTOMPROPERTYTAG
  1
Y
  9
$CUSTOMPROPERTY
  1
0.025
  9
$CUSTOMPROPERTYTAG
  1
Z
  9
$CUSTOMPROPERTY
  1
2.95
  9
$CUSTOMPROPERTYTAG
  1
COMPANY
  9
$CUSTOMPROPERTY
  1
baldor
  9
$INSBASE
 10
0.0
 20
0.0
 30
0.0
  9
$EXTMIN
 10
1.000000000000000E+20
 20
1.000000000000000E+20
 30
1.000000000000000E+20
  9
$EXTMAX
 10
-1.000000000000000E+20
 20
-1.000000000000000E+20
 30
-1.000000000000000E+20
  9
$LIMMIN
 10
0.0
 20
0.0
  9
$LIMMAX
 10
12.0
 20
9.0
  9
$ORTHOMODE
 70
     0
  9
$REGENMODE
 70
     1
  9
$FILLMODE
 70
     1
  9
$QTEXTMODE
 70
     0
  9
$MIRRTEXT
 70
     1
  9
$LTSCALE
 40
1.0
  9
$ATTMODE
 70
     1
  9
$TEXTSIZE
 40
0.2
  9
$TRACEWID
 40
0.05
  9
$TEXTSTYLE
  7
Standard
  9
$CLAYER
  8
0
  9
$CELTYPE
  6
ByLayer
  9
$CECOLOR
 62
   256
  9
$CELTSCALE
 40
1.0
  9
$DISPSILH
 70
     0
  9
$DIMSCALE
 40
1.0
  9
$DIMASZ
 40
0.18
  9
$DIMEXO
 40
0.0625
  9
$DIMDLI
 40
0.38
  9
$DIMRND
 40
0.0
  9
$DIMDLE
 40
0.0
  9
$DIMEXE
 40
0.18
  9
$DIMTP
 40
0.0
  9
$DIMTM
 40
0.0
  9
$DIMTXT
 40
0.18
  9
$DIMCEN
 40
0.09
  9
$DIMTSZ
 40
0.0
  9
$DIMTOL
 70
     0
  9
$DIMLIM
 70
     0
  9
$DIMTIH
 70
     1
  9
$DIMTOH
 70
     1
  9
$DIMSE1
 70
     0
  9
$DIMSE2
 70
     0
  9
$DIMTAD
 70
     0
  9
$DIMZIN
 70
     0
  9
$DIMBLK
  1

  9
$DIMASO
 70
     1
  9
$DIMSHO
 70
     1
  9
$DIMPOST
  1

  9
$DIMAPOST
  1

  9
$DIMALT
 70
     0
  9
$DIMALTD
 70
     2
  9
$DIMALTF
 40
25.4
  9
$DIMLFAC
 40
1.0
  9
$DIMTOFL
 70
     0
  9
$DIMTVP
 40
0.0
  9
$DIMTIX
 70
     0
  9
$DIMSOXD
 70
     0
  9
$DIMSAH
 70
     0
  9
$DIMBLK1
  1

  9
$DIMBLK2
  1

  9
$DIMSTYLE
  2
Standard
  9
$DIMCLRD
 70
     0
  9
$DIMCLRE
 70
     0
  9
$DIMCLRT
 70
     0
  9
$DIMTFAC
 40
1.0
  9
$DIMGAP
 40
0.09
  9
$DIMJUST
 70
     0
  9
$DIMSD1
 70
     0
  9
$DIMSD2
 70
     0
  9
$DIMTOLJ
 70
     1
  9
$DIMTZIN
 70
     0
  9
$DIMALTZ
 70
     0
  9
$DIMALTTZ
 70
     0
  9
$DIMUPT
 70
     0
  9
$DIMDEC
 70
     4
  9
$DIMTDEC
 70
     4
  9
$DIMALTU
 70
     2
  9
$DIMALTTD
 70
     2
  9
$DIMTXSTY
  7
Standard
  9
$DIMAUNIT
 70
     0
  9
$DIMADEC
 70
     0
  9
$DIMALTRND
 40
0.0
  9
$DIMAZIN
 70
     0
  9
$DIMDSEP
 70
    46
  9
$DIMATFIT
 70
     3
  9
$DIMFRAC
 70
     0
  9
$DIMLDRBLK
  1

  9
$DIMLUNIT
 70
     2
  9
$DIMLWD
 70
    -2
  9
$DIMLWE
 70
    -2
  9
$DIMTMOVE
 70
     0
  9
$DIMFXL
 40
1.0
  9
$DIMFXLON
 70
     0
  9
$DIMJOGANG
 40
0.7853981633974483
  9
$DIMTFILL
 70
     0
  9
$DIMTFILLCLR
 70
     0
  9
$DIMARCSYM
 70
     0
  9
$DIMLTYPE
  6

  9
$DIMLTEX1
  6

  9
$DIMLTEX2
  6

  9
$DIMTXTDIRECTION
 70
     0
  9
$LUNITS
 70
     2
  9
$LUPREC
 70
     4
  9
$SKETCHINC
 40
0.1
  9
$FILLETRAD
 40
0.5
  9
$AUNITS
 70
     0
  9
$AUPREC
 70
     0
  9
$MENU
  1
.
  9
$ELEVATION
 40
0.0
  9
$PELEVATION
 40
0.0
  9
$THICKNESS
 40
0.0
  9
$LIMCHECK
 70
     0
  9
$CHAMFERA
 40
0.0
  9
$CHAMFERB
 40
0.0
  9
$CHAMFERC
 40
0.0
  9
$CHAMFERD
 40
0.0
  9
$SKPOLY
 70
     0
  9
$TDCREATE
 40
2458168.983185544
  9
$TDUCREATE
 40
2458168.941518877
  9
$TDUPDATE
 40
2458168.983185717
  9
$TDUUPDATE
 40
2458168.941519051
  9
$TDINDWG
 40
0.0000000116
  9
$TDUSRTIMER
 40
0.0000000116
  9
$USRTIMER
 70
     1
  9
$ANGBASE
 50
0.0
  9
$ANGDIR
 70
     0
  9
$PDMODE
 70
     0
  9
$PDSIZE
 40
0.0
  9
$PLINEWID
 40
0.0
  9
$SPLFRAME
 70
     0
  9
$SPLINETYPE
 70
     6
  9
$SPLINESEGS
 70
     8
  9
$HANDSEED
  5
27D
  9
$SURFTAB1
 70
     6
  9
$SURFTAB2
 70
     6
  9
$SURFTYPE
 70
     6
  9
$SURFU
 70
     6
  9
$SURFV
 70
     6
  9
$UCSBASE
  2

  9
$UCSNAME
  2

  9
$UCSORG
 10
0.0
 20
0.0
 30
0.0
  9
$UCSXDIR
 10
1.0
 20
0.0
 30
0.0
  9
$UCSYDIR
 10
0.0
 20
1.0
 30
0.0
  9
$UCSORTHOREF
  2

  9
$UCSORTHOVIEW
 70
     0
  9
$UCSORGTOP
 10
0.0
 20
0.0
 30
0.0
  9
$UCSORGBOTTOM
 10
0.0
 20
0.0
 30
0.0
  9
$UCSORGLEFT
 10
0.0
 20
0.0
 30
0.0
  9
$UCSORGRIGHT
 10
0.0
 20
0.0
 30
0.0
  9
$UCSORGFRONT
 10
0.0
 20
0.0
 30
0.0
  9
$UCSORGBACK
 10
0.0
 20
0.0
 30
0.0
  9
$PUCSBASE
  2

  9
$PUCSNAME
  2

  9
$PUCSORG
 10
0.0
 20
0.0
 30
0.0
  9
$PUCSXDIR
 10
1.0
 20
0.0
 30
0.0
  9
$PUCSYDIR
 10
0.0
 20
1.0
 30
0.0
  9
$PUCSORTHOREF
  2

  9
$PUCSORTHOVIEW
 70
     0
  9
$PUCSORGTOP
 10
0.0
 20
0.0
 30
0.0
  9
$PUCSORGBOTTOM
 10
0.0
 20
0.0
 30
0.0
  9
$PUCSORGLEFT
 10
0.0
 20
0.0
 30
0.0
  9
$PUCSORGRIGHT
 10
0.0
 20
0.0
 30
0.0
  9
$PUCSORGFRONT
 10
0.0
 20
0.0
 30
0.0
  9
$PUCSORGBACK
 10
0.0
 20
0.0
 30
0.0
  9
$USERI1
 70
     0
  9
$USERI2
 70
     0
  9
$USERI3
 70
     0
  9
$USERI4
 70
     0
  9
$USERI5
 70
     0
  9
$USERR1
 40
0.0
  9
$USERR2
 40
0.0
  9
$USERR3
 40
0.0
  9
$USERR4
 40
0.0
  9
$USERR5
 40
0.0
  9
$WORLDVIEW
 70
     1
  9
$SHADEDGE
 70
     3
  9
$SHADEDIF
 70
    70
  9
$TILEMODE
 70
     1
  9
$MAXACTVP
 70
    64
  9
$PINSBASE
 10
0.0
 20
0.0
 30
0.0
  9
$PLIMCHECK
 70
     0
  9
$PEXTMIN
 10
1.000000000000000E+20
 20
1.000000000000000E+20
 30
1.000000000000000E+20
  9
$PEXTMAX
 10
-1.000000000000000E+20
 20
-1.000000000000000E+20
 30
-1.000000000000000E+20
  9
$PLIMMIN
 10
0.0
 20
0.0
  9
$PLIMMAX
 10
12.0
 20
9.0
  9
$UNITMODE
 70
     0
  9
$VISRETAIN
 70
     1
  9
$PLINEGEN
 70
     0
  9
$PSLTSCALE
 70
     1
  9
$TREEDEPTH
 70
  3020
  9
$CMLSTYLE
  2
Standard
  9
$CMLJUST
 70
     0
  9
$CMLSCALE
 40
1.0
  9
$PROXYGRAPHICS
 70
     1
  9
$MEASUREMENT
 70
     0
  9
$CELWEIGHT
370
    -1
  9
$ENDCAPS
280
     0
  9
$JOINSTYLE
280
     0
  9
$LWDISPLAY
290
     0
  9
$INSUNITS
 70
     1
  9
$HYPERLINKBASE
  1

  9
$STYLESHEET
  1

  9
$XEDIT
290
     1
  9
$CEPSNTYPE
380
     0
  9
$PSTYLEMODE
290
     1
  9
$FINGERPRINTGUID
  2
{1E747948-9382-4A51-BA3B-1B62B691E9BC}
  9
$VERSIONGUID
  2
{FAEB1C32-E019-11D5-929B-00C0DF256EC4}
  9
$EXTNAMES
290
     1
  9
$PSVPSCALE
 40
0.0
  9
$OLESTARTUP
290
     0
  9
$SORTENTS
280
   127
  9
$INDEXCTL
280
     0
  9
$HIDETEXT
280
     1
  9
$XCLIPFRAME
280
     2
  9
$HALOGAP
280
     0
  9
$OBSCOLOR
 70
   257
  9
$OBSLTYPE
280
     0
  9
$INTERSECTIONDISPLAY
280
     0
  9
$INTERSECTIONCOLOR
 70
   257
  9
$DIMASSOC
280
     2
  9
$PROJECTNAME
  1

  9
$CAMERADISPLAY
290
     0
  9
$LENSLENGTH
 40
50.0
  9
$CAMERAHEIGHT
 40
0.0
  9
$STEPSPERSEC
 40
2.0
  9
$STEPSIZE
 40
6.0
  9
$3DDWFPREC
 40
2.0
  9
$PSOLWIDTH
 40
0.25
  9
$PSOLHEIGHT
 40
4.0
  9
$LOFTANG1
 40
1.570796326794897
  9
$LOFTANG2
 40
1.570796326794897
  9
$LOFTMAG1
 40
0.0
  9
$LOFTMAG2
 40
0.0
  9
$LOFTPARAM
 70
     7
  9
$LOFTNORMALS
280
     1
  9
$LATITUDE
 40
37.795
  9
$LONGITUDE
 40
-122.394
  9
$NORTHDIRECTION
 40
0.0
  9
$TIMEZONE
 70
 -8000
  9
$LIGHTGLYPHDISPLAY
280
     1
  9
$TILEMODELIGHTSYNCH
280
     1
  9
$CMATERIAL
347
44
  9
$SOLIDHIST
280
     0
  9
$SHOWHIST
280
     1
  9
$DWFFRAME
280
     2
  9
$DGNFRAME
280
     2
  9
$REALWORLDSCALE
290
     1
  9
$INTERFERECOLOR
 62
   256
  9
$CSHADOW
280
     0
  9
$SHADOWPLANELOCATION
 40
0.0
  0
ENDSEC
  0
SECTION
  2
CLASSES
  0
CLASS
  1
ACDBDICTIONARYWDFLT
  2
AcDbDictionaryWithDefault
  3
ObjectDBX Classes
 90
        0
 91
        4
280
     0
281
     0
  0
CLASS
  1
VISUALSTYLE
  2
AcDbVisualStyle
  3
ObjectDBX Classes
 90
     4095
 91
        4
280
     0
281
     0
  0
CLASS
  1
MATERIAL
  2
AcDbMaterial
  3
ObjectDBX Classes
 90
     1153
 91
        4
280
     0
281
     0
  0
CLASS
  1
SCALE
  2
AcDbScale
  3
ObjectDBX Classes
 90
     1153
 91
        4
280
     0
281
     0
  0
CLASS
  1
TABLESTYLE
  2
AcDbTableStyle
  3
ObjectDBX Classes
 90
     4095
 91
        4
280
     0
281
     0
  0
CLASS
  1
MLEADERSTYLE
  2
AcDbMLeaderStyle
  3
ACDB_MLEADERSTYLE_CLASS
 90
     4095
 91
        4
280
     0
281
     0
  0
CLASS
  1
SUN
  2
AcDbSun
  3
SCENEOE
 90
     1153
 91
        4
280
     0
281
     0
  0
CLASS
  1
DICTIONARYVAR
  2
AcDbDictionaryVar
  3
ObjectDBX Classes
 90
        0
 91
        4
280
     0
281
     0
  0
CLASS
  1
CELLSTYLEMAP
  2
AcDbCellStyleMap
  3
ObjectDBX Classes
 90
     1152
 91
        4
280
     0
281
     0
  0
ENDSEC
  0
SECTION
  2
TABLES
  0
TABLE
  2
VPORT
  5
8
330
0
100
AcDbSymbolTable
 70
     1
  0
VPORT
  5
29
330
8
100
AcDbSymbolTableRecord
100
AcDbViewportTableRecord
  2
*Active
 70
     0
 10
0.0
 20
0.0
 11
1.0
 21
1.0
 12
-0.2853906249999998
 22
0.1380681064830771
 13
0.0
 23
0.0
 14
0.5
 24
0.5
 15
0.5
 25
0.5
 16
0.0
 26
0.0
 36
1.0
 17
0.0
 27
0.0
 37
0.0
 40
5.891658937225477
 41
0.6698627953604096
 42
50.0
 43
0.0
 44
0.0
 50
0.0
 51
0.0
 71
     0
 72
   100
 73
     1
 74
     3
 75
     0
 76
     0
 77
     0
 78
     0
281
     0
 65
     1
110
0.0
120
0.0
130
0.0
111
1.0
121
0.0
131
0.0
112
0.0
122
1.0
132
0.0
 79
     0
146
0.0
348
2F
 60
     3
 61
     5
292
     1
282
     1
141
0.0
142
0.0
 63
   250
361
6D
  0
ENDTAB
  0
TABLE
  2
LTYPE
  5
5
330
0
100
AcDbSymbolTable
 70
     3
  0
LTYPE
  5
14
330
5
100
AcDbSymbolTableRecord
100
AcDbLinetypeTableRecord
  2
ByBlock
 70
     0
  3

 72
    65
 73
     0
 40
0.0
  0
LTYPE
  5
15
330
5
100
AcDbSymbolTableRecord
100
AcDbLinetypeTableRecord
  2
ByLayer
 70
     0
  3

 72
    65
 73
     0
 40
0.0
  0
LTYPE
  5
16
330
5
100
AcDbSymbolTableRecord
100
AcDbLinetypeTableRecord
  2
Continuous
 70
     0
  3
Solid line
 72
    65
 73
     0
 40
0.0
  0
LTYPE
  5
9E
330
5
100
AcDbSymbolTableRecord
100
AcDbLinetypeTableRecord
  2
Dashed
 70
     0
  3

 72
    65
 73
     2
 40
2.0
 49
1.0
 74
     0
 49
-1.0
 74
     0
  0
LTYPE
  5
18F
330
5
100
AcDbSymbolTableRecord
100
AcDbLinetypeTableRecord
  2
Center
 70
     0
  3

 72
    65
 73
     4
 40
1.5
 49
0.45
 74
     0
 49
-0.5
 74
     0
 49
0.05
 74
     0
 49
-0.5
 74
     0
  0
ENDTAB
  0
TABLE
  2
LAYER
  5
2
330
0
100
AcDbSymbolTable
 70
     7
  0
LAYER
  5
10
330
2
100
AcDbSymbolTableRecord
100
AcDbLayerTableRecord
  2
0
 70
     0
 62
     7
  6
Continuous
370
    -3
390
F
347
46
348
0
  0
LAYER
  5
72
330
2
100
AcDbSymbolTableRecord
100
AcDbLayerTableRecord
  2
AM_6
 70
     0
 62
    -2
  6
Continuous
370
    35
390
F
347
46
348
0
  0
LAYER
  5
9F
330
2
100
AcDbSymbolTableRecord
100
AcDbLayerTableRecord
  2
AM_9
 70
     0
 62
     6
  6
Dashed
370
    25
390
F
347
46
348
0
  0
LAYER
  5
AB
330
2
100
AcDbSymbolTableRecord
100
AcDbLayerTableRecord
  2
AM_5
 70
     0
 62
     3
  6
Continuous
370
    25
390
F
347
46
348
0
  0
LAYER
  5
AF
330
2
100
AcDbSymbolTableRecord
100
AcDbLayerTableRecord
  2
AM_4
 70
     0
 62
     7
  6
Continuous
370
    50
390
F
347
46
348
0
  0
LAYER
  5
190
330
2
100
AcDbSymbolTableRecord
100
AcDbLayerTableRecord
  2
AM_7
 70
     0
 62
     7
  6
Center
370
    25
390
F
347
46
348
0
  0
LAYER
  5
268
330
2
100
AcDbSymbolTableRecord
100
AcDbLayerTableRecord
  2
ConnectionPoints
 70
     0
 62
     7
  6
Continuous
370
    50
390
F
347
46
348
0
  0
ENDTAB
  0
TABLE
  2
STYLE
  5
3
330
0
100
AcDbSymbolTable
 70
     1
  0
STYLE
  5
11
330
3
100
AcDbSymbolTableRecord
100
AcDbTextStyleTableRecord
  2
Standard
 70
     0
 40
0.0
 41
1.0
 50
0.0
 71
     0
 42
0.2
  3
txt
  4

  0
ENDTAB
  0
TABLE
  2
VIEW
  5
6
330
0
100
AcDbSymbolTable
 70
     0
  0
ENDTAB
  0
TABLE
  2
UCS
  5
7
330
0
100
AcDbSymbolTable
 70
     0
  0
ENDTAB
  0
TABLE
  2
APPID
  5
9
330
0
100
AcDbSymbolTable
 70
     1
  0
APPID
  5
12
330
9
100
AcDbSymbolTableRecord
100
AcDbRegAppTableRecord
  2
ACAD
 70
     0
  0
ENDTAB
  0
TABLE
  2
DIMSTYLE
  5
A
330
0
100
AcDbSymbolTable
 70
     1
100
AcDbDimStyleTable
  0
DIMSTYLE
105
27
330
A
100
AcDbSymbolTableRecord
100
AcDbDimStyleTableRecord
  2
Standard
 70
     0
178
     0
340
11
  0
ENDTAB
  0
TABLE
  2
BLOCK_RECORD
  5
1
330
0
100
AcDbSymbolTable
 70
     8
  0
BLOCK_RECORD
  5
1F
330
1
100
AcDbSymbolTableRecord
100
AcDbBlockTableRecord
  2
*Model_Space
340
22
 70
     0
280
     1
281
     0
  0
BLOCK_RECORD
  5
1B
330
1
100
AcDbSymbolTableRecord
100
AcDbBlockTableRecord
  2
*Paper_Space
340
1E
 70
     0
280
     1
281
     0
  0
BLOCK_RECORD
  5
23
330
1
100
AcDbSymbolTableRecord
100
AcDbBlockTableRecord
  2
*Paper_Space0
340
26
 70
     0
280
     1
281
     0
  0
BLOCK_RECORD
  5
6E
330
1
100
AcDbSymbolTableRecord
100
AcDbBlockTableRecord
  2
1_071194_2
340
0
102
{BLKREFS
331
6F
102
}
 70
     0
280
     1
281
     0
  0
BLOCK_RECORD
  5
8E
330
1
100
AcDbSymbolTableRecord
100
AcDbBlockTableRecord
  2
2_ASME_B18_3_10_1_0_in_071194_2
340
0
102
{BLKREFS
331
8F
102
}
 70
     0
280
     1
281
     0
  0
BLOCK_RECORD
  5
B6
330
1
100
AcDbSymbolTableRecord
100
AcDbBlockTableRecord
  2
3_ASME_B18_3_10_2_0_in_071194_2
340
0
102
{BLKREFS
331
B7
102
}
 70
     0
280
     1
281
     0
  0
BLOCK_RECORD
  5
DA
330
1
100
AcDbSymbolTableRecord
100
AcDbBlockTableRecord
  2
4_070895LWE_0_in_071194_2
340
0
102
{BLKREFS
331
DB
102
}
 70
     0
280
     1
281
     0
  0
BLOCK_RECORD
  5
112
330
1
100
AcDbSymbolTableRecord
100
AcDbBlockTableRecord
  2
5_070927EL_0_in_071194_2
340
0
102
{BLKREFS
331
113
102
}
 70
     0
280
     1
281
     0
  0
BLOCK_RECORD
  5
1A2
330
1
100
AcDbSymbolTableRecord
100
AcDbBlockTableRecord
  2
6_405015E_Inch_0_in_071194_2
340
0
102
{BLKREFS
331
1A3
102
}
 70
     0
280
     1
281
     0
  0
BLOCK_RECORD
  5
202
330
1
100
AcDbSymbolTableRecord
100
AcDbBlockTableRecord
  2
7_071194Ho_0_in_071194_2
340
0
102
{BLKREFS
331
203
102
}
 70
     0
280
     1
281
     0
  0
ENDTAB
  0
ENDSEC
  0
SECTION
  2
BLOCKS
  0
BLOCK
  5
20
330
1F
100
AcDbEntity
  8
0
100
AcDbBlockBegin
  2
*Model_Space
 70
     0
 10
0.0
 20
0.0
 30
0.0
  3
*Model_Space
  1

  0
ENDBLK
  5
21
330
1F
100
AcDbEntity
  8
0
100
AcDbBlockEnd
  0
BLOCK
  5
1C
330
1B
100
AcDbEntity
 67
     1
  8
0
100
AcDbBlockBegin
  2
*Paper_Space
 70
     0
 10
0.0
 20
0.0
 30
0.0
  3
*Paper_Space
  1

  0
ENDBLK
  5
1D
330
1B
100
AcDbEntity
 67
     1
  8
0
100
AcDbBlockEnd
  0
BLOCK
  5
24
330
23
100
AcDbEntity
  8
0
100
AcDbBlockBegin
  2
*Paper_Space0
 70
     0
 10
0.0
 20
0.0
 30
0.0
  3
*Paper_Space0
  1

  0
ENDBLK
  5
25
330
23
100
AcDbEntity
  8
0
100
AcDbBlockEnd
  0
BLOCK
  5
70
330
6E
100
AcDbEntity
  8
0
100
AcDbBlockBegin
  2
1_071194_2
 70
     2
 10
0.0
 20
0.0
 30
0.0
  3
1_071194_2
  1

  0
ATTDEF
  5
73
330
6E
100
AcDbEntity
  8
AM_6
100
AcDbText
 10
6.64921875
 20
3.026136212966155
 30
0.0
 40
0.5
  1
Imperial - IP Pillow Block with Type E Dimensions 1-3/8 thru 2-3/16 inch 2-Bolt Labyrinth Seal Expansion
100
AcDbAttributeDefinition
  3

  2
NN
 70
     8
280
     0
  0
ATTDEF
  5
74
330
6E
100
AcDbEntity
  8
AM_6
100
AcDbText
 10
6.64921875
 20
2.526136212966155
 30
0.0
 40
0.5
  1
Imperial/E 2 Bolt Piliow Block Bearings
100
AcDbAttributeDefinition
  3

  2
NT
 70
     8
280
     0
  0
ATTDEF
  5
75
330
6E
100
AcDbEntity
  8
AM_6
100
AcDbText
 10
6.64921875
 20
2.026136212966155
 30
0.0
 40
0.5
  1
071194
100
AcDbAttributeDefinition
  3

  2
NB
 70
     8
280
     0
  0
ATTDEF
  5
76
330
6E
100
AcDbEntity
  8
AM_6
100
AcDbText
 10
6.64921875
 20
1.526136212966155
 30
0.0
 40
0.5
  1
$PN.
100
AcDbAttributeDefinition
  3

  2
NBSYN
 70
     8
280
     0
  0
ATTDEF
  5
77
330
6E
100
AcDbEntity
  8
AM_6
100
AcDbText
 10
6.64921875
 20
1.026136212966155
 30
0.0
 40
0.5
  1
071194
100
AcDbAttributeDefinition
  3

  2
LINA
 70
     8
280
     0
  0
ATTDEF
  5
78
330
6E
100
AcDbEntity
  8
AM_6
100
AcDbText
 10
6.64921875
 20
0.5261362129661546
 30
0.0
 40
0.5
  1
2-7/16
100
AcDbAttributeDefinition
  3

  2
SS
 70
     8
280
     0
  0
ATTDEF
  5
79
330
6E
100
AcDbEntity
  8
AM_6
100
AcDbText
 10
6.64921875
 20
0.0261362129661546
 30
0.0
 40
0.5
  1
Expansion
100
AcDbAttributeDefinition
  3

  2
TYPE
 70
     8
280
     0
  0
ATTDEF
  5
7A
330
6E
100
AcDbEntity
  8
AM_6
100
AcDbText
 10
6.64921875
 20
-0.4738637870338454
 30
0.0
 40
0.5
  1
071194
100
AcDbAttributeDefinition
  3

  2
PN
 70
     8
280
     0
  0
ATTDEF
  5
7B
330
6E
100
AcDbEntity
  8
AM_6
100
AcDbText
 10
6.64921875
 20
-0.9738637870338454
 30
0.0
 40
0.5
  1
EP2B-IP-207LE
100
AcDbAttributeDefinition
  3

  2
DESCRIPTION
 70
     8
280
     0
  0
ATTDEF
  5
7C
330
6E
100
AcDbEntity
  8
AM_6
100
AcDbText
 10
6.64921875
 20
-1.473863787033845
 30
0.0
 40
0.5
  1
Labyrinth Seal
100
AcDbAttributeDefinition
  3

  2
ST
 70
     8
280
     0
  0
ATTDEF
  5
7D
330
6E
100
AcDbEntity
  8
AM_6
100
AcDbText
 10
6.64921875
 20
-1.973863787033845
 30
0.0
 40
0.5
  1
3.42
100
AcDbAttributeDefinition
  3

  2
A
 70
     8
280
     0
  0
ATTDEF
  5
7E
330
6E
100
AcDbEntity
  8
AM_6
100
AcDbText
 10
6.64921875
 20
-2.473863787033845
 30
0.0
 40
0.5
  1
10.5
100
AcDbAttributeDefinition
  3

  2
B
 70
     8
280
     0
  0
ATTDEF
  5
7F
330
6E
100
AcDbEntity
  8
AM_6
100
AcDbText
 10
6.64921875
 20
-2.973863787033845
 30
0.0
 40
0.5
  1
2.87
100
AcDbAttributeDefinition
  3

  2
C
 70
     8
280
     0
  0
ATTDEF
  5
80
330
6E
100
AcDbEntity
  8
AM_6
100
AcDbText
 10
6.64921875
 20
-3.473863787033845
 30
0.0
 40
0.5
  1
8.38
100
AcDbAttributeDefinition
  3

  2
DMIN
 70
     8
280
     0
  0
ATTDEF
  5
81
330
6E
100
AcDbEntity
  8
AM_6
100
AcDbText
 10
6.64921875
 20
-3.973863787033845
 30
0.0
 40
0.5
  1
8.62
100
AcDbAttributeDefinition
  3

  2
DMAX
 70
     8
280
     0
  0
ATTDEF
  5
82
330
6E
100
AcDbEntity
  8
AM_6
100
AcDbText
 10
6.64921875
 20
-4.473863787033846
 30
0.0
 40
0.5
  1
5/8
100
AcDbAttributeDefinition
  3

  2
F
 70
     8
280
     0
  0
ATTDEF
  5
83
330
6E
100
AcDbEntity
  8
AM_6
100
AcDbText
 10
6.64921875
 20
-4.973863787033846
 30
0.0
 40
0.5
  1
0.88
100
AcDbAttributeDefinition
  3

  2
G
 70
     8
280
     0
  0
ATTDEF
  5
84
330
6E
100
AcDbEntity
  8
AM_6
100
AcDbText
 10
6.64921875
 20
-5.473863787033846
 30
0.0
 40
0.5
  1
1.63
100
AcDbAttributeDefinition
  3

  2
H
 70
     8
280
     0
  0
ATTDEF
  5
85
330
6E
100
AcDbEntity
  8
AM_6
100
AcDbText
 10
6.64921875
 20
-5.973863787033846
 30
0.0
 40
0.5
  1
5.71
100
AcDbAttributeDefinition
  3

  2
J
 70
     8
280
     0
  0
ATTDEF
  5
86
330
6E
100
AcDbEntity
  8
AM_6
100
AcDbText
 10
6.64921875
 20
-6.473863787033846
 30
0.0
 40
0.5
  1
3.88
100
AcDbAttributeDefinition
  3

  2
L
 70
     8
280
     0
  0
ATTDEF
  5
87
330
6E
100
AcDbEntity
  8
AM_6
100
AcDbText
 10
6.64921875
 20
-6.973863787033846
 30
0.0
 40
0.5
  1
2.75
100
AcDbAttributeDefinition
  3

  2
M
 70
     8
280
     0
  0
ATTDEF
  5
88
330
6E
100
AcDbEntity
  8
AM_6
100
AcDbText
 10
6.64921875
 20
-7.473863787033846
 30
0.0
 40
0.5
  1
1.20
100
AcDbAttributeDefinition
  3

  2
R
 70
     8
280
     0
  0
ATTDEF
  5
89
330
6E
100
AcDbEntity
  8
AM_6
100
AcDbText
 10
6.64921875
 20
-7.973863787033846
 30
0.0
 40
0.5
  1
2.22
100
AcDbAttributeDefinition
  3

  2
S
 70
     8
280
     0
  0
ATTDEF
  5
8A
330
6E
100
AcDbEntity
  8
AM_6
100
AcDbText
 10
6.64921875
 20
-8.473863787033846
 30
0.0
 40
0.5
  1
0.25
100
AcDbAttributeDefinition
  3

  2
X
 70
     8
280
     0
  0
ATTDEF
  5
8B
330
6E
100
AcDbEntity
  8
AM_6
100
AcDbText
 10
6.64921875
 20
-8.973863787033846
 30
0.0
 40
0.5
  1
0.025
100
AcDbAttributeDefinition
  3

  2
Y
 70
     8
280
     0
  0
ATTDEF
  5
8C
330
6E
100
AcDbEntity
  8
AM_6
100
AcDbText
 10
6.64921875
 20
-9.473863787033846
 30
0.0
 40
0.5
  1
2.95
100
AcDbAttributeDefinition
  3

  2
Z
 70
     8
280
     0
  0
ATTDEF
  5
8D
330
6E
100
AcDbEntity
  8
AM_6
100
AcDbText
 10
6.64921875
 20
-9.973863787033846
 30
0.0
 40
0.5
  1
baldor
100
AcDbAttributeDefinition
  3

  2
COMPANY
 70
     8
280
     0
  0
INSERT
  5
8F
330
6E
100
AcDbEntity
  8
0
100
AcDbBlockReference
  2
2_ASME_B18_3_10_1_0_in_071194_2
 10
0.0
 20
0.0
 30
0.0
  0
INSERT
  5
B7
330
6E
100
AcDbEntity
  8
0
100
AcDbBlockReference
  2
3_ASME_B18_3_10_2_0_in_071194_2
 10
0.0
 20
0.0
 30
0.0
  0
INSERT
  5
DB
330
6E
100
AcDbEntity
  8
0
100
AcDbBlockReference
  2
4_070895LWE_0_in_071194_2
 10
0.0
 20
0.0
 30
0.0
  0
INSERT
  5
113
330
6E
100
AcDbEntity
  8
0
100
AcDbBlockReference
  2
5_070927EL_0_in_071194_2
 10
0.0
 20
0.0
 30
0.0
  0
INSERT
  5
1A3
330
6E
100
AcDbEntity
  8
0
100
AcDbBlockReference
  2
6_405015E_Inch_0_in_071194_2
 10
0.0
 20
0.0
 30
0.0
  0
INSERT
  5
203
330
6E
100
AcDbEntity
  8
0
100
AcDbBlockReference
  2
7_071194Ho_0_in_071194_2
 10
0.0
 20
0.0
 30
0.0
  0
ENDBLK
  5
71
330
6E
100
AcDbEntity
  8
0
100
AcDbBlockEnd
  0
BLOCK
  5
90
330
8E
100
AcDbEntity
  8
0
100
AcDbBlockBegin
  2
2_ASME_B18_3_10_1_0_in_071194_2
 70
     2
 10
0.0
 20
0.0
 30
0.0
  3
2_ASME_B18_3_10_1_0_in_071194_2
  1

  0
ATTDEF
  5
92
330
8E
100
AcDbEntity
  8
AM_6
100
AcDbText
 10
4.031333333333333
 20
-1.465333333333334
 30
0.0
 40
0.5
  1
ANSI/ASME B18.3-1998
100
AcDbAttributeDefinition
  3

  2
NN
 70
     8
280
     0
  0
ATTDEF
  5
93
330
8E
100
AcDbEntity
  8
AM_6
100
AcDbText
 10
4.031333333333333
 20
-1.965333333333334
 30
0.0
 40
0.5
  1
Socket Button Head Cap Screws
100
AcDbAttributeDefinition
  3

  2
NT
 70
     8
280
     0
  0
ATTDEF
  5
94
330
8E
100
AcDbEntity
  8
AM_6
100
AcDbText
 10
4.031333333333333
 20
-2.465333333333334
 30
0.0
 40
0.5
  1
ASME B18.3-10
100
AcDbAttributeDefinition
  3

  2
NB
 70
     8
280
     0
  0
ATTDEF
  5
95
330
8E
100
AcDbEntity
  8
AM_6
100
AcDbText
 10
4.031333333333333
 20
-2.965333333333334
 30
0.0
 40
0.5
  1
ASME B18.3-$NS.
100
AcDbAttributeDefinition
  3

  2
NBSYN
 70
     8
280
     0
  0
ATTDEF
  5
96
330
8E
100
AcDbEntity
  8
AM_6
100
AcDbText
 10
4.031333333333333
 20
-3.465333333333334
 30
0.0
 40
0.5
  1
ASME B18.3-10
100
AcDbAttributeDefinition
  3

  2
LINA
 70
     8
280
     0
  0
ATTDEF
  5
97
330
8E
100
AcDbEntity
  8
AM_6
100
AcDbText
 10
4.031333333333333
 20
-3.965333333333334
 30
0.0
 40
0.5
  1
10
100
AcDbAttributeDefinition
  3

  2
NS
 70
     8
280
     0
  0
ATTDEF
  5
98
330
8E
100
AcDbEntity
  8
AM_6
100
AcDbText
 10
4.031333333333333
 20
-4.465333333333334
 30
0.0
 40
0.5
  1
0.361
100
AcDbAttributeDefinition
  3

  2
A
 70
     8
280
     0
  0
ATTDEF
  5
99
330
8E
100
AcDbEntity
  8
AM_6
100
AcDbText
 10
4.031333333333333
 20
-4.965333333333334
 30
0.0
 40
0.5
  1
0.101
100
AcDbAttributeDefinition
  3

  2
H
 70
     8
280
     0
  0
ATTDEF
  5
9A
330
8E
100
AcDbEntity
  8
AM_6
100
AcDbText
 10
4.031333333333333
 20
-5.465333333333334
 30
0.0
 40
0.5
  1
0.800
100
AcDbAttributeDefinition
  3

  2
L
 70
     8
280
     0
  0
ATTDEF
  5
9B
330
8E
100
AcDbEntity
  8
AM_6
100
AcDbText
 10
4.031333333333333
 20
-5.965333333333334
 30
0.0
 40
0.5
  1
0.020
100
AcDbAttributeDefinition
  3

  2
S
 70
     8
280
     0
  0
ATTDEF
  5
9C
330
8E
100
AcDbEntity
  8
AM_6
100
AcDbText
 10
4.031333333333333
 20
-6.465333333333334
 30
0.0
 40
0.5
  1
0.125000
100
AcDbAttributeDefinition
  3

  2
J
 70
     8
280
     0
  0
ATTDEF
  5
9D
330
8E
100
AcDbEntity
  8
AM_6
100
AcDbText
 10
4.031333333333333
 20
-6.965333333333334
 30
0.0
 40
0.5
  1
baldor
100
AcDbAttributeDefinition
  3

  2
COMPANY
 70
     8
280
     0
  0
LINE
  5
A0
330
8E
100
AcDbEntity
  8
AM_9
100
AcDbLine
 10
-1.808666666666667
 20
-1.57366454968463
 30
0.0
 11
-1.869666666666667
 21
-1.57366454968463
 31
0.0
  0
LINE
  5
A1
330
8E
100
AcDbEntity
  8
AM_9
100
AcDbLine
 10
-1.808666666666667
 20
-1.718002116982037
 30
0.0
 11
-1.869666666666667
 21
-1.718002116982037
 31
0.0
  0
LINE
  5
A2
330
8E
100
AcDbEntity
  8
AM_9
100
AcDbLine
 10
-1.808666666666667
 20
-1.57366454968463
 30
0.0
 11
-1.808666666666667
 21
-1.718002116982037
 31
0.0
  0
LINE
  5
A3
330
8E
100
AcDbEntity
  8
AM_9
100
AcDbLine
 10
-1.808666666666667
 20
-1.609748941508982
 30
0.0
 11
-1.869666666666667
 21
-1.609748941508982
 31
0.0
  0
LINE
  5
A4
330
8E
100
AcDbEntity
  8
AM_9
100
AcDbLine
 10
-1.808666666666667
 20
-1.681917725157685
 30
0.0
 11
-1.869666666666667
 21
-1.681917725157685
 31
0.0
  0
LINE
  5
A5
330
8E
100
AcDbEntity
  8
AM_9
100
AcDbLine
 10
-0.9686666666666668
 20
-1.569433333333333
 30
0.0
 11
-0.9686666666666668
 21
-1.722233333333334
 31
0.0
  0
LINE
  5
A6
330
8E
100
AcDbEntity
  8
AM_9
100
AcDbLine
 10
-0.9686666666666668
 20
-1.569433333333333
 30
0.0
 11
-0.9872666666666668
 21
-1.550833333333334
 31
0.0
  0
LINE
  5
A7
330
8E
100
AcDbEntity
  8
AM_9
100
AcDbLine
 10
-0.9872666666666668
 20
-1.740833333333333
 30
0.0
 11
-0.9686666666666668
 21
-1.722233333333334
 31
0.0
  0
LINE
  5
A8
330
8E
100
AcDbEntity
  8
AM_9
100
AcDbLine
 10
-0.9872666666666668
 20
-1.550833333333334
 30
0.0
 11
-0.9872666666666668
 21
-1.740833333333333
 31
0.0
  0
LINE
  5
A9
330
8E
100
AcDbEntity
  8
AM_9
100
AcDbLine
 10
-1.768666666666667
 20
-1.740833333333333
 30
0.0
 11
-0.9872666666666668
 21
-1.740833333333333
 31
0.0
  0
LINE
  5
AA
330
8E
100
AcDbEntity
  8
AM_9
100
AcDbLine
 10
-0.9872666666666668
 20
-1.550833333333334
 30
0.0
 11
-1.768666666666667
 21
-1.550833333333334
 31
0.0
  0
LINE
  5
AC
330
8E
100
AcDbEntity
  8
AM_5
100
AcDbLine
 10
-1.688666666666667
 20
-1.722233333333334
 30
0.0
 11
-1.720882811687448
 21
-1.740833333333333
 31
0.0
  0
LINE
  5
AD
330
8E
100
AcDbEntity
  8
AM_5
100
AcDbLine
 10
-1.688666666666667
 20
-1.550833333333332
 30
0.0
 11
-1.688666666666667
 21
-1.740833333333331
 31
0.0
  0
LINE
  5
AE
330
8E
100
AcDbEntity
  8
AM_5
100
AcDbLine
 10
-1.688666666666667
 20
-1.569433333333333
 30
0.0
 11
-1.720882811687449
 21
-1.550833333333333
 31
0.0
  0
LINE
  5
B0
330
8E
100
AcDbEntity
  8
AM_4
100
AcDbLine
 10
-1.869666666666667
 20
-1.546333333333333
 30
0.0
 11
-1.869666666666667
 21
-1.745333333333334
 31
0.0
  0
ARC
  5
B1
330
8E
100
AcDbEntity
  8
AM_4
100
AcDbCircle
 10
-1.788666666666667
 20
-1.745333333333334
 30
0.0
 40
0.0809999999999997
100
AcDbArc
 50
180.0
 51
270.0
  0
ARC
  5
B2
330
8E
100
AcDbEntity
  8
AM_4
100
AcDbCircle
 10
-1.788666666666667
 20
-1.546333333333333
 30
0.0
 40
0.0809999999999997
100
AcDbArc
 50
90.0
 51
180.0
  0
LINE
  5
B3
330
8E
100
AcDbEntity
  8
AM_4
100
AcDbLine
 10
-1.788666666666667
 20
-1.465333333333334
 30
0.0
 11
-1.788666666666667
 21
-1.826333333333333
 31
0.0
  0
LINE
  5
B4
330
8E
100
AcDbEntity
  8
AM_4
100
AcDbLine
 10
-1.788666666666667
 20
-1.826333333333333
 30
0.0
 11
-1.768666666666667
 21
-1.826333333333333
 31
0.0
  0
LINE
  5
B5
330
8E
100
AcDbEntity
  8
AM_4
100
AcDbLine
 10
-1.768666666666667
 20
-1.465333333333334
 30
0.0
 11
-1.788666666666667
 21
-1.465333333333334
 31
0.0
  0
ENDBLK
  5
91
330
8E
100
AcDbEntity
  8
0
100
AcDbBlockEnd
  0
BLOCK
  5
B8
330
B6
100
AcDbEntity
  8
0
100
AcDbBlockBegin
  2
3_ASME_B18_3_10_2_0_in_071194_2
 70
     2
 10
0.0
 20
0.0
 30
0.0
  3
3_ASME_B18_3_10_2_0_in_071194_2
  1

  0
ATTDEF
  5
BA
330
B6
100
AcDbEntity
  8
AM_6
100
AcDbText
 10
4.031333333333333
 20
1.826333333333333
 30
0.0
 40
0.5
  1
ANSI/ASME B18.3-1998
100
AcDbAttributeDefinition
  3

  2
NN
 70
     8
280
     0
  0
ATTDEF
  5
BB
330
B6
100
AcDbEntity
  8
AM_6
100
AcDbText
 10
4.031333333333333
 20
1.326333333333333
 30
0.0
 40
0.5
  1
Socket Button Head Cap Screws
100
AcDbAttributeDefinition
  3

  2
NT
 70
     8
280
     0
  0
ATTDEF
  5
BC
330
B6
100
AcDbEntity
  8
AM_6
100
AcDbText
 10
4.031333333333333
 20
0.8263333333333334
 30
0.0
 40
0.5
  1
ASME B18.3-10
100
AcDbAttributeDefinition
  3

  2
NB
 70
     8
280
     0
  0
ATTDEF
  5
BD
330
B6
100
AcDbEntity
  8
AM_6
100
AcDbText
 10
4.031333333333333
 20
0.3263333333333334
 30
0.0
 40
0.5
  1
ASME B18.3-$NS.
100
AcDbAttributeDefinition
  3

  2
NBSYN
 70
     8
280
     0
  0
ATTDEF
  5
BE
330
B6
100
AcDbEntity
  8
AM_6
100
AcDbText
 10
4.031333333333333
 20
-0.1736666666666666
 30
0.0
 40
0.5
  1
ASME B18.3-10
100
AcDbAttributeDefinition
  3

  2
LINA
 70
     8
280
     0
  0
ATTDEF
  5
BF
330
B6
100
AcDbEntity
  8
AM_6
100
AcDbText
 10
4.031333333333333
 20
-0.6736666666666666
 30
0.0
 40
0.5
  1
10
100
AcDbAttributeDefinition
  3

  2
NS
 70
     8
280
     0
  0
ATTDEF
  5
C0
330
B6
100
AcDbEntity
  8
AM_6
100
AcDbText
 10
4.031333333333333
 20
-1.173666666666667
 30
0.0
 40
0.5
  1
0.361
100
AcDbAttributeDefinition
  3

  2
A
 70
     8
280
     0
  0
ATTDEF
  5
C1
330
B6
100
AcDbEntity
  8
AM_6
100
AcDbText
 10
4.031333333333333
 20
-1.673666666666667
 30
0.0
 40
0.5
  1
0.101
100
AcDbAttributeDefinition
  3

  2
H
 70
     8
280
     0
  0
ATTDEF
  5
C2
330
B6
100
AcDbEntity
  8
AM_6
100
AcDbText
 10
4.031333333333333
 20
-2.173666666666667
 30
0.0
 40
0.5
  1
0.800
100
AcDbAttributeDefinition
  3

  2
L
 70
     8
280
     0
  0
ATTDEF
  5
C3
330
B6
100
AcDbEntity
  8
AM_6
100
AcDbText
 10
4.031333333333333
 20
-2.673666666666667
 30
0.0
 40
0.5
  1
0.020
100
AcDbAttributeDefinition
  3

  2
S
 70
     8
280
     0
  0
ATTDEF
  5
C4
330
B6
100
AcDbEntity
  8
AM_6
100
AcDbText
 10
4.031333333333333
 20
-3.173666666666667
 30
0.0
 40
0.5
  1
0.125000
100
AcDbAttributeDefinition
  3

  2
J
 70
     8
280
     0
  0
ATTDEF
  5
C5
330
B6
100
AcDbEntity
  8
AM_6
100
AcDbText
 10
4.031333333333333
 20
-3.673666666666667
 30
0.0
 40
0.5
  1
baldor
100
AcDbAttributeDefinition
  3

  2
COMPANY
 70
     8
280
     0
  0
LINE
  5
C6
330
B6
100
AcDbEntity
  8
AM_9
100
AcDbLine
 10
-1.808666666666667
 20
1.718002116982037
 30
0.0
 11
-1.869666666666667
 21
1.718002116982037
 31
0.0
  0
LINE
  5
C7
330
B6
100
AcDbEntity
  8
AM_9
100
AcDbLine
 10
-1.808666666666667
 20
1.57366454968463
 30
0.0
 11
-1.869666666666667
 21
1.57366454968463
 31
0.0
  0
LINE
  5
C8
330
B6
100
AcDbEntity
  8
AM_9
100
AcDbLine
 10
-1.808666666666667
 20
1.718002116982037
 30
0.0
 11
-1.808666666666667
 21
1.57366454968463
 31
0.0
  0
LINE
  5
C9
330
B6
100
AcDbEntity
  8
AM_9
100
AcDbLine
 10
-1.808666666666667
 20
1.681917725157685
 30
0.0
 11
-1.869666666666667
 21
1.681917725157685
 31
0.0
  0
LINE
  5
CA
330
B6
100
AcDbEntity
  8
AM_9
100
AcDbLine
 10
-1.808666666666667
 20
1.609748941508982
 30
0.0
 11
-1.869666666666667
 21
1.609748941508982
 31
0.0
  0
LINE
  5
CB
330
B6
100
AcDbEntity
  8
AM_9
100
AcDbLine
 10
-0.9686666666666668
 20
1.722233333333334
 30
0.0
 11
-0.9686666666666668
 21
1.569433333333333
 31
0.0
  0
LINE
  5
CC
330
B6
100
AcDbEntity
  8
AM_9
100
AcDbLine
 10
-0.9686666666666668
 20
1.722233333333334
 30
0.0
 11
-0.9872666666666668
 21
1.740833333333333
 31
0.0
  0
LINE
  5
CD
330
B6
100
AcDbEntity
  8
AM_9
100
AcDbLine
 10
-0.9872666666666668
 20
1.550833333333334
 30
0.0
 11
-0.9686666666666668
 21
1.569433333333333
 31
0.0
  0
LINE
  5
CE
330
B6
100
AcDbEntity
  8
AM_9
100
AcDbLine
 10
-0.9872666666666668
 20
1.740833333333333
 30
0.0
 11
-0.9872666666666668
 21
1.550833333333334
 31
0.0
  0
LINE
  5
CF
330
B6
100
AcDbEntity
  8
AM_9
100
AcDbLine
 10
-1.768666666666667
 20
1.550833333333334
 30
0.0
 11
-0.9872666666666668
 21
1.550833333333334
 31
0.0
  0
LINE
  5
D0
330
B6
100
AcDbEntity
  8
AM_9
100
AcDbLine
 10
-0.9872666666666668
 20
1.740833333333333
 30
0.0
 11
-1.768666666666667
 21
1.740833333333333
 31
0.0
  0
LINE
  5
D1
330
B6
100
AcDbEntity
  8
AM_5
100
AcDbLine
 10
-1.688666666666667
 20
1.569433333333333
 30
0.0
 11
-1.720882811687449
 21
1.550833333333333
 31
0.0
  0
LINE
  5
D2
330
B6
100
AcDbEntity
  8
AM_5
100
AcDbLine
 10
-1.688666666666667
 20
1.740833333333331
 30
0.0
 11
-1.688666666666667
 21
1.550833333333333
 31
0.0
  0
LINE
  5
D3
330
B6
100
AcDbEntity
  8
AM_5
100
AcDbLine
 10
-1.688666666666667
 20
1.722233333333334
 30
0.0
 11
-1.720882811687448
 21
1.740833333333333
 31
0.0
  0
LINE
  5
D4
330
B6
100
AcDbEntity
  8
AM_4
100
AcDbLine
 10
-1.869666666666667
 20
1.745333333333334
 30
0.0
 11
-1.869666666666667
 21
1.546333333333333
 31
0.0
  0
ARC
  5
D5
330
B6
100
AcDbEntity
  8
AM_4
100
AcDbCircle
 10
-1.788666666666667
 20
1.546333333333333
 30
0.0
 40
0.0809999999999997
100
AcDbArc
 50
180.0
 51
270.0
  0
ARC
  5
D6
330
B6
100
AcDbEntity
  8
AM_4
100
AcDbCircle
 10
-1.788666666666667
 20
1.745333333333334
 30
0.0
 40
0.0809999999999997
100
AcDbArc
 50
90.0
 51
180.0
  0
LINE
  5
D7
330
B6
100
AcDbEntity
  8
AM_4
100
AcDbLine
 10
-1.788666666666667
 20
1.826333333333333
 30
0.0
 11
-1.788666666666667
 21
1.465333333333334
 31
0.0
  0
LINE
  5
D8
330
B6
100
AcDbEntity
  8
AM_4
100
AcDbLine
 10
-1.788666666666667
 20
1.465333333333334
 30
0.0
 11
-1.768666666666667
 21
1.465333333333334
 31
0.0
  0
LINE
  5
D9
330
B6
100
AcDbEntity
  8
AM_4
100
AcDbLine
 10
-1.768666666666667
 20
1.826333333333333
 30
0.0
 11
-1.788666666666667
 21
1.826333333333333
 31
0.0
  0
ENDBLK
  5
B9
330
B6
100
AcDbEntity
  8
0
100
AcDbBlockEnd
  0
BLOCK
  5
DC
330
DA
100
AcDbEntity
  8
0
100
AcDbBlockBegin
  2
4_070895LWE_0_in_071194_2
 70
     2
 10
0.0
 20
0.0
 30
0.0
  3
4_070895LWE_0_in_071194_2
  1

  0
ATTDEF
  5
DE
330
DA
100
AcDbEntity
  8
AM_6
100
AcDbText
 10
3.671333333333333
 20
1.94
 30
0.0
 40
0.5
  1
Imperial/E Insert Lockwasher -Inch
100
AcDbAttributeDefinition
  3

  2
NN
 70
     8
280
     0
  0
ATTDEF
  5
DF
330
DA
100
AcDbEntity
  8
AM_6
100
AcDbText
 10
3.671333333333333
 20
1.44
 30
0.0
 40
0.5
  1
Imperial/E Bearings
100
AcDbAttributeDefinition
  3

  2
NT
 70
     8
280
     0
  0
ATTDEF
  5
E0
330
DA
100
AcDbEntity
  8
AM_6
100
AcDbText
 10
3.671333333333333
 20
0.9400000000000002
 30
0.0
 40
0.5
  1
070895LWE
100
AcDbAttributeDefinition
  3

  2
NB
 70
     8
280
     0
  0
ATTDEF
  5
E1
330
DA
100
AcDbEntity
  8
AM_6
100
AcDbText
 10
3.671333333333333
 20
0.4400000000000002
 30
0.0
 40
0.5
  1
$PN.LWE
100
AcDbAttributeDefinition
  3

  2
NBSYN
 70
     8
280
     0
  0
ATTDEF
  5
E2
330
DA
100
AcDbEntity
  8
AM_6
100
AcDbText
 10
3.671333333333333
 20
-0.0599999999999998
 30
0.0
 40
0.5
  1
070895
100
AcDbAttributeDefinition
  3

  2
LINA
 70
     8
280
     0
  0
ATTDEF
  5
E3
330
DA
100
AcDbEntity
  8
AM_6
100
AcDbText
 10
3.671333333333333
 20
-0.5599999999999998
 30
0.0
 40
0.5
  1
2-7/16
100
AcDbAttributeDefinition
  3

  2
SS
 70
     8
280
     0
  0
ATTDEF
  5
E4
330
DA
100
AcDbEntity
  8
AM_6
100
AcDbText
 10
3.671333333333333
 20
-1.06
 30
0.0
 40
0.5
  1
3.880000
100
AcDbAttributeDefinition
  3

  2
E1
 70
     8
280
     0
  0
ATTDEF
  5
E5
330
DA
100
AcDbEntity
  8
AM_6
100
AcDbText
 10
3.671333333333333
 20
-1.56
 30
0.0
 40
0.5
  1
2.437500
100
AcDbAttributeDefinition
  3

  2
SS1
 70
     8
280
     0
  0
ATTDEF
  5
E6
330
DA
100
AcDbEntity
  8
AM_6
100
AcDbText
 10
3.671333333333333
 20
-2.06
 30
0.0
 40
0.5
  1
070895
100
AcDbAttributeDefinition
  3

  2
PN
 70
     8
280
     0
  0
ATTDEF
  5
E7
330
DA
100
AcDbEntity
  8
AM_6
100
AcDbText
 10
3.671333333333333
 20
-2.56
 30
0.0
 40
0.5
  1
INS-IP-207R
100
AcDbAttributeDefinition
  3

  2
DESCRIPTION
 70
     8
280
     0
  0
ATTDEF
  5
E8
330
DA
100
AcDbEntity
  8
AM_6
100
AcDbText
 10
3.671333333333333
 20
-3.06
 30
0.0
 40
0.5
  1
4.7241
100
AcDbAttributeDefinition
  3

  2
A
 70
     8
280
     0
  0
ATTDEF
  5
E9
330
DA
100
AcDbEntity
  8
AM_6
100
AcDbText
 10
3.671333333333333
 20
-3.56
 30
0.0
 40
0.5
  1
1-9/32
100
AcDbAttributeDefinition
  3

  2
B
 70
     8
280
     0
  0
ATTDEF
  5
EA
330
DA
100
AcDbEntity
  8
AM_6
100
AcDbText
 10
3.671333333333333
 20
-4.06
 30
0.0
 40
0.5
  1
1.281250
100
AcDbAttributeDefinition
  3

  2
B1
 70
     8
280
     0
  0
ATTDEF
  5
EB
330
DA
100
AcDbEntity
  8
AM_6
100
AcDbText
 10
3.671333333333333
 20
-4.56
 30
0.0
 40
0.5
  1
3-27/64
100
AcDbAttributeDefinition
  3

  2
C
 70
     8
280
     0
  0
ATTDEF
  5
EC
330
DA
100
AcDbEntity
  8
AM_6
100
AcDbText
 10
3.671333333333333
 20
-5.06
 30
0.0
 40
0.5
  1
3.421875
100
AcDbAttributeDefinition
  3

  2
C1
 70
     8
280
     0
  0
ATTDEF
  5
ED
330
DA
100
AcDbEntity
  8
AM_6
100
AcDbText
 10
3.671333333333333
 20
-5.56
 30
0.0
 40
0.5
  1
1.208
100
AcDbAttributeDefinition
  3

  2
D
 70
     8
280
     0
  0
ATTDEF
  5
EE
330
DA
100
AcDbEntity
  8
AM_6
100
AcDbText
 10
3.671333333333333
 20
-6.06
 30
0.0
 40
0.5
  1
3-7/8
100
AcDbAttributeDefinition
  3

  2
E
 70
     8
280
     0
  0
ATTDEF
  5
EF
330
DA
100
AcDbEntity
  8
AM_6
100
AcDbText
 10
3.671333333333333
 20
-6.56
 30
0.0
 40
0.5
  1
0.1900
100
AcDbAttributeDefinition
  3

  2
NDM
 70
     8
280
     0
  0
ATTDEF
  5
F0
330
DA
100
AcDbEntity
  8
AM_6
100
AcDbText
 10
3.671333333333333
 20
-7.06
 30
0.0
 40
0.5
  1
0.1450
100
AcDbAttributeDefinition
  3

  2
KDM
 70
     8
280
     0
  0
ATTDEF
  5
F1
330
DA
100
AcDbEntity
  8
AM_6
100
AcDbText
 10
3.671333333333333
 20
-7.56
 30
0.0
 40
0.5
  1
3.35
100
AcDbAttributeDefinition
  3

  2
AL
 70
     8
280
     0
  0
ATTDEF
  5
F2
330
DA
100
AcDbEntity
  8
AM_6
100
AcDbText
 10
3.671333333333333
 20
-8.059999999999999
 30
0.0
 40
0.5
  1
0.50
100
AcDbAttributeDefinition
  3

  2
BL
 70
     8
280
     0
  0
ATTDEF
  5
F3
330
DA
100
AcDbEntity
  8
AM_6
100
AcDbText
 10
3.671333333333333
 20
-8.559999999999999
 30
0.0
 40
0.5
  1
0.07
100
AcDbAttributeDefinition
  3

  2
CL
 70
     8
280
     0
  0
ATTDEF
  5
F4
330
DA
100
AcDbEntity
  8
AM_6
100
AcDbText
 10
3.671333333333333
 20
-9.059999999999999
 30
0.0
 40
0.5
  1
0.44
100
AcDbAttributeDefinition
  3

  2
DL
 70
     8
280
     0
  0
ATTDEF
  5
F5
330
DA
100
AcDbEntity
  8
AM_6
100
AcDbText
 10
3.671333333333333
 20
-9.559999999999999
 30
0.0
 40
0.5
  1
baldor
100
AcDbAttributeDefinition
  3

  2
COMPANY
 70
     8
280
     0
  0
LINE
  5
F6
330
DA
100
AcDbEntity
  8
AM_9
100
AcDbLine
 10
-1.698666666666667
 20
1.163947765002008
 30
0.0
 11
-1.768666666666667
 21
1.163947765002008
 31
0.0
  0
LINE
  5
F7
330
DA
100
AcDbEntity
  8
AM_9
100
AcDbLine
 10
-1.328666666666667
 20
1.131765154047956
 30
0.0
 11
-1.698666666666667
 21
1.131765154047956
 31
0.0
  0
LINE
  5
F8
330
DA
100
AcDbEntity
  8
AM_9
100
AcDbLine
 10
-1.328666666666667
 20
1.07220478927997
 30
0.0
 11
-1.768666666666667
 21
1.07220478927997
 31
0.0
  0
LINE
  5
F9
330
DA
100
AcDbEntity
  8
AM_9
100
AcDbLine
 10
-1.698666666666667
 20
1.227436012139228
 30
0.0
 11
-1.328666666666667
 21
1.227436012139228
 31
0.0
  0
LINE
  5
FA
330
DA
100
AcDbEntity
  8
AM_9
100
AcDbLine
 10
-1.328666666666667
 20
1.167875647371243
 30
0.0
 11
-1.768666666666667
 21
1.167875647371243
 31
0.0
  0
LINE
  5
FB
330
DA
100
AcDbEntity
  8
AM_9
100
AcDbLine
 10
-1.328666666666667
 20
1.07220478927997
 30
0.0
 11
-1.328666666666667
 21
1.227436012139228
 31
0.0
  0
LINE
  5
FC
330
DA
100
AcDbEntity
  8
AM_9
100
AcDbLine
 10
-1.698666666666667
 20
1.647083333333333
 30
0.0
 11
-1.768666666666667
 21
1.647083333333333
 31
0.0
  0
LINE
  5
FD
330
DA
100
AcDbEntity
  8
AM_9
100
AcDbLine
 10
-1.698666666666667
 20
1.7421228957264
 30
0.0
 11
-1.768666666666667
 21
1.7421228957264
 31
0.0
  0
LINE
  5
FE
330
DA
100
AcDbEntity
  8
AM_9
100
AcDbLine
 10
-1.698666666666667
 20
-1.647083333333333
 30
0.0
 11
-1.768666666666667
 21
-1.647083333333333
 31
0.0
  0
LINE
  5
FF
330
DA
100
AcDbEntity
  8
AM_9
100
AcDbLine
 10
-1.768666666666667
 20
-1.7421228957264
 30
0.0
 11
-1.698666666666667
 21
-1.7421228957264
 31
0.0
  0
LINE
  5
100
330
DA
100
AcDbEntity
  8
AM_9
100
AcDbLine
 10
-1.698666666666667
 20
1.314138232875795
 30
0.0
 11
-1.768666666666667
 21
1.314138232875795
 31
0.0
  0
LINE
  5
101
330
DA
100
AcDbEntity
  8
AM_9
100
AcDbLine
 10
-1.698666666666667
 20
-1.314138232875795
 30
0.0
 11
-1.768666666666667
 21
-1.314138232875795
 31
0.0
  0
LINE
  5
102
330
DA
100
AcDbEntity
  8
AM_9
100
AcDbLine
 10
-1.698666666666667
 20
0.9964112000957029
 30
0.0
 11
-1.768666666666667
 21
0.9964112000957019
 31
0.0
  0
LINE
  5
103
330
DA
100
AcDbEntity
  8
AM_9
100
AcDbLine
 10
-1.698666666666667
 20
-0.9964112000957029
 30
0.0
 11
-1.768666666666667
 21
-0.9964112000957029
 31
0.0
  0
LINE
  5
104
330
DA
100
AcDbEntity
  8
AM_9
100
AcDbLine
 10
-1.698666666666667
 20
-0.862060911670259
 30
0.0
 11
-1.768666666666667
 21
-0.862060911670259
 31
0.0
  0
LINE
  5
105
330
DA
100
AcDbEntity
  8
AM_9
100
AcDbLine
 10
-1.698666666666667
 20
0.8620609116702589
 30
0.0
 11
-1.768666666666667
 21
0.8620609116702589
 31
0.0
  0
LINE
  5
106
330
DA
100
AcDbEntity
  8
AM_9
100
AcDbLine
 10
-1.698666666666667
 20
1.231838938392065
 30
0.0
 11
-1.768666666666667
 21
1.231838938392065
 31
0.0
  0
LINE
  5
107
330
DA
100
AcDbEntity
  8
AM_9
100
AcDbLine
 10
-1.698666666666667
 20
1.097488649966621
 30
0.0
 11
-1.768666666666667
 21
1.097488649966621
 31
0.0
  0
LINE
  5
108
330
DA
100
AcDbEntity
  8
AM_9
100
AcDbLine
 10
-1.698666666666667
 20
1.259691771427552
 30
0.0
 11
-1.768666666666667
 21
1.259691771427552
 31
0.0
  0
LINE
  5
109
330
DA
100
AcDbEntity
  8
AM_9
100
AcDbLine
 10
-1.698666666666667
 20
-1.09748864996662
 30
0.0
 11
-1.768666666666667
 21
-1.09748864996662
 31
0.0
  0
LINE
  5
10A
330
DA
100
AcDbEntity
  8
AM_9
100
AcDbLine
 10
-1.698666666666667
 20
-1.231838938392076
 30
0.0
 11
-1.768666666666667
 21
-1.231838938392076
 31
0.0
  0
LINE
  5
10B
330
DA
100
AcDbEntity
  8
AM_9
100
AcDbLine
 10
-1.768666666666667
 20
-1.259691771427552
 30
0.0
 11
-1.698666666666667
 21
-1.259691771427552
 31
0.0
  0
LINE
  5
10C
330
DA
100
AcDbEntity
  8
AM_9
100
AcDbLine
 10
-1.698666666666667
 20
0.0950000000000002
 30
0.0
 11
-1.768666666666667
 21
0.0950000000000002
 31
0.0
  0
LINE
  5
10D
330
DA
100
AcDbEntity
  8
AM_9
100
AcDbLine
 10
-1.698666666666667
 20
-0.0949999999999998
 30
0.0
 11
-1.768666666666667
 21
-0.0949999999999998
 31
0.0
  0
LINE
  5
10E
330
DA
100
AcDbEntity
  8
AM_4
100
AcDbLine
 10
-1.698666666666667
 20
1.94
 30
0.0
 11
-1.768666666666667
 21
1.94
 31
0.0
  0
LINE
  5
10F
330
DA
100
AcDbEntity
  8
AM_4
100
AcDbLine
 10
-1.768666666666667
 20
-1.94
 30
0.0
 11
-1.698666666666667
 21
-1.94
 31
0.0
  0
LINE
  5
110
330
DA
100
AcDbEntity
  8
AM_4
100
AcDbLine
 10
-1.768666666666667
 20
1.94
 30
0.0
 11
-1.768666666666667
 21
-1.94
 31
0.0
  0
LINE
  5
111
330
DA
100
AcDbEntity
  8
AM_4
100
AcDbLine
 10
-1.698666666666667
 20
1.94
 30
0.0
 11
-1.698666666666667
 21
-1.94
 31
0.0
  0
ENDBLK
  5
DD
330
DA
100
AcDbEntity
  8
0
100
AcDbBlockEnd
  0
BLOCK
  5
114
330
112
100
AcDbEntity
  8
0
100
AcDbBlockBegin
  2
5_070927EL_0_in_071194_2
 70
     2
 10
0.0
 20
0.0
 30
0.0
  3
5_070927EL_0_in_071194_2
  1

  0
ATTDEF
  5
116
330
112
100
AcDbEntity
  8
AM_6
100
AcDbText
 10
6.64921875
 20
2.36205
 30
0.0
 40
0.5
  1
Imperial/E Insert -Inch
100
AcDbAttributeDefinition
  3

  2
NN
 70
     8
280
     0
  0
ATTDEF
  5
117
330
112
100
AcDbEntity
  8
AM_6
100
AcDbText
 10
6.64921875
 20
1.86205
 30
0.0
 40
0.5
  1
Imperial Bearings
100
AcDbAttributeDefinition
  3

  2
NT
 70
     8
280
     0
  0
ATTDEF
  5
118
330
112
100
AcDbEntity
  8
AM_6
100
AcDbText
 10
6.64921875
 20
1.36205
 30
0.0
 40
0.5
  1
070927EL
100
AcDbAttributeDefinition
  3

  2
NB
 70
     8
280
     0
  0
ATTDEF
  5
119
330
112
100
AcDbEntity
  8
AM_6
100
AcDbText
 10
6.64921875
 20
0.86205
 30
0.0
 40
0.5
  1
$PN.
100
AcDbAttributeDefinition
  3

  2
NBSYN
 70
     8
280
     0
  0
ATTDEF
  5
11A
330
112
100
AcDbEntity
  8
AM_6
100
AcDbText
 10
6.64921875
 20
0.36205
 30
0.0
 40
0.5
  1
070927EL
100
AcDbAttributeDefinition
  3

  2
LINA
 70
     8
280
     0
  0
ATTDEF
  5
11B
330
112
100
AcDbEntity
  8
AM_6
100
AcDbText
 10
6.64921875
 20
-0.13795
 30
0.0
 40
0.5
  1
2-7/16
100
AcDbAttributeDefinition
  3

  2
SS
 70
     8
280
     0
  0
ATTDEF
  5
11C
330
112
100
AcDbEntity
  8
AM_6
100
AcDbText
 10
6.64921875
 20
-0.63795
 30
0.0
 40
0.5
  1
2.437500
100
AcDbAttributeDefinition
  3

  2
SS1
 70
     8
280
     0
  0
ATTDEF
  5
11D
330
112
100
AcDbEntity
  8
AM_6
100
AcDbText
 10
6.64921875
 20
-1.13795
 30
0.0
 40
0.5
  1
070927EL
100
AcDbAttributeDefinition
  3

  2
PN
 70
     8
280
     0
  0
ATTDEF
  5
11E
330
112
100
AcDbEntity
  8
AM_6
100
AcDbText
 10
6.64921875
 20
-1.63795
 30
0.0
 40
0.5
  1
INS-IP-207L
100
AcDbAttributeDefinition
  3

  2
DESCRIPTION
 70
     8
280
     0
  0
ATTDEF
  5
11F
330
112
100
AcDbEntity
  8
AM_6
100
AcDbText
 10
6.64921875
 20
-2.13795
 30
0.0
 40
0.5
  1
Labyrinth Seal
100
AcDbAttributeDefinition
  3

  2
ST
 70
     8
280
     0
  0
ATTDEF
  5
120
330
112
100
AcDbEntity
  8
AM_6
100
AcDbText
 10
6.64921875
 20
-2.63795
 30
0.0
 40
0.5
  1
2
100
AcDbAttributeDefinition
  3

  2
ST1
 70
     8
280
     0
  0
ATTDEF
  5
121
330
112
100
AcDbEntity
  8
AM_6
100
AcDbText
 10
6.64921875
 20
-3.13795
 30
0.0
 40
0.5
  1
4.7241
100
AcDbAttributeDefinition
  3

  2
A
 70
     8
280
     0
  0
ATTDEF
  5
122
330
112
100
AcDbEntity
  8
AM_6
100
AcDbText
 10
6.64921875
 20
-3.63795
 30
0.0
 40
0.5
  1
1-9/32
100
AcDbAttributeDefinition
  3

  2
B
 70
     8
280
     0
  0
ATTDEF
  5
123
330
112
100
AcDbEntity
  8
AM_6
100
AcDbText
 10
6.64921875
 20
-4.13795
 30
0.0
 40
0.5
  1
1.281250
100
AcDbAttributeDefinition
  3

  2
B1
 70
     8
280
     0
  0
ATTDEF
  5
124
330
112
100
AcDbEntity
  8
AM_6
100
AcDbText
 10
6.64921875
 20
-4.63795
 30
0.0
 40
0.5
  1
3-27/64
100
AcDbAttributeDefinition
  3

  2
C
 70
     8
280
     0
  0
ATTDEF
  5
125
330
112
100
AcDbEntity
  8
AM_6
100
AcDbText
 10
6.64921875
 20
-5.13795
 30
0.0
 40
0.5
  1
3.421875
100
AcDbAttributeDefinition
  3

  2
C1
 70
     8
280
     0
  0
ATTDEF
  5
126
330
112
100
AcDbEntity
  8
AM_6
100
AcDbText
 10
6.64921875
 20
-5.63795
 30
0.0
 40
0.5
  1
4.41000
100
AcDbAttributeDefinition
  3

  2
CR
 70
     8
280
     0
  0
ATTDEF
  5
127
330
112
100
AcDbEntity
  8
AM_6
100
AcDbText
 10
6.64921875
 20
-6.13795
 30
0.0
 40
0.5
  1
1.208
100
AcDbAttributeDefinition
  3

  2
D
 70
     8
280
     0
  0
ATTDEF
  5
128
330
112
100
AcDbEntity
  8
AM_6
100
AcDbText
 10
6.64921875
 20
-6.63795
 30
0.0
 40
0.5
  1
3-7/8
100
AcDbAttributeDefinition
  3

  2
E
 70
     8
280
     0
  0
ATTDEF
  5
129
330
112
100
AcDbEntity
  8
AM_6
100
AcDbText
 10
6.64921875
 20
-7.13795
 30
0.0
 40
0.5
  1
3.875000
100
AcDbAttributeDefinition
  3

  2
E1
 70
     8
280
     0
  0
ATTDEF
  5
12A
330
112
100
AcDbEntity
  8
AM_6
100
AcDbText
 10
6.64921875
 20
-7.63795
 30
0.0
 40
0.5
  1
0.1900
100
AcDbAttributeDefinition
  3

  2
NDM
 70
     8
280
     0
  0
ATTDEF
  5
12B
330
112
100
AcDbEntity
  8
AM_6
100
AcDbText
 10
6.64921875
 20
-8.13795
 30
0.0
 40
0.5
  1
0.1450
100
AcDbAttributeDefinition
  3

  2
KDM
 70
     8
280
     0
  0
ATTDEF
  5
12C
330
112
100
AcDbEntity
  8
AM_6
100
AcDbText
 10
6.64921875
 20
-8.63795
 30
0.0
 40
0.5
  1
3.35
100
AcDbAttributeDefinition
  3

  2
AL
 70
     8
280
     0
  0
ATTDEF
  5
12D
330
112
100
AcDbEntity
  8
AM_6
100
AcDbText
 10
6.64921875
 20
-9.13795
 30
0.0
 40
0.5
  1
0.50
100
AcDbAttributeDefinition
  3

  2
BL
 70
     8
280
     0
  0
ATTDEF
  5
12E
330
112
100
AcDbEntity
  8
AM_6
100
AcDbText
 10
6.64921875
 20
-9.63795
 30
0.0
 40
0.5
  1
0.07
100
AcDbAttributeDefinition
  3

  2
CL
 70
     8
280
     0
  0
ATTDEF
  5
12F
330
112
100
AcDbEntity
  8
AM_6
100
AcDbText
 10
6.64921875
 20
-10.13795
 30
0.0
 40
0.5
  1
0.44
100
AcDbAttributeDefinition
  3

  2
DL
 70
     8
280
     0
  0
ATTDEF
  5
130
330
112
100
AcDbEntity
  8
AM_6
100
AcDbText
 10
6.64921875
 20
-10.63795
 30
0.0
 40
0.5
  1
0.8000
100
AcDbAttributeDefinition
  3

  2
LL
 70
     8
280
     0
  0
ATTDEF
  5
131
330
112
100
AcDbEntity
  8
AM_6
100
AcDbText
 10
6.64921875
 20
-11.13795
 30
0.0
 40
0.5
  1
0.025
100
AcDbAttributeDefinition
  3

  2
Y
 70
     8
280
     0
  0
ATTDEF
  5
132
330
112
100
AcDbEntity
  8
AM_6
100
AcDbText
 10
6.64921875
 20
-11.63795
 30
0.0
 40
0.5
  1
0.025000
100
AcDbAttributeDefinition
  3

  2
Y1
 70
     8
280
     0
  0
ATTDEF
  5
133
330
112
100
AcDbEntity
  8
AM_6
100
AcDbText
 10
6.64921875
 20
-12.13795
 30
0.0
 40
0.5
  1
2-15/16
100
AcDbAttributeDefinition
  3

  2
Z
 70
     8
280
     0
  0
ATTDEF
  5
134
330
112
100
AcDbEntity
  8
AM_6
100
AcDbText
 10
6.64921875
 20
-12.63795
 30
0.0
 40
0.5
  1
2.937500
100
AcDbAttributeDefinition
  3

  2
Z1
 70
     8
280
     0
  0
ATTDEF
  5
135
330
112
100
AcDbEntity
  8
AM_6
100
AcDbText
 10
6.64921875
 20
-13.13795
 30
0.0
 40
0.5
  1
0.99000
100
AcDbAttributeDefinition
  3

  2
P1
 70
     8
280
     0
  0
ATTDEF
  5
136
330
112
100
AcDbEntity
  8
AM_6
100
AcDbText
 10
6.64921875
 20
-13.63795
 30
0.0
 40
0.5
  1
1.50000
100
AcDbAttributeDefinition
  3

  2
H1
 70
     8
280
     0
  0
ATTDEF
  5
137
330
112
100
AcDbEntity
  8
AM_6
100
AcDbText
 10
6.64921875
 20
-14.13795
 30
0.0
 40
0.5
  1
1.04000
100
AcDbAttributeDefinition
  3

  2
G1
 70
     8
280
     0
  0
ATTDEF
  5
138
330
112
100
AcDbEntity
  8
AM_6
100
AcDbText
 10
6.64921875
 20
-14.63795
 30
0.0
 40
0.5
  1
0.10100
100
AcDbAttributeDefinition
  3

  2
CW
 70
     8
280
     0
  0
ATTDEF
  5
139
330
112
100
AcDbEntity
  8
AM_6
100
AcDbText
 10
6.64921875
 20
-15.13795
 30
0.0
 40
0.5
  1
3.88000
100
AcDbAttributeDefinition
  3

  2
L1
 70
     8
280
     0
  0
ATTDEF
  5
13A
330
112
100
AcDbEntity
  8
AM_6
100
AcDbText
 10
6.64921875
 20
-15.63795
 30
0.0
 40
0.5
  1
baldor
100
AcDbAttributeDefinition
  3

  2
COMPANY
 70
     8
280
     0
  0
LINE
  5
13B
330
112
100
AcDbEntity
  8
AM_9
100
AcDbLine
 10
0.8844999999999995
 20
1.230578206704595
 30
0.0
 11
-1.698666666666667
 21
1.230578206704595
 31
0.0
  0
LINE
  5
13C
330
112
100
AcDbEntity
  8
AM_9
100
AcDbLine
 10
0.8844999999999995
 20
1.134907348613322
 30
0.0
 11
-1.698666666666667
 21
1.134907348613322
 31
0.0
  0
LINE
  5
13D
330
112
100
AcDbEntity
  8
AM_9
100
AcDbLine
 10
-0.8586666666666667
 20
1.645833333333333
 30
0.0
 11
-0.900495693669455
 21
1.718283333333333
 31
0.0
  0
LINE
  5
13E
330
112
100
AcDbEntity
  8
AM_9
100
AcDbLine
 10
-0.900495693669455
 20
1.573383333333334
 30
0.0
 11
-0.8586666666666667
 21
1.645833333333333
 31
0.0
  0
LINE
  5
13F
330
112
100
AcDbEntity
  8
AM_9
100
AcDbLine
 10
-0.8586666666666685
 20
-1.645833333333333
 30
0.0
 11
-0.9004956936694763
 21
-1.573383333333334
 31
0.0
  0
LINE
  5
140
330
112
100
AcDbEntity
  8
AM_9
100
AcDbLine
 10
-0.9004956936694763
 20
-1.718283333333333
 30
0.0
 11
-0.8586666666666685
 21
-1.645833333333333
 31
0.0
  0
LINE
  5
141
330
112
100
AcDbEntity
  8
AM_9
100
AcDbLine
 10
-0.900495693669455
 20
1.573383333333334
 30
0.0
 11
-0.900495693669455
 21
1.718283333333333
 31
0.0
  0
LINE
  5
142
330
112
100
AcDbEntity
  8
AM_9
100
AcDbLine
 10
-0.900495693669455
 20
1.718283333333333
 30
0.0
 11
-1.676116666666667
 21
1.718283333333333
 31
0.0
  0
LINE
  5
143
330
112
100
AcDbEntity
  8
AM_9
100
AcDbLine
 10
-1.676116666666667
 20
1.573383333333334
 30
0.0
 11
-0.900495693669455
 21
1.573383333333334
 31
0.0
  0
LINE
  5
144
330
112
100
AcDbEntity
  8
AM_9
100
AcDbLine
 10
-1.676116666666656
 20
-1.718283333333333
 30
0.0
 11
-0.9004956936694763
 21
-1.718283333333333
 31
0.0
  0
LINE
  5
145
330
112
100
AcDbEntity
  8
AM_9
100
AcDbLine
 10
-0.9004956936694763
 20
-1.573383333333334
 30
0.0
 11
-1.676116666666656
 21
-1.573383333333334
 31
0.0
  0
LINE
  5
146
330
112
100
AcDbEntity
  8
AM_9
100
AcDbLine
 10
-0.9004956936694763
 20
-1.573383333333334
 30
0.0
 11
-0.9004956936694763
 21
-1.718283333333333
 31
0.0
  0
LINE
  5
147
330
112
100
AcDbEntity
  8
AM_9
100
AcDbLine
 10
-1.676116666666667
 20
1.573383333333334
 30
0.0
 11
-1.676116666666667
 21
1.718283333333333
 31
0.0
  0
LINE
  5
148
330
112
100
AcDbEntity
  8
AM_9
100
AcDbLine
 10
-1.676116666666667
 20
1.718283333333333
 30
0.0
 11
-1.698666666666667
 21
1.740833333333333
 31
0.0
  0
LINE
  5
149
330
112
100
AcDbEntity
  8
AM_9
100
AcDbLine
 10
-1.698666666666667
 20
1.550833333333334
 30
0.0
 11
-1.676116666666667
 21
1.573383333333334
 31
0.0
  0
LINE
  5
14A
330
112
100
AcDbEntity
  8
AM_9
100
AcDbLine
 10
-1.676116666666656
 20
-1.573383333333334
 30
0.0
 11
-1.698666666666675
 21
-1.550833333333334
 31
0.0
  0
LINE
  5
14B
330
112
100
AcDbEntity
  8
AM_9
100
AcDbLine
 10
-1.698666666666675
 20
-1.740833333333333
 30
0.0
 11
-1.676116666666656
 21
-1.718283333333333
 31
0.0
  0
LINE
  5
14C
330
112
100
AcDbEntity
  8
AM_9
100
AcDbLine
 10
-1.676116666666656
 20
-1.573383333333334
 30
0.0
 11
-1.676116666666656
 21
-1.718283333333333
 31
0.0
  0
LINE
  5
14D
330
112
100
AcDbEntity
  8
AM_9
100
AcDbLine
 10
0.8844999999999995
 20
1.167875647371243
 30
0.0
 11
-1.97
 21
1.167875647371243
 31
0.0
  0
LINE
  5
14E
330
112
100
AcDbEntity
  8
AM_9
100
AcDbLine
 10
-1.97
 20
1.07220478927997
 30
0.0
 11
0.8844999999999995
 21
1.07220478927997
 31
0.0
  0
LINE
  5
14F
330
112
100
AcDbEntity
  8
AM_9
100
AcDbLine
 10
0.8844999999999995
 20
1.21875
 30
0.0
 11
-1.97
 21
1.21875
 31
0.0
  0
LINE
  5
150
330
112
100
AcDbEntity
  8
AM_9
100
AcDbLine
 10
-1.97
 20
-1.21875
 30
0.0
 11
0.8844999999999995
 21
-1.21875
 31
0.0
  0
LINE
  5
151
330
112
100
AcDbEntity
  8
AM_9
100
AcDbLine
 10
-1.97
 20
1.227436012139228
 30
0.0
 11
-1.698666666666667
 21
1.227436012139228
 31
0.0
  0
LINE
  5
152
330
112
100
AcDbEntity
  8
AM_9
100
AcDbLine
 10
-1.698666666666667
 20
1.131765154047955
 30
0.0
 11
-1.97
 21
1.131765154047955
 31
0.0
  0
LINE
  5
153
330
112
100
AcDbEntity
  8
AM_9
100
AcDbLine
 10
-1.698666666666667
 20
1.282894736842105
 30
0.0
 11
-1.768666666666667
 21
1.282894736842105
 31
0.0
  0
LINE
  5
154
330
112
100
AcDbEntity
  8
AM_9
100
AcDbLine
 10
-1.768666666666667
 20
-1.282894736842105
 30
0.0
 11
-1.698666666666667
 21
-1.282894736842105
 31
0.0
  0
LINE
  5
155
330
112
100
AcDbEntity
  8
AM_9
100
AcDbLine
 10
1.451875
 20
1.282894736842105
 30
0.0
 11
0.8844999999999995
 21
1.282894736842105
 31
0.0
  0
LINE
  5
156
330
112
100
AcDbEntity
  8
AM_9
100
AcDbLine
 10
0.8844999999999995
 20
-1.282894736842105
 30
0.0
 11
1.451875
 21
-1.282894736842105
 31
0.0
  0
LINE
  5
157
330
112
100
AcDbEntity
  8
AM_9
100
AcDbLine
 10
-1.258666666666667
 20
1.00762716319083
 30
0.0
 11
-1.698666666666667
 21
1.00762716319083
 31
0.0
  0
LINE
  5
158
330
112
100
AcDbEntity
  8
AM_9
100
AcDbLine
 10
-1.258666666666667
 20
1.361180553784104
 30
0.0
 11
-1.2915
 21
1.361180553784104
 31
0.0
  0
LINE
  5
159
330
112
100
AcDbEntity
  8
AM_9
100
AcDbLine
 10
-1.258666666666667
 20
-1.00762716319083
 30
0.0
 11
-1.698666666666667
 21
-1.00762716319083
 31
0.0
  0
LINE
  5
15A
330
112
100
AcDbEntity
  8
AM_9
100
AcDbLine
 10
-1.258666666666667
 20
-1.361180553784104
 30
0.0
 11
-1.435000000000001
 21
-1.361180553784104
 31
0.0
  0
LINE
  5
15B
330
112
100
AcDbEntity
  8
AM_9
100
AcDbLine
 10
1.451875
 20
-1.46875
 30
0.0
 11
1.451875
 21
1.46875
 31
0.0
  0
LINE
  5
15C
330
112
100
AcDbEntity
  8
AM_9
100
AcDbLine
 10
1.476875
 20
1.46875
 30
0.0
 11
1.451875
 21
1.46875
 31
0.0
  0
LINE
  5
15D
330
112
100
AcDbEntity
  8
AM_9
100
AcDbLine
 10
1.451875
 20
-1.46875
 30
0.0
 11
1.476875
 21
-1.46875
 31
0.0
  0
LINE
  5
15E
330
112
100
AcDbEntity
  8
AM_9
100
AcDbLine
 10
-1.258666666666667
 20
1.540819605474589
 30
0.0
 11
-1.258666666666667
 21
1.00762716319083
 31
0.0
  0
LINE
  5
15F
330
112
100
AcDbEntity
  8
AM_9
100
AcDbLine
 10
1.2915
 20
1.958333333333333
 30
0.0
 11
1.14075
 21
1.958333333333333
 31
0.0
  0
LINE
  5
160
330
112
100
AcDbEntity
  8
AM_9
100
AcDbLine
 10
1.14075
 20
-1.958333333333333
 30
0.0
 11
1.435
 21
-1.958333333333333
 31
0.0
  0
LINE
  5
161
330
112
100
AcDbEntity
  8
AM_9
100
AcDbLine
 10
1.14075
 20
-1.958333333333333
 30
0.0
 11
1.14075
 21
1.958333333333333
 31
0.0
  0
LINE
  5
162
330
112
100
AcDbEntity
  8
AM_9
100
AcDbLine
 10
-1.435000001091228
 20
-1.185071573887609
 30
0.0
 11
-1.258666666666667
 21
-1.187266214881314
 31
0.0
  0
LINE
  5
163
330
112
100
AcDbEntity
  8
AM_9
100
AcDbLine
 10
-1.258666666666667
 20
-1.00762716319083
 30
0.0
 11
-1.258666666666667
 21
-1.540819605474588
 31
0.0
  0
LINE
  5
164
330
112
100
AcDbEntity
  8
AM_9
100
AcDbLine
 10
-1.258666666666667
 20
-1.540819605474588
 30
0.0
 11
-1.435000001091228
 21
-1.538624964480883
 31
0.0
  0
LINE
  5
165
330
112
100
AcDbEntity
  8
AM_9
100
AcDbLine
 10
-1.291500000313353
 20
1.540410966917821
 30
0.0
 11
-1.258666666666667
 21
1.540819605474589
 31
0.0
  0
LINE
  5
166
330
112
100
AcDbEntity
  8
AM_9
100
AcDbLine
 10
-1.258666666666667
 20
1.187266214881314
 30
0.0
 11
-1.291500000313353
 21
1.186857576324547
 31
0.0
  0
LINE
  5
167
330
112
100
AcDbEntity
  8
AM_9
100
AcDbLine
 10
-1.435000000000001
 20
-1.942102318786072
 30
0.0
 11
-0.4458773796781363
 21
-1.959367518345759
 31
0.0
  0
LINE
  5
168
330
112
100
AcDbEntity
  8
AM_9
100
AcDbLine
 10
-0.4458773796781363
 20
1.959367518345759
 30
0.0
 11
-1.2915
 21
1.944607120603271
 31
0.0
  0
ARC
  5
169
330
112
100
AcDbEntity
  8
AM_9
100
AcDbCircle
 10
-0.4467500000000006
 20
2.009359903103579
 30
0.0
 40
0.0500000000000001
100
AcDbArc
 50
271.0000000000002
 51
0.0
  0
ARC
  5
16A
330
112
100
AcDbEntity
  8
AM_9
100
AcDbCircle
 10
-0.4467500000000004
 20
-2.009359903103579
 30
0.0
 40
0.0500000000000001
100
AcDbArc
 50
0.0
 51
89.00000000000003
  0
LINE
  5
16B
330
112
100
AcDbEntity
  8
AM_9
100
AcDbLine
 10
-0.4458773796781363
 20
-1.959367518345759
 30
0.0
 11
-0.4458773796781363
 21
1.959367518345759
 31
0.0
  0
ARC
  5
16C
330
112
100
AcDbEntity
  8
AM_9
100
AcDbCircle
 10
1.04075
 20
1.956368966601196
 30
0.0
 40
0.0999999999999994
100
AcDbArc
 50
0.0
 51
59.99999999999996
  0
ARC
  5
16D
330
112
100
AcDbEntity
  8
AM_9
100
AcDbCircle
 10
1.04075
 20
-1.956368966601196
 30
0.0
 40
0.0999999999999991
100
AcDbArc
 50
299.9999999999998
 51
0.0
  0
LINE
  5
16E
330
112
100
AcDbEntity
  8
AM_9
100
AcDbLine
 10
1.09075
 20
2.042971506979639
 30
0.0
 11
0.8844999999999995
 21
2.16205
 31
0.0
  0
LINE
  5
16F
330
112
100
AcDbEntity
  8
AM_9
100
AcDbLine
 10
0.8844999999999995
 20
-2.16205
 30
0.0
 11
1.09075
 21
-2.042971506979639
 31
0.0
  0
LINE
  5
170
330
112
100
AcDbEntity
  8
AM_9
100
AcDbLine
 10
1.09075
 20
-2.042971506979639
 30
0.0
 11
1.09075
 21
2.042971506979639
 31
0.0
  0
LINE
  5
171
330
112
100
AcDbEntity
  8
AM_9
100
AcDbLine
 10
0.26086150161996
 20
2.2979875
 30
0.0
 11
0.1868884983800392
 21
2.2979875
 31
0.0
  0
LINE
  5
172
330
112
100
AcDbEntity
  8
AM_9
100
AcDbLine
 10
0.1868884983800392
 20
-2.2979875
 30
0.0
 11
0.26086150161996
 21
-2.2979875
 31
0.0
  0
LINE
  5
173
330
112
100
AcDbEntity
  8
AM_9
100
AcDbLine
 10
-0.3967500000000003
 20
-2.352050000000001
 30
0.0
 11
-0.3967500000000003
 21
2.352050000000001
 31
0.0
  0
ARC
  5
174
330
112
100
AcDbEntity
  8
AM_9
100
AcDbCircle
 10
-0.3867499999999998
 20
2.352049999999999
 30
0.0
 40
0.0100000000000007
100
AcDbArc
 50
90.0
 51
180.0
  0
ARC
  5
175
330
112
100
AcDbEntity
  8
AM_9
100
AcDbCircle
 10
-0.3867499999999998
 20
-2.352049999999999
 30
0.0
 40
0.0100000000000005
100
AcDbArc
 50
180.0
 51
270.0
  0
LINE
  5
176
330
112
100
AcDbEntity
  8
AM_9
100
AcDbLine
 10
0.1868884983800392
 20
2.2979875
 30
0.0
 11
0.1499019967600785
 21
2.36205
 31
0.0
  0
LINE
  5
177
330
112
100
AcDbEntity
  8
AM_9
100
AcDbLine
 10
0.1499019967600785
 20
-2.36205
 30
0.0
 11
0.1868884983800392
 21
-2.2979875
 31
0.0
  0
LINE
  5
178
330
112
100
AcDbEntity
  8
AM_9
100
AcDbLine
 10
0.1868884983800392
 20
-2.2979875
 30
0.0
 11
0.1868884983800392
 21
2.2979875
 31
0.0
  0
LINE
  5
179
330
112
100
AcDbEntity
  8
AM_9
100
AcDbLine
 10
0.8844999999999995
 20
-2.31205
 30
0.0
 11
0.8844999999999995
 21
2.31205
 31
0.0
  0
ARC
  5
17A
330
112
100
AcDbEntity
  8
AM_9
100
AcDbCircle
 10
0.8345
 20
2.31205
 30
0.0
 40
0.0499999999999995
100
AcDbArc
 50
0.0
 51
90.0
  0
ARC
  5
17B
330
112
100
AcDbEntity
  8
AM_9
100
AcDbCircle
 10
0.8345
 20
-2.31205
 30
0.0
 40
0.0499999999999998
100
AcDbArc
 50
270.0
 51
0.0
  0
LINE
  5
17C
330
112
100
AcDbEntity
  8
AM_9
100
AcDbLine
 10
0.1499019967600785
 20
2.36205
 30
0.0
 11
-0.3867500000000002
 21
2.36205
 31
0.0
  0
LINE
  5
17D
330
112
100
AcDbEntity
  8
AM_9
100
AcDbLine
 10
-0.3867500000000002
 20
-2.36205
 30
0.0
 11
0.1499019967600785
 21
-2.36205
 31
0.0
  0
LINE
  5
17E
330
112
100
AcDbEntity
  8
AM_9
100
AcDbLine
 10
0.1499019967600785
 20
-2.36205
 30
0.0
 11
0.1499019967600785
 21
2.36205
 31
0.0
  0
LINE
  5
17F
330
112
100
AcDbEntity
  8
AM_9
100
AcDbLine
 10
-0.3867500000000002
 20
-2.36205
 30
0.0
 11
-0.3867500000000002
 21
2.36205
 31
0.0
  0
LINE
  5
180
330
112
100
AcDbEntity
  8
AM_9
100
AcDbLine
 10
0.26086150161996
 20
-2.2979875
 30
0.0
 11
0.2978480032399207
 21
-2.36205
 31
0.0
  0
LINE
  5
181
330
112
100
AcDbEntity
  8
AM_9
100
AcDbLine
 10
0.2978480032399207
 20
2.36205
 30
0.0
 11
0.26086150161996
 21
2.2979875
 31
0.0
  0
LINE
  5
182
330
112
100
AcDbEntity
  8
AM_9
100
AcDbLine
 10
0.26086150161996
 20
-2.2979875
 30
0.0
 11
0.26086150161996
 21
2.2979875
 31
0.0
  0
LINE
  5
183
330
112
100
AcDbEntity
  8
AM_9
100
AcDbLine
 10
0.8344999999999998
 20
2.36205
 30
0.0
 11
0.2978480032399207
 21
2.36205
 31
0.0
  0
LINE
  5
184
330
112
100
AcDbEntity
  8
AM_9
100
AcDbLine
 10
0.2978480032399207
 20
-2.36205
 30
0.0
 11
0.8344999999999998
 21
-2.36205
 31
0.0
  0
LINE
  5
185
330
112
100
AcDbEntity
  8
AM_9
100
AcDbLine
 10
0.8344999999999998
 20
-2.36205
 30
0.0
 11
0.8344999999999998
 21
2.36205
 31
0.0
  0
LINE
  5
186
330
112
100
AcDbEntity
  8
AM_9
100
AcDbLine
 10
0.2978480032399207
 20
-2.36205
 30
0.0
 11
0.2978480032399207
 21
2.36205
 31
0.0
  0
LINE
  5
187
330
112
100
AcDbEntity
  8
AM_5
100
AcDbLine
 10
-1.698666666666667
 20
1.740833333333333
 30
0.0
 11
-0.9986666666666669
 21
1.740833333333333
 31
0.0
  0
LINE
  5
188
330
112
100
AcDbEntity
  8
AM_5
100
AcDbLine
 10
-0.9986666666666675
 20
1.740833333333333
 30
0.0
 11
-0.9716939770635238
 21
1.72526064373019
 31
0.0
  0
LINE
  5
189
330
112
100
AcDbEntity
  8
AM_5
100
AcDbLine
 10
-1.698666666666667
 20
1.550833333333334
 30
0.0
 11
-0.9986666666666669
 21
1.550833333333334
 31
0.0
  0
LINE
  5
18A
330
112
100
AcDbEntity
  8
AM_5
100
AcDbLine
 10
-0.9986666666666675
 20
1.550833333333334
 30
0.0
 11
-0.9716939770635238
 21
1.566406022936477
 31
0.0
  0
LINE
  5
18B
330
112
100
AcDbEntity
  8
AM_5
100
AcDbLine
 10
-1.698666666666667
 20
-1.740833333333333
 30
0.0
 11
-0.9986666666666694
 21
-1.740833333333333
 31
0.0
  0
LINE
  5
18C
330
112
100
AcDbEntity
  8
AM_5
100
AcDbLine
 10
-0.9986666666666699
 20
-1.740833333333333
 30
0.0
 11
-0.9716939770635347
 21
-1.725260643730201
 31
0.0
  0
LINE
  5
18D
330
112
100
AcDbEntity
  8
AM_5
100
AcDbLine
 10
-1.698666666666667
 20
-1.550833333333334
 30
0.0
 11
-0.9986666666666694
 21
-1.550833333333334
 31
0.0
  0
LINE
  5
18E
330
112
100
AcDbEntity
  8
AM_5
100
AcDbLine
 10
-0.9986666666666699
 20
-1.550833333333334
 30
0.0
 11
-0.9716939770635347
 21
-1.566406022936466
 31
0.0
  0
LINE
  5
191
330
112
100
AcDbEntity
  8
AM_7
100
AcDbLine
 10
1.64921875
 20
0.0
 30
0.0
 11
-2.14234375
 21
0.0
 31
0.0
  0
LINE
  5
192
330
112
100
AcDbEntity
  8
AM_7
100
AcDbLine
 10
-0.8166666666666667
 20
1.645833333333333
 30
0.0
 11
-1.914716666666667
 21
1.645833333333333
 31
0.0
  0
LINE
  5
193
330
112
100
AcDbEntity
  8
AM_7
100
AcDbLine
 10
-0.8166666666666681
 20
-1.645833333333333
 30
0.0
 11
-1.914716666666667
 21
-1.645833333333333
 31
0.0
  0
LINE
  5
194
330
112
100
AcDbEntity
  8
AM_4
100
AcDbLine
 10
-1.768666666666667
 20
1.282894736842105
 30
0.0
 11
-1.97
 21
1.282894736842105
 31
0.0
  0
LINE
  5
195
330
112
100
AcDbEntity
  8
AM_4
100
AcDbLine
 10
-1.97
 20
-1.282894736842105
 30
0.0
 11
-1.768666666666667
 21
-1.282894736842105
 31
0.0
  0
LINE
  5
196
330
112
100
AcDbEntity
  8
AM_4
100
AcDbLine
 10
-1.97
 20
-1.282894736842105
 30
0.0
 11
-1.97
 21
1.282894736842105
 31
0.0
  0
LINE
  5
197
330
112
100
AcDbEntity
  8
AM_4
100
AcDbLine
 10
-1.2915
 20
1.361180553784104
 30
0.0
 11
-1.698666666666667
 21
1.361180553784104
 31
0.0
  0
LINE
  5
198
330
112
100
AcDbEntity
  8
AM_4
100
AcDbLine
 10
-1.435000000000001
 20
-1.361180553784104
 30
0.0
 11
-1.698666666666667
 21
-1.361180553784104
 31
0.0
  0
LINE
  5
199
330
112
100
AcDbEntity
  8
AM_4
100
AcDbLine
 10
1.476875
 20
-1.958333333333333
 30
0.0
 11
1.476875
 21
1.958333333333333
 31
0.0
  0
LINE
  5
19A
330
112
100
AcDbEntity
  8
AM_4
100
AcDbLine
 10
1.476875
 20
1.958333333333333
 30
0.0
 11
1.2915
 21
1.958333333333333
 31
0.0
  0
LINE
  5
19B
330
112
100
AcDbEntity
  8
AM_4
100
AcDbLine
 10
1.435
 20
-1.958333333333333
 30
0.0
 11
1.476875
 21
-1.958333333333333
 31
0.0
  0
LINE
  5
19C
330
112
100
AcDbEntity
  8
AM_4
100
AcDbLine
 10
-1.698666666666667
 20
-1.181789874658622
 30
0.0
 11
-1.435000001091228
 21
-1.185071573887609
 31
0.0
  0
LINE
  5
19D
330
112
100
AcDbEntity
  8
AM_4
100
AcDbLine
 10
-1.435000001091228
 20
-1.538624964480883
 30
0.0
 11
-1.698666666666667
 21
-1.535343265251896
 31
0.0
  0
LINE
  5
19E
330
112
100
AcDbEntity
  8
AM_4
100
AcDbLine
 10
-1.698666666666667
 20
1.535343265251896
 30
0.0
 11
-1.291500000313353
 21
1.540410966917821
 31
0.0
  0
LINE
  5
19F
330
112
100
AcDbEntity
  8
AM_4
100
AcDbLine
 10
-1.291500000313353
 20
1.186857576324547
 30
0.0
 11
-1.698666666666667
 21
1.181789874658622
 31
0.0
  0
LINE
  5
1A0
330
112
100
AcDbEntity
  8
AM_4
100
AcDbLine
 10
-1.698666666666667
 20
-1.937499999999998
 30
0.0
 11
-1.435000000000001
 21
-1.942102318786072
 31
0.0
  0
LINE
  5
1A1
330
112
100
AcDbEntity
  8
AM_4
100
AcDbLine
 10
-1.2915
 20
1.944607120603271
 30
0.0
 11
-1.698666666666667
 21
1.937499999999998
 31
0.0
  0
ENDBLK
  5
115
330
112
100
AcDbEntity
  8
0
100
AcDbBlockEnd
  0
BLOCK
  5
1A4
330
1A2
100
AcDbEntity
  8
0
100
AcDbBlockBegin
  2
6_405015E_Inch_0_in_071194_2
 70
     2
 10
0.0
 20
0.0
 30
0.0
  3
6_405015E_Inch_0_in_071194_2
  1

  0
ATTDEF
  5
1A6
330
1A2
100
AcDbEntity
  8
AM_6
100
AcDbText
 10
5.252590742770462
 20
3.026136212966155
 30
0.0
 40
0.5
  1
405015E -Inch
100
AcDbAttributeDefinition
  3

  2
NN
 70
     8
280
     0
  0
ATTDEF
  5
1A7
330
1A2
100
AcDbEntity
  8
AM_6
100
AcDbText
 10
5.252590742770462
 20
2.526136212966155
 30
0.0
 40
0.5
  1
Grease Fitting
100
AcDbAttributeDefinition
  3

  2
NT
 70
     8
280
     0
  0
ATTDEF
  5
1A8
330
1A2
100
AcDbEntity
  8
AM_6
100
AcDbText
 10
5.252590742770462
 20
2.026136212966155
 30
0.0
 40
0.5
  1
405015E-Inch
100
AcDbAttributeDefinition
  3

  2
NB
 70
     8
280
     0
  0
ATTDEF
  5
1A9
330
1A2
100
AcDbEntity
  8
AM_6
100
AcDbText
 10
5.252590742770462
 20
1.526136212966155
 30
0.0
 40
0.5
  1
$MN.-Inch
100
AcDbAttributeDefinition
  3

  2
NBSYN
 70
     8
280
     0
  0
ATTDEF
  5
1AA
330
1A2
100
AcDbEntity
  8
AM_6
100
AcDbText
 10
5.252590742770462
 20
1.026136212966155
 30
0.0
 40
0.5
  1
405015E
100
AcDbAttributeDefinition
  3

  2
LINA
 70
     8
280
     0
  0
ATTDEF
  5
1AB
330
1A2
100
AcDbEntity
  8
AM_6
100
AcDbText
 10
5.252590742770462
 20
0.5261362129661546
 30
0.0
 40
0.5
  1
405015E
100
AcDbAttributeDefinition
  3

  2
MN
 70
     8
280
     0
  0
ATTDEF
  5
1AC
330
1A2
100
AcDbEntity
  8
AM_6
100
AcDbText
 10
5.252590742770462
 20
0.0261362129661546
 30
0.0
 40
0.5
  1
1/8 x 27PTF
100
AcDbAttributeDefinition
  3

  2
T
 70
     8
280
     0
  0
ATTDEF
  5
1AD
330
1A2
100
AcDbEntity
  8
AM_6
100
AcDbText
 10
5.252590742770462
 20
-0.4738637870338454
 30
0.0
 40
0.5
  1
baldor
100
AcDbAttributeDefinition
  3

  2
COMPANY
 70
     8
280
     0
  0
LINE
  5
1AE
330
1A2
100
AcDbEntity
  8
AM_9
100
AcDbLine
 10
0.1262953713852307
 20
2.838162504270211
 30
0.0
 11
0.1262953713852307
 21
2.767265507268999
 31
0.0
  0
LINE
  5
1AF
330
1A2
100
AcDbEntity
  8
AM_9
100
AcDbLine
 10
-0.1262953713852306
 20
2.838162504270211
 30
0.0
 11
-0.1262953713852306
 21
2.767265507268999
 31
0.0
  0
LWPOLYLINE
  5
1B0
330
1A2
100
AcDbEntity
  8
AM_9
100
AcDbPolyline
 90
        4
 70
     0
 43
0.0
 10
-0.1262953713852306
 20
2.767265507268999
 10
-0.0967996321117977
 20
2.764160644094861
 10
-0.0485424412477543
 20
2.760647539060316
 10
0.0000000000000001
 20
2.759412735580383
  0
LWPOLYLINE
  5
1B1
330
1A2
100
AcDbEntity
  8
AM_9
100
AcDbPolyline
 90
        3
 70
     0
 43
0.0
 10
0.0000000000000001
 20
2.759412735580383
 10
0.0631476856926154
 20
2.761485464141152
 10
0.1262953713852307
 20
2.767265507268999
  0
LWPOLYLINE
  5
1B2
330
1A2
100
AcDbEntity
  8
AM_9
100
AcDbPolyline
 90
        3
 70
     0
 43
0.0
 10
0.1262953713852307
 20
2.767265507268999
 10
0.1577272497321277
 20
2.73428297038775
 10
0.1894430570778461
 20
2.704725235580383
  0
LWPOLYLINE
  5
1B3
330
1A2
100
AcDbEntity
  8
AM_9
100
AcDbPolyline
 90
        3
 70
     0
 43
0.0
 10
-0.1894430570778459
 20
2.704725235580383
 10
-0.1578692142315382
 20
2.734141714141152
 10
-0.1262953713852306
 20
2.767265507268999
  0
LWPOLYLINE
  5
1B4
330
1A2
100
AcDbEntity
  8
AM_9
100
AcDbPolyline
 90
        3
 70
     0
 43
0.0
 10
0.1018642058435937
 20
2.840781477743593
 10
0.0634316146914368
 20
2.843924236014384
 10
0.0000000000000001
 20
2.846015275958826
  0
LINE
  5
1B5
330
1A2
100
AcDbEntity
  8
AM_9
100
AcDbLine
 10
0.1050470645306125
 20
2.840465711069046
 30
0.0
 11
0.1018642058435937
 21
2.840781477743593
 31
0.0
  0
LINE
  5
1B6
330
1A2
100
AcDbEntity
  8
AM_9
100
AcDbLine
 10
-0.1018828591420454
 20
2.840779650369274
 30
0.0
 11
-0.1050087569988761
 21
2.840469558573556
 31
0.0
  0
LWPOLYLINE
  5
1B7
330
1A2
100
AcDbEntity
  8
AM_9
100
AcDbPolyline
 90
        4
 70
     0
 43
0.0
 10
0.0000000000000001
 20
2.846015275958826
 10
-0.0483998160558988
 20
2.844787632366379
 10
-0.0967996321117977
 20
2.841267367444348
 10
-0.1018828591420454
 20
2.840779650369274
  0
LWPOLYLINE
  5
1B8
330
1A2
100
AcDbEntity
  8
AM_9
100
AcDbPolyline
 90
        3
 70
     0
 43
0.0
 10
-0.2525907427704611
 20
2.657890507268998
 10
-0.2211588644235642
 20
2.6793495806619
 10
-0.1894430570778459
 20
2.704725235580383
  0
LWPOLYLINE
  5
1B9
330
1A2
100
AcDbEntity
  8
AM_9
100
AcDbPolyline
 90
        3
 70
     0
 43
0.0
 10
0.1894430570778461
 20
2.704725235580383
 10
0.2210168999241537
 20
2.679454214141152
 10
0.2525907427704613
 20
2.657890507268998
  0
LINE
  5
1BA
330
1A2
100
AcDbEntity
  8
AM_9
100
AcDbLine
 10
0.1321931418159854
 20
2.373803670075287
 30
0.0
 11
0.1621706131788417
 21
2.395000943358788
 31
0.0
  0
LINE
  5
1BB
330
1A2
100
AcDbEntity
  8
AM_9
100
AcDbLine
 10
-0.1621706131788414
 20
2.395000943358788
 30
0.0
 11
-0.1321931418159852
 21
2.373803670075287
 31
0.0
  0
ELLIPSE
  5
1BC
330
1A2
100
AcDbEntity
  8
AM_9
100
AcDbEllipse
 10
-0.0000000000000001
 20
2.452336913502758
 30
0.0
 11
0.1986176267812155
 21
2.959633272606366E-9
 31
0.0
210
0.0
220
0.0
230
1.0
 40
0.5000000000000032
 41
3.757072339908436
 42
9.442822007678785
  0
LINE
  5
1BD
330
1A2
100
AcDbEntity
  8
AM_9
100
AcDbLine
 10
0.1985852938306409
 20
2.450545074893939
 30
0.0
 11
0.2057184028850728
 21
2.648181534802753
 31
0.0
  0
LINE
  5
1BE
330
1A2
100
AcDbEntity
  8
AM_9
100
AcDbLine
 10
-0.2057184028850726
 20
2.648181534802753
 30
0.0
 11
-0.1985852938306407
 21
2.450545074893939
 31
0.0
  0
ELLIPSE
  5
1BF
330
1A2
100
AcDbEntity
  8
AM_9
100
AcDbEllipse
 10
0.0000000000000007
 20
2.452336913502764
 30
0.0
 11
0.1986176267812161
 21
0.0
 31
0.0
210
0.0
220
0.0
230
1.0
 40
0.5000000000000108
 41
3.159636730294292
 42
3.757072362260214
  0
LINE
  5
1C0
330
1A2
100
AcDbEntity
  8
AM_9
100
AcDbLine
 10
-0.1017810272422099
 20
2.84047310974467
 30
0.0
 11
-0.1049999999999999
 21
2.834170715105142
 31
0.0
  0
LINE
  5
1C1
330
1A2
100
AcDbEntity
  8
AM_9
100
AcDbLine
 10
0.1050000000000001
 20
2.834170715105142
 30
0.0
 11
0.1017810272422101
 21
2.84047310974467
 31
0.0
  0
ELLIPSE
  5
1C2
330
1A2
100
AcDbEntity
  8
AM_9
100
AcDbEllipse
 10
0.0000000000000001
 20
2.827572943356193
 30
0.0
 11
0.105
 21
0.0
 31
0.0
210
0.0
220
0.0
230
1.0
 40
0.4999999999999893
 41
0.0
 42
2.891559760490988
  0
ELLIPSE
  5
1C3
330
1A2
100
AcDbEntity
  8
AM_9
100
AcDbEllipse
 10
0.0000000000000065
 20
2.827572943356221
 30
0.0
 11
0.1050000000000065
 21
0.0
 31
0.0
210
0.0
220
0.0
230
1.0
 40
0.4999999999999586
 41
2.891559760491512
 42
3.141592653589793
  0
ELLIPSE
  5
1C4
330
1A2
100
AcDbEntity
  8
AM_9
100
AcDbEllipse
 10
0.000000000000007
 20
2.799646327485105
 30
0.0
 11
0.1188200907348901
 21
0.0
 31
0.0
210
0.0
220
0.0
230
1.0
 40
0.5000000000000939
 41
0.2500328930991644
 42
2.53544751339449
  0
LINE
  5
1C5
330
1A2
100
AcDbEntity
  8
AM_9
100
AcDbLine
 10
0.1050000000000001
 20
2.845811172168652
 30
0.0
 11
0.1050000000000001
 21
2.853553705469726
 31
0.0
  0
LINE
  5
1C6
330
1A2
100
AcDbEntity
  8
AM_9
100
AcDbLine
 10
-0.1049999999999999
 20
2.853553705469726
 30
0.0
 11
-0.1049999999999999
 21
2.845811172168652
 31
0.0
  0
ELLIPSE
  5
1C7
330
1A2
100
AcDbEntity
  8
AM_9
100
AcDbEllipse
 10
0.0000000000000055
 20
2.853553705469715
 30
0.0
 11
0.1050000000000053
 21
1.564621925354084E-9
 31
0.0
210
0.0
220
0.0
230
1.0
 40
0.4999999999999893
 41
3.141592627780224
 42
3.434435397378492
  0
LINE
  5
1C8
330
1A2
100
AcDbEntity
  8
AM_9
100
AcDbLine
 10
-0.0976523208201057
 20
2.833492443217575
 30
0.0
 11
-0.1098343496897822
 21
2.824705590090725
 31
0.0
  0
LINE
  5
1C9
330
1A2
100
AcDbEntity
  8
AM_9
100
AcDbLine
 10
0.1098343496897824
 20
2.824705590090725
 30
0.0
 11
0.0976523208201058
 21
2.833492443217575
 31
0.0
  0
ELLIPSE
  5
1CA
330
1A2
100
AcDbEntity
  8
AM_9
100
AcDbEllipse
 10
0.0000000000000051
 20
2.799646327485144
 30
0.0
 11
0.118820090734903
 21
0.0
 31
0.0
210
0.0
220
0.0
230
1.0
 40
0.4999999999999462
 41
2.535447513394887
 42
2.891559760491221
  0
ELLIPSE
  5
1CB
330
1A2
100
AcDbEntity
  8
AM_9
100
AcDbEllipse
 10
0.0000000000000001
 20
2.752504301246796
 30
0.0
 11
0.1725340532830155
 21
0.0
 31
0.0
210
0.0
220
0.0
230
1.0
 40
0.5000000000000067
 41
0.6061451401950873
 42
2.535447513394707
  0
ELLIPSE
  5
1CC
330
1A2
100
AcDbEntity
  8
AM_9
100
AcDbEllipse
 10
-0.0000000000000019
 20
2.736640275958824
 30
0.0
 11
0.2187500000000075
 21
3.259629011154287E-9
 31
0.0
210
0.0
220
0.0
230
1.0
 40
0.499999999999993
 41
1.065244625558351
 42
2.076348002645646
  0
ELLIPSE
  5
1CD
330
1A2
100
AcDbEntity
  8
AM_9
100
AcDbEllipse
 10
-0.0000000000008867
 20
2.736640275967662
 30
0.0
 11
0.2137499999982039
 21
0.0
 31
0.0
210
0.0
220
0.0
230
1.0
 40
0.4999999999672451
 41
-4.19888988294448
 42
-4.184564777747706
  0
ELLIPSE
  5
1CE
330
1A2
100
AcDbEntity
  8
AM_9
100
AcDbEllipse
 10
-0.000000000002736
 20
2.736640275951518
 30
0.0
 11
0.2137499999943481
 21
0.0
 31
0.0
210
0.0
220
0.0
230
1.0
 40
0.5000000000401346
 41
-4.217356306605973
 42
-4.198889882963842
  0
ELLIPSE
  5
1CF
330
1A2
100
AcDbEntity
  8
AM_9
100
AcDbEllipse
 10
-0.0000000000027234
 20
2.736640275960744
 30
0.0
 11
0.2137500000055003
 21
3.185123205266899E-9
 31
0.0
210
0.0
220
0.0
230
1.0
 40
0.4999999999824883
 41
1.042972111042154
 42
2.065828988071501
  0
ELLIPSE
  5
1D0
330
1A2
100
AcDbEntity
  8
AM_9
100
AcDbEllipse
 10
0.0000000000000001
 20
2.853553705469726
 30
0.0
 11
0.1050000000000001
 21
0.0
 31
0.0
210
0.0
220
0.0
230
1.0
 40
0.4999999999999973
 41
0.0
 42
3.141592653589793
  0
ELLIPSE
  5
1D1
330
1A2
100
AcDbEntity
  8
AM_9
100
AcDbEllipse
 10
-0.0000000000000027
 20
2.853553705469715
 30
0.0
 11
0.1050000000000027
 21
1.564621925354045E-9
 31
0.0
210
0.0
220
0.0
230
1.0
 40
0.4999999999999891
 41
5.990342507511535
 42
6.283187026699269
  0
ELLIPSE
  5
1D2
330
1A2
100
AcDbEntity
  8
AM_9
100
AcDbEllipse
 10
0.0000000000000001
 20
2.905515229696792
 30
0.0
 11
0.135
 21
0.0
 31
0.0
210
0.0
220
0.0
230
1.0
 40
0.4999999999999959
 41
0.2354336045415613
 42
2.906159049048232
  0
ELLIPSE
  5
1D3
330
1A2
100
AcDbEntity
  8
AM_9
100
AcDbEllipse
 10
0.0000000000000002
 20
2.420541003577506
 30
0.0
 11
0.161902872472269
 21
0.0
 31
0.0
210
0.0
220
0.0
230
1.0
 40
0.5000000000000003
 41
0.0
 42
6.283185307179586
  0
ELLIPSE
  5
1D4
330
1A2
100
AcDbEntity
  8
AM_9
100
AcDbEllipse
 10
-0.000000000000325
 20
2.650037735580035
 30
0.0
 11
0.2057518972233947
 21
0.0
 31
0.0
210
0.0
220
0.0
230
1.0
 40
0.5000000000000254
 41
0.0
 42
6.283185307179586
  0
ELLIPSE
  5
1D5
330
1A2
100
AcDbEntity
  8
AM_9
100
AcDbEllipse
 10
0.0000000000000002
 20
2.650037735580384
 30
0.0
 11
0.2187500000000001
 21
0.0
 31
0.0
210
0.0
220
0.0
230
1.0
 40
0.5000000000000058
 41
0.0
 42
6.283185307179586
  0
LWPOLYLINE
  5
1D6
330
1A2
100
AcDbEntity
  8
AM_4
100
AcDbPolyline
 90
        3
 70
     0
 43
0.0
 10
0.1894430570778461
 20
2.791327775958826
 10
0.1578692142315384
 20
2.816598797398057
 10
0.1262953713852307
 20
2.838162504270211
  0
LINE
  5
1D7
330
1A2
100
AcDbEntity
  8
AM_4
100
AcDbLine
 10
0.1262953713852307
 20
2.838162504270211
 30
0.0
 11
0.1050470645306125
 21
2.840465711069046
 31
0.0
  0
LWPOLYLINE
  5
1D8
330
1A2
100
AcDbEntity
  8
AM_4
100
AcDbPolyline
 90
        3
 70
     0
 43
0.0
 10
-0.1262953713852306
 20
2.838162504270211
 10
-0.1577272497321275
 20
2.81670343087731
 10
-0.1894430570778459
 20
2.791327775958826
  0
LINE
  5
1D9
330
1A2
100
AcDbEntity
  8
AM_4
100
AcDbLine
 10
-0.1050087569988761
 20
2.840469558573556
 30
0.0
 11
-0.1262953713852306
 21
2.838162504270211
 31
0.0
  0
LWPOLYLINE
  5
1DA
330
1A2
100
AcDbEntity
  8
AM_4
100
AcDbPolyline
 90
        3
 70
     0
 43
0.0
 10
0.2525907427704613
 20
2.72878750427021
 10
0.2211588644235644
 20
2.761770041151459
 10
0.1894430570778461
 20
2.791327775958826
  0
LWPOLYLINE
  5
1DB
330
1A2
100
AcDbEntity
  8
AM_4
100
AcDbPolyline
 90
        3
 70
     0
 43
0.0
 10
-0.1894430570778459
 20
2.791327775958826
 10
-0.2210168999241535
 20
2.761911297398057
 10
-0.2525907427704611
 20
2.72878750427021
  0
LINE
  5
1DC
330
1A2
100
AcDbEntity
  8
AM_4
100
AcDbLine
 10
-0.1049999999999999
 20
2.834170715105142
 30
0.0
 11
-0.1151252948555657
 21
2.814346501350328
 31
0.0
  0
LINE
  5
1DD
330
1A2
100
AcDbEntity
  8
AM_4
100
AcDbLine
 10
0.1151252948555659
 20
2.814346501350328
 30
0.0
 11
0.1050000000000001
 21
2.834170715105142
 31
0.0
  0
ELLIPSE
  5
1DE
330
1A2
100
AcDbEntity
  8
AM_4
100
AcDbEllipse
 10
0.0000000000000001
 20
2.79964632748513
 30
0.0
 11
0.1188200907348977
 21
1.770557325108315E-9
 31
0.0
210
0.0
220
0.0
230
1.0
 40
0.4999999999999835
 41
2.891559732057148
 42
6.28318702669927
  0
LINE
  5
1DF
330
1A2
100
AcDbEntity
  8
AM_4
100
AcDbLine
 10
0.1050000000000001
 20
2.827572943356193
 30
0.0
 11
0.1050000000000001
 21
2.845811172168652
 31
0.0
  0
LINE
  5
1E0
330
1A2
100
AcDbEntity
  8
AM_4
100
AcDbLine
 10
-0.1049999999999999
 20
2.845811172168652
 30
0.0
 11
-0.1049999999999999
 21
2.827572943356193
 31
0.0
  0
ELLIPSE
  5
1E1
330
1A2
100
AcDbEntity
  8
AM_4
100
AcDbEllipse
 10
0.0000000000000001
 20
2.827572943356193
 30
0.0
 11
0.1050000000000001
 21
0.0
 31
0.0
210
0.0
220
0.0
230
1.0
 40
0.5000000000000017
 41
3.141592653589793
 42
6.283185307179586
  0
ELLIPSE
  5
1E2
330
1A2
100
AcDbEntity
  8
AM_4
100
AcDbEllipse
 10
0.0000000000000043
 20
2.7996463274851
 30
0.0
 11
0.1188200907348933
 21
0.0
 31
0.0
210
0.0
220
0.0
230
1.0
 40
0.5000000000000169
 41
0.0
 42
0.2500328930992681
  0
LINE
  5
1E3
330
1A2
100
AcDbEntity
  8
AM_4
100
AcDbLine
 10
-0.1098343496897822
 20
2.824705590090725
 30
0.0
 11
-0.1417971541629017
 21
2.801650935448868
 31
0.0
  0
LINE
  5
1E4
330
1A2
100
AcDbEntity
  8
AM_4
100
AcDbLine
 10
0.1417971541629019
 20
2.801650935448868
 30
0.0
 11
0.1098343496897824
 21
2.824705590090725
 31
0.0
  0
ELLIPSE
  5
1E5
330
1A2
100
AcDbEntity
  8
AM_4
100
AcDbEllipse
 10
0.0
 20
2.752504301246797
 30
0.0
 11
0.1725340532830155
 21
0.0
 31
0.0
210
0.0
220
0.0
230
1.0
 40
0.5000000000000014
 41
2.535447513394711
 42
6.889330447374668
  0
LWPOLYLINE
  5
1E6
330
1A2
100
AcDbEntity
  8
AM_4
100
AcDbPolyline
 90
        4
 70
     0
 43
0.0
 10
-0.1262953713852306
 20
2.61941250427021
 10
-0.0967996321117977
 20
2.622517367444348
 10
-0.0485424412477543
 20
2.626030472478893
 10
0.0000000000000001
 20
2.627265275958826
  0
LWPOLYLINE
  5
1E7
330
1A2
100
AcDbEntity
  8
AM_4
100
AcDbPolyline
 90
        4
 70
     0
 43
0.0
 10
0.0000000000000001
 20
2.540662735580383
 10
-0.0483998160558988
 20
2.54189037917283
 10
-0.0967996321117977
 20
2.545410644094861
 10
-0.1262953713852306
 20
2.548515507268999
  0
LWPOLYLINE
  5
1E8
330
1A2
100
AcDbEntity
  8
AM_4
100
AcDbPolyline
 90
        3
 70
     0
 43
0.0
 10
0.1262953713852308
 20
2.548515507268999
 10
0.0634316146914368
 20
2.542753775524825
 10
0.0000000000000001
 20
2.540662735580383
  0
ELLIPSE
  5
1E9
330
1A2
100
AcDbEntity
  8
AM_4
100
AcDbEllipse
 10
0.0000000000000004
 20
2.736640275958826
 30
0.0
 11
0.2187500000000007
 21
0.0
 31
0.0
210
0.0
220
0.0
230
1.0
 40
0.4999999999999942
 41
2.617993877991482
 42
5.75958653158129
  0
ELLIPSE
  5
1EA
330
1A2
100
AcDbEntity
  8
AM_4
100
AcDbEllipse
 10
0.0000000000000004
 20
2.736640275958824
 30
0.0
 11
0.2187499999999997
 21
0.0
 31
0.0
210
0.0
220
0.0
230
1.0
 40
0.5000000000000007
 41
5.759586531581305
 42
7.348429945430829
  0
ELLIPSE
  5
1EB
330
1A2
100
AcDbEntity
  8
AM_4
100
AcDbEllipse
 10
0.0000000000000016
 20
2.736640275958834
 30
0.0
 11
0.218750000000002
 21
0.0
 31
0.0
210
0.0
220
0.0
230
1.0
 40
0.4999999999999731
 41
2.076348015338577
 42
2.617993877991535
  0
LINE
  5
1EC
330
1A2
100
AcDbEntity
  8
AM_4
100
AcDbLine
 10
-0.1262953713852306
 20
2.61941250427021
 30
0.0
 11
-0.1262953713852306
 21
2.548515507268999
 31
0.0
  0
LWPOLYLINE
  5
1ED
330
1A2
100
AcDbEntity
  8
AM_4
100
AcDbPolyline
 90
        3
 70
     0
 43
0.0
 10
-0.1894430570778459
 20
2.681952775958826
 10
-0.1578692142315382
 20
2.652536297398057
 10
-0.1262953713852306
 20
2.61941250427021
  0
LWPOLYLINE
  5
1EE
330
1A2
100
AcDbEntity
  8
AM_4
100
AcDbPolyline
 90
        3
 70
     0
 43
0.0
 10
-0.2525907427704611
 20
2.72878750427021
 10
-0.2211588644235642
 20
2.707328430877309
 10
-0.1894430570778459
 20
2.681952775958826
  0
LINE
  5
1EF
330
1A2
100
AcDbEntity
  8
AM_4
100
AcDbLine
 10
-0.2525907427704611
 20
2.72878750427021
 30
0.0
 11
-0.2525907427704611
 21
2.657890507268998
 31
0.0
  0
LWPOLYLINE
  5
1F0
330
1A2
100
AcDbEntity
  8
AM_4
100
AcDbPolyline
 90
        3
 70
     0
 43
0.0
 10
-0.1894430570778459
 20
2.595350235580383
 10
-0.2210168999241535
 20
2.624766714141152
 10
-0.2525907427704611
 20
2.657890507268998
  0
LWPOLYLINE
  5
1F1
330
1A2
100
AcDbEntity
  8
AM_4
100
AcDbPolyline
 90
        3
 70
     0
 43
0.0
 10
-0.1262953713852306
 20
2.548515507268999
 10
-0.1577272497321275
 20
2.5699745806619
 10
-0.1894430570778459
 20
2.595350235580383
  0
LWPOLYLINE
  5
1F2
330
1A2
100
AcDbEntity
  8
AM_4
100
AcDbPolyline
 90
        3
 70
     0
 43
0.0
 10
0.0000000000000001
 20
2.627265275958826
 10
0.0631476856926154
 20
2.625192547398057
 10
0.1262953713852308
 20
2.61941250427021
  0
LINE
  5
1F3
330
1A2
100
AcDbEntity
  8
AM_4
100
AcDbLine
 10
0.2525907427704613
 20
2.72878750427021
 30
0.0
 11
0.2525907427704613
 21
2.657890507268998
 31
0.0
  0
LWPOLYLINE
  5
1F4
330
1A2
100
AcDbEntity
  8
AM_4
100
AcDbPolyline
 90
        3
 70
     0
 43
0.0
 10
0.1894430570778461
 20
2.681952775958826
 10
0.2210168999241537
 20
2.707223797398057
 10
0.2525907427704613
 20
2.72878750427021
  0
LWPOLYLINE
  5
1F5
330
1A2
100
AcDbEntity
  8
AM_4
100
AcDbPolyline
 90
        3
 70
     0
 43
0.0
 10
0.1262953713852308
 20
2.61941250427021
 10
0.1577272497321277
 20
2.652395041151459
 10
0.1894430570778461
 20
2.681952775958826
  0
LINE
  5
1F6
330
1A2
100
AcDbEntity
  8
AM_4
100
AcDbLine
 10
0.1262953713852308
 20
2.61941250427021
 30
0.0
 11
0.1262953713852308
 21
2.548515507268999
 31
0.0
  0
LWPOLYLINE
  5
1F7
330
1A2
100
AcDbEntity
  8
AM_4
100
AcDbPolyline
 90
        3
 70
     0
 43
0.0
 10
0.1894430570778461
 20
2.595350235580383
 10
0.1578692142315384
 20
2.570079214141152
 10
0.1262953713852308
 20
2.548515507268999
  0
LWPOLYLINE
  5
1F8
330
1A2
100
AcDbEntity
  8
AM_4
100
AcDbPolyline
 90
        3
 70
     0
 43
0.0
 10
0.2525907427704613
 20
2.657890507268998
 10
0.2211588644235644
 20
2.62490797038775
 10
0.1894430570778461
 20
2.595350235580383
  0
ELLIPSE
  5
1F9
330
1A2
100
AcDbEntity
  8
AM_4
100
AcDbEllipse
 10
0.0000000000000001
 20
2.736640275958826
 30
0.0
 11
0.2137500000000001
 21
3.185123205184938E-9
 31
0.0
210
0.0
220
0.0
230
1.0
 40
0.5000000000000001
 41
2.098620516301823
 42
6.28318702669927
  0
ELLIPSE
  5
1FA
330
1A2
100
AcDbEntity
  8
AM_4
100
AcDbEllipse
 10
0.0000000000000002
 20
2.736640275958826
 30
0.0
 11
0.21375
 21
0.0
 31
0.0
210
0.0
220
0.0
230
1.0
 40
0.5000000000000003
 41
0.0
 42
1.042972124167466
  0
LINE
  5
1FB
330
1A2
100
AcDbEntity
  8
AM_4
100
AcDbLine
 10
0.1005298463144156
 20
2.838398260903498
 30
0.0
 11
0.1292526595471058
 21
2.886029658111642
 31
0.0
  0
LINE
  5
1FC
330
1A2
100
AcDbEntity
  8
AM_4
100
AcDbLine
 10
-0.1292526595471055
 20
2.886029658111642
 30
0.0
 11
-0.1005298463144154
 21
2.838398260903498
 31
0.0
  0
ELLIPSE
  5
1FD
330
1A2
100
AcDbEntity
  8
AM_4
100
AcDbEllipse
 10
0.0000000000000001
 20
2.853553705469726
 30
0.0
 11
0.1050000000000001
 21
0.0
 31
0.0
210
0.0
220
0.0
230
1.0
 40
0.5000000000000017
 41
3.43443542531837
 42
5.990342535451009
  0
ELLIPSE
  5
1FE
330
1A2
100
AcDbEntity
  8
AM_4
100
AcDbEllipse
 10
0.0000000000000051
 20
2.905515229696817
 30
0.0
 11
0.1349999999999949
 21
2.011656761169358E-9
 31
0.0
210
0.0
220
0.0
230
1.0
 40
0.4999999999999784
 41
2.906159020462476
 42
6.518618883134701
  0
LINE
  5
1FF
330
1A2
100
AcDbEntity
  8
AM_4
100
AcDbLine
 10
-0.0998453562378796
 20
2.986772824440745
 30
0.0
 11
-0.1312757938985218
 21
2.92126059358837
 31
0.0
  0
LINE
  5
200
330
1A2
100
AcDbEntity
  8
AM_4
100
AcDbLine
 10
0.131275793898522
 20
2.92126059358837
 30
0.0
 11
0.0998453562378798
 21
2.986772824440745
 31
0.0
  0
ELLIPSE
  5
201
330
1A2
100
AcDbEntity
  8
AM_4
100
AcDbEllipse
 10
-0.0000000000000003
 20
2.974797261999563
 30
0.0
 11
0.1026779019331879
 21
0.0
 31
0.0
210
0.0
220
0.0
230
1.0
 40
0.4999999999999767
 41
0.0
 42
6.283185307179586
  0
ENDBLK
  5
1A5
330
1A2
100
AcDbEntity
  8
0
100
AcDbBlockEnd
  0
BLOCK
  5
204
330
202
100
AcDbEntity
  8
0
100
AcDbBlockBegin
  2
7_071194Ho_0_in_071194_2
 70
     2
 10
0.0
 20
0.0
 30
0.0
  3
7_071194Ho_0_in_071194_2
  1

  0
ATTDEF
  5
206
330
202
100
AcDbEntity
  8
AM_6
100
AcDbText
 10
6.435
 20
2.96
 30
0.0
 40
0.5
  1
EP2B-IP -(Labyrinth Seal)-Housing -Inch
100
AcDbAttributeDefinition
  3

  2
NN
 70
     8
280
     0
  0
ATTDEF
  5
207
330
202
100
AcDbEntity
  8
AM_6
100
AcDbText
 10
6.435
 20
2.46
 30
0.0
 40
0.5
  1
Imperial/E 2 Bolt Piliow Block Bearings
100
AcDbAttributeDefinition
  3

  2
NT
 70
     8
280
     0
  0
ATTDEF
  5
208
330
202
100
AcDbEntity
  8
AM_6
100
AcDbText
 10
6.435
 20
1.96
 30
0.0
 40
0.5
  1
071194Ho
100
AcDbAttributeDefinition
  3

  2
NB
 70
     8
280
     0
  0
ATTDEF
  5
209
330
202
100
AcDbEntity
  8
AM_6
100
AcDbText
 10
6.435
 20
1.46
 30
0.0
 40
0.5
  1
$PN.Ho
100
AcDbAttributeDefinition
  3

  2
NBSYN
 70
     8
280
     0
  0
ATTDEF
  5
20A
330
202
100
AcDbEntity
  8
AM_6
100
AcDbText
 10
6.435
 20
0.96
 30
0.0
 40
0.5
  1
071194
100
AcDbAttributeDefinition
  3

  2
LINA
 70
     8
280
     0
  0
ATTDEF
  5
20B
330
202
100
AcDbEntity
  8
AM_6
100
AcDbText
 10
6.435
 20
0.46
 30
0.0
 40
0.5
  1
2-7/16
100
AcDbAttributeDefinition
  3

  2
SS
 70
     8
280
     0
  0
ATTDEF
  5
20C
330
202
100
AcDbEntity
  8
AM_6
100
AcDbText
 10
6.435
 20
-0.04
 30
0.0
 40
0.5
  1
2.437500
100
AcDbAttributeDefinition
  3

  2
SS1
 70
     8
280
     0
  0
ATTDEF
  5
20D
330
202
100
AcDbEntity
  8
AM_6
100
AcDbText
 10
6.435
 20
-0.54
 30
0.0
 40
0.5
  1
Expansion
100
AcDbAttributeDefinition
  3

  2
TYPE
 70
     8
280
     0
  0
ATTDEF
  5
20E
330
202
100
AcDbEntity
  8
AM_6
100
AcDbText
 10
6.435
 20
-1.04
 30
0.0
 40
0.5
  1
071173
100
AcDbAttributeDefinition
  3

  2
PN1
 70
     8
280
     0
  0
ATTDEF
  5
20F
330
202
100
AcDbEntity
  8
AM_6
100
AcDbText
 10
6.435
 20
-1.54
 30
0.0
 40
0.5
  1
071194
100
AcDbAttributeDefinition
  3

  2
PN2
 70
     8
280
     0
  0
ATTDEF
  5
210
330
202
100
AcDbEntity
  8
AM_6
100
AcDbText
 10
6.435
 20
-2.04
 30
0.0
 40
0.5
  1
EP2B-IP-207L
100
AcDbAttributeDefinition
  3

  2
DES1
 70
     8
280
     0
  0
ATTDEF
  5
211
330
202
100
AcDbEntity
  8
AM_6
100
AcDbText
 10
6.435
 20
-2.54
 30
0.0
 40
0.5
  1
Non-Expansion Type
100
AcDbAttributeDefinition
  3

  2
EF
 70
     8
280
     0
  0
ATTDEF
  5
212
330
202
100
AcDbEntity
  8
AM_6
100
AcDbText
 10
6.435
 20
-3.04
 30
0.0
 40
0.5
  1
1
100
AcDbAttributeDefinition
  3

  2
EF1
 70
     8
280
     0
  0
ATTDEF
  5
213
330
202
100
AcDbEntity
  8
AM_6
100
AcDbText
 10
6.435
 20
-3.54
 30
0.0
 40
0.5
  1
Labyrinth Seal
100
AcDbAttributeDefinition
  3

  2
ST
 70
     8
280
     0
  0
ATTDEF
  5
214
330
202
100
AcDbEntity
  8
AM_6
100
AcDbText
 10
6.435
 20
-4.04
 30
0.0
 40
0.5
  1
1
100
AcDbAttributeDefinition
  3

  2
ST1
 70
     8
280
     0
  0
ATTDEF
  5
215
330
202
100
AcDbEntity
  8
AM_6
100
AcDbText
 10
6.435
 20
-4.54
 30
0.0
 40
0.5
  1
3.42
100
AcDbAttributeDefinition
  3

  2
A
 70
     8
280
     0
  0
ATTDEF
  5
216
330
202
100
AcDbEntity
  8
AM_6
100
AcDbText
 10
6.435
 20
-5.04
 30
0.0
 40
0.5
  1
3.4200000
100
AcDbAttributeDefinition
  3

  2
A1
 70
     8
280
     0
  0
ATTDEF
  5
217
330
202
100
AcDbEntity
  8
AM_6
100
AcDbText
 10
6.435
 20
-5.54
 30
0.0
 40
0.5
  1
10.5
100
AcDbAttributeDefinition
  3

  2
B
 70
     8
280
     0
  0
ATTDEF
  5
218
330
202
100
AcDbEntity
  8
AM_6
100
AcDbText
 10
6.435
 20
-6.04
 30
0.0
 40
0.5
  1
10.5000000
100
AcDbAttributeDefinition
  3

  2
B1
 70
     8
280
     0
  0
ATTDEF
  5
219
330
202
100
AcDbEntity
  8
AM_6
100
AcDbText
 10
6.435
 20
-6.54
 30
0.0
 40
0.5
  1
2.87
100
AcDbAttributeDefinition
  3

  2
C
 70
     8
280
     0
  0
ATTDEF
  5
21A
330
202
100
AcDbEntity
  8
AM_6
100
AcDbText
 10
6.435
 20
-7.04
 30
0.0
 40
0.5
  1
2.8700000
100
AcDbAttributeDefinition
  3

  2
C1
 70
     8
280
     0
  0
ATTDEF
  5
21B
330
202
100
AcDbEntity
  8
AM_6
100
AcDbText
 10
6.435
 20
-7.54
 30
0.0
 40
0.5
  1
8.38
100
AcDbAttributeDefinition
  3

  2
DMIN
 70
     8
280
     0
  0
ATTDEF
  5
21C
330
202
100
AcDbEntity
  8
AM_6
100
AcDbText
 10
6.435
 20
-8.04
 30
0.0
 40
0.5
  1
8.3800000
100
AcDbAttributeDefinition
  3

  2
DMIN1
 70
     8
280
     0
  0
ATTDEF
  5
21D
330
202
100
AcDbEntity
  8
AM_6
100
AcDbText
 10
6.435
 20
-8.54
 30
0.0
 40
0.5
  1
8.62
100
AcDbAttributeDefinition
  3

  2
DMAX
 70
     8
280
     0
  0
ATTDEF
  5
21E
330
202
100
AcDbEntity
  8
AM_6
100
AcDbText
 10
6.435
 20
-9.04
 30
0.0
 40
0.5
  1
8.6200000
100
AcDbAttributeDefinition
  3

  2
DMAX1
 70
     8
280
     0
  0
ATTDEF
  5
21F
330
202
100
AcDbEntity
  8
AM_6
100
AcDbText
 10
6.435
 20
-9.54
 30
0.0
 40
0.5
  1
5/8
100
AcDbAttributeDefinition
  3

  2
F
 70
     8
280
     0
  0
ATTDEF
  5
220
330
202
100
AcDbEntity
  8
AM_6
100
AcDbText
 10
6.435
 20
-10.04
 30
0.0
 40
0.5
  1
0.6250000
100
AcDbAttributeDefinition
  3

  2
F1
 70
     8
280
     0
  0
ATTDEF
  5
221
330
202
100
AcDbEntity
  8
AM_6
100
AcDbText
 10
6.435
 20
-10.54
 30
0.0
 40
0.5
  1
0.88
100
AcDbAttributeDefinition
  3

  2
G
 70
     8
280
     0
  0
ATTDEF
  5
222
330
202
100
AcDbEntity
  8
AM_6
100
AcDbText
 10
6.435
 20
-11.04
 30
0.0
 40
0.5
  1
0.880000
100
AcDbAttributeDefinition
  3

  2
G1
 70
     8
280
     0
  0
ATTDEF
  5
223
330
202
100
AcDbEntity
  8
AM_6
100
AcDbText
 10
6.435
 20
-11.54
 30
0.0
 40
0.5
  1
1.63
100
AcDbAttributeDefinition
  3

  2
H
 70
     8
280
     0
  0
ATTDEF
  5
224
330
202
100
AcDbEntity
  8
AM_6
100
AcDbText
 10
6.435
 20
-12.04
 30
0.0
 40
0.5
  1
1.6300000
100
AcDbAttributeDefinition
  3

  2
H1
 70
     8
280
     0
  0
ATTDEF
  5
225
330
202
100
AcDbEntity
  8
AM_6
100
AcDbText
 10
6.435
 20
-12.54
 30
0.0
 40
0.5
  1
5.71
100
AcDbAttributeDefinition
  3

  2
J
 70
     8
280
     0
  0
ATTDEF
  5
226
330
202
100
AcDbEntity
  8
AM_6
100
AcDbText
 10
6.435
 20
-13.04
 30
0.0
 40
0.5
  1
5.710000
100
AcDbAttributeDefinition
  3

  2
J1
 70
     8
280
     0
  0
ATTDEF
  5
227
330
202
100
AcDbEntity
  8
AM_6
100
AcDbText
 10
6.435
 20
-13.54
 30
0.0
 40
0.5
  1
3.88
100
AcDbAttributeDefinition
  3

  2
L
 70
     8
280
     0
  0
ATTDEF
  5
228
330
202
100
AcDbEntity
  8
AM_6
100
AcDbText
 10
6.435
 20
-14.04
 30
0.0
 40
0.5
  1
3.8750000
100
AcDbAttributeDefinition
  3

  2
L1
 70
     8
280
     0
  0
ATTDEF
  5
229
330
202
100
AcDbEntity
  8
AM_6
100
AcDbText
 10
6.435
 20
-14.54
 30
0.0
 40
0.5
  1
2.75
100
AcDbAttributeDefinition
  3

  2
M
 70
     8
280
     0
  0
ATTDEF
  5
22A
330
202
100
AcDbEntity
  8
AM_6
100
AcDbText
 10
6.435
 20
-15.04
 30
0.0
 40
0.5
  1
2.750000
100
AcDbAttributeDefinition
  3

  2
M1
 70
     8
280
     0
  0
ATTDEF
  5
22B
330
202
100
AcDbEntity
  8
AM_6
100
AcDbText
 10
6.435
 20
-15.54
 30
0.0
 40
0.5
  1
1.20
100
AcDbAttributeDefinition
  3

  2
R
 70
     8
280
     0
  0
ATTDEF
  5
22C
330
202
100
AcDbEntity
  8
AM_6
100
AcDbText
 10
6.435
 20
-16.04
 30
0.0
 40
0.5
  1
1.200000
100
AcDbAttributeDefinition
  3

  2
R1
 70
     8
280
     0
  0
ATTDEF
  5
22D
330
202
100
AcDbEntity
  8
AM_6
100
AcDbText
 10
6.435
 20
-16.54
 30
0.0
 40
0.5
  1
2.22
100
AcDbAttributeDefinition
  3

  2
S
 70
     8
280
     0
  0
ATTDEF
  5
22E
330
202
100
AcDbEntity
  8
AM_6
100
AcDbText
 10
6.435
 20
-17.04
 30
0.0
 40
0.5
  1
2.220000
100
AcDbAttributeDefinition
  3

  2
S1
 70
     8
280
     0
  0
ATTDEF
  5
22F
330
202
100
AcDbEntity
  8
AM_6
100
AcDbText
 10
6.435
 20
-17.54
 30
0.0
 40
0.5
  1
0.25
100
AcDbAttributeDefinition
  3

  2
X
 70
     8
280
     0
  0
ATTDEF
  5
230
330
202
100
AcDbEntity
  8
AM_6
100
AcDbText
 10
6.435
 20
-18.04
 30
0.0
 40
0.5
  1
0.250000
100
AcDbAttributeDefinition
  3

  2
X1
 70
     8
280
     0
  0
ATTDEF
  5
231
330
202
100
AcDbEntity
  8
AM_6
100
AcDbText
 10
6.435
 20
-18.54
 30
0.0
 40
0.5
  1
0.025
100
AcDbAttributeDefinition
  3

  2
Y
 70
     8
280
     0
  0
ATTDEF
  5
232
330
202
100
AcDbEntity
  8
AM_6
100
AcDbText
 10
6.435
 20
-19.04
 30
0.0
 40
0.5
  1
2.95
100
AcDbAttributeDefinition
  3

  2
Z
 70
     8
280
     0
  0
ATTDEF
  5
233
330
202
100
AcDbEntity
  8
AM_6
100
AcDbText
 10
6.435
 20
-19.54
 30
0.0
 40
0.5
  1
2.950000
100
AcDbAttributeDefinition
  3

  2
Z1
 70
     8
280
     0
  0
ATTDEF
  5
234
330
202
100
AcDbEntity
  8
AM_6
100
AcDbText
 10
6.435
 20
-20.04
 30
0.0
 40
0.5
  1
4.7241
100
AcDbAttributeDefinition
  3

  2
BORE
 70
     8
280
     0
  0
ATTDEF
  5
235
330
202
100
AcDbEntity
  8
AM_6
100
AcDbText
 10
6.435
 20
-20.54
 30
0.0
 40
0.5
  1
baldor
100
AcDbAttributeDefinition
  3

  2
COMPANY
 70
     8
280
     0
  0
LINE
  5
236
330
202
100
AcDbEntity
  8
AM_9
100
AcDbLine
 10
-0.1126900049185262
 20
2.96
 30
0.0
 11
0.1126900049185262
 21
2.96
 31
0.0
  0
LINE
  5
237
330
202
100
AcDbEntity
  8
AM_9
100
AcDbLine
 10
-0.1247121048642015
 20
2.8785
 30
0.0
 11
0.1247121048642015
 21
2.8785
 31
0.0
  0
ELLIPSE
  5
238
330
202
100
AcDbEntity
  8
AM_9
100
AcDbEllipse
 10
0.0000000000000001
 20
2.563435195201938
 30
0.0
 11
0.5000000000000002
 21
0.0
 31
0.0
210
0.0
220
0.0
230
1.0
 40
0.4999999999999847
 41
0.0039638912537834
 42
3.114736596817046
  0
ELLIPSE
  5
239
330
202
100
AcDbEntity
  8
AM_9
100
AcDbEllipse
 10
0.0000000000000025
 20
2.650037735580365
 30
0.0
 11
0.3999999999999841
 21
5.960464477538828E-9
 31
0.0
210
0.0
220
0.0
230
1.0
 40
0.5000000000000635
 41
1.309208634620315
 42
1.832384001078493
  0
LWPOLYLINE
  5
23A
330
202
100
AcDbEntity
  8
AM_9
100
AcDbPolyline
 90
        5
 70
     0
 43
0.0
 10
0.0000000000000001
 20
2.863435195201938
 10
-0.0186613206514454
 20
2.863241649516173
 10
-0.0535011312005881
 20
2.861839806505485
 10
-0.088107009808495
 20
2.859083981736883
 10
-0.1113757844822573
 20
2.856444408143998
  0
LWPOLYLINE
  5
23B
330
202
100
AcDbEntity
  8
AM_9
100
AcDbPolyline
 90
        5
 70
     0
 43
0.0
 10
0.1113916840791599
 20
2.856442382891416
 10
0.1058206465904929
 20
2.857133320078361
 10
0.0713424810192721
 20
2.86059109180151
 10
0.0365743499962409
 20
2.86269090972437
 10
0.0000000000000001
 20
2.863435195201938
  0
LINE
  5
23C
330
202
100
AcDbEntity
  8
AM_9
100
AcDbLine
 10
-1.2915
 20
-2.36205
 30
0.0
 11
1.2915
 21
-2.36205
 31
0.0
  0
LINE
  5
23D
330
202
100
AcDbEntity
  8
AM_9
100
AcDbLine
 10
1.2915
 20
2.36205
 30
0.0
 11
-1.2915
 21
2.36205
 31
0.0
  0
LINE
  5
23E
330
202
100
AcDbEntity
  8
AM_9
100
AcDbLine
 10
-0.1322881452418211
 20
2.853362924252715
 30
0.0
 11
0.1324675783613355
 21
2.853362924252715
 31
0.0
  0
LWPOLYLINE
  5
23F
330
202
100
AcDbEntity
  8
AM_9
100
AcDbPolyline
 90
       15
 70
     0
 43
0.0
 10
-0.0199575253916157
 20
2.776458388889806
 10
-0.0555970467168799
 20
2.775497962233183
 10
-0.1106635729036464
 20
2.77220591240219
 10
-0.1641598868628684
 20
2.766736717259475
 10
-0.2155343947681315
 20
2.759050192778896
 10
-0.2643740349632009
 20
2.749130466081692
 10
-0.3097922321832833
 20
2.737035209678491
 10
-0.3516901082334089
 20
2.72256862491314
 10
-0.3893159615209342
 20
2.705836638765883
 10
-0.4219777889319131
 20
2.686993578865787
 10
-0.4494492325465698
 20
2.665893983859664
 10
-0.4713183813193766
 20
2.642747146747308
 10
-0.4871555520480569
 20
2.617881240820671
 10
-0.4967665762096057
 20
2.591299786045318
 10
-0.4999999999999998
 20
2.563435195201938
  0
LWPOLYLINE
  5
240
330
202
100
AcDbEntity
  8
AM_9
100
AcDbPolyline
 90
       15
 70
     0
 43
0.0
 10
0.4999935896408919
 20
2.564700187740554
 10
0.4970918449059165
 20
2.589770404361914
 10
0.4884729122085349
 20
2.615054514830821
 10
0.4743015007851605
 20
2.638886939617165
 10
0.4538594264110046
 20
2.661837184916136
 10
0.4278156479244878
 20
2.682977729612858
 10
0.3966547970051539
 20
2.702047990666782
 10
0.3601424777589103
 20
2.71917174557506
 10
0.3190181427313101
 20
2.73413925411543
 10
0.2740331208983
 20
2.746828302387921
 10
0.2251980343749758
 20
2.757307612733595
 10
0.1733100342215885
 20
2.765541423625597
 10
0.1193501665044109
 20
2.771485114934384
 10
0.0601210612795442
 20
2.775318050656619
 10
0.0191963619911896
 20
2.77646887836746
  0
LINE
  5
241
330
202
100
AcDbEntity
  8
AM_9
100
AcDbLine
 10
0.5
 20
2.563435195201938
 30
0.0
 11
0.4999935896408919
 21
2.564700187740554
 31
0.0
  0
LINE
  5
242
330
202
100
AcDbEntity
  8
AM_9
100
AcDbLine
 10
1.2915
 20
-1.033568158722292
 30
0.0
 11
1.2915
 21
-2.75
 31
0.0
  0
LINE
  5
243
330
202
100
AcDbEntity
  8
AM_9
100
AcDbLine
 10
-1.2915
 20
-1.033568158722297
 30
0.0
 11
-1.2915
 21
-2.75
 31
0.0
  0
LINE
  5
244
330
202
100
AcDbEntity
  8
AM_9
100
AcDbLine
 10
-0.3124999999999997
 20
-1.12
 30
0.0
 11
-0.3124999999999997
 21
-2.75
 31
0.0
  0
LINE
  5
245
330
202
100
AcDbEntity
  8
AM_9
100
AcDbLine
 10
0.3125000000000003
 20
-1.12
 30
0.0
 11
0.3125000000000003
 21
-2.75
 31
0.0
  0
LINE
  5
246
330
202
100
AcDbEntity
  8
AM_4
100
AcDbLine
 10
0.1126900049185262
 20
2.96
 30
0.0
 11
1.2915
 21
2.96
 31
0.0
  0
LINE
  5
247
330
202
100
AcDbEntity
  8
AM_4
100
AcDbLine
 10
-1.2915
 20
2.96
 30
0.0
 11
-0.1126900049185262
 21
2.96
 31
0.0
  0
LINE
  5
248
330
202
100
AcDbEntity
  8
AM_4
100
AcDbLine
 10
0.1247121048642015
 20
2.8785
 30
0.0
 11
1.2915
 21
2.8785
 31
0.0
  0
LINE
  5
249
330
202
100
AcDbEntity
  8
AM_4
100
AcDbLine
 10
-1.2915
 20
2.8785
 30
0.0
 11
-0.1247121048642015
 21
2.8785
 31
0.0
  0
ELLIPSE
  5
24A
330
202
100
AcDbEntity
  8
AM_4
100
AcDbEllipse
 10
0.0000000000000002
 20
2.563435195201939
 30
0.0
 11
0.5
 21
0.0
 31
0.0
210
0.0
220
0.0
230
1.0
 40
0.5
 41
3.141592653589793
 42
6.283185307179586
  0
ELLIPSE
  5
24B
330
202
100
AcDbEntity
  8
AM_4
100
AcDbEllipse
 10
-0.0000000000002551
 20
2.650037735581023
 30
0.0
 11
0.400000000000905
 21
0.0
 31
0.0
210
0.0
220
0.0
230
1.0
 40
0.4999999999974182
 41
1.257958860608503
 42
1.305184177224544
  0
ELLIPSE
  5
24C
330
202
100
AcDbEntity
  8
AM_4
100
AcDbEllipse
 10
-0.0000000000012352
 20
2.650037735584462
 30
0.0
 11
0.4000000000038559
 21
0.0
 31
0.0
210
0.0
220
0.0
230
1.0
 40
0.4999999999860112
 41
1.903006273338229
 42
7.541144167787149
  0
ELLIPSE
  5
24D
330
202
100
AcDbEntity
  8
AM_4
100
AcDbEllipse
 10
-0.0000000000010925
 20
2.650037735573407
 30
0.0
 11
0.3999999999967168
 21
0.0
 31
0.0
210
0.0
220
0.0
230
1.0
 40
0.5000000000201805
 41
-4.385883462135564
 42
-4.380179033837979
  0
ELLIPSE
  5
24E
330
202
100
AcDbEntity
  8
AM_4
100
AcDbEllipse
 10
0.0000000000000322
 20
2.650037735581064
 30
0.0
 11
0.4000000000001069
 21
0.0
 31
0.0
210
0.0
220
0.0
230
1.0
 40
0.4999999999982436
 41
-4.446776830814405
 42
-4.38588346213395
  0
LWPOLYLINE
  5
24F
330
202
100
AcDbEntity
  8
AM_4
100
AcDbPolyline
 90
       21
 70
     0
 43
0.0
 10
-0.1113757844822573
 20
2.856444408143998
 10
-0.1223309437059275
 20
2.854975954834734
 10
-0.1560336168668228
 20
2.849516243859881
 10
-0.1890792413437052
 20
2.842703112952641
 10
-0.2213356656860831
 20
2.834531110382675
 10
-0.2526735877350144
 20
2.824989377607947
 10
-0.282964298589295
 20
2.814060058954929
 10
-0.3120751485777088
 20
2.801717567072531
 10
-0.3398617845279269
 20
2.787930231761517
 10
-0.3661566212225581
 20
2.772667000615944
 10
-0.3907503344228806
 20
2.755916262352507
 10
-0.4133482573632315
 20
2.737745036632788
 10
-0.4336624156453083
 20
2.718277736155814
 10
-0.4514270269744631
 20
2.697716379045427
 10
-0.4664546362948452
 20
2.676309324315714
 10
-0.4786625525906422
 20
2.654303940751099
 10
-0.4880558240626773
 20
2.631916521200374
 10
-0.4946904811686259
 20
2.609329562595677
 10
-0.4986437784279563
 20
2.586701926715602
 10
-0.4999986253245077
 20
2.564176726735844
 10
-0.4999999996321121
 20
2.563423064450217
  0
LWPOLYLINE
  5
250
330
202
100
AcDbEntity
  8
AM_4
100
AcDbPolyline
 90
       21
 70
     0
 43
0.0
 10
0.4999999721846779
 20
2.563540675666275
 10
0.4999611119021255
 20
2.567379088457789
 10
0.4982825104434738
 20
2.589610675588573
 10
0.4941852851660124
 20
2.611444482871726
 10
0.4877447485119287
 20
2.632785841103434
 10
0.4790107807980114
 20
2.653583567106549
 10
0.468002180233608
 20
2.673805402972875
 10
0.4547059051431003
 20
2.693427300937386
 10
0.4390863546162966
 20
2.712417560897025
 10
0.421108560586857
 20
2.730718910842891
 10
0.4007737951067623
 20
2.748235496622925
 10
0.378155057994962
 20
2.764834399459306
 10
0.353411008402376
 20
2.780366482094915
 10
0.3267657363157142
 20
2.794697540979217
 10
0.298483773041116
 20
2.807724144102171
 10
0.2688169065715708
 20
2.819389032640425
 10
0.2379586788310084
 20
2.829678780317312
 10
0.2060789256453907
 20
2.838593370253267
 10
0.1733321594654488
 20
2.8461375127941
 10
0.1398649124230382
 20
2.852316241741309
 10
0.1113916840791599
 20
2.856442382891416
  0
LINE
  5
251
330
202
100
AcDbEntity
  8
AM_4
100
AcDbLine
 10
0.1324675783613355
 20
2.853362924252715
 30
0.0
 11
1.2915
 21
2.853362924252715
 31
0.0
  0
LINE
  5
252
330
202
100
AcDbEntity
  8
AM_4
100
AcDbLine
 10
-1.2915
 20
2.853362924252715
 30
0.0
 11
-0.1322881452418211
 21
2.853362924252715
 31
0.0
  0
LINE
  5
253
330
202
100
AcDbEntity
  8
AM_4
100
AcDbLine
 10
1.025
 20
0.4380972951297486
 30
0.0
 11
-1.025
 21
0.4380972951297486
 31
0.0
  0
LWPOLYLINE
  5
254
330
202
100
AcDbEntity
  8
AM_4
100
AcDbPolyline
 90
       30
 70
     0
 43
0.0
 10
-0.4999999999999998
 20
2.563435195201938
 10
-0.4970225318613273
 20
2.535758444128114
 10
-0.4879100448949316
 20
2.507127820231904
 10
-0.4728024803063081
 20
2.478287926433616
 10
-0.4519914595857543
 20
2.449848401622797
 10
-0.4254675780999895
 20
2.422041712580634
 10
-0.393642654698256
 20
2.395375844515713
 10
-0.3571006496206643
 20
2.3704698120865
 10
-0.3155731385781437
 20
2.34745028402226
 10
-0.2699250758425151
 20
2.326977429359049
 10
-0.2209979157140584
 20
2.30958274696922
 10
-0.1691382993882634
 20
2.295611767478045
 10
-0.1149273431542268
 20
2.285283875842001
 10
-0.0594023773642711
 20
2.278892765106737
 10
-0.0037851024808148
 20
2.276639991770632
 10
0.0520574684933477
 20
2.278391646082265
 10
0.1070623545557839
 20
2.284097600572888
 10
0.1603437293404927
 20
2.29364392193035
 10
0.2117929313733749
 20
2.306812701486257
 10
0.2604728753997627
 20
2.323250851482561
 10
0.306321949050104
 20
2.34292458294854
 10
0.3484979555390301
 20
2.365321027917733
 10
0.3862373464058446
 20
2.389882265001002
 10
0.4194602028438384
 20
2.416550650773015
 10
0.4474890352947095
 20
2.444661745705733
 10
0.4697860617283457
 20
2.473557453952578
 10
0.4859828534930425
 20
2.502715644673259
 10
0.4961109485749262
 20
2.531910687651558
 10
0.499966289139557
 20
2.560527260076478
 10
0.5
 20
2.563435195201938
  0
LINE
  5
255
330
202
100
AcDbEntity
  8
AM_4
100
AcDbLine
 10
-1.025
 20
-1.0385
 30
0.0
 11
1.025
 21
-1.0385
 31
0.0
  0
LINE
  5
256
330
202
100
AcDbEntity
  8
AM_4
100
AcDbLine
 10
1.025
 20
0.3670740367010317
 30
0.0
 11
1.291500000000001
 21
0.3670740367010317
 31
0.0
  0
LINE
  5
257
330
202
100
AcDbEntity
  8
AM_4
100
AcDbLine
 10
-1.2915
 20
0.3670740367010317
 30
0.0
 11
-1.025
 21
0.3670740367010317
 31
0.0
  0
LINE
  5
258
330
202
100
AcDbEntity
  8
AM_4
100
AcDbLine
 10
1.2915
 20
2.96
 30
0.0
 11
1.2915
 21
-1.033568158722292
 31
0.0
  0
LINE
  5
259
330
202
100
AcDbEntity
  8
AM_4
100
AcDbLine
 10
1.025
 20
-0.977213874318334
 30
0.0
 11
1.291500000000001
 21
-0.977213874318334
 31
0.0
  0
LINE
  5
25A
330
202
100
AcDbEntity
  8
AM_4
100
AcDbLine
 10
1.025
 20
0.4380972951297486
 30
0.0
 11
1.025
 21
-1.12
 31
0.0
  0
LWPOLYLINE
  5
25B
330
202
100
AcDbEntity
  8
AM_4
100
AcDbPolyline
 90
       14
 70
     0
 43
0.0
 10
1.2915
 20
-1.033568158722292
 10
1.298720925882379
 20
-1.045818234730302
 10
1.306982038434911
 20
-1.057392350342098
 10
1.316220465602876
 20
-1.068202419549232
 10
1.326365897377211
 20
-1.07816617119774
 10
1.337341120896134
 20
-1.087207775121298
 10
1.349062608081645
 20
-1.09525841925458
 10
1.361441151338634
 20
-1.102256833334617
 10
1.374382542478547
 20
-1.108149755204505
 10
1.387788289700584
 20
-1.112892336170568
 10
1.401556367173774
 20
-1.116448482328007
 10
1.415581991515153
 20
-1.118791129257305
 10
1.429758419254579
 20
-1.119902448000799
 10
1.435000000000001
 20
-1.119999516786049
  0
LWPOLYLINE
  5
25C
330
202
100
AcDbEntity
  8
AM_4
100
AcDbPolyline
 90
       14
 70
     0
 43
0.0
 10
-1.435
 20
-1.119999516786049
 10
-1.420795166361284
 20
-1.11934466252956
 10
-1.406701460712236
 20
-1.117454267364834
 10
-1.392826144662857
 20
-1.114342718340525
 10
-1.379274817746428
 20
-1.110033696223515
 10
-1.366150613743297
 20
-1.104559995273971
 10
-1.35355341577054
 20
-1.097963273661231
 10
-1.341579096111125
 20
-1.090293736419978
 10
-1.330318786567952
 20
-1.081609753359609
 10
-1.319858184895806
 20
-1.071977414834748
 10
-1.310276902589696
 20
-1.061470028757733
 10
-1.301647858993307
 20
-1.050167562681144
 10
-1.294036726338767
 20
-1.038156035196439
 10
-1.2915
 20
-1.033568158722297
  0
LINE
  5
25D
330
202
100
AcDbEntity
  8
AM_4
100
AcDbLine
 10
-1.025
 20
0.4380972951297486
 30
0.0
 11
-1.025
 21
-1.12
 31
0.0
  0
LINE
  5
25E
330
202
100
AcDbEntity
  8
AM_4
100
AcDbLine
 10
-1.2915
 20
-0.977213874318334
 30
0.0
 11
-1.025
 21
-0.977213874318334
 31
0.0
  0
LINE
  5
25F
330
202
100
AcDbEntity
  8
AM_4
100
AcDbLine
 10
-1.2915
 20
-1.033568158722297
 30
0.0
 11
-1.2915
 21
2.96
 31
0.0
  0
LWPOLYLINE
  5
260
330
202
100
AcDbEntity
  8
AM_4
100
AcDbPolyline
 90
       11
 70
     0
 43
0.0
 10
0.4374668498079189
 20
-1.12
 10
0.3585450166545607
 20
-1.121343244847495
 10
0.2786659188641944
 20
-1.124431699659098
 10
0.1970893233199569
 20
-1.127982388814957
 10
0.1149334814332643
 20
-1.130949601130315
 10
-0.0071105162653897
 20
-1.132568452991197
 10
-0.1291053393437427
 20
-1.130522126662999
 10
-0.2122060072323163
 20
-1.127307968345721
 10
-0.2947362775585025
 20
-1.123697409771784
 10
-0.3763738447758168
 20
-1.120849652949282
 10
-0.4374668498079189
 20
-1.12
  0
LINE
  5
261
330
202
100
AcDbEntity
  8
AM_4
100
AcDbLine
 10
-1.435
 20
-2.75
 30
0.0
 11
-1.435000000000001
 21
-1.12
 31
0.0
  0
LINE
  5
262
330
202
100
AcDbEntity
  8
AM_4
100
AcDbLine
 10
1.435
 20
-2.75
 30
0.0
 11
1.435000000000001
 21
-1.12
 31
0.0
  0
LINE
  5
263
330
202
100
AcDbEntity
  8
AM_4
100
AcDbLine
 10
-1.435000000000001
 20
-1.12
 30
0.0
 11
1.435000000000001
 21
-1.12
 31
0.0
  0
LINE
  5
264
330
202
100
AcDbEntity
  8
AM_4
100
AcDbLine
 10
1.148
 20
-1.935
 30
0.0
 11
1.148
 21
-2.75
 31
0.0
  0
LINE
  5
265
330
202
100
AcDbEntity
  8
AM_4
100
AcDbLine
 10
-1.435
 20
-1.935
 30
0.0
 11
1.435
 21
-1.935
 31
0.0
  0
LINE
  5
266
330
202
100
AcDbEntity
  8
AM_4
100
AcDbLine
 10
-1.435
 20
-2.75
 30
0.0
 11
1.435
 21
-2.75
 31
0.0
  0
LINE
  5
267
330
202
100
AcDbEntity
  8
AM_4
100
AcDbLine
 10
-1.148
 20
-1.935
 30
0.0
 11
-1.148
 21
-2.75
 31
0.0
  0
ENDBLK
  5
205
330
202
100
AcDbEntity
  8
0
100
AcDbBlockEnd
  0
ENDSEC
  0
SECTION
  2
ENTITIES
  0
INSERT
  5
6F
330
1F
100
AcDbEntity
  8
0
100
AcDbBlockReference
  2
1_071194_2
 10
0.0
 20
0.0
 30
0.0
  0
POINT
  5
269
330
1F
100
AcDbEntity
  8
ConnectionPoints
100
AcDbPoint
 10
-1.768666666666667
 20
1.645833333333333
 30
0.0000000000000001
  0
POINT
  5
26A
330
1F
100
AcDbEntity
  8
ConnectionPoints
100
AcDbPoint
 10
-1.698666666666667
 20
0.0
 30
0.0000000000000001
  0
POINT
  5
26B
330
1F
100
AcDbEntity
  8
ConnectionPoints
100
AcDbPoint
 10
-1.97
 20
0.0
 30
0.0000000000000001
  0
POINT
  5
26C
330
1F
100
AcDbEntity
  8
ConnectionPoints
100
AcDbPoint
 10
-1.897666666666667
 20
0.0
 30
0.0000000000000001
  0
POINT
  5
26D
330
1F
100
AcDbEntity
  8
ConnectionPoints
100
AcDbPoint
 10
-1.698666666666667
 20
1.645833333333333
 30
0.0000000000000001
  0
POINT
  5
26E
330
1F
100
AcDbEntity
  8
ConnectionPoints
100
AcDbPoint
 10
-1.698666666666667
 20
-1.645833333333333
 30
0.0000000000000001
  0
POINT
  5
26F
330
1F
100
AcDbEntity
  8
ConnectionPoints
100
AcDbPoint
 10
-1.698666666666667
 20
0.0
 30
0.0000000000000001
  0
POINT
  5
270
330
1F
100
AcDbEntity
  8
ConnectionPoints
100
AcDbPoint
 10
0.0000000000000001
 20
2.650037735580383
 30
1.53
  0
POINT
  5
271
330
1F
100
AcDbEntity
  8
ConnectionPoints
100
AcDbPoint
 10
0.0000000000000001
 20
2.650037735580383
 30
1.53
  0
POINT
  5
272
330
1F
100
AcDbEntity
  8
ConnectionPoints
100
AcDbPoint
 10
-1.97
 20
0.0
 30
0.0000000000000001
  0
POINT
  5
273
330
1F
100
AcDbEntity
  8
ConnectionPoints
100
AcDbPoint
 10
-2.22
 20
0.0
 30
0.0000000000000001
  0
ENDSEC
  0
SECTION
  2
OBJECTS
  0
DICTIONARY
  5
C
330
0
100
AcDbDictionary
281
     1
  3
ACAD_DETAILVIEWSTYLE
350
27B
  3
ACAD_GROUP
350
D
  3
ACAD_LAYOUT
350
1A
  3
ACAD_MATERIAL
350
43
  3
ACAD_MLEADERSTYLE
350
6B
  3
ACAD_MLINESTYLE
350
17
  3
ACAD_PLOTSETTINGS
350
19
  3
ACAD_PLOTSTYLENAME
350
E
  3
ACAD_SCALELIST
350
47
  3
ACAD_SECTIONVIEWSTYLE
350
27C
  3
ACAD_TABLESTYLE
350
69
  3
ACAD_VISUALSTYLE
350
2A
  3
ACDB_RECOMPOSE_DATA
350
278
  3
AcDbVariableDictionary
350
274
  0
SUN
  5
6D
330
29
100
AcDbSun
 90
        1
290
     0
 63
     7
421
 16777215
 40
1.0
291
     1
 91
  2455826
 92
 54000000
292
     0
 70
     2
 71
   256
280
     1
  0
DICTIONARY
  5
27B
102
{ACAD_REACTORS
330
C
102
}
330
C
100
AcDbDictionary
281
     1
  0
DICTIONARY
  5
D
102
{ACAD_REACTORS
330
C
102
}
330
C
100
AcDbDictionary
281
     1
  0
DICTIONARY
  5
1A
102
{ACAD_REACTORS
330
C
102
}
330
C
100
AcDbDictionary
281
     1
  3
Layout1
350
1E
  3
Layout2
350
26
  3
Model
350
22
  0
DICTIONARY
  5
43
102
{ACAD_REACTORS
330
C
102
}
330
C
100
AcDbDictionary
281
     1
  3
ByBlock
350
45
  3
ByLayer
350
44
  3
Global
350
46
  0
DICTIONARY
  5
6B
102
{ACAD_REACTORS
330
C
102
}
330
C
100
AcDbDictionary
281
     1
  3
Standard
350
6C
  0
DICTIONARY
  5
17
102
{ACAD_REACTORS
330
C
102
}
330
C
100
AcDbDictionary
281
     1
  3
Standard
350
18
  0
DICTIONARY
  5
19
102
{ACAD_REACTORS
330
C
102
}
330
C
100
AcDbDictionary
281
     1
  0
ACDBDICTIONARYWDFLT
  5
E
102
{ACAD_REACTORS
330
C
102
}
330
C
100
AcDbDictionary
281
     1
  3
Normal
350
F
100
AcDbDictionaryWithDefault
340
F
  0
DICTIONARY
  5
47
102
{ACAD_REACTORS
330
C
102
}
330
C
100
AcDbDictionary
281
     1
  3
A0
350
48
  3
A1
350
49
  3
A2
350
4A
  3
A3
350
4B
  3
A4
350
4C
  3
A5
350
4D
  3
A6
350
4E
  3
A7
350
4F
  3
A8
350
50
  3
A9
350
51
  3
B0
350
52
  3
B1
350
53
  3
B2
350
54
  3
B3
350
55
  3
B4
350
56
  3
B5
350
57
  3
B6
350
58
  3
B7
350
59
  3
B8
350
5A
  3
B9
350
5B
  3
C0
350
5C
  3
C1
350
5D
  3
C2
350
5E
  3
C3
350
5F
  3
C4
350
60
  3
C5
350
61
  3
C6
350
62
  3
C7
350
63
  3
C8
350
64
  3
C9
350
65
  3
D0
350
66
  3
D1
350
67
  3
D2
350
68
  0
DICTIONARY
  5
27C
102
{ACAD_REACTORS
330
C
102
}
330
C
100
AcDbDictionary
281
     1
  0
DICTIONARY
  5
69
102
{ACAD_REACTORS
330
C
102
}
330
C
100
AcDbDictionary
281
     1
  3
Standard
350
6A
  0
DICTIONARY
  5
2A
102
{ACAD_REACTORS
330
C
102
}
330
C
100
AcDbDictionary
281
     1
  3
2dWireframe
350
2F
  3
Basic
350
32
  3
Brighten
350
36
  3
ColorChange
350
3A
  3
Conceptual
350
34
  3
Dim
350
35
  3
EdgeColorOff
350
3D
  3
Facepattern
350
39
  3
Flat
350
2B
  3
FlatWithEdges
350
2C
  3
Gouraud
350
2D
  3
GouraudWithEdges
350
2E
  3
Hidden
350
31
  3
JitterOff
350
3B
  3
Linepattern
350
38
  3
OverhangOff
350
3C
  3
Realistic
350
33
  3
Shaded
350
42
  3
Shaded with edges
350
41
  3
Shades of Gray
350
3E
  3
Sketchy
350
3F
  3
Thicken
350
37
  3
Wireframe
350
30
  3
X-Ray
350
40
  0
XRECORD
  5
278
102
{ACAD_REACTORS
330
C
102
}
330
C
100
AcDbXrecord
280
     1
 90
        1
330
6A
  0
DICTIONARY
  5
274
102
{ACAD_REACTORS
330
C
102
}
330
C
100
AcDbDictionary
281
     1
  3
CANNOSCALE
350
275
  3
CMLEADERSTYLE
350
27A
  3
CTABLESTYLE
350
279
  0
LAYOUT
  5
1E
102
{ACAD_REACTORS
330
1A
102
}
330
1A
100
AcDbPlotSettings
  1

  2
none_device
  4

  6

 40
0.0
 41
0.0
 42
0.0
 43
0.0
 44
0.0
 45
0.0
 46
0.0
 47
0.0
 48
0.0
 49
0.0
140
0.0
141
0.0
142
1.0
143
1.0
 70
   688
 72
     0
 73
     0
 74
     5
  7

 75
    16
 76
     0
 77
     2
 78
   300
147
1.0
148
0.0
149
0.0
100
AcDbLayout
  1
Layout1
 70
     1
 71
     1
 10
0.0
 20
0.0
 11
12.0
 21
9.0
 12
0.0
 22
0.0
 32
0.0
 14
1.000000000000000E+20
 24
1.000000000000000E+20
 34
1.000000000000000E+20
 15
-1.000000000000000E+20
 25
-1.000000000000000E+20
 35
-1.000000000000000E+20
146
0.0
 13
0.0
 23
0.0
 33
0.0
 16
1.0
 26
0.0
 36
0.0
 17
0.0
 27
1.0
 37
0.0
 76
     0
330
1B
  0
LAYOUT
  5
26
102
{ACAD_REACTORS
330
1A
102
}
330
1A
100
AcDbPlotSettings
  1

  2
none_device
  4

  6

 40
0.0
 41
0.0
 42
0.0
 43
0.0
 44
0.0
 45
0.0
 46
0.0
 47
0.0
 48
0.0
 49
0.0
140
0.0
141
0.0
142
1.0
143
1.0
 70
   688
 72
     0
 73
     0
 74
     5
  7

 75
    16
 76
     0
 77
     2
 78
   300
147
1.0
148
0.0
149
0.0
100
AcDbLayout
  1
Layout2
 70
     1
 71
     2
 10
0.0
 20
0.0
 11
0.0
 21
0.0
 12
0.0
 22
0.0
 32
0.0
 14
0.0
 24
0.0
 34
0.0
 15
0.0
 25
0.0
 35
0.0
146
0.0
 13
0.0
 23
0.0
 33
0.0
 16
1.0
 26
0.0
 36
0.0
 17
0.0
 27
1.0
 37
0.0
 76
     0
330
23
  0
LAYOUT
  5
22
102
{ACAD_REACTORS
330
1A
102
}
330
1A
100
AcDbPlotSettings
  1

  2
none_device
  4
Letter_(8.50_x_11.00_Inches)
  6

 40
6.35
 41
6.35
 42
6.35000508
 43
6.35000508
 44
215.9
 45
279.4
 46
0.0
 47
0.0
 48
0.0
 49
0.0
140
0.0
141
0.0
142
1.0
143
1.0
 70
  1712
 72
     0
 73
     0
 74
     0
  7

 75
     0
 76
     0
 77
     2
 78
   300
147
1.0
148
0.0
149
0.0
100
AcDbLayout
  1
Model
 70
     1
 71
     0
 10
0.0
 20
0.0
 11
12.0
 21
9.0
 12
0.0
 22
0.0
 32
0.0
 14
1.000000000000000E+20
 24
1.000000000000000E+20
 34
1.000000000000000E+20
 15
-1.000000000000000E+20
 25
-1.000000000000000E+20
 35
-1.000000000000000E+20
146
0.0
 13
0.0
 23
0.0
 33
0.0
 16
1.0
 26
0.0
 36
0.0
 17
0.0
 27
1.0
 37
0.0
 76
     0
330
1F
331
29
  0
MATERIAL
  5
45
102
{ACAD_REACTORS
330
43
102
}
330
43
100
AcDbMaterial
  1
ByBlock
 72
     1
 94
      127
  0
MATERIAL
  5
44
102
{ACAD_REACTORS
330
43
102
}
330
43
100
AcDbMaterial
  1
ByLayer
 72
     1
 94
      127
  0
MATERIAL
  5
46
102
{ACAD_REACTORS
330
43
102
}
330
43
100
AcDbMaterial
  1
Global
 72
     1
 94
      127
  0
MLEADERSTYLE
  5
6C
102
{ACAD_REACTORS
330
6B
102
}
330
6B
100
AcDbMLeaderStyle
179
     2
170
     2
171
     1
172
     0
 90
        2
 40
0.0
 41
0.0
173
     1
 91
-1056964608
340
14
 92
       -2
290
     1
 42
0.09
291
     1
 43
0.36
  3
Standard
341
0
 44
0.18
300

342
11
174
     1
178
     6
175
     1
176
     0
 93
-1056964608
 45
0.18
292
     0
297
     0
 46
0.18
343
0
 94
-1056964608
 47
1.0
 49
1.0
140
1.0
293
     1
141
0.0
294
     1
177
     0
142
1.0
295
     0
296
     0
143
0.125
271
     0
272
     9
273
     9
298
     0
  0
MLINESTYLE
  5
18
102
{ACAD_REACTORS
330
17
102
}
330
17
100
AcDbMlineStyle
  2
Standard
 70
     0
  3

 62
   256
 51
90.0
 52
90.0
 71
     2
 49
0.5
 62
   256
  6
BYLAYER
 49
-0.5
 62
   256
  6
BYLAYER
  0
ACDBPLACEHOLDER
  5
F
102
{ACAD_REACTORS
330
E
102
}
330
E
  0
SCALE
  5
48
102
{ACAD_REACTORS
330
47
102
}
330
47
100
AcDbScale
 70
     0
300
1:1
140
1.0
141
1.0
290
     1
  0
SCALE
  5
49
102
{ACAD_REACTORS
330
47
102
}
330
47
100
AcDbScale
 70
     0
300
1:2
140
1.0
141
2.0
290
     0
  0
SCALE
  5
4A
102
{ACAD_REACTORS
330
47
102
}
330
47
100
AcDbScale
 70
     0
300
1:4
140
1.0
141
4.0
290
     0
  0
SCALE
  5
4B
102
{ACAD_REACTORS
330
47
102
}
330
47
100
AcDbScale
 70
     0
300
1:5
140
1.0
141
5.0
290
     0
  0
SCALE
  5
4C
102
{ACAD_REACTORS
330
47
102
}
330
47
100
AcDbScale
 70
     0
300
1:8
140
1.0
141
8.0
290
     0
  0
SCALE
  5
4D
102
{ACAD_REACTORS
330
47
102
}
330
47
100
AcDbScale
 70
     0
300
1:10
140
1.0
141
10.0
290
     0
  0
SCALE
  5
4E
102
{ACAD_REACTORS
330
47
102
}
330
47
100
AcDbScale
 70
     0
300
1:16
140
1.0
141
16.0
290
     0
  0
SCALE
  5
4F
102
{ACAD_REACTORS
330
47
102
}
330
47
100
AcDbScale
 70
     0
300
1:20
140
1.0
141
20.0
290
     0
  0
SCALE
  5
50
102
{ACAD_REACTORS
330
47
102
}
330
47
100
AcDbScale
 70
     0
300
1:30
140
1.0
141
30.0
290
     0
  0
SCALE
  5
51
102
{ACAD_REACTORS
330
47
102
}
330
47
100
AcDbScale
 70
     0
300
1:40
140
1.0
141
40.0
290
     0
  0
SCALE
  5
52
102
{ACAD_REACTORS
330
47
102
}
330
47
100
AcDbScale
 70
     0
300
1:50
140
1.0
141
50.0
290
     0
  0
SCALE
  5
53
102
{ACAD_REACTORS
330
47
102
}
330
47
100
AcDbScale
 70
     0
300
1:100
140
1.0
141
100.0
290
     0
  0
SCALE
  5
54
102
{ACAD_REACTORS
330
47
102
}
330
47
100
AcDbScale
 70
     0
300
2:1
140
2.0
141
1.0
290
     0
  0
SCALE
  5
55
102
{ACAD_REACTORS
330
47
102
}
330
47
100
AcDbScale
 70
     0
300
4:1
140
4.0
141
1.0
290
     0
  0
SCALE
  5
56
102
{ACAD_REACTORS
330
47
102
}
330
47
100
AcDbScale
 70
     0
300
8:1
140
8.0
141
1.0
290
     0
  0
SCALE
  5
57
102
{ACAD_REACTORS
330
47
102
}
330
47
100
AcDbScale
 70
     0
300
10:1
140
10.0
141
1.0
290
     0
  0
SCALE
  5
58
102
{ACAD_REACTORS
330
47
102
}
330
47
100
AcDbScale
 70
     0
300
100:1
140
100.0
141
1.0
290
     0
  0
SCALE
  5
59
102
{ACAD_REACTORS
330
47
102
}
330
47
100
AcDbScale
 70
     0
300
1/128" = 1'-0"
140
0.0078125
141
12.0
290
     0
  0
SCALE
  5
5A
102
{ACAD_REACTORS
330
47
102
}
330
47
100
AcDbScale
 70
     0
300
1/64" = 1'-0"
140
0.015625
141
12.0
290
     0
  0
SCALE
  5
5B
102
{ACAD_REACTORS
330
47
102
}
330
47
100
AcDbScale
 70
     0
300
1/32" = 1'-0"
140
0.03125
141
12.0
290
     0
  0
SCALE
  5
5C
102
{ACAD_REACTORS
330
47
102
}
330
47
100
AcDbScale
 70
     0
300
1/16" = 1'-0"
140
0.0625
141
12.0
290
     0
  0
SCALE
  5
5D
102
{ACAD_REACTORS
330
47
102
}
330
47
100
AcDbScale
 70
     0
300
3/32" = 1'-0"
140
0.09375
141
12.0
290
     0
  0
SCALE
  5
5E
102
{ACAD_REACTORS
330
47
102
}
330
47
100
AcDbScale
 70
     0
300
1/8" = 1'-0"
140
0.125
141
12.0
290
     0
  0
SCALE
  5
5F
102
{ACAD_REACTORS
330
47
102
}
330
47
100
AcDbScale
 70
     0
300
3/16" = 1'-0"
140
0.1875
141
12.0
290
     0
  0
SCALE
  5
60
102
{ACAD_REACTORS
330
47
102
}
330
47
100
AcDbScale
 70
     0
300
1/4" = 1'-0"
140
0.25
141
12.0
290
     0
  0
SCALE
  5
61
102
{ACAD_REACTORS
330
47
102
}
330
47
100
AcDbScale
 70
     0
300
3/8" = 1'-0"
140
0.375
141
12.0
290
     0
  0
SCALE
  5
62
102
{ACAD_REACTORS
330
47
102
}
330
47
100
AcDbScale
 70
     0
300
1/2" = 1'-0"
140
0.5
141
12.0
290
     0
  0
SCALE
  5
63
102
{ACAD_REACTORS
330
47
102
}
330
47
100
AcDbScale
 70
     0
300
3/4" = 1'-0"
140
0.75
141
12.0
290
     0
  0
SCALE
  5
64
102
{ACAD_REACTORS
330
47
102
}
330
47
100
AcDbScale
 70
     0
300
1" = 1'-0"
140
1.0
141
12.0
290
     0
  0
SCALE
  5
65
102
{ACAD_REACTORS
330
47
102
}
330
47
100
AcDbScale
 70
     0
300
1-1/2" = 1'-0"
140
1.5
141
12.0
290
     0
  0
SCALE
  5
66
102
{ACAD_REACTORS
330
47
102
}
330
47
100
AcDbScale
 70
     0
300
3" = 1'-0"
140
3.0
141
12.0
290
     0
  0
SCALE
  5
67
102
{ACAD_REACTORS
330
47
102
}
330
47
100
AcDbScale
 70
     0
300
6" = 1'-0"
140
6.0
141
12.0
290
     0
  0
SCALE
  5
68
102
{ACAD_REACTORS
330
47
102
}
330
47
100
AcDbScale
 70
     0
300
1'-0" = 1'-0"
140
12.0
141
12.0
290
     0
  0
TABLESTYLE
  5
6A
102
{ACAD_REACTORS
330
69
102
}
102
{ACAD_XDICTIONARY
360
276
102
}
330
69
100
AcDbTableStyle
  3
Standard
 70
     0
 71
     0
 40
0.06
 41
0.06
280
     0
281
     0
  7
Standard
140
0.18
170
     2
 62
     0
 63
   257
283
     0
 90
        4
 91
        0
  1

274
    -2
284
     1
 64
     0
275
    -2
285
     1
 65
     0
276
    -2
286
     1
 66
     0
277
    -2
287
     1
 67
     0
278
    -2
288
     1
 68
     0
279
    -2
289
     1
 69
     0
  7
Standard
140
0.25
170
     5
 62
     0
 63
   257
283
     0
 90
        4
 91
        0
  1

274
    -2
284
     1
 64
     0
275
    -2
285
     1
 65
     0
276
    -2
286
     1
 66
     0
277
    -2
287
     1
 67
     0
278
    -2
288
     1
 68
     0
279
    -2
289
     1
 69
     0
  7
Standard
140
0.18
170
     5
 62
     0
 63
   257
283
     0
 90
        4
 91
        0
  1

274
    -2
284
     1
 64
     0
275
    -2
285
     1
 65
     0
276
    -2
286
     1
 66
     0
277
    -2
287
     1
 67
     0
278
    -2
288
     1
 68
     0
279
    -2
289
     1
 69
     0
  0
VISUALSTYLE
  5
2F
102
{ACAD_REACTORS
330
2A
102
}
330
2A
100
AcDbVisualStyle
  2
2dWireframe
 70
     4
177
     3
291
     0
 70
    58
 90
        0
176
     1
 90
        2
176
     1
 90
        0
176
     1
 90
        0
176
     1
 40
0.6
176
     1
 40
30.0
176
     1
 62
     7
420
 16777215
176
     1
 90
        1
176
     1
 90
        4
176
     1
 62
     7
176
     1
 62
   257
176
     1
 90
        1
176
     1
 90
        1
176
     1
 40
1.0
176
     1
 90
        0
176
     1
 62
   257
176
     1
 40
1.0
176
     1
 90
        1
176
     1
 90
        6
176
     1
 90
        2
176
     1
 62
     7
176
     1
 90
        5
176
     1
 90
        0
176
     1
 90
        0
176
     1
290
     0
176
     1
 90
        1
176
     1
 40
0.0
176
     1
 90
        0
176
     1
290
     1
176
     1
290
     1
176
     1
290
     0
176
     1
290
     0
176
     1
290
     0
176
     1
290
     0
176
     1
290
     0
176
     1
290
     0
176
     1
290
     0
176
     1
 90
       50
176
     1
 40
0.0
176
     1
 40
1.0
176
     1
 90
        0
176
     1
 62
    18
420
        0
176
     1
 90
       50
176
     1
 90
        3
176
     1
 62
     5
420
      255
176
     1
290
     0
176
     1
 90
       50
176
     1
 90
       50
176
     1
 90
       50
176
     1
290
     0
176
     1
 90
       50
176
     1
 62
   256
176
     0
 40
1.0
176
     0
 90
        2
176
     1
  1
strokes_ogs.tif
176
     1
290
     0
176
     1
 40
1.0
176
     1
 40
1.0
176
     1
  0
VISUALSTYLE
  5
32
102
{ACAD_REACTORS
330
2A
102
}
330
2A
100
AcDbVisualStyle
  2
Basic
 70
     7
177
     3
291
     1
 70
    58
 90
        1
176
     1
 90
        0
176
     1
 90
        1
176
     1
 90
        0
176
     1
 40
0.6
176
     1
 40
30.0
176
     1
 62
     7
420
 16777215
176
     1
 90
        0
176
     1
 90
        4
176
     1
 62
     7
176
     1
 62
   257
176
     1
 90
        1
176
     1
 90
        1
176
     1
 40
1.0
176
     1
 90
        8
176
     1
 62
     7
176
     1
 40
1.0
176
     1
 90
        1
176
     1
 90
        6
176
     1
 90
        2
176
     1
 62
     7
176
     1
 90
        5
176
     1
 90
        0
176
     1
 90
        0
176
     1
290
     0
176
     1
 90
        1
176
     1
 40
0.0
176
     1
 90
        0
176
     1
290
     0
176
     1
290
     1
176
     1
290
     1
176
     1
290
     0
176
     1
290
     0
176
     1
290
     0
176
     1
290
     0
176
     1
290
     0
176
     1
290
     0
176
     1
 90
       50
176
     1
 40
0.0
176
     1
 40
1.0
176
     1
 90
        0
176
     1
 62
    18
420
        0
176
     1
 90
       50
176
     1
 90
        3
176
     1
 62
     5
420
      255
176
     1
290
     0
176
     1
 90
       50
176
     1
 90
       50
176
     1
 90
       50
176
     1
290
     0
176
     1
 90
       50
176
     1
 62
   256
176
     0
 40
1.0
176
     0
 90
        2
176
     1
  1
strokes_ogs.tif
176
     1
290
     0
176
     1
 40
1.0
176
     1
 40
1.0
176
     1
  0
VISUALSTYLE
  5
36
102
{ACAD_REACTORS
330
2A
102
}
330
2A
100
AcDbVisualStyle
  2
Brighten
 70
    12
177
     3
291
     1
 70
    58
 90
        2
176
     1
 90
        2
176
     1
 90
        0
176
     1
 90
        0
176
     1
 40
0.6
176
     1
 40
30.0
176
     1
 62
     7
420
 16777215
176
     1
 90
        1
176
     1
 90
        4
176
     1
 62
     7
176
     1
 62
   257
176
     1
 90
        1
176
     1
 90
        1
176
     1
 40
1.0
176
     1
 90
        8
176
     1
 62
     7
176
     1
 40
1.0
176
     1
 90
        1
176
     1
 90
        6
176
     1
 90
        2
176
     1
 62
     7
176
     1
 90
        5
176
     1
 90
        0
176
     1
 90
        0
176
     1
290
     0
176
     1
 90
        1
176
     1
 40
50.0
176
     1
 90
        0
176
     1
290
     0
176
     1
290
     1
176
     1
290
     1
176
     1
290
     0
176
     1
290
     0
176
     1
290
     0
176
     1
290
     0
176
     1
290
     0
176
     1
290
     0
176
     1
 90
       50
176
     1
 40
0.0
176
     1
 40
1.0
176
     1
 90
        0
176
     1
 62
    18
420
        0
176
     1
 90
       50
176
     1
 90
        3
176
     1
 62
     5
420
      255
176
     1
290
     0
176
     1
 90
       50
176
     1
 90
       50
176
     1
 90
       50
176
     1
290
     0
176
     1
 90
       50
176
     1
 62
   256
176
     0
 40
1.0
176
     0
 90
        2
176
     1
  1
strokes_ogs.tif
176
     1
290
     0
176
     1
 40
1.0
176
     1
 40
1.0
176
     1
  0
VISUALSTYLE
  5
3A
102
{ACAD_REACTORS
330
2A
102
}
330
2A
100
AcDbVisualStyle
  2
ColorChange
 70
    16
177
     3
291
     1
 70
    58
 90
        2
176
     1
 90
        2
176
     1
 90
        3
176
     1
 90
        0
176
     1
 40
0.6
176
     1
 40
30.0
176
     1
 62
     8
420
  8421504
176
     1
 90
        1
176
     1
 90
        4
176
     1
 62
     7
176
     1
 62
   257
176
     1
 90
        1
176
     1
 90
        1
176
     1
 40
1.0
176
     1
 90
        8
176
     1
 62
     8
420
  8421504
176
     1
 40
1.0
176
     1
 90
        1
176
     1
 90
        6
176
     1
 90
        2
176
     1
 62
     7
176
     1
 90
        5
176
     1
 90
        0
176
     1
 90
        0
176
     1
290
     0
176
     1
 90
        1
176
     1
 40
0.0
176
     1
 90
        0
176
     1
290
     0
176
     1
290
     1
176
     1
290
     1
176
     1
290
     0
176
     1
290
     0
176
     1
290
     0
176
     1
290
     0
176
     1
290
     0
176
     1
290
     0
176
     1
 90
       50
176
     1
 40
0.0
176
     1
 40
1.0
176
     1
 90
        0
176
     1
 62
    18
420
        0
176
     1
 90
       50
176
     1
 90
        3
176
     1
 62
     5
420
      255
176
     1
290
     0
176
     1
 90
       50
176
     1
 90
       50
176
     1
 90
       50
176
     1
290
     0
176
     1
 90
       50
176
     1
 62
   256
176
     0
 40
1.0
176
     0
 90
        2
176
     1
  1
strokes_ogs.tif
176
     1
290
     0
176
     1
 40
1.0
176
     1
 40
1.0
176
     1
  0
VISUALSTYLE
  5
34
102
{ACAD_REACTORS
330
2A
102
}
330
2A
100
AcDbVisualStyle
  2
Conceptual
 70
     9
177
     3
291
     0
 70
    58
 90
        3
176
     1
 90
        2
176
     1
 90
        0
176
     1
 90
        0
176
     1
 40
0.6
176
     1
 40
30.0
176
     1
 62
     7
420
 16777215
176
     1
 90
        2
176
     1
 90
        2
176
     1
 62
     7
176
     1
 62
   257
176
     1
 90
        1
176
     1
 90
        1
176
     1
 40
179.0
176
     1
 90
        8
176
     1
 62
     7
176
     1
 40
1.0
176
     1
 90
        1
176
     1
 90
        6
176
     1
 90
        2
176
     1
 62
     7
176
     1
 90
        3
176
     1
 90
        0
176
     1
 90
        0
176
     1
290
     0
176
     1
 90
        1
176
     1
 40
0.0
176
     1
 90
        0
176
     1
290
     0
176
     1
290
     1
176
     1
290
     1
176
     1
290
     0
176
     1
290
     0
176
     1
290
     0
176
     1
290
     0
176
     1
290
     0
176
     1
290
     0
176
     1
 90
       50
176
     1
 40
0.0
176
     1
 40
1.0
176
     1
 90
        0
176
     1
 62
    18
420
        0
176
     1
 90
       50
176
     1
 90
        3
176
     1
 62
     5
420
      255
176
     1
290
     0
176
     1
 90
       50
176
     1
 90
       50
176
     1
 90
       50
176
     1
290
     0
176
     1
 90
       50
176
     1
 62
   256
176
     0
 40
1.0
176
     0
 90
        2
176
     1
  1
strokes_ogs.tif
176
     1
290
     0
176
     1
 40
1.0
176
     1
 40
1.0
176
     1
  0
VISUALSTYLE
  5
35
102
{ACAD_REACTORS
330
2A
102
}
330
2A
100
AcDbVisualStyle
  2
Dim
 70
    11
177
     3
291
     1
 70
    58
 90
        2
176
     1
 90
        2
176
     1
 90
        0
176
     1
 90
        0
176
     1
 40
0.6
176
     1
 40
30.0
176
     1
 62
     7
420
 16777215
176
     1
 90
        1
176
     1
 90
        4
176
     1
 62
     7
176
     1
 62
   257
176
     1
 90
        1
176
     1
 90
        1
176
     1
 40
1.0
176
     1
 90
        8
176
     1
 62
     7
176
     1
 40
1.0
176
     1
 90
        1
176
     1
 90
        6
176
     1
 90
        2
176
     1
 62
     7
176
     1
 90
        5
176
     1
 90
        0
176
     1
 90
        0
176
     1
290
     0
176
     1
 90
        1
176
     1
 40
-50.0
176
     1
 90
        0
176
     1
290
     0
176
     1
290
     1
176
     1
290
     1
176
     1
290
     0
176
     1
290
     0
176
     1
290
     0
176
     1
290
     0
176
     1
290
     0
176
     1
290
     0
176
     1
 90
       50
176
     1
 40
0.0
176
     1
 40
1.0
176
     1
 90
        0
176
     1
 62
    18
420
        0
176
     1
 90
       50
176
     1
 90
        3
176
     1
 62
     5
420
      255
176
     1
290
     0
176
     1
 90
       50
176
     1
 90
       50
176
     1
 90
       50
176
     1
290
     0
176
     1
 90
       50
176
     1
 62
   256
176
     0
 40
1.0
176
     0
 90
        2
176
     1
  1
strokes_ogs.tif
176
     1
290
     0
176
     1
 40
1.0
176
     1
 40
1.0
176
     1
  0
VISUALSTYLE
  5
3D
102
{ACAD_REACTORS
330
2A
102
}
330
2A
100
AcDbVisualStyle
  2
EdgeColorOff
 70
    22
177
     3
291
     1
 70
    58
 90
        2
176
     0
 90
        2
176
     0
 90
        0
176
     0
 90
        0
176
     0
 40
0.6
176
     0
 40
30.0
176
     0
 62
     7
420
 16777215
176
     0
 90
        1
176
     0
 90
        4
176
     0
 62
     7
176
     0
 62
   257
176
     0
 90
        1
176
     0
 90
        1
176
     0
 40
1.0
176
     0
 90
        8
176
     2
 62
     7
176
     0
 40
1.0
176
     0
 90
        1
176
     0
 90
        6
176
     0
 90
        2
176
     0
 62
     7
176
     0
 90
        5
176
     0
 90
        0
176
     0
 90
        0
176
     0
290
     0
176
     0
 90
        1
176
     0
 40
0.0
176
     0
 90
        0
176
     0
290
     0
176
     0
290
     1
176
     0
290
     1
176
     0
290
     0
176
     0
290
     0
176
     0
290
     0
176
     0
290
     0
176
     0
290
     0
176
     0
290
     0
176
     0
 90
       50
176
     0
 40
0.0
176
     0
 40
1.0
176
     0
 90
        0
176
     0
 62
    18
420
        0
176
     0
 90
       50
176
     0
 90
        3
176
     0
 62
     5
420
      255
176
     0
290
     0
176
     0
 90
       50
176
     0
 90
       50
176
     0
 90
       50
176
     0
290
     0
176
     0
 90
       50
176
     0
 62
   256
176
     0
 40
1.0
176
     0
 90
        2
176
     0
  1
strokes_ogs.tif
176
     0
290
     0
176
     0
 40
1.0
176
     0
 40
1.0
176
     0
  0
VISUALSTYLE
  5
39
102
{ACAD_REACTORS
330
2A
102
}
330
2A
100
AcDbVisualStyle
  2
Facepattern
 70
    15
177
     3
291
     1
 70
    58
 90
        2
176
     1
 90
        2
176
     1
 90
        0
176
     1
 90
        0
176
     1
 40
0.6
176
     1
 40
30.0
176
     1
 62
     7
420
 16777215
176
     1
 90
        1
176
     1
 90
        4
176
     1
 62
     7
176
     1
 62
   257
176
     1
 90
        1
176
     1
 90
        1
176
     1
 40
1.0
176
     1
 90
        8
176
     1
 62
     7
176
     1
 40
1.0
176
     1
 90
        1
176
     1
 90
        6
176
     1
 90
        2
176
     1
 62
     7
176
     1
 90
        5
176
     1
 90
        0
176
     1
 90
        0
176
     1
290
     0
176
     1
 90
        1
176
     1
 40
0.0
176
     1
 90
        0
176
     1
290
     0
176
     1
290
     1
176
     1
290
     1
176
     1
290
     0
176
     1
290
     0
176
     1
290
     0
176
     1
290
     0
176
     1
290
     0
176
     1
290
     0
176
     1
 90
       50
176
     1
 40
0.0
176
     1
 40
1.0
176
     1
 90
        0
176
     1
 62
    18
420
        0
176
     1
 90
       50
176
     1
 90
        3
176
     1
 62
     5
420
      255
176
     1
290
     0
176
     1
 90
       50
176
     1
 90
       50
176
     1
 90
       50
176
     1
290
     0
176
     1
 90
       50
176
     1
 62
   256
176
     0
 40
1.0
176
     0
 90
        2
176
     1
  1
strokes_ogs.tif
176
     1
290
     0
176
     1
 40
1.0
176
     1
 40
1.0
176
     1
  0
VISUALSTYLE
  5
2B
102
{ACAD_REACTORS
330
2A
102
}
330
2A
100
AcDbVisualStyle
  2
Flat
 70
     0
177
     3
291
     1
 70
    58
 90
        2
176
     1
 90
        1
176
     1
 90
        1
176
     1
 90
        2
176
     1
 40
0.6
176
     1
 40
30.0
176
     1
 62
     7
420
 16777215
176
     1
 90
        0
176
     1
 90
        0
176
     1
 62
     7
176
     1
 62
   257
176
     1
 90
        1
176
     1
 90
        1
176
     1
 40
1.0
176
     1
 90
        8
176
     1
 62
     7
176
     1
 40
1.0
176
     1
 90
        1
176
     1
 90
        6
176
     1
 90
        2
176
     1
 62
     7
176
     1
 90
        5
176
     1
 90
        0
176
     1
 90
        0
176
     1
290
     0
176
     1
 90
       13
176
     1
 40
0.0
176
     1
 90
        0
176
     1
290
     0
176
     1
290
     1
176
     1
290
     1
176
     1
290
     0
176
     1
290
     0
176
     1
290
     0
176
     1
290
     0
176
     1
290
     0
176
     1
290
     0
176
     1
 90
       50
176
     1
 40
0.0
176
     1
 40
1.0
176
     1
 90
        0
176
     1
 62
    18
420
        0
176
     1
 90
       50
176
     1
 90
        3
176
     1
 62
     5
420
      255
176
     1
290
     0
176
     1
 90
       50
176
     1
 90
       50
176
     1
 90
       50
176
     1
290
     0
176
     1
 90
       50
176
     1
 62
   256
176
     0
 40
1.0
176
     0
 90
        2
176
     1
  1
strokes_ogs.tif
176
     1
290
     0
176
     1
 40
1.0
176
     1
 40
1.0
176
     1
  0
VISUALSTYLE
  5
2C
102
{ACAD_REACTORS
330
2A
102
}
330
2A
100
AcDbVisualStyle
  2
FlatWithEdges
 70
     1
177
     3
291
     1
 70
    58
 90
        2
176
     1
 90
        1
176
     1
 90
        1
176
     1
 90
        2
176
     1
 40
0.6
176
     1
 40
30.0
176
     1
 62
     7
420
 16777215
176
     1
 90
        1
176
     1
 90
        0
176
     1
 62
     7
176
     1
 62
   257
176
     1
 90
        1
176
     1
 90
        1
176
     1
 40
1.0
176
     1
 90
        0
176
     1
 62
   257
176
     1
 40
1.0
176
     1
 90
        1
176
     1
 90
        6
176
     1
 90
        2
176
     1
 62
     7
176
     1
 90
        5
176
     1
 90
        0
176
     1
 90
        0
176
     1
290
     0
176
     1
 90
       13
176
     1
 40
0.0
176
     1
 90
        0
176
     1
290
     0
176
     1
290
     1
176
     1
290
     1
176
     1
290
     0
176
     1
290
     0
176
     1
290
     0
176
     1
290
     0
176
     1
290
     0
176
     1
290
     0
176
     1
 90
       50
176
     1
 40
0.0
176
     1
 40
1.0
176
     1
 90
        0
176
     1
 62
    18
420
        0
176
     1
 90
       50
176
     1
 90
        3
176
     1
 62
     5
420
      255
176
     1
290
     0
176
     1
 90
       50
176
     1
 90
       50
176
     1
 90
       50
176
     1
290
     0
176
     1
 90
       50
176
     1
 62
   256
176
     0
 40
1.0
176
     0
 90
        2
176
     1
  1
strokes_ogs.tif
176
     1
290
     0
176
     1
 40
1.0
176
     1
 40
1.0
176
     1
  0
VISUALSTYLE
  5
2D
102
{ACAD_REACTORS
330
2A
102
}
330
2A
100
AcDbVisualStyle
  2
Gouraud
 70
     2
177
     3
291
     1
 70
    58
 90
        2
176
     1
 90
        2
176
     1
 90
        1
176
     1
 90
        2
176
     1
 40
0.6
176
     1
 40
30.0
176
     1
 62
     7
420
 16777215
176
     1
 90
        0
176
     1
 90
        0
176
     1
 62
     7
176
     1
 62
   257
176
     1
 90
        1
176
     1
 90
        1
176
     1
 40
1.0
176
     1
 90
        0
176
     1
 62
     7
176
     1
 40
1.0
176
     1
 90
        1
176
     1
 90
        6
176
     1
 90
        2
176
     1
 62
     7
176
     1
 90
        5
176
     1
 90
        0
176
     1
 90
        0
176
     1
290
     0
176
     1
 90
       13
176
     1
 40
0.0
176
     1
 90
        0
176
     1
290
     0
176
     1
290
     1
176
     1
290
     1
176
     1
290
     0
176
     1
290
     0
176
     1
290
     0
176
     1
290
     0
176
     1
290
     0
176
     1
290
     0
176
     1
 90
       50
176
     1
 40
0.0
176
     1
 40
1.0
176
     1
 90
        0
176
     1
 62
    18
420
        0
176
     1
 90
       50
176
     1
 90
        3
176
     1
 62
     5
420
      255
176
     1
290
     0
176
     1
 90
       50
176
     1
 90
       50
176
     1
 90
       50
176
     1
290
     0
176
     1
 90
       50
176
     1
 62
   256
176
     0
 40
1.0
176
     0
 90
        2
176
     1
  1
strokes_ogs.tif
176
     1
290
     0
176
     1
 40
1.0
176
     1
 40
1.0
176
     1
  0
VISUALSTYLE
  5
2E
102
{ACAD_REACTORS
330
2A
102
}
330
2A
100
AcDbVisualStyle
  2
GouraudWithEdges
 70
     3
177
     3
291
     1
 70
    58
 90
        2
176
     1
 90
        2
176
     1
 90
        1
176
     1
 90
        2
176
     1
 40
0.6
176
     1
 40
30.0
176
     1
 62
     7
420
 16777215
176
     1
 90
        1
176
     1
 90
        0
176
     1
 62
     7
176
     1
 62
   257
176
     1
 90
        1
176
     1
 90
        1
176
     1
 40
1.0
176
     1
 90
        0
176
     1
 62
   257
176
     1
 40
1.0
176
     1
 90
        1
176
     1
 90
        6
176
     1
 90
        2
176
     1
 62
     7
176
     1
 90
        5
176
     1
 90
        0
176
     1
 90
        0
176
     1
290
     0
176
     1
 90
       13
176
     1
 40
0.0
176
     1
 90
        0
176
     1
290
     0
176
     1
290
     1
176
     1
290
     1
176
     1
290
     0
176
     1
290
     0
176
     1
290
     0
176
     1
290
     0
176
     1
290
     0
176
     1
290
     0
176
     1
 90
       50
176
     1
 40
0.0
176
     1
 40
1.0
176
     1
 90
        0
176
     1
 62
    18
420
        0
176
     1
 90
       50
176
     1
 90
        3
176
     1
 62
     5
420
      255
176
     1
290
     0
176
     1
 90
       50
176
     1
 90
       50
176
     1
 90
       50
176
     1
290
     0
176
     1
 90
       50
176
     1
 62
   256
176
     0
 40
1.0
176
     0
 90
        2
176
     1
  1
strokes_ogs.tif
176
     1
290
     0
176
     1
 40
1.0
176
     1
 40
1.0
176
     1
  0
VISUALSTYLE
  5
31
102
{ACAD_REACTORS
330
2A
102
}
330
2A
100
AcDbVisualStyle
  2
Hidden
 70
     6
177
     3
291
     0
 70
    58
 90
        1
176
     1
 90
        2
176
     1
 90
        2
176
     1
 90
        0
176
     1
 40
0.6
176
     1
 40
30.0
176
     1
 62
     7
420
 16777215
176
     1
 90
        2
176
     1
 90
        2
176
     1
 62
     7
176
     1
 62
   257
176
     1
 90
        2
176
     1
 90
        1
176
     1
 40
40.0
176
     1
 90
        0
176
     1
 62
   257
176
     1
 40
1.0
176
     1
 90
        1
176
     1
 90
        6
176
     1
 90
        2
176
     1
 62
     7
176
     1
 90
        3
176
     1
 90
        0
176
     1
 90
        0
176
     1
290
     0
176
     1
 90
        1
176
     1
 40
0.0
176
     1
 90
        0
176
     1
290
     0
176
     1
290
     1
176
     1
290
     1
176
     1
290
     0
176
     1
290
     0
176
     1
290
     0
176
     1
290
     0
176
     1
290
     0
176
     1
290
     0
176
     1
 90
       50
176
     1
 40
0.0
176
     1
 40
1.0
176
     1
 90
        0
176
     1
 62
    18
420
        0
176
     1
 90
       50
176
     1
 90
        3
176
     1
 62
     5
420
      255
176
     1
290
     0
176
     1
 90
       50
176
     1
 90
       50
176
     1
 90
       50
176
     1
290
     0
176
     1
 90
       50
176
     1
 62
   256
176
     0
 40
1.0
176
     0
 90
        2
176
     1
  1
strokes_ogs.tif
176
     1
290
     0
176
     1
 40
1.0
176
     1
 40
1.0
176
     1
  0
VISUALSTYLE
  5
3B
102
{ACAD_REACTORS
330
2A
102
}
330
2A
100
AcDbVisualStyle
  2
JitterOff
 70
    20
177
     3
291
     1
 70
    58
 90
        2
176
     0
 90
        2
176
     0
 90
        0
176
     0
 90
        0
176
     0
 40
0.6
176
     0
 40
30.0
176
     0
 62
     7
420
 16777215
176
     0
 90
        1
176
     0
 90
        4
176
     0
 62
     7
176
     0
 62
   257
176
     0
 90
        1
176
     0
 90
        1
176
     0
 40
1.0
176
     0
 90
       10
176
     2
 62
     7
176
     0
 40
1.0
176
     0
 90
        1
176
     0
 90
        6
176
     0
 90
        2
176
     0
 62
     7
176
     0
 90
        5
176
     0
 90
        0
176
     0
 90
        0
176
     0
290
     0
176
     0
 90
        1
176
     0
 40
0.0
176
     0
 90
        0
176
     0
290
     0
176
     0
290
     1
176
     0
290
     1
176
     0
290
     0
176
     0
290
     0
176
     0
290
     0
176
     0
290
     0
176
     0
290
     0
176
     0
290
     0
176
     0
 90
       50
176
     0
 40
0.0
176
     0
 40
1.0
176
     0
 90
        0
176
     0
 62
    18
420
        0
176
     0
 90
       50
176
     0
 90
        3
176
     0
 62
     5
420
      255
176
     0
290
     0
176
     0
 90
       50
176
     0
 90
       50
176
     0
 90
       50
176
     0
290
     0
176
     0
 90
       50
176
     0
 62
   256
176
     0
 40
1.0
176
     0
 90
        2
176
     0
  1
strokes_ogs.tif
176
     0
290
     0
176
     0
 40
1.0
176
     0
 40
1.0
176
     0
  0
VISUALSTYLE
  5
38
102
{ACAD_REACTORS
330
2A
102
}
330
2A
100
AcDbVisualStyle
  2
Linepattern
 70
    14
177
     3
291
     1
 70
    58
 90
        2
176
     1
 90
        2
176
     1
 90
        0
176
     1
 90
        0
176
     1
 40
0.6
176
     1
 40
30.0
176
     1
 62
     7
420
 16777215
176
     1
 90
        1
176
     1
 90
        4
176
     1
 62
     7
176
     1
 62
   257
176
     1
 90
        7
176
     1
 90
        7
176
     1
 40
1.0
176
     1
 90
        8
176
     1
 62
     7
176
     1
 40
1.0
176
     1
 90
        1
176
     1
 90
        6
176
     1
 90
        2
176
     1
 62
     7
176
     1
 90
        5
176
     1
 90
        0
176
     1
 90
        0
176
     1
290
     0
176
     1
 90
        1
176
     1
 40
0.0
176
     1
 90
        0
176
     1
290
     0
176
     1
290
     1
176
     1
290
     1
176
     1
290
     0
176
     1
290
     0
176
     1
290
     0
176
     1
290
     0
176
     1
290
     0
176
     1
290
     0
176
     1
 90
       50
176
     1
 40
0.0
176
     1
 40
1.0
176
     1
 90
        0
176
     1
 62
    18
420
        0
176
     1
 90
       50
176
     1
 90
        3
176
     1
 62
     5
420
      255
176
     1
290
     0
176
     1
 90
       50
176
     1
 90
       50
176
     1
 90
       50
176
     1
290
     0
176
     1
 90
       50
176
     1
 62
   256
176
     0
 40
1.0
176
     0
 90
        2
176
     1
  1
strokes_ogs.tif
176
     1
290
     0
176
     1
 40
1.0
176
     1
 40
1.0
176
     1
  0
VISUALSTYLE
  5
3C
102
{ACAD_REACTORS
330
2A
102
}
330
2A
100
AcDbVisualStyle
  2
OverhangOff
 70
    21
177
     3
291
     1
 70
    58
 90
        2
176
     0
 90
        2
176
     0
 90
        0
176
     0
 90
        0
176
     0
 40
0.6
176
     0
 40
30.0
176
     0
 62
     7
420
 16777215
176
     0
 90
        1
176
     0
 90
        4
176
     0
 62
     7
176
     0
 62
   257
176
     0
 90
        1
176
     0
 90
        1
176
     0
 40
1.0
176
     0
 90
        9
176
     2
 62
     7
176
     0
 40
1.0
176
     0
 90
        1
176
     0
 90
        6
176
     0
 90
        2
176
     0
 62
     7
176
     0
 90
        5
176
     0
 90
        0
176
     0
 90
        0
176
     0
290
     0
176
     0
 90
        1
176
     0
 40
0.0
176
     0
 90
        0
176
     0
290
     0
176
     0
290
     1
176
     0
290
     1
176
     0
290
     0
176
     0
290
     0
176
     0
290
     0
176
     0
290
     0
176
     0
290
     0
176
     0
290
     0
176
     0
 90
       50
176
     0
 40
0.0
176
     0
 40
1.0
176
     0
 90
        0
176
     0
 62
    18
420
        0
176
     0
 90
       50
176
     0
 90
        3
176
     0
 62
     5
420
      255
176
     0
290
     0
176
     0
 90
       50
176
     0
 90
       50
176
     0
 90
       50
176
     0
290
     0
176
     0
 90
       50
176
     0
 62
   256
176
     0
 40
1.0
176
     0
 90
        2
176
     0
  1
strokes_ogs.tif
176
     0
290
     0
176
     0
 40
1.0
176
     0
 40
1.0
176
     0
  0
VISUALSTYLE
  5
33
102
{ACAD_REACTORS
330
2A
102
}
330
2A
100
AcDbVisualStyle
  2
Realistic
 70
     8
177
     3
291
     0
 70
    58
 90
        2
176
     1
 90
        3
176
     1
 90
        0
176
     1
 90
        2
176
     1
 40
0.6
176
     1
 40
30.0
176
     1
 62
     7
420
 16777215
176
     1
 90
        0
176
     1
 90
        0
176
     1
 62
     7
176
     1
 62
   257
176
     1
 90
        1
176
     1
 90
        1
176
     1
 40
1.0
176
     1
 90
        8
176
     1
 62
   257
176
     1
 40
1.0
176
     1
 90
        1
176
     1
 90
        6
176
     1
 90
        2
176
     1
 62
     7
176
     1
 90
        3
176
     1
 90
        0
176
     1
 90
        0
176
     1
290
     0
176
     1
 90
       13
176
     1
 40
0.0
176
     1
 90
        0
176
     1
290
     0
176
     1
290
     1
176
     1
290
     1
176
     1
290
     0
176
     1
290
     0
176
     1
290
     0
176
     1
290
     0
176
     1
290
     0
176
     1
290
     0
176
     1
 90
       50
176
     1
 40
0.0
176
     1
 40
1.0
176
     1
 90
        0
176
     1
 62
    18
420
        0
176
     1
 90
       50
176
     1
 90
        3
176
     1
 62
     5
420
      255
176
     1
290
     0
176
     1
 90
       50
176
     1
 90
       50
176
     1
 90
       50
176
     1
290
     0
176
     1
 90
       50
176
     1
 62
   256
176
     0
 40
1.0
176
     0
 90
        2
176
     1
  1
strokes_ogs.tif
176
     1
290
     0
176
     1
 40
1.0
176
     1
 40
1.0
176
     1
  0
VISUALSTYLE
  5
42
102
{ACAD_REACTORS
330
2A
102
}
330
2A
100
AcDbVisualStyle
  2
Shaded
 70
    27
177
     3
291
     0
 70
    58
 90
        2
176
     1
 90
        2
176
     1
 90
        1
176
     1
 90
        2
176
     1
 40
0.6
176
     1
 40
30.0
176
     1
 62
     7
420
 16777215
176
     1
 90
        0
176
     1
 90
        4
176
     1
 62
     7
176
     1
 62
   257
176
     1
 90
        1
176
     1
 90
        1
176
     1
 40
1.0
176
     1
 90
        8
176
     1
 62
   257
176
     1
 40
1.0
176
     1
 90
        1
176
     1
 90
        6
176
     1
 90
        2
176
     1
 62
     8
420
  7895160
176
     1
 90
        3
176
     1
 90
        0
176
     1
 90
        0
176
     1
290
     0
176
     1
 90
        5
176
     1
 40
0.0
176
     1
 90
        0
176
     1
290
     0
176
     1
290
     1
176
     1
290
     1
176
     1
290
     0
176
     1
290
     0
176
     1
290
     0
176
     1
290
     0
176
     1
290
     0
176
     1
290
     0
176
     1
 90
       50
176
     1
 40
0.0
176
     1
 40
1.0
176
     1
 90
        0
176
     1
 62
    18
420
        0
176
     1
 90
       50
176
     1
 90
        3
176
     1
 62
     5
420
      255
176
     1
290
     0
176
     1
 90
       50
176
     1
 90
       50
176
     1
 90
       50
176
     1
290
     0
176
     1
 90
       50
176
     1
 62
   256
176
     0
 40
1.0
176
     0
 90
        2
176
     1
  1
strokes_ogs.tif
176
     1
290
     0
176
     1
 40
1.0
176
     1
 40
1.0
176
     1
  0
VISUALSTYLE
  5
41
102
{ACAD_REACTORS
330
2A
102
}
330
2A
100
AcDbVisualStyle
  2
Shaded with edges
 70
    26
177
     3
291
     0
 70
    58
 90
        2
176
     1
 90
        2
176
     1
 90
        1
176
     1
 90
        2
176
     1
 40
0.6
176
     1
 40
30.0
176
     1
 62
     7
420
 16777215
176
     1
 90
        1
176
     1
 90
       10
176
     1
 62
     7
176
     1
 62
   257
176
     1
 90
        2
176
     1
 90
        1
176
     1
 40
1.0
176
     1
 90
        8
176
     1
 62
   257
176
     1
 40
1.0
176
     1
 90
        1
176
     1
 90
        6
176
     1
 90
        2
176
     1
 62
     7
176
     1
 90
        3
176
     1
 90
        0
176
     1
 90
        0
176
     1
290
     0
176
     1
 90
        5
176
     1
 40
0.0
176
     1
 90
        0
176
     1
290
     0
176
     1
290
     1
176
     1
290
     1
176
     1
290
     0
176
     1
290
     0
176
     1
290
     0
176
     1
290
     0
176
     1
290
     0
176
     1
290
     0
176
     1
 90
       50
176
     1
 40
0.0
176
     1
 40
1.0
176
     1
 90
        0
176
     1
 62
    18
420
        0
176
     1
 90
       50
176
     1
 90
        3
176
     1
 62
     5
420
      255
176
     1
290
     0
176
     1
 90
       50
176
     1
 90
       50
176
     1
 90
       50
176
     1
290
     0
176
     1
 90
       50
176
     1
 62
   256
176
     0
 40
1.0
176
     0
 90
        2
176
     1
  1
strokes_ogs.tif
176
     1
290
     0
176
     1
 40
1.0
176
     1
 40
1.0
176
     1
  0
VISUALSTYLE
  5
3E
102
{ACAD_REACTORS
330
2A
102
}
330
2A
100
AcDbVisualStyle
  2
Shades of Gray
 70
    23
177
     3
291
     0
 70
    58
 90
        2
176
     1
 90
        2
176
     1
 90
        3
176
     1
 90
        0
176
     1
 40
0.6
176
     1
 40
30.0
176
     1
 62
     7
420
 16777215
176
     1
 90
        2
176
     1
 90
        2
176
     1
 62
     7
176
     1
 62
     7
176
     1
 90
        1
176
     1
 90
        1
176
     1
 40
40.0
176
     1
 90
        8
176
     1
 62
     7
176
     1
 40
1.0
176
     1
 90
        1
176
     1
 90
        6
176
     1
 90
        2
176
     1
 62
     7
176
     1
 90
        3
176
     1
 90
        0
176
     1
 90
        0
176
     1
290
     0
176
     1
 90
        1
176
     1
 40
0.0
176
     1
 90
        0
176
     1
290
     0
176
     1
290
     1
176
     1
290
     1
176
     1
290
     0
176
     1
290
     0
176
     1
290
     0
176
     1
290
     0
176
     1
290
     0
176
     1
290
     0
176
     1
 90
       50
176
     1
 40
0.0
176
     1
 40
1.0
176
     1
 90
        0
176
     1
 62
    18
420
        0
176
     1
 90
       50
176
     1
 90
        3
176
     1
 62
     5
420
      255
176
     1
290
     0
176
     1
 90
       50
176
     1
 90
       50
176
     1
 90
       50
176
     1
290
     0
176
     1
 90
       50
176
     1
 62
   256
176
     0
 40
1.0
176
     0
 90
        2
176
     1
  1
strokes_ogs.tif
176
     1
290
     0
176
     1
 40
1.0
176
     1
 40
1.0
176
     1
  0
VISUALSTYLE
  5
3F
102
{ACAD_REACTORS
330
2A
102
}
330
2A
100
AcDbVisualStyle
  2
Sketchy
 70
    24
177
     3
291
     0
 70
    58
 90
        1
176
     1
 90
        2
176
     1
 90
        2
176
     1
 90
        0
176
     1
 40
0.6
176
     1
 40
30.0
176
     1
 62
     7
420
 16777215
176
     1
 90
        2
176
     1
 90
        2
176
     1
 62
     7
176
     1
 62
     7
176
     1
 90
        1
176
     1
 90
        1
176
     1
 40
40.0
176
     1
 90
       11
176
     1
 62
     7
176
     1
 40
1.0
176
     1
 90
        1
176
     1
 90
        6
176
     1
 90
        2
176
     1
 62
     7
176
     1
 90
        6
176
     1
 90
        0
176
     1
 90
        0
176
     1
290
     0
176
     1
 90
        1
176
     1
 40
0.0
176
     1
 90
        0
176
     1
290
     0
176
     1
290
     1
176
     1
290
     1
176
     1
290
     0
176
     1
290
     0
176
     1
290
     0
176
     1
290
     0
176
     1
290
     0
176
     1
290
     0
176
     1
 90
       50
176
     1
 40
0.0
176
     1
 40
1.0
176
     1
 90
        0
176
     1
 62
    18
420
        0
176
     1
 90
       50
176
     1
 90
        3
176
     1
 62
     5
420
      255
176
     1
290
     0
176
     1
 90
       50
176
     1
 90
       50
176
     1
 90
       50
176
     1
290
     0
176
     1
 90
       50
176
     1
 62
   256
176
     0
 40
1.0
176
     0
 90
        2
176
     1
  1
strokes_ogs.tif
176
     1
290
     0
176
     1
 40
1.0
176
     1
 40
1.0
176
     1
  0
VISUALSTYLE
  5
37
102
{ACAD_REACTORS
330
2A
102
}
330
2A
100
AcDbVisualStyle
  2
Thicken
 70
    13
177
     3
291
     1
 70
    58
 90
        2
176
     1
 90
        2
176
     1
 90
        0
176
     1
 90
        0
176
     1
 40
0.6
176
     1
 40
30.0
176
     1
 62
     7
420
 16777215
176
     1
 90
        1
176
     1
 90
        4
176
     1
 62
     7
176
     1
 62
   257
176
     1
 90
        1
176
     1
 90
        1
176
     1
 40
1.0
176
     1
 90
       12
176
     1
 62
     7
176
     1
 40
1.0
176
     1
 90
        1
176
     1
 90
        6
176
     1
 90
        2
176
     1
 62
     7
176
     1
 90
        5
176
     1
 90
        0
176
     1
 90
        0
176
     1
290
     0
176
     1
 90
        1
176
     1
 40
0.0
176
     1
 90
        0
176
     1
290
     0
176
     1
290
     1
176
     1
290
     1
176
     1
290
     0
176
     1
290
     0
176
     1
290
     0
176
     1
290
     0
176
     1
290
     0
176
     1
290
     0
176
     1
 90
       50
176
     1
 40
0.0
176
     1
 40
1.0
176
     1
 90
        0
176
     1
 62
    18
420
        0
176
     1
 90
       50
176
     1
 90
        3
176
     1
 62
     5
420
      255
176
     1
290
     0
176
     1
 90
       50
176
     1
 90
       50
176
     1
 90
       50
176
     1
290
     0
176
     1
 90
       50
176
     1
 62
   256
176
     0
 40
1.0
176
     0
 90
        2
176
     1
  1
strokes_ogs.tif
176
     1
290
     0
176
     1
 40
1.0
176
     1
 40
1.0
176
     1
  0
VISUALSTYLE
  5
30
102
{ACAD_REACTORS
330
2A
102
}
330
2A
100
AcDbVisualStyle
  2
Wireframe
 70
     5
177
     3
291
     0
 70
    58
 90
        0
176
     1
 90
        2
176
     1
 90
        0
176
     1
 90
        0
176
     1
 40
0.6
176
     1
 40
30.0
176
     1
 62
     7
420
 16777215
176
     1
 90
        1
176
     1
 90
        4
176
     1
 62
     7
176
     1
 62
   257
176
     1
 90
        1
176
     1
 90
        1
176
     1
 40
1.0
176
     1
 90
        0
176
     1
 62
   257
176
     1
 40
1.0
176
     1
 90
        1
176
     1
 90
        6
176
     1
 90
        2
176
     1
 62
     7
176
     1
 90
        3
176
     1
 90
        0
176
     1
 90
        0
176
     1
290
     0
176
     1
 90
        1
176
     1
 40
0.0
176
     1
 90
        0
176
     1
290
     0
176
     1
290
     1
176
     1
290
     1
176
     1
290
     0
176
     1
290
     0
176
     1
290
     0
176
     1
290
     0
176
     1
290
     0
176
     1
290
     0
176
     1
 90
       50
176
     1
 40
0.0
176
     1
 40
1.0
176
     1
 90
        0
176
     1
 62
    18
420
        0
176
     1
 90
       50
176
     1
 90
        3
176
     1
 62
     5
420
      255
176
     1
290
     0
176
     1
 90
       50
176
     1
 90
       50
176
     1
 90
       50
176
     1
290
     0
176
     1
 90
       50
176
     1
 62
   256
176
     0
 40
1.0
176
     0
 90
        2
176
     1
  1
strokes_ogs.tif
176
     1
290
     0
176
     1
 40
1.0
176
     1
 40
1.0
176
     1
  0
VISUALSTYLE
  5
40
102
{ACAD_REACTORS
330
2A
102
}
330
2A
100
AcDbVisualStyle
  2
X-Ray
 70
    25
177
     3
291
     0
 70
    58
 90
        2
176
     1
 90
        2
176
     1
 90
        1
176
     1
 90
        1
176
     1
 40
0.5
176
     1
 40
30.0
176
     1
 62
     7
420
 16777215
176
     1
 90
        1
176
     1
 90
        0
176
     1
 62
     7
176
     1
 62
   257
176
     1
 90
        1
176
     1
 90
        1
176
     1
 40
1.0
176
     1
 90
        8
176
     1
 62
     7
176
     1
 40
1.0
176
     1
 90
        1
176
     1
 90
        6
176
     1
 90
        2
176
     1
 62
     7
176
     1
 90
        3
176
     1
 90
        0
176
     1
 90
        0
176
     1
290
     0
176
     1
 90
       13
176
     1
 40
0.0
176
     1
 90
        0
176
     1
290
     0
176
     1
290
     1
176
     1
290
     1
176
     1
290
     0
176
     1
290
     0
176
     1
290
     0
176
     1
290
     0
176
     1
290
     0
176
     1
290
     0
176
     1
 90
       50
176
     1
 40
0.0
176
     1
 40
1.0
176
     1
 90
        0
176
     1
 62
    18
420
        0
176
     1
 90
       50
176
     1
 90
        3
176
     1
 62
     5
420
      255
176
     1
290
     0
176
     1
 90
       50
176
     1
 90
       50
176
     1
 90
       50
176
     1
290
     0
176
     1
 90
       50
176
     1
 62
   256
176
     0
 40
1.0
176
     0
 90
        2
176
     1
  1
strokes_ogs.tif
176
     1
290
     0
176
     1
 40
1.0
176
     1
 40
1.0
176
     1
  0
DICTIONARYVAR
  5
275
102
{ACAD_REACTORS
330
274
102
}
330
274
100
DictionaryVariables
280
     0
  1
1:1
  0
DICTIONARYVAR
  5
27A
102
{ACAD_REACTORS
330
274
102
}
330
274
100
DictionaryVariables
280
     0
  1
Standard
  0
DICTIONARYVAR
  5
279
102
{ACAD_REACTORS
330
274
102
}
330
274
100
DictionaryVariables
280
     0
  1
Standard
  0
DICTIONARY
  5
276
330
6A
100
AcDbDictionary
280
     1
281
     1
  3
ACAD_ROUNDTRIP_2008_TABLESTYLE_CELLSTYLEMAP
360
277
  0
CELLSTYLEMAP
  5
277
102
{ACAD_REACTORS
330
276
102
}
330
276
100
AcDbCellStyleMap
 90
        3
300
CELLSTYLE
  1
TABLEFORMAT_BEGIN
 90
        5
170
     1
 91
        0
 92
    32768
 62
   257
 93
        1
300
CONTENTFORMAT
  1
CONTENTFORMAT_BEGIN
 90
        0
 91
        0
 92
        4
 93
        0
300

 40
0.0
140
1.0
 94
        5
 62
     0
340
11
144
0.25
309
CONTENTFORMAT_END
171
     1
301
MARGIN
  1
CELLMARGIN_BEGIN
 40
0.06
 40
0.06
 40
0.06
 40
0.06
 40
0.06
 40
0.06
309
CELLMARGIN_END
 94
        6
 95
        1
302
GRIDFORMAT
  1
GRIDFORMAT_BEGIN
 90
        0
 91
        1
 62
     0
 92
       -2
340
14
 93
        0
 40
0.045
309
GRIDFORMAT_END
 95
        2
302
GRIDFORMAT
  1
GRIDFORMAT_BEGIN
 90
        0
 91
        1
 62
     0
 92
       -2
340
14
 93
        0
 40
0.045
309
GRIDFORMAT_END
 95
        4
302
GRIDFORMAT
  1
GRIDFORMAT_BEGIN
 90
        0
 91
        1
 62
     0
 92
       -2
340
14
 93
        0
 40
0.045
309
GRIDFORMAT_END
 95
        8
302
GRIDFORMAT
  1
GRIDFORMAT_BEGIN
 90
        0
 91
        1
 62
     0
 92
       -2
340
14
 93
        0
 40
0.045
309
GRIDFORMAT_END
 95
       16
302
GRIDFORMAT
  1
GRIDFORMAT_BEGIN
 90
        0
 91
        1
 62
     0
 92
       -2
340
14
 93
        0
 40
0.045
309
GRIDFORMAT_END
 95
       32
302
GRIDFORMAT
  1
GRIDFORMAT_BEGIN
 90
        0
 91
        1
 62
     0
 92
       -2
340
14
 93
        0
 40
0.045
309
GRIDFORMAT_END
309
TABLEFORMAT_END
  1
CELLSTYLE_BEGIN
 90
        1
 91
        1
300
_TITLE
309
CELLSTYLE_END
300
CELLSTYLE
  1
TABLEFORMAT_BEGIN
 90
        5
170
     1
 91
        0
 92
        0
 62
   257
 93
        1
300
CONTENTFORMAT
  1
CONTENTFORMAT_BEGIN
 90
        0
 91
        0
 92
        4
 93
        0
300

 40
0.0
140
1.0
 94
        5
 62
     0
340
11
144
0.18
309
CONTENTFORMAT_END
171
     1
301
MARGIN
  1
CELLMARGIN_BEGIN
 40
0.06
 40
0.06
 40
0.06
 40
0.06
 40
0.06
 40
0.06
309
CELLMARGIN_END
 94
        6
 95
        1
302
GRIDFORMAT
  1
GRIDFORMAT_BEGIN
 90
        0
 91
        1
 62
     0
 92
       -2
340
14
 93
        0
 40
0.045
309
GRIDFORMAT_END
 95
        2
302
GRIDFORMAT
  1
GRIDFORMAT_BEGIN
 90
        0
 91
        1
 62
     0
 92
       -2
340
14
 93
        0
 40
0.045
309
GRIDFORMAT_END
 95
        4
302
GRIDFORMAT
  1
GRIDFORMAT_BEGIN
 90
        0
 91
        1
 62
     0
 92
       -2
340
14
 93
        0
 40
0.045
309
GRIDFORMAT_END
 95
        8
302
GRIDFORMAT
  1
GRIDFORMAT_BEGIN
 90
        0
 91
        1
 62
     0
 92
       -2
340
14
 93
        0
 40
0.045
309
GRIDFORMAT_END
 95
       16
302
GRIDFORMAT
  1
GRIDFORMAT_BEGIN
 90
        0
 91
        1
 62
     0
 92
       -2
340
14
 93
        0
 40
0.045
309
GRIDFORMAT_END
 95
       32
302
GRIDFORMAT
  1
GRIDFORMAT_BEGIN
 90
        0
 91
        1
 62
     0
 92
       -2
340
14
 93
        0
 40
0.045
309
GRIDFORMAT_END
309
TABLEFORMAT_END
  1
CELLSTYLE_BEGIN
 90
        2
 91
        1
300
_HEADER
309
CELLSTYLE_END
300
CELLSTYLE
  1
TABLEFORMAT_BEGIN
 90
        5
170
     1
 91
        0
 92
        0
 62
   257
 93
        1
300
CONTENTFORMAT
  1
CONTENTFORMAT_BEGIN
 90
        0
 91
        0
 92
        4
 93
        0
300

 40
0.0
140
1.0
 94
        2
 62
     0
340
11
144
0.18
309
CONTENTFORMAT_END
171
     1
301
MARGIN
  1
CELLMARGIN_BEGIN
 40
0.06
 40
0.06
 40
0.06
 40
0.06
 40
0.06
 40
0.06
309
CELLMARGIN_END
 94
        6
 95
        1
302
GRIDFORMAT
  1
GRIDFORMAT_BEGIN
 90
        0
 91
        1
 62
     0
 92
       -2
340
14
 93
        0
 40
0.045
309
GRIDFORMAT_END
 95
        2
302
GRIDFORMAT
  1
GRIDFORMAT_BEGIN
 90
        0
 91
        1
 62
     0
 92
       -2
340
14
 93
        0
 40
0.045
309
GRIDFORMAT_END
 95
        4
302
GRIDFORMAT
  1
GRIDFORMAT_BEGIN
 90
        0
 91
        1
 62
     0
 92
       -2
340
14
 93
        0
 40
0.045
309
GRIDFORMAT_END
 95
        8
302
GRIDFORMAT
  1
GRIDFORMAT_BEGIN
 90
        0
 91
        1
 62
     0
 92
       -2
340
14
 93
        0
 40
0.045
309
GRIDFORMAT_END
 95
       16
302
GRIDFORMAT
  1
GRIDFORMAT_BEGIN
 90
        0
 91
        1
 62
     0
 92
       -2
340
14
 93
        0
 40
0.045
309
GRIDFORMAT_END
 95
       32
302
GRIDFORMAT
  1
GRIDFORMAT_BEGIN
 90
        0
 91
        1
 62
     0
 92
       -2
340
14
 93
        0
 40
0.045
309
GRIDFORMAT_END
309
TABLEFORMAT_END
  1
CELLSTYLE_BEGIN
 90
        3
 91
        2
300
_DATA
309
CELLSTYLE_END
  0
ENDSEC
  0
EOF