0
SECTION
  2
HEADER
  9
$ACADVER
  1
AC1027
  9
$ACADMAINTVER
 70
     8
  9
$DWGCODEPAGE
  3
ANSI_1252
  9
$REQUIREDVERSIONS
160
                 0
  9
$COMMENTS
  1
File was created by Cadenas
  9
$CUSTOMPROPERTYTAG
  1
NN
  9
$CUSTOMPROPERTY
  1
Imperial - IP Pillow Block with Type E Dimensions 1-3/8 thru 2-3/16 inch 2-Bolt Labyrinth Seal Expansion
  9
$CUSTOMPROPERTYTAG
  1
NT
  9
$CUSTOMPROPERTY
  1
Imperial/E 2 Bolt Piliow Block Bearings
  9
$CUSTOMPROPERTYTAG
  1
NB
  9
$CUSTOMPROPERTY
  1
071189
  9
$CUSTOMPROPERTYTAG
  1
NBSYN
  9
$CUSTOMPROPERTY
  1
$PN.
  9
$CUSTOMPROPERTYTAG
  1
LINA
  9
$CUSTOMPROPERTY
  1
071189
  9
$CUSTOMPROPERTYTAG
  1
SS
  9
$CUSTOMPROPERTY
  1
1-7/8
  9
$CUSTOMPROPERTYTAG
  1
TYPE
  9
$CUSTOMPROPERTY
  1
Expansion
  9
$CUSTOMPROPERTYTAG
  1
PN
  9
$CUSTOMPROPERTY
  1
071189
  9
$CUSTOMPROPERTYTAG
  1
DESCRIPTION
  9
$CUSTOMPROPERTY
  1
EP2B-IP-114LE
  9
$CUSTOMPROPERTYTAG
  1
ST
  9
$CUSTOMPROPERTY
  1
Labyrinth Seal
  9
$CUSTOMPROPERTYTAG
  1
A
  9
$CUSTOMPROPERTY
  1
2.86
  9
$CUSTOMPROPERTYTAG
  1
B
  9
$CUSTOMPROPERTY
  1
8.87
  9
$CUSTOMPROPERTYTAG
  1
C
  9
$CUSTOMPROPERTY
  1
2.49
  9
$CUSTOMPROPERTYTAG
  1
DMIN
  9
$CUSTOMPROPERTY
  1
6.88
  9
$CUSTOMPROPERTYTAG
  1
DMAX
  9
$CUSTOMPROPERTY
  1
7.12
  9
$CUSTOMPROPERTYTAG
  1
F
  9
$CUSTOMPROPERTY
  1
5/8
  9
$CUSTOMPROPERTYTAG
  1
G
  9
$CUSTOMPROPERTY
  1
0.88
  9
$CUSTOMPROPERTYTAG
  1
H
  9
$CUSTOMPROPERTY
  1
1.31
  9
$CUSTOMPROPERTYTAG
  1
J
  9
$CUSTOMPROPERTY
  1
4.47
  9
$CUSTOMPROPERTYTAG
  1
L
  9
$CUSTOMPROPERTY
  1
3.28
  9
$CUSTOMPROPERTYTAG
  1
M
  9
$CUSTOMPROPERTY
  1
2.25
  9
$CUSTOMPROPERTYTAG
  1
R
  9
$CUSTOMPROPERTY
  1
1.1
  9
$CUSTOMPROPERTYTAG
  1
S
  9
$CUSTOMPROPERTY
  1
1.76
  9
$CUSTOMPROPERTYTAG
  1
X
  9
$CUSTOMPROPERTY
  1
0.22
  9
$CUSTOMPROPERTYTAG
  1
Y
  9
$CUSTOMPROPERTY
  1
0.020
  9
$CUSTOMPROPERTYTAG
  1
Z
  9
$CUSTOMPROPERTY
  1
2.3
  9
$CUSTOMPROPERTYTAG
  1
COMPANY
  9
$CUSTOMPROPERTY
  1
baldor
  9
$INSBASE
 10
0.0
 20
0.0
 30
0.0
  9
$EXTMIN
 10
1.000000000000000E+20
 20
1.000000000000000E+20
 30
1.000000000000000E+20
  9
$EXTMAX
 10
-1.000000000000000E+20
 20
-1.000000000000000E+20
 30
-1.000000000000000E+20
  9
$LIMMIN
 10
0.0
 20
0.0
  9
$LIMMAX
 10
12.0
 20
9.0
  9
$ORTHOMODE
 70
     0
  9
$REGENMODE
 70
     1
  9
$FILLMODE
 70
     1
  9
$QTEXTMODE
 70
     0
  9
$MIRRTEXT
 70
     1
  9
$LTSCALE
 40
1.0
  9
$ATTMODE
 70
     1
  9
$TEXTSIZE
 40
0.2
  9
$TRACEWID
 40
0.05
  9
$TEXTSTYLE
  7
Standard
  9
$CLAYER
  8
0
  9
$CELTYPE
  6
ByLayer
  9
$CECOLOR
 62
   256
  9
$CELTSCALE
 40
1.0
  9
$DISPSILH
 70
     0
  9
$DIMSCALE
 40
1.0
  9
$DIMASZ
 40
0.18
  9
$DIMEXO
 40
0.0625
  9
$DIMDLI
 40
0.38
  9
$DIMRND
 40
0.0
  9
$DIMDLE
 40
0.0
  9
$DIMEXE
 40
0.18
  9
$DIMTP
 40
0.0
  9
$DIMTM
 40
0.0
  9
$DIMTXT
 40
0.18
  9
$DIMCEN
 40
0.09
  9
$DIMTSZ
 40
0.0
  9
$DIMTOL
 70
     0
  9
$DIMLIM
 70
     0
  9
$DIMTIH
 70
     1
  9
$DIMTOH
 70
     1
  9
$DIMSE1
 70
     0
  9
$DIMSE2
 70
     0
  9
$DIMTAD
 70
     0
  9
$DIMZIN
 70
     0
  9
$DIMBLK
  1

  9
$DIMASO
 70
     1
  9
$DIMSHO
 70
     1
  9
$DIMPOST
  1

  9
$DIMAPOST
  1

  9
$DIMALT
 70
     0
  9
$DIMALTD
 70
     2
  9
$DIMALTF
 40
25.4
  9
$DIMLFAC
 40
1.0
  9
$DIMTOFL
 70
     0
  9
$DIMTVP
 40
0.0
  9
$DIMTIX
 70
     0
  9
$DIMSOXD
 70
     0
  9
$DIMSAH
 70
     0
  9
$DIMBLK1
  1

  9
$DIMBLK2
  1

  9
$DIMSTYLE
  2
Standard
  9
$DIMCLRD
 70
     0
  9
$DIMCLRE
 70
     0
  9
$DIMCLRT
 70
     0
  9
$DIMTFAC
 40
1.0
  9
$DIMGAP
 40
0.09
  9
$DIMJUST
 70
     0
  9
$DIMSD1
 70
     0
  9
$DIMSD2
 70
     0
  9
$DIMTOLJ
 70
     1
  9
$DIMTZIN
 70
     0
  9
$DIMALTZ
 70
     0
  9
$DIMALTTZ
 70
     0
  9
$DIMUPT
 70
     0
  9
$DIMDEC
 70
     4
  9
$DIMTDEC
 70
     4
  9
$DIMALTU
 70
     2
  9
$DIMALTTD
 70
     2
  9
$DIMTXSTY
  7
Standard
  9
$DIMAUNIT
 70
     0
  9
$DIMADEC
 70
     0
  9
$DIMALTRND
 40
0.0
  9
$DIMAZIN
 70
     0
  9
$DIMDSEP
 70
    46
  9
$DIMATFIT
 70
     3
  9
$DIMFRAC
 70
     0
  9
$DIMLDRBLK
  1

  9
$DIMLUNIT
 70
     2
  9
$DIMLWD
 70
    -2
  9
$DIMLWE
 70
    -2
  9
$DIMTMOVE
 70
     0
  9
$DIMFXL
 40
1.0
  9
$DIMFXLON
 70
     0
  9
$DIMJOGANG
 40
0.7853981633974483
  9
$DIMTFILL
 70
     0
  9
$DIMTFILLCLR
 70
     0
  9
$DIMARCSYM
 70
     0
  9
$DIMLTYPE
  6

  9
$DIMLTEX1
  6

  9
$DIMLTEX2
  6

  9
$DIMTXTDIRECTION
 70
     0
  9
$LUNITS
 70
     2
  9
$LUPREC
 70
     4
  9
$SKETCHINC
 40
0.1
  9
$FILLETRAD
 40
0.5
  9
$AUNITS
 70
     0
  9
$AUPREC
 70
     0
  9
$MENU
  1
.
  9
$ELEVATION
 40
0.0
  9
$PELEVATION
 40
0.0
  9
$THICKNESS
 40
0.0
  9
$LIMCHECK
 70
     0
  9
$CHAMFERA
 40
0.0
  9
$CHAMFERB
 40
0.0
  9
$CHAMFERC
 40
0.0
  9
$CHAMFERD
 40
0.0
  9
$SKPOLY
 70
     0
  9
$TDCREATE
 40
2458168.976239283
  9
$TDUCREATE
 40
2458168.934572616
  9
$TDUPDATE
 40
2458168.976239641
  9
$TDUUPDATE
 40
2458168.934572975
  9
$TDINDWG
 40
0.0000000116
  9
$TDUSRTIMER
 40
0.0000000116
  9
$USRTIMER
 70
     1
  9
$ANGBASE
 50
0.0
  9
$ANGDIR
 70
     0
  9
$PDMODE
 70
     0
  9
$PDSIZE
 40
0.0
  9
$PLINEWID
 40
0.0
  9
$SPLFRAME
 70
     0
  9
$SPLINETYPE
 70
     6
  9
$SPLINESEGS
 70
     8
  9
$HANDSEED
  5
263
  9
$SURFTAB1
 70
     6
  9
$SURFTAB2
 70
     6
  9
$SURFTYPE
 70
     6
  9
$SURFU
 70
     6
  9
$SURFV
 70
     6
  9
$UCSBASE
  2

  9
$UCSNAME
  2

  9
$UCSORG
 10
0.0
 20
0.0
 30
0.0
  9
$UCSXDIR
 10
1.0
 20
0.0
 30
0.0
  9
$UCSYDIR
 10
0.0
 20
1.0
 30
0.0
  9
$UCSORTHOREF
  2

  9
$UCSORTHOVIEW
 70
     0
  9
$UCSORGTOP
 10
0.0
 20
0.0
 30
0.0
  9
$UCSORGBOTTOM
 10
0.0
 20
0.0
 30
0.0
  9
$UCSORGLEFT
 10
0.0
 20
0.0
 30
0.0
  9
$UCSORGRIGHT
 10
0.0
 20
0.0
 30
0.0
  9
$UCSORGFRONT
 10
0.0
 20
0.0
 30
0.0
  9
$UCSORGBACK
 10
0.0
 20
0.0
 30
0.0
  9
$PUCSBASE
  2

  9
$PUCSNAME
  2

  9
$PUCSORG
 10
0.0
 20
0.0
 30
0.0
  9
$PUCSXDIR
 10
1.0
 20
0.0
 30
0.0
  9
$PUCSYDIR
 10
0.0
 20
1.0
 30
0.0
  9
$PUCSORTHOREF
  2

  9
$PUCSORTHOVIEW
 70
     0
  9
$PUCSORGTOP
 10
0.0
 20
0.0
 30
0.0
  9
$PUCSORGBOTTOM
 10
0.0
 20
0.0
 30
0.0
  9
$PUCSORGLEFT
 10
0.0
 20
0.0
 30
0.0
  9
$PUCSORGRIGHT
 10
0.0
 20
0.0
 30
0.0
  9
$PUCSORGFRONT
 10
0.0
 20
0.0
 30
0.0
  9
$PUCSORGBACK
 10
0.0
 20
0.0
 30
0.0
  9
$USERI1
 70
     0
  9
$USERI2
 70
     0
  9
$USERI3
 70
     0
  9
$USERI4
 70
     0
  9
$USERI5
 70
     0
  9
$USERR1
 40
0.0
  9
$USERR2
 40
0.0
  9
$USERR3
 40
0.0
  9
$USERR4
 40
0.0
  9
$USERR5
 40
0.0
  9
$WORLDVIEW
 70
     1
  9
$SHADEDGE
 70
     3
  9
$SHADEDIF
 70
    70
  9
$TILEMODE
 70
     1
  9
$MAXACTVP
 70
    64
  9
$PINSBASE
 10
0.0
 20
0.0
 30
0.0
  9
$PLIMCHECK
 70
     0
  9
$PEXTMIN
 10
1.000000000000000E+20
 20
1.000000000000000E+20
 30
1.000000000000000E+20
  9
$PEXTMAX
 10
-1.000000000000000E+20
 20
-1.000000000000000E+20
 30
-1.000000000000000E+20
  9
$PLIMMIN
 10
0.0
 20
0.0
  9
$PLIMMAX
 10
12.0
 20
9.0
  9
$UNITMODE
 70
     0
  9
$VISRETAIN
 70
     1
  9
$PLINEGEN
 70
     0
  9
$PSLTSCALE
 70
     1
  9
$TREEDEPTH
 70
  3020
  9
$CMLSTYLE
  2
Standard
  9
$CMLJUST
 70
     0
  9
$CMLSCALE
 40
1.0
  9
$PROXYGRAPHICS
 70
     1
  9
$MEASUREMENT
 70
     0
  9
$CELWEIGHT
370
    -1
  9
$ENDCAPS
280
     0
  9
$JOINSTYLE
280
     0
  9
$LWDISPLAY
290
     0
  9
$INSUNITS
 70
     1
  9
$HYPERLINKBASE
  1

  9
$STYLESHEET
  1

  9
$XEDIT
290
     1
  9
$CEPSNTYPE
380
     0
  9
$PSTYLEMODE
290
     1
  9
$FINGERPRINTGUID
  2
{52379D00-37E5-4DCF-8049-2AD33AD48E71}
  9
$VERSIONGUID
  2
{FAEB1C32-E019-11D5-929B-00C0DF256EC4}
  9
$EXTNAMES
290
     1
  9
$PSVPSCALE
 40
0.0
  9
$OLESTARTUP
290
     0
  9
$SORTENTS
280
   127
  9
$INDEXCTL
280
     0
  9
$HIDETEXT
280
     1
  9
$XCLIPFRAME
280
     2
  9
$HALOGAP
280
     0
  9
$OBSCOLOR
 70
   257
  9
$OBSLTYPE
280
     0
  9
$INTERSECTIONDISPLAY
280
     0
  9
$INTERSECTIONCOLOR
 70
   257
  9
$DIMASSOC
280
     2
  9
$PROJECTNAME
  1

  9
$CAMERADISPLAY
290
     0
  9
$LENSLENGTH
 40
50.0
  9
$CAMERAHEIGHT
 40
0.0
  9
$STEPSPERSEC
 40
2.0
  9
$STEPSIZE
 40
6.0
  9
$3DDWFPREC
 40
2.0
  9
$PSOLWIDTH
 40
0.25
  9
$PSOLHEIGHT
 40
4.0
  9
$LOFTANG1
 40
1.570796326794897
  9
$LOFTANG2
 40
1.570796326794897
  9
$LOFTMAG1
 40
0.0
  9
$LOFTMAG2
 40
0.0
  9
$LOFTPARAM
 70
     7
  9
$LOFTNORMALS
280
     1
  9
$LATITUDE
 40
37.795
  9
$LONGITUDE
 40
-122.394
  9
$NORTHDIRECTION
 40
0.0
  9
$TIMEZONE
 70
 -8000
  9
$LIGHTGLYPHDISPLAY
280
     1
  9
$TILEMODELIGHTSYNCH
280
     1
  9
$CMATERIAL
347
44
  9
$SOLIDHIST
280
     0
  9
$SHOWHIST
280
     1
  9
$DWFFRAME
280
     2
  9
$DGNFRAME
280
     2
  9
$REALWORLDSCALE
290
     1
  9
$INTERFERECOLOR
 62
   256
  9
$CSHADOW
280
     0
  9
$SHADOWPLANELOCATION
 40
0.0
  0
ENDSEC
  0
SECTION
  2
CLASSES
  0
CLASS
  1
ACDBDICTIONARYWDFLT
  2
AcDbDictionaryWithDefault
  3
ObjectDBX Classes
 90
        0
 91
        4
280
     0
281
     0
  0
CLASS
  1
VISUALSTYLE
  2
AcDbVisualStyle
  3
ObjectDBX Classes
 90
     4095
 91
        4
280
     0
281
     0
  0
CLASS
  1
MATERIAL
  2
AcDbMaterial
  3
ObjectDBX Classes
 90
     1153
 91
        4
280
     0
281
     0
  0
CLASS
  1
SCALE
  2
AcDbScale
  3
ObjectDBX Classes
 90
     1153
 91
        4
280
     0
281
     0
  0
CLASS
  1
TABLESTYLE
  2
AcDbTableStyle
  3
ObjectDBX Classes
 90
     4095
 91
        4
280
     0
281
     0
  0
CLASS
  1
MLEADERSTYLE
  2
AcDbMLeaderStyle
  3
ACDB_MLEADERSTYLE_CLASS
 90
     4095
 91
        4
280
     0
281
     0
  0
CLASS
  1
SUN
  2
AcDbSun
  3
SCENEOE
 90
     1153
 91
        4
280
     0
281
     0
  0
CLASS
  1
DICTIONARYVAR
  2
AcDbDictionaryVar
  3
ObjectDBX Classes
 90
        0
 91
        4
280
     0
281
     0
  0
CLASS
  1
CELLSTYLEMAP
  2
AcDbCellStyleMap
  3
ObjectDBX Classes
 90
     1152
 91
        4
280
     0
281
     0
  0
ENDSEC
  0
SECTION
  2
TABLES
  0
TABLE
  2
VPORT
  5
8
330
0
100
AcDbSymbolTable
 70
     1
  0
VPORT
  5
29
330
8
100
AcDbSymbolTableRecord
100
AcDbViewportTableRecord
  2
*Active
 70
     0
 10
0.0
 20
0.0
 11
1.0
 21
1.0
 12
0.0
 22
-0.1379999999999999
 13
0.0
 23
0.0
 14
0.5
 24
0.5
 15
0.5
 25
0.5
 16
0.0
 26
0.0
 36
1.0
 17
0.0
 27
0.0
 37
0.0
 40
3.30888
 41
2.734278668310728
 42
50.0
 43
0.0
 44
0.0
 50
0.0
 51
0.0
 71
     0
 72
   100
 73
     1
 74
     3
 75
     0
 76
     0
 77
     0
 78
     0
281
     0
 65
     1
110
0.0
120
0.0
130
0.0
111
1.0
121
0.0
131
0.0
112
0.0
122
1.0
132
0.0
 79
     0
146
0.0
348
2F
 60
     3
 61
     5
292
     1
282
     1
141
0.0
142
0.0
 63
   250
361
6D
  0
ENDTAB
  0
TABLE
  2
LTYPE
  5
5
330
0
100
AcDbSymbolTable
 70
     3
  0
LTYPE
  5
14
330
5
100
AcDbSymbolTableRecord
100
AcDbLinetypeTableRecord
  2
ByBlock
 70
     0
  3

 72
    65
 73
     0
 40
0.0
  0
LTYPE
  5
15
330
5
100
AcDbSymbolTableRecord
100
AcDbLinetypeTableRecord
  2
ByLayer
 70
     0
  3

 72
    65
 73
     0
 40
0.0
  0
LTYPE
  5
16
330
5
100
AcDbSymbolTableRecord
100
AcDbLinetypeTableRecord
  2
Continuous
 70
     0
  3
Solid line
 72
    65
 73
     0
 40
0.0
  0
LTYPE
  5
B2
330
5
100
AcDbSymbolTableRecord
100
AcDbLinetypeTableRecord
  2
Dashed
 70
     0
  3

 72
    65
 73
     2
 40
2.0
 49
1.0
 74
     0
 49
-1.0
 74
     0
  0
LTYPE
  5
171
330
5
100
AcDbSymbolTableRecord
100
AcDbLinetypeTableRecord
  2
Center
 70
     0
  3

 72
    65
 73
     4
 40
1.5
 49
0.45
 74
     0
 49
-0.5
 74
     0
 49
0.05
 74
     0
 49
-0.5
 74
     0
  0
ENDTAB
  0
TABLE
  2
LAYER
  5
2
330
0
100
AcDbSymbolTable
 70
     7
  0
LAYER
  5
10
330
2
100
AcDbSymbolTableRecord
100
AcDbLayerTableRecord
  2
0
 70
     0
 62
     7
  6
Continuous
370
    -3
390
F
347
46
348
0
  0
LAYER
  5
72
330
2
100
AcDbSymbolTableRecord
100
AcDbLayerTableRecord
  2
AM_6
 70
     0
 62
    -2
  6
Continuous
370
    35
390
F
347
46
348
0
  0
LAYER
  5
9E
330
2
100
AcDbSymbolTableRecord
100
AcDbLayerTableRecord
  2
AM_5
 70
     0
 62
     3
  6
Continuous
370
    25
390
F
347
46
348
0
  0
LAYER
  5
B3
330
2
100
AcDbSymbolTableRecord
100
AcDbLayerTableRecord
  2
AM_9
 70
     0
 62
     6
  6
Dashed
370
    25
390
F
347
46
348
0
  0
LAYER
  5
BF
330
2
100
AcDbSymbolTableRecord
100
AcDbLayerTableRecord
  2
AM_4
 70
     0
 62
     7
  6
Continuous
370
    50
390
F
347
46
348
0
  0
LAYER
  5
172
330
2
100
AcDbSymbolTableRecord
100
AcDbLayerTableRecord
  2
AM_7
 70
     0
 62
     7
  6
Center
370
    25
390
F
347
46
348
0
  0
LAYER
  5
24E
330
2
100
AcDbSymbolTableRecord
100
AcDbLayerTableRecord
  2
ConnectionPoints
 70
     0
 62
     7
  6
Continuous
370
    50
390
F
347
46
348
0
  0
ENDTAB
  0
TABLE
  2
STYLE
  5
3
330
0
100
AcDbSymbolTable
 70
     1
  0
STYLE
  5
11
330
3
100
AcDbSymbolTableRecord
100
AcDbTextStyleTableRecord
  2
Standard
 70
     0
 40
0.0
 41
1.0
 50
0.0
 71
     0
 42
0.2
  3
txt
  4

  0
ENDTAB
  0
TABLE
  2
VIEW
  5
6
330
0
100
AcDbSymbolTable
 70
     0
  0
ENDTAB
  0
TABLE
  2
UCS
  5
7
330
0
100
AcDbSymbolTable
 70
     0
  0
ENDTAB
  0
TABLE
  2
APPID
  5
9
330
0
100
AcDbSymbolTable
 70
     1
  0
APPID
  5
12
330
9
100
AcDbSymbolTableRecord
100
AcDbRegAppTableRecord
  2
ACAD
 70
     0
  0
ENDTAB
  0
TABLE
  2
DIMSTYLE
  5
A
330
0
100
AcDbSymbolTable
 70
     1
100
AcDbDimStyleTable
  0
DIMSTYLE
105
27
330
A
100
AcDbSymbolTableRecord
100
AcDbDimStyleTableRecord
  2
Standard
 70
     0
178
     0
340
11
  0
ENDTAB
  0
TABLE
  2
BLOCK_RECORD
  5
1
330
0
100
AcDbSymbolTable
 70
     8
  0
BLOCK_RECORD
  5
1F
330
1
100
AcDbSymbolTableRecord
100
AcDbBlockTableRecord
  2
*Model_Space
340
22
 70
     0
280
     1
281
     0
  0
BLOCK_RECORD
  5
1B
330
1
100
AcDbSymbolTableRecord
100
AcDbBlockTableRecord
  2
*Paper_Space
340
1E
 70
     0
280
     1
281
     0
  0
BLOCK_RECORD
  5
23
330
1
100
AcDbSymbolTableRecord
100
AcDbBlockTableRecord
  2
*Paper_Space0
340
26
 70
     0
280
     1
281
     0
  0
BLOCK_RECORD
  5
6E
330
1
100
AcDbSymbolTableRecord
100
AcDbBlockTableRecord
  2
1_071189_4
340
0
102
{BLKREFS
331
6F
102
}
 70
     0
280
     1
281
     0
  0
BLOCK_RECORD
  5
8E
330
1
100
AcDbSymbolTableRecord
100
AcDbBlockTableRecord
  2
2_ASME_B18_3_10_1_0_in_071189_4
340
0
102
{BLKREFS
331
8F
102
}
 70
     0
280
     1
281
     0
  0
BLOCK_RECORD
  5
A2
330
1
100
AcDbSymbolTableRecord
100
AcDbBlockTableRecord
  2
3_ASME_B18_3_10_2_0_in_071189_4
340
0
102
{BLKREFS
331
A3
102
}
 70
     0
280
     1
281
     0
  0
BLOCK_RECORD
  5
C6
330
1
100
AcDbSymbolTableRecord
100
AcDbBlockTableRecord
  2
4_070889LWE_0_in_071189_4
340
0
102
{BLKREFS
331
C7
102
}
 70
     0
280
     1
281
     0
  0
BLOCK_RECORD
  5
100
330
1
100
AcDbSymbolTableRecord
100
AcDbBlockTableRecord
  2
5_070889EL_0_in_071189_4
340
0
102
{BLKREFS
331
101
102
}
 70
     0
280
     1
281
     0
  0
BLOCK_RECORD
  5
188
330
1
100
AcDbSymbolTableRecord
100
AcDbBlockTableRecord
  2
6_405015E_Inch_0_in_071189_4
340
0
102
{BLKREFS
331
189
102
}
 70
     0
280
     1
281
     0
  0
BLOCK_RECORD
  5
1D3
330
1
100
AcDbSymbolTableRecord
100
AcDbBlockTableRecord
  2
7_071189Ho_0_in_071189_4
340
0
102
{BLKREFS
331
1D4
102
}
 70
     0
280
     1
281
     0
  0
ENDTAB
  0
ENDSEC
  0
SECTION
  2
BLOCKS
  0
BLOCK
  5
20
330
1F
100
AcDbEntity
  8
0
100
AcDbBlockBegin
  2
*Model_Space
 70
     0
 10
0.0
 20
0.0
 30
0.0
  3
*Model_Space
  1

  0
ENDBLK
  5
21
330
1F
100
AcDbEntity
  8
0
100
AcDbBlockEnd
  0
BLOCK
  5
1C
330
1B
100
AcDbEntity
 67
     1
  8
0
100
AcDbBlockBegin
  2
*Paper_Space
 70
     0
 10
0.0
 20
0.0
 30
0.0
  3
*Paper_Space
  1

  0
ENDBLK
  5
1D
330
1B
100
AcDbEntity
 67
     1
  8
0
100
AcDbBlockEnd
  0
BLOCK
  5
24
330
23
100
AcDbEntity
  8
0
100
AcDbBlockBegin
  2
*Paper_Space0
 70
     0
 10
0.0
 20
0.0
 30
0.0
  3
*Paper_Space0
  1

  0
ENDBLK
  5
25
330
23
100
AcDbEntity
  8
0
100
AcDbBlockEnd
  0
BLOCK
  5
70
330
6E
100
AcDbEntity
  8
0
100
AcDbBlockBegin
  2
1_071189_4
 70
     2
 10
0.0
 20
0.0
 30
0.0
  3
1_071189_4
  1

  0
ATTDEF
  5
73
330
6E
100
AcDbEntity
  8
AM_6
100
AcDbText
 10
9.435
 20
1.484
 30
0.0
 40
0.5
  1
Imperial - IP Pillow Block with Type E Dimensions 1-3/8 thru 2-3/16 inch 2-Bolt Labyrinth Seal Expansion
100
AcDbAttributeDefinition
  3

  2
NN
 70
     8
280
     0
  0
ATTDEF
  5
74
330
6E
100
AcDbEntity
  8
AM_6
100
AcDbText
 10
9.435
 20
0.9839999999999998
 30
0.0
 40
0.5
  1
Imperial/E 2 Bolt Piliow Block Bearings
100
AcDbAttributeDefinition
  3

  2
NT
 70
     8
280
     0
  0
ATTDEF
  5
75
330
6E
100
AcDbEntity
  8
AM_6
100
AcDbText
 10
9.435
 20
0.4839999999999998
 30
0.0
 40
0.5
  1
071189
100
AcDbAttributeDefinition
  3

  2
NB
 70
     8
280
     0
  0
ATTDEF
  5
76
330
6E
100
AcDbEntity
  8
AM_6
100
AcDbText
 10
9.435
 20
-0.0160000000000002
 30
0.0
 40
0.5
  1
$PN.
100
AcDbAttributeDefinition
  3

  2
NBSYN
 70
     8
280
     0
  0
ATTDEF
  5
77
330
6E
100
AcDbEntity
  8
AM_6
100
AcDbText
 10
9.435
 20
-0.5160000000000002
 30
0.0
 40
0.5
  1
071189
100
AcDbAttributeDefinition
  3

  2
LINA
 70
     8
280
     0
  0
ATTDEF
  5
78
330
6E
100
AcDbEntity
  8
AM_6
100
AcDbText
 10
9.435
 20
-1.016
 30
0.0
 40
0.5
  1
1-7/8
100
AcDbAttributeDefinition
  3

  2
SS
 70
     8
280
     0
  0
ATTDEF
  5
79
330
6E
100
AcDbEntity
  8
AM_6
100
AcDbText
 10
9.435
 20
-1.516
 30
0.0
 40
0.5
  1
Expansion
100
AcDbAttributeDefinition
  3

  2
TYPE
 70
     8
280
     0
  0
ATTDEF
  5
7A
330
6E
100
AcDbEntity
  8
AM_6
100
AcDbText
 10
9.435
 20
-2.016
 30
0.0
 40
0.5
  1
071189
100
AcDbAttributeDefinition
  3

  2
PN
 70
     8
280
     0
  0
ATTDEF
  5
7B
330
6E
100
AcDbEntity
  8
AM_6
100
AcDbText
 10
9.435
 20
-2.516
 30
0.0
 40
0.5
  1
EP2B-IP-114LE
100
AcDbAttributeDefinition
  3

  2
DESCRIPTION
 70
     8
280
     0
  0
ATTDEF
  5
7C
330
6E
100
AcDbEntity
  8
AM_6
100
AcDbText
 10
9.435
 20
-3.016
 30
0.0
 40
0.5
  1
Labyrinth Seal
100
AcDbAttributeDefinition
  3

  2
ST
 70
     8
280
     0
  0
ATTDEF
  5
7D
330
6E
100
AcDbEntity
  8
AM_6
100
AcDbText
 10
9.435
 20
-3.516
 30
0.0
 40
0.5
  1
2.86
100
AcDbAttributeDefinition
  3

  2
A
 70
     8
280
     0
  0
ATTDEF
  5
7E
330
6E
100
AcDbEntity
  8
AM_6
100
AcDbText
 10
9.435
 20
-4.016
 30
0.0
 40
0.5
  1
8.87
100
AcDbAttributeDefinition
  3

  2
B
 70
     8
280
     0
  0
ATTDEF
  5
7F
330
6E
100
AcDbEntity
  8
AM_6
100
AcDbText
 10
9.435
 20
-4.516
 30
0.0
 40
0.5
  1
2.49
100
AcDbAttributeDefinition
  3

  2
C
 70
     8
280
     0
  0
ATTDEF
  5
80
330
6E
100
AcDbEntity
  8
AM_6
100
AcDbText
 10
9.435
 20
-5.016
 30
0.0
 40
0.5
  1
6.88
100
AcDbAttributeDefinition
  3

  2
DMIN
 70
     8
280
     0
  0
ATTDEF
  5
81
330
6E
100
AcDbEntity
  8
AM_6
100
AcDbText
 10
9.435
 20
-5.516
 30
0.0
 40
0.5
  1
7.12
100
AcDbAttributeDefinition
  3

  2
DMAX
 70
     8
280
     0
  0
ATTDEF
  5
82
330
6E
100
AcDbEntity
  8
AM_6
100
AcDbText
 10
9.435
 20
-6.016
 30
0.0
 40
0.5
  1
5/8
100
AcDbAttributeDefinition
  3

  2
F
 70
     8
280
     0
  0
ATTDEF
  5
83
330
6E
100
AcDbEntity
  8
AM_6
100
AcDbText
 10
9.435
 20
-6.516
 30
0.0
 40
0.5
  1
0.88
100
AcDbAttributeDefinition
  3

  2
G
 70
     8
280
     0
  0
ATTDEF
  5
84
330
6E
100
AcDbEntity
  8
AM_6
100
AcDbText
 10
9.435
 20
-7.016
 30
0.0
 40
0.5
  1
1.31
100
AcDbAttributeDefinition
  3

  2
H
 70
     8
280
     0
  0
ATTDEF
  5
85
330
6E
100
AcDbEntity
  8
AM_6
100
AcDbText
 10
9.435
 20
-7.516
 30
0.0
 40
0.5
  1
4.47
100
AcDbAttributeDefinition
  3

  2
J
 70
     8
280
     0
  0
ATTDEF
  5
86
330
6E
100
AcDbEntity
  8
AM_6
100
AcDbText
 10
9.435
 20
-8.016
 30
0.0
 40
0.5
  1
3.28
100
AcDbAttributeDefinition
  3

  2
L
 70
     8
280
     0
  0
ATTDEF
  5
87
330
6E
100
AcDbEntity
  8
AM_6
100
AcDbText
 10
9.435
 20
-8.516
 30
0.0
 40
0.5
  1
2.25
100
AcDbAttributeDefinition
  3

  2
M
 70
     8
280
     0
  0
ATTDEF
  5
88
330
6E
100
AcDbEntity
  8
AM_6
100
AcDbText
 10
9.435
 20
-9.016
 30
0.0
 40
0.5
  1
1.1
100
AcDbAttributeDefinition
  3

  2
R
 70
     8
280
     0
  0
ATTDEF
  5
89
330
6E
100
AcDbEntity
  8
AM_6
100
AcDbText
 10
9.435
 20
-9.516
 30
0.0
 40
0.5
  1
1.76
100
AcDbAttributeDefinition
  3

  2
S
 70
     8
280
     0
  0
ATTDEF
  5
8A
330
6E
100
AcDbEntity
  8
AM_6
100
AcDbText
 10
9.435
 20
-10.016
 30
0.0
 40
0.5
  1
0.22
100
AcDbAttributeDefinition
  3

  2
X
 70
     8
280
     0
  0
ATTDEF
  5
8B
330
6E
100
AcDbEntity
  8
AM_6
100
AcDbText
 10
9.435
 20
-10.516
 30
0.0
 40
0.5
  1
0.020
100
AcDbAttributeDefinition
  3

  2
Y
 70
     8
280
     0
  0
ATTDEF
  5
8C
330
6E
100
AcDbEntity
  8
AM_6
100
AcDbText
 10
9.435
 20
-11.016
 30
0.0
 40
0.5
  1
2.3
100
AcDbAttributeDefinition
  3

  2
Z
 70
     8
280
     0
  0
ATTDEF
  5
8D
330
6E
100
AcDbEntity
  8
AM_6
100
AcDbText
 10
9.435
 20
-11.516
 30
0.0
 40
0.5
  1
baldor
100
AcDbAttributeDefinition
  3

  2
COMPANY
 70
     8
280
     0
  0
INSERT
  5
8F
330
6E
100
AcDbEntity
  8
0
100
AcDbBlockReference
  2
2_ASME_B18_3_10_1_0_in_071189_4
 10
0.0
 20
0.0
 30
0.0
  0
INSERT
  5
A3
330
6E
100
AcDbEntity
  8
0
100
AcDbBlockReference
  2
3_ASME_B18_3_10_2_0_in_071189_4
 10
0.0
 20
0.0
 30
0.0
  0
INSERT
  5
C7
330
6E
100
AcDbEntity
  8
0
100
AcDbBlockReference
  2
4_070889LWE_0_in_071189_4
 10
0.0
 20
0.0
 30
0.0
  0
INSERT
  5
101
330
6E
100
AcDbEntity
  8
0
100
AcDbBlockReference
  2
5_070889EL_0_in_071189_4
 10
0.0
 20
0.0
 30
0.0
  0
INSERT
  5
189
330
6E
100
AcDbEntity
  8
0
100
AcDbBlockReference
  2
6_405015E_Inch_0_in_071189_4
 10
0.0
 20
0.0
 30
0.0
  0
INSERT
  5
1D4
330
6E
100
AcDbEntity
  8
0
100
AcDbBlockReference
  2
7_071189Ho_0_in_071189_4
 10
0.0
 20
0.0
 30
0.0
  0
ENDBLK
  5
71
330
6E
100
AcDbEntity
  8
0
100
AcDbBlockEnd
  0
BLOCK
  5
90
330
8E
100
AcDbEntity
  8
0
100
AcDbBlockBegin
  2
2_ASME_B18_3_10_1_0_in_071189_4
 70
     2
 10
0.0
 20
0.0
 30
0.0
  3
2_ASME_B18_3_10_1_0_in_071189_4
  1

  0
ATTDEF
  5
92
330
8E
100
AcDbEntity
  8
AM_6
100
AcDbText
 10
5.095
 20
-1.297166666666667
 30
0.0
 40
0.5
  1
ANSI/ASME B18.3-1998
100
AcDbAttributeDefinition
  3

  2
NN
 70
     8
280
     0
  0
ATTDEF
  5
93
330
8E
100
AcDbEntity
  8
AM_6
100
AcDbText
 10
5.095
 20
-1.797166666666667
 30
0.0
 40
0.5
  1
Socket Button Head Cap Screws
100
AcDbAttributeDefinition
  3

  2
NT
 70
     8
280
     0
  0
ATTDEF
  5
94
330
8E
100
AcDbEntity
  8
AM_6
100
AcDbText
 10
5.095
 20
-2.297166666666667
 30
0.0
 40
0.5
  1
ASME B18.3-10
100
AcDbAttributeDefinition
  3

  2
NB
 70
     8
280
     0
  0
ATTDEF
  5
95
330
8E
100
AcDbEntity
  8
AM_6
100
AcDbText
 10
5.095
 20
-2.797166666666667
 30
0.0
 40
0.5
  1
ASME B18.3-$NS.
100
AcDbAttributeDefinition
  3

  2
NBSYN
 70
     8
280
     0
  0
ATTDEF
  5
96
330
8E
100
AcDbEntity
  8
AM_6
100
AcDbText
 10
5.095
 20
-3.297166666666667
 30
0.0
 40
0.5
  1
ASME B18.3-10
100
AcDbAttributeDefinition
  3

  2
LINA
 70
     8
280
     0
  0
ATTDEF
  5
97
330
8E
100
AcDbEntity
  8
AM_6
100
AcDbText
 10
5.095
 20
-3.797166666666667
 30
0.0
 40
0.5
  1
10
100
AcDbAttributeDefinition
  3

  2
NS
 70
     8
280
     0
  0
ATTDEF
  5
98
330
8E
100
AcDbEntity
  8
AM_6
100
AcDbText
 10
5.095
 20
-4.297166666666667
 30
0.0
 40
0.5
  1
0.361
100
AcDbAttributeDefinition
  3

  2
A
 70
     8
280
     0
  0
ATTDEF
  5
99
330
8E
100
AcDbEntity
  8
AM_6
100
AcDbText
 10
5.095
 20
-4.797166666666667
 30
0.0
 40
0.5
  1
0.101
100
AcDbAttributeDefinition
  3

  2
H
 70
     8
280
     0
  0
ATTDEF
  5
9A
330
8E
100
AcDbEntity
  8
AM_6
100
AcDbText
 10
5.095
 20
-5.297166666666667
 30
0.0
 40
0.5
  1
0.800
100
AcDbAttributeDefinition
  3

  2
L
 70
     8
280
     0
  0
ATTDEF
  5
9B
330
8E
100
AcDbEntity
  8
AM_6
100
AcDbText
 10
5.095
 20
-5.797166666666667
 30
0.0
 40
0.5
  1
0.020
100
AcDbAttributeDefinition
  3

  2
S
 70
     8
280
     0
  0
ATTDEF
  5
9C
330
8E
100
AcDbEntity
  8
AM_6
100
AcDbText
 10
5.095
 20
-6.297166666666667
 30
0.0
 40
0.5
  1
0.125000
100
AcDbAttributeDefinition
  3

  2
J
 70
     8
280
     0
  0
ATTDEF
  5
9D
330
8E
100
AcDbEntity
  8
AM_6
100
AcDbText
 10
5.095
 20
-6.797166666666667
 30
0.0
 40
0.5
  1
baldor
100
AcDbAttributeDefinition
  3

  2
COMPANY
 70
     8
280
     0
  0
LINE
  5
9F
330
8E
100
AcDbEntity
  8
AM_5
100
AcDbLine
 10
0.095
 20
-1.297166666666667
 30
0.0
 11
-0.095
 21
-1.297166666666667
 31
0.0
  0
LINE
  5
A0
330
8E
100
AcDbEntity
  8
AM_5
100
AcDbLine
 10
0.0764
 20
-1.297166666666667
 30
0.0
 11
0.095
 21
-1.329382811687448
 31
0.0
  0
LINE
  5
A1
330
8E
100
AcDbEntity
  8
AM_5
100
AcDbLine
 10
-0.0764
 20
-1.297166666666667
 30
0.0
 11
-0.095
 21
-1.329382811687448
 31
0.0
  0
ENDBLK
  5
91
330
8E
100
AcDbEntity
  8
0
100
AcDbBlockEnd
  0
BLOCK
  5
A4
330
A2
100
AcDbEntity
  8
0
100
AcDbBlockBegin
  2
3_ASME_B18_3_10_2_0_in_071189_4
 70
     2
 10
0.0
 20
0.0
 30
0.0
  3
3_ASME_B18_3_10_2_0_in_071189_4
  1

  0
ATTDEF
  5
A6
330
A2
100
AcDbEntity
  8
AM_6
100
AcDbText
 10
5.1805
 20
-0.5771666666666666
 30
0.0
 40
0.5
  1
ANSI/ASME B18.3-1998
100
AcDbAttributeDefinition
  3

  2
NN
 70
     8
280
     0
  0
ATTDEF
  5
A7
330
A2
100
AcDbEntity
  8
AM_6
100
AcDbText
 10
5.1805
 20
-1.077166666666667
 30
0.0
 40
0.5
  1
Socket Button Head Cap Screws
100
AcDbAttributeDefinition
  3

  2
NT
 70
     8
280
     0
  0
ATTDEF
  5
A8
330
A2
100
AcDbEntity
  8
AM_6
100
AcDbText
 10
5.1805
 20
-1.577166666666667
 30
0.0
 40
0.5
  1
ASME B18.3-10
100
AcDbAttributeDefinition
  3

  2
NB
 70
     8
280
     0
  0
ATTDEF
  5
A9
330
A2
100
AcDbEntity
  8
AM_6
100
AcDbText
 10
5.1805
 20
-2.077166666666667
 30
0.0
 40
0.5
  1
ASME B18.3-$NS.
100
AcDbAttributeDefinition
  3

  2
NBSYN
 70
     8
280
     0
  0
ATTDEF
  5
AA
330
A2
100
AcDbEntity
  8
AM_6
100
AcDbText
 10
5.1805
 20
-2.577166666666667
 30
0.0
 40
0.5
  1
ASME B18.3-10
100
AcDbAttributeDefinition
  3

  2
LINA
 70
     8
280
     0
  0
ATTDEF
  5
AB
330
A2
100
AcDbEntity
  8
AM_6
100
AcDbText
 10
5.1805
 20
-3.077166666666667
 30
0.0
 40
0.5
  1
10
100
AcDbAttributeDefinition
  3

  2
NS
 70
     8
280
     0
  0
ATTDEF
  5
AC
330
A2
100
AcDbEntity
  8
AM_6
100
AcDbText
 10
5.1805
 20
-3.577166666666667
 30
0.0
 40
0.5
  1
0.361
100
AcDbAttributeDefinition
  3

  2
A
 70
     8
280
     0
  0
ATTDEF
  5
AD
330
A2
100
AcDbEntity
  8
AM_6
100
AcDbText
 10
5.1805
 20
-4.077166666666667
 30
0.0
 40
0.5
  1
0.101
100
AcDbAttributeDefinition
  3

  2
H
 70
     8
280
     0
  0
ATTDEF
  5
AE
330
A2
100
AcDbEntity
  8
AM_6
100
AcDbText
 10
5.1805
 20
-4.577166666666667
 30
0.0
 40
0.5
  1
0.800
100
AcDbAttributeDefinition
  3

  2
L
 70
     8
280
     0
  0
ATTDEF
  5
AF
330
A2
100
AcDbEntity
  8
AM_6
100
AcDbText
 10
5.1805
 20
-5.077166666666667
 30
0.0
 40
0.5
  1
0.020
100
AcDbAttributeDefinition
  3

  2
S
 70
     8
280
     0
  0
ATTDEF
  5
B0
330
A2
100
AcDbEntity
  8
AM_6
100
AcDbText
 10
5.1805
 20
-5.577166666666667
 30
0.0
 40
0.5
  1
0.125000
100
AcDbAttributeDefinition
  3

  2
J
 70
     8
280
     0
  0
ATTDEF
  5
B1
330
A2
100
AcDbEntity
  8
AM_6
100
AcDbText
 10
5.1805
 20
-6.077166666666667
 30
0.0
 40
0.5
  1
baldor
100
AcDbAttributeDefinition
  3

  2
COMPANY
 70
     8
280
     0
  0
LINE
  5
B4
330
A2
100
AcDbEntity
  8
AM_9
100
AcDbLine
 10
0.0625
 20
-1.417166666666667
 30
0.0
 11
0.0625
 21
-1.478166666666667
 31
0.0
  0
LINE
  5
B5
330
A2
100
AcDbEntity
  8
AM_9
100
AcDbLine
 10
-0.0625
 20
-1.417166666666667
 30
0.0
 11
-0.0625
 21
-1.478166666666667
 31
0.0
  0
LINE
  5
B6
330
A2
100
AcDbEntity
  8
AM_9
100
AcDbLine
 10
-0.0625
 20
-1.417166666666667
 30
0.0
 11
0.0625
 21
-1.417166666666667
 31
0.0
  0
LINE
  5
B7
330
A2
100
AcDbEntity
  8
AM_9
100
AcDbLine
 10
0.0
 20
-1.417166666666667
 30
0.0
 11
0.0
 21
-1.478166666666667
 31
0.0
  0
LINE
  5
B8
330
A2
100
AcDbEntity
  8
AM_9
100
AcDbLine
 10
0.095
 20
-1.377166666666667
 30
0.0
 11
0.095
 21
-0.5957666666666667
 31
0.0
  0
LINE
  5
B9
330
A2
100
AcDbEntity
  8
AM_9
100
AcDbLine
 10
-0.095
 20
-0.5957666666666667
 30
0.0
 11
-0.095
 21
-1.377166666666667
 31
0.0
  0
LINE
  5
BA
330
A2
100
AcDbEntity
  8
AM_9
100
AcDbLine
 10
-0.0764
 20
-0.5771666666666666
 30
0.0
 11
-0.095
 21
-0.5957666666666667
 31
0.0
  0
LINE
  5
BB
330
A2
100
AcDbEntity
  8
AM_9
100
AcDbLine
 10
0.095
 20
-0.5957666666666667
 30
0.0
 11
0.0764
 21
-0.5771666666666666
 31
0.0
  0
LINE
  5
BC
330
A2
100
AcDbEntity
  8
AM_9
100
AcDbLine
 10
-0.0764
 20
-0.5771666666666666
 30
0.0
 11
0.0764
 21
-0.5771666666666666
 31
0.0
  0
LINE
  5
BD
330
A2
100
AcDbEntity
  8
AM_9
100
AcDbLine
 10
-0.095
 20
-0.5957666666666667
 30
0.0
 11
0.095
 21
-0.5957666666666667
 31
0.0
  0
LINE
  5
BE
330
A2
100
AcDbEntity
  8
AM_5
100
AcDbLine
 10
-0.0950000000000001
 20
-1.297166666666667
 30
0.0
 11
0.0949999999999999
 21
-1.297166666666667
 31
0.0
  0
LINE
  5
C0
330
A2
100
AcDbEntity
  8
AM_4
100
AcDbLine
 10
0.1805
 20
-1.397166666666667
 30
0.0
 11
0.1805
 21
-1.377166666666667
 31
0.0
  0
LINE
  5
C1
330
A2
100
AcDbEntity
  8
AM_4
100
AcDbLine
 10
-0.1805
 20
-1.377166666666667
 30
0.0
 11
-0.1805
 21
-1.397166666666667
 31
0.0
  0
LINE
  5
C2
330
A2
100
AcDbEntity
  8
AM_4
100
AcDbLine
 10
-0.0994999982004422
 20
-1.478166666666667
 30
0.0
 11
0.0995
 21
-1.478166666666667
 31
0.0
  0
ARC
  5
C3
330
A2
100
AcDbEntity
  8
AM_4
100
AcDbCircle
 10
0.0994999999999999
 20
-1.397166666666667
 30
0.0
 40
0.0810000000000002
100
AcDbArc
 50
270.0
 51
0.0
  0
ARC
  5
C4
330
A2
100
AcDbEntity
  8
AM_4
100
AcDbCircle
 10
-0.0994999999999999
 20
-1.397166666666667
 30
0.0
 40
0.0810000000000001
100
AcDbArc
 50
180.0
 51
270.0
  0
LINE
  5
C5
330
A2
100
AcDbEntity
  8
AM_4
100
AcDbLine
 10
-0.1805
 20
-1.397166666666667
 30
0.0
 11
0.1805
 21
-1.397166666666667
 31
0.0
  0
ENDBLK
  5
A5
330
A2
100
AcDbEntity
  8
0
100
AcDbBlockEnd
  0
BLOCK
  5
C8
330
C6
100
AcDbEntity
  8
0
100
AcDbBlockBegin
  2
4_070889LWE_0_in_071189_4
 70
     2
 10
0.0
 20
0.0
 30
0.0
  3
4_070889LWE_0_in_071189_4
  1

  0
ATTDEF
  5
CA
330
C6
100
AcDbEntity
  8
AM_6
100
AcDbText
 10
6.640000000000001
 20
-0.9371666666666666
 30
0.0
 40
0.5
  1
Imperial/E Insert Lockwasher -Inch
100
AcDbAttributeDefinition
  3

  2
NN
 70
     8
280
     0
  0
ATTDEF
  5
CB
330
C6
100
AcDbEntity
  8
AM_6
100
AcDbText
 10
6.640000000000001
 20
-1.437166666666667
 30
0.0
 40
0.5
  1
Imperial/E Bearings
100
AcDbAttributeDefinition
  3

  2
NT
 70
     8
280
     0
  0
ATTDEF
  5
CC
330
C6
100
AcDbEntity
  8
AM_6
100
AcDbText
 10
6.640000000000001
 20
-1.937166666666667
 30
0.0
 40
0.5
  1
070889LWE
100
AcDbAttributeDefinition
  3

  2
NB
 70
     8
280
     0
  0
ATTDEF
  5
CD
330
C6
100
AcDbEntity
  8
AM_6
100
AcDbText
 10
6.640000000000001
 20
-2.437166666666667
 30
0.0
 40
0.5
  1
$PN.LWE
100
AcDbAttributeDefinition
  3

  2
NBSYN
 70
     8
280
     0
  0
ATTDEF
  5
CE
330
C6
100
AcDbEntity
  8
AM_6
100
AcDbText
 10
6.640000000000001
 20
-2.937166666666667
 30
0.0
 40
0.5
  1
070889
100
AcDbAttributeDefinition
  3

  2
LINA
 70
     8
280
     0
  0
ATTDEF
  5
CF
330
C6
100
AcDbEntity
  8
AM_6
100
AcDbText
 10
6.640000000000001
 20
-3.437166666666667
 30
0.0
 40
0.5
  1
1-7/8
100
AcDbAttributeDefinition
  3

  2
SS
 70
     8
280
     0
  0
ATTDEF
  5
D0
330
C6
100
AcDbEntity
  8
AM_6
100
AcDbText
 10
6.640000000000001
 20
-3.937166666666667
 30
0.0
 40
0.5
  1
3.280000
100
AcDbAttributeDefinition
  3

  2
E1
 70
     8
280
     0
  0
ATTDEF
  5
D1
330
C6
100
AcDbEntity
  8
AM_6
100
AcDbText
 10
6.640000000000001
 20
-4.437166666666666
 30
0.0
 40
0.5
  1
1.875000
100
AcDbAttributeDefinition
  3

  2
SS1
 70
     8
280
     0
  0
ATTDEF
  5
D2
330
C6
100
AcDbEntity
  8
AM_6
100
AcDbText
 10
6.640000000000001
 20
-4.937166666666666
 30
0.0
 40
0.5
  1
070889
100
AcDbAttributeDefinition
  3

  2
PN
 70
     8
280
     0
  0
ATTDEF
  5
D3
330
C6
100
AcDbEntity
  8
AM_6
100
AcDbText
 10
6.640000000000001
 20
-5.437166666666666
 30
0.0
 40
0.5
  1
INS-IP-114R
100
AcDbAttributeDefinition
  3

  2
DESCRIPTION
 70
     8
280
     0
  0
ATTDEF
  5
D4
330
C6
100
AcDbEntity
  8
AM_6
100
AcDbText
 10
6.640000000000001
 20
-5.937166666666666
 30
0.0
 40
0.5
  1
3.5433
100
AcDbAttributeDefinition
  3

  2
A
 70
     8
280
     0
  0
ATTDEF
  5
D5
330
C6
100
AcDbEntity
  8
AM_6
100
AcDbText
 10
6.640000000000001
 20
-6.437166666666666
 30
0.0
 40
0.5
  1
61/64
100
AcDbAttributeDefinition
  3

  2
B
 70
     8
280
     0
  0
ATTDEF
  5
D6
330
C6
100
AcDbEntity
  8
AM_6
100
AcDbText
 10
6.640000000000001
 20
-6.937166666666666
 30
0.0
 40
0.5
  1
0.953125
100
AcDbAttributeDefinition
  3

  2
B1
 70
     8
280
     0
  0
ATTDEF
  5
D7
330
C6
100
AcDbEntity
  8
AM_6
100
AcDbText
 10
6.640000000000001
 20
-7.437166666666666
 30
0.0
 40
0.5
  1
2-55/64
100
AcDbAttributeDefinition
  3

  2
C
 70
     8
280
     0
  0
ATTDEF
  5
D8
330
C6
100
AcDbEntity
  8
AM_6
100
AcDbText
 10
6.640000000000001
 20
-7.937166666666666
 30
0.0
 40
0.5
  1
2.859375
100
AcDbAttributeDefinition
  3

  2
C1
 70
     8
280
     0
  0
ATTDEF
  5
D9
330
C6
100
AcDbEntity
  8
AM_6
100
AcDbText
 10
6.640000000000001
 20
-8.437166666666666
 30
0.0
 40
0.5
  1
0.977
100
AcDbAttributeDefinition
  3

  2
D
 70
     8
280
     0
  0
ATTDEF
  5
DA
330
C6
100
AcDbEntity
  8
AM_6
100
AcDbText
 10
6.640000000000001
 20
-8.937166666666666
 30
0.0
 40
0.5
  1
3-9/32
100
AcDbAttributeDefinition
  3

  2
E
 70
     8
280
     0
  0
ATTDEF
  5
DB
330
C6
100
AcDbEntity
  8
AM_6
100
AcDbText
 10
6.640000000000001
 20
-9.437166666666666
 30
0.0
 40
0.5
  1
0.1900
100
AcDbAttributeDefinition
  3

  2
NDM
 70
     8
280
     0
  0
ATTDEF
  5
DC
330
C6
100
AcDbEntity
  8
AM_6
100
AcDbText
 10
6.640000000000001
 20
-9.937166666666666
 30
0.0
 40
0.5
  1
0.1450
100
AcDbAttributeDefinition
  3

  2
KDM
 70
     8
280
     0
  0
ATTDEF
  5
DD
330
C6
100
AcDbEntity
  8
AM_6
100
AcDbText
 10
6.640000000000001
 20
-10.43716666666667
 30
0.0
 40
0.5
  1
2.67
100
AcDbAttributeDefinition
  3

  2
AL
 70
     8
280
     0
  0
ATTDEF
  5
DE
330
C6
100
AcDbEntity
  8
AM_6
100
AcDbText
 10
6.640000000000001
 20
-10.93716666666667
 30
0.0
 40
0.5
  1
0.38
100
AcDbAttributeDefinition
  3

  2
BL
 70
     8
280
     0
  0
ATTDEF
  5
DF
330
C6
100
AcDbEntity
  8
AM_6
100
AcDbText
 10
6.640000000000001
 20
-11.43716666666667
 30
0.0
 40
0.5
  1
0.07
100
AcDbAttributeDefinition
  3

  2
CL
 70
     8
280
     0
  0
ATTDEF
  5
E0
330
C6
100
AcDbEntity
  8
AM_6
100
AcDbText
 10
6.640000000000001
 20
-11.93716666666667
 30
0.0
 40
0.5
  1
0.44
100
AcDbAttributeDefinition
  3

  2
DL
 70
     8
280
     0
  0
ATTDEF
  5
E1
330
C6
100
AcDbEntity
  8
AM_6
100
AcDbText
 10
6.640000000000001
 20
-12.43716666666667
 30
0.0
 40
0.5
  1
baldor
100
AcDbAttributeDefinition
  3

  2
COMPANY
 70
     8
280
     0
  0
LINE
  5
E2
330
C6
100
AcDbEntity
  8
AM_9
100
AcDbLine
 10
-0.0950597429712154
 20
-1.307166666666667
 30
0.0
 11
-0.0950597429712154
 21
-1.377166666666667
 31
0.0
  0
LINE
  5
E3
330
C6
100
AcDbEntity
  8
AM_9
100
AcDbLine
 10
0.095059742971216
 20
-1.377166666666667
 30
0.0
 11
0.095059742971216
 21
-1.307166666666667
 31
0.0
  0
LINE
  5
E4
330
C6
100
AcDbEntity
  8
AM_9
100
AcDbLine
 10
-1.340833333333333
 20
-1.307166666666667
 30
0.0
 11
-1.340833333333333
 21
-1.377166666666667
 31
0.0
  0
LINE
  5
E5
330
C6
100
AcDbEntity
  8
AM_9
100
AcDbLine
 10
-1.432523397721413
 20
-1.307166666666667
 30
0.0
 11
-1.432523397721413
 21
-1.377166666666667
 31
0.0
  0
LINE
  5
E6
330
C6
100
AcDbEntity
  8
AM_9
100
AcDbLine
 10
1.340833333333334
 20
-1.307166666666667
 30
0.0
 11
1.340833333333334
 21
-1.377166666666667
 31
0.0
  0
LINE
  5
E7
330
C6
100
AcDbEntity
  8
AM_9
100
AcDbLine
 10
1.43926275488768
 20
-1.377166666666667
 30
0.0
 11
1.43926275488768
 21
-1.307166666666667
 31
0.0
  0
LINE
  5
E8
330
C6
100
AcDbEntity
  8
AM_9
100
AcDbLine
 10
-1.009051357500948
 20
-1.307166666666667
 30
0.0
 11
-1.009051357500948
 21
-1.377166666666667
 31
0.0
  0
LINE
  5
E9
330
C6
100
AcDbEntity
  8
AM_9
100
AcDbLine
 10
1.009051357500948
 20
-1.307166666666667
 30
0.0
 11
1.009051357500948
 21
-1.377166666666667
 31
0.0
  0
LINE
  5
EA
330
C6
100
AcDbEntity
  8
AM_9
100
AcDbLine
 10
0.7806822016671339
 20
-1.307166666666667
 30
0.0
 11
0.7806822016671339
 21
-1.377166666666667
 31
0.0
  0
LINE
  5
EB
330
C6
100
AcDbEntity
  8
AM_9
100
AcDbLine
 10
-0.7806822016671339
 20
-1.307166666666667
 30
0.0
 11
-0.7806822016671341
 21
-1.377166666666667
 31
0.0
  0
LINE
  5
EC
330
C6
100
AcDbEntity
  8
AM_9
100
AcDbLine
 10
-0.4446875375004128
 20
-0.9371666666666666
 30
0.0
 11
-0.4446875375004128
 21
-1.377166666666667
 31
0.0
  0
LINE
  5
ED
330
C6
100
AcDbEntity
  8
AM_9
100
AcDbLine
 10
-0.473915792509688
 20
-1.307166666666667
 30
0.0
 11
-0.473915792509688
 21
-1.377166666666667
 31
0.0
  0
LINE
  5
EE
330
C6
100
AcDbEntity
  8
AM_9
100
AcDbLine
 10
-0.6463319132416898
 20
-1.307166666666667
 30
0.0
 11
-0.6463319132416898
 21
-1.377166666666667
 31
0.0
  0
LINE
  5
EF
330
C6
100
AcDbEntity
  8
AM_9
100
AcDbLine
 10
-0.2983786813325439
 20
-1.307166666666667
 30
0.0
 11
-0.2983786813325439
 21
-1.377166666666667
 31
0.0
  0
LINE
  5
F0
330
C6
100
AcDbEntity
  8
AM_9
100
AcDbLine
 10
-0.2691504263232679
 20
-0.9371666666666666
 30
0.0
 11
-0.4636627228011422
 21
-0.9371666666666666
 31
0.0
  0
LINE
  5
F1
330
C6
100
AcDbEntity
  8
AM_9
100
AcDbLine
 10
-0.2691504263232679
 20
-0.9371666666666666
 30
0.0
 11
-0.2691504263232679
 21
-1.377166666666667
 31
0.0
  0
LINE
  5
F2
330
C6
100
AcDbEntity
  8
AM_9
100
AcDbLine
 10
-0.288125611623998
 20
-1.307166666666667
 30
0.0
 11
-0.288125611623998
 21
-0.9371666666666666
 31
0.0
  0
LINE
  5
F3
330
C6
100
AcDbEntity
  8
AM_9
100
AcDbLine
 10
-0.4636627228011422
 20
-0.9371666666666666
 30
0.0
 11
-0.4636627228011423
 21
-1.307166666666667
 31
0.0
  0
LINE
  5
F4
330
C6
100
AcDbEntity
  8
AM_9
100
AcDbLine
 10
0.6463319132416899
 20
-1.307166666666667
 30
0.0
 11
0.6463319132416899
 21
-1.377166666666667
 31
0.0
  0
LINE
  5
F5
330
C6
100
AcDbEntity
  8
AM_9
100
AcDbLine
 10
-1.015287486653685
 20
-1.307166666666667
 30
0.0
 11
-1.015287486653685
 21
-1.377166666666667
 31
0.0
  0
LINE
  5
F6
330
C6
100
AcDbEntity
  8
AM_9
100
AcDbLine
 10
-0.8809371982282445
 20
-1.307166666666667
 30
0.0
 11
-0.8809371982282445
 21
-1.377166666666667
 31
0.0
  0
LINE
  5
F7
330
C6
100
AcDbEntity
  8
AM_9
100
AcDbLine
 10
-1.043154592599691
 20
-1.307166666666667
 30
0.0
 11
-1.043154592599691
 21
-1.377166666666667
 31
0.0
  0
LINE
  5
F8
330
C6
100
AcDbEntity
  8
AM_9
100
AcDbLine
 10
0.8809371982282407
 20
-1.307166666666667
 30
0.0
 11
0.8809371982282407
 21
-1.377166666666667
 31
0.0
  0
LINE
  5
F9
330
C6
100
AcDbEntity
  8
AM_9
100
AcDbLine
 10
1.015287486653685
 20
-1.307166666666667
 30
0.0
 11
1.015287486653685
 21
-1.377166666666667
 31
0.0
  0
LINE
  5
FA
330
C6
100
AcDbEntity
  8
AM_9
100
AcDbLine
 10
1.043154592599691
 20
-1.377166666666667
 30
0.0
 11
1.043154592599691
 21
-1.307166666666667
 31
0.0
  0
LINE
  5
FB
330
C6
100
AcDbEntity
  8
AM_4
100
AcDbLine
 10
-1.64
 20
-1.307166666666667
 30
0.0
 11
-1.64
 21
-1.377166666666667
 31
0.0
  0
LINE
  5
FC
330
C6
100
AcDbEntity
  8
AM_4
100
AcDbLine
 10
1.64
 20
-1.377166666666667
 30
0.0
 11
1.64
 21
-1.307166666666667
 31
0.0
  0
LINE
  5
FD
330
C6
100
AcDbEntity
  8
AM_4
100
AcDbLine
 10
-1.64
 20
-1.377166666666667
 30
0.0
 11
1.64
 21
-1.377166666666667
 31
0.0
  0
LINE
  5
FE
330
C6
100
AcDbEntity
  8
AM_4
100
AcDbLine
 10
1.017940992159678
 20
-1.307166666666667
 30
0.0
 11
1.286641569010567
 21
-1.307166666666667
 31
0.0
  0
LINE
  5
FF
330
C6
100
AcDbEntity
  8
AM_4
100
AcDbLine
 10
-1.286641569010567
 20
-1.307166666666667
 30
0.0
 11
-1.017940992159678
 21
-1.307166666666667
 31
0.0
  0
ENDBLK
  5
C9
330
C6
100
AcDbEntity
  8
0
100
AcDbBlockEnd
  0
BLOCK
  5
102
330
100
100
AcDbEntity
  8
0
100
AcDbBlockBegin
  2
5_070889EL_0_in_071189_4
 70
     2
 10
0.0
 20
0.0
 30
0.0
  3
5_070889EL_0_in_071189_4
  1

  0
ATTDEF
  5
104
330
100
100
AcDbEntity
  8
AM_6
100
AcDbText
 10
6.77165
 20
1.484
 30
0.0
 40
0.5
  1
Imperial/E Insert -Inch
100
AcDbAttributeDefinition
  3

  2
NN
 70
     8
280
     0
  0
ATTDEF
  5
105
330
100
100
AcDbEntity
  8
AM_6
100
AcDbText
 10
6.77165
 20
0.9839999999999998
 30
0.0
 40
0.5
  1
Imperial Bearings
100
AcDbAttributeDefinition
  3

  2
NT
 70
     8
280
     0
  0
ATTDEF
  5
106
330
100
100
AcDbEntity
  8
AM_6
100
AcDbText
 10
6.77165
 20
0.4839999999999998
 30
0.0
 40
0.5
  1
070889EL
100
AcDbAttributeDefinition
  3

  2
NB
 70
     8
280
     0
  0
ATTDEF
  5
107
330
100
100
AcDbEntity
  8
AM_6
100
AcDbText
 10
6.77165
 20
-0.0160000000000002
 30
0.0
 40
0.5
  1
$PN.
100
AcDbAttributeDefinition
  3

  2
NBSYN
 70
     8
280
     0
  0
ATTDEF
  5
108
330
100
100
AcDbEntity
  8
AM_6
100
AcDbText
 10
6.77165
 20
-0.5160000000000002
 30
0.0
 40
0.5
  1
070889EL
100
AcDbAttributeDefinition
  3

  2
LINA
 70
     8
280
     0
  0
ATTDEF
  5
109
330
100
100
AcDbEntity
  8
AM_6
100
AcDbText
 10
6.77165
 20
-1.016
 30
0.0
 40
0.5
  1
1-7/8
100
AcDbAttributeDefinition
  3

  2
SS
 70
     8
280
     0
  0
ATTDEF
  5
10A
330
100
100
AcDbEntity
  8
AM_6
100
AcDbText
 10
6.77165
 20
-1.516
 30
0.0
 40
0.5
  1
1.875000
100
AcDbAttributeDefinition
  3

  2
SS1
 70
     8
280
     0
  0
ATTDEF
  5
10B
330
100
100
AcDbEntity
  8
AM_6
100
AcDbText
 10
6.77165
 20
-2.016
 30
0.0
 40
0.5
  1
070889EL
100
AcDbAttributeDefinition
  3

  2
PN
 70
     8
280
     0
  0
ATTDEF
  5
10C
330
100
100
AcDbEntity
  8
AM_6
100
AcDbText
 10
6.77165
 20
-2.516
 30
0.0
 40
0.5
  1
INS-IP-114R
100
AcDbAttributeDefinition
  3

  2
DESCRIPTION
 70
     8
280
     0
  0
ATTDEF
  5
10D
330
100
100
AcDbEntity
  8
AM_6
100
AcDbText
 10
6.77165
 20
-3.016
 30
0.0
 40
0.5
  1
Labyrinth Seal
100
AcDbAttributeDefinition
  3

  2
ST
 70
     8
280
     0
  0
ATTDEF
  5
10E
330
100
100
AcDbEntity
  8
AM_6
100
AcDbText
 10
6.77165
 20
-3.516
 30
0.0
 40
0.5
  1
1
100
AcDbAttributeDefinition
  3

  2
ST1
 70
     8
280
     0
  0
ATTDEF
  5
10F
330
100
100
AcDbEntity
  8
AM_6
100
AcDbText
 10
6.77165
 20
-4.016
 30
0.0
 40
0.5
  1
3.5433
100
AcDbAttributeDefinition
  3

  2
A
 70
     8
280
     0
  0
ATTDEF
  5
110
330
100
100
AcDbEntity
  8
AM_6
100
AcDbText
 10
6.77165
 20
-4.516
 30
0.0
 40
0.5
  1
61/64
100
AcDbAttributeDefinition
  3

  2
B
 70
     8
280
     0
  0
ATTDEF
  5
111
330
100
100
AcDbEntity
  8
AM_6
100
AcDbText
 10
6.77165
 20
-5.016
 30
0.0
 40
0.5
  1
0.953125
100
AcDbAttributeDefinition
  3

  2
B1
 70
     8
280
     0
  0
ATTDEF
  5
112
330
100
100
AcDbEntity
  8
AM_6
100
AcDbText
 10
6.77165
 20
-5.516
 30
0.0
 40
0.5
  1
2-55/64
100
AcDbAttributeDefinition
  3

  2
C
 70
     8
280
     0
  0
ATTDEF
  5
113
330
100
100
AcDbEntity
  8
AM_6
100
AcDbText
 10
6.77165
 20
-6.016
 30
0.0
 40
0.5
  1
2.860000
100
AcDbAttributeDefinition
  3

  2
C1
 70
     8
280
     0
  0
ATTDEF
  5
114
330
100
100
AcDbEntity
  8
AM_6
100
AcDbText
 10
6.77165
 20
-6.516
 30
0.0
 40
0.5
  1
3.64000
100
AcDbAttributeDefinition
  3

  2
CR
 70
     8
280
     0
  0
ATTDEF
  5
115
330
100
100
AcDbEntity
  8
AM_6
100
AcDbText
 10
6.77165
 20
-7.016
 30
0.0
 40
0.5
  1
0.977
100
AcDbAttributeDefinition
  3

  2
D
 70
     8
280
     0
  0
ATTDEF
  5
116
330
100
100
AcDbEntity
  8
AM_6
100
AcDbText
 10
6.77165
 20
-7.516
 30
0.0
 40
0.5
  1
3-9/32
100
AcDbAttributeDefinition
  3

  2
E
 70
     8
280
     0
  0
ATTDEF
  5
117
330
100
100
AcDbEntity
  8
AM_6
100
AcDbText
 10
6.77165
 20
-8.016
 30
0.0
 40
0.5
  1
3.281250
100
AcDbAttributeDefinition
  3

  2
E1
 70
     8
280
     0
  0
ATTDEF
  5
118
330
100
100
AcDbEntity
  8
AM_6
100
AcDbText
 10
6.77165
 20
-8.516
 30
0.0
 40
0.5
  1
0.1900
100
AcDbAttributeDefinition
  3

  2
NDM
 70
     8
280
     0
  0
ATTDEF
  5
119
330
100
100
AcDbEntity
  8
AM_6
100
AcDbText
 10
6.77165
 20
-9.016
 30
0.0
 40
0.5
  1
0.1450
100
AcDbAttributeDefinition
  3

  2
KDM
 70
     8
280
     0
  0
ATTDEF
  5
11A
330
100
100
AcDbEntity
  8
AM_6
100
AcDbText
 10
6.77165
 20
-9.516
 30
0.0
 40
0.5
  1
2.67
100
AcDbAttributeDefinition
  3

  2
AL
 70
     8
280
     0
  0
ATTDEF
  5
11B
330
100
100
AcDbEntity
  8
AM_6
100
AcDbText
 10
6.77165
 20
-10.016
 30
0.0
 40
0.5
  1
0.38
100
AcDbAttributeDefinition
  3

  2
BL
 70
     8
280
     0
  0
ATTDEF
  5
11C
330
100
100
AcDbEntity
  8
AM_6
100
AcDbText
 10
6.77165
 20
-10.516
 30
0.0
 40
0.5
  1
0.07
100
AcDbAttributeDefinition
  3

  2
CL
 70
     8
280
     0
  0
ATTDEF
  5
11D
330
100
100
AcDbEntity
  8
AM_6
100
AcDbText
 10
6.77165
 20
-11.016
 30
0.0
 40
0.5
  1
0.44
100
AcDbAttributeDefinition
  3

  2
DL
 70
     8
280
     0
  0
ATTDEF
  5
11E
330
100
100
AcDbEntity
  8
AM_6
100
AcDbText
 10
6.77165
 20
-11.516
 30
0.0
 40
0.5
  1
0.8000
100
AcDbAttributeDefinition
  3

  2
LL
 70
     8
280
     0
  0
ATTDEF
  5
11F
330
100
100
AcDbEntity
  8
AM_6
100
AcDbText
 10
6.77165
 20
-12.016
 30
0.0
 40
0.5
  1
0.020
100
AcDbAttributeDefinition
  3

  2
Y
 70
     8
280
     0
  0
ATTDEF
  5
120
330
100
100
AcDbEntity
  8
AM_6
100
AcDbText
 10
6.77165
 20
-12.516
 30
0.0
 40
0.5
  1
0.020000
100
AcDbAttributeDefinition
  3

  2
Y1
 70
     8
280
     0
  0
ATTDEF
  5
121
330
100
100
AcDbEntity
  8
AM_6
100
AcDbText
 10
6.77165
 20
-13.016
 30
0.0
 40
0.5
  1
2-19/64
100
AcDbAttributeDefinition
  3

  2
Z
 70
     8
280
     0
  0
ATTDEF
  5
122
330
100
100
AcDbEntity
  8
AM_6
100
AcDbText
 10
6.77165
 20
-13.516
 30
0.0
 40
0.5
  1
2.296875
100
AcDbAttributeDefinition
  3

  2
Z1
 70
     8
280
     0
  0
ATTDEF
  5
123
330
100
100
AcDbEntity
  8
AM_6
100
AcDbText
 10
6.77165
 20
-14.016
 30
0.0
 40
0.5
  1
0.79000
100
AcDbAttributeDefinition
  3

  2
P1
 70
     8
280
     0
  0
ATTDEF
  5
124
330
100
100
AcDbEntity
  8
AM_6
100
AcDbText
 10
6.77165
 20
-14.516
 30
0.0
 40
0.5
  1
1.18000
100
AcDbAttributeDefinition
  3

  2
H1
 70
     8
280
     0
  0
ATTDEF
  5
125
330
100
100
AcDbEntity
  8
AM_6
100
AcDbText
 10
6.77165
 20
-15.016
 30
0.0
 40
0.5
  1
0.65000
100
AcDbAttributeDefinition
  3

  2
G1
 70
     8
280
     0
  0
ATTDEF
  5
126
330
100
100
AcDbEntity
  8
AM_6
100
AcDbText
 10
6.77165
 20
-15.516
 30
0.0
 40
0.5
  1
0.10100
100
AcDbAttributeDefinition
  3

  2
CW
 70
     8
280
     0
  0
ATTDEF
  5
127
330
100
100
AcDbEntity
  8
AM_6
100
AcDbText
 10
6.77165
 20
-16.016
 30
0.0
 40
0.5
  1
3.28000
100
AcDbAttributeDefinition
  3

  2
L1
 70
     8
280
     0
  0
ATTDEF
  5
128
330
100
100
AcDbEntity
  8
AM_6
100
AcDbText
 10
6.77165
 20
-16.516
 30
0.0
 40
0.5
  1
baldor
100
AcDbAttributeDefinition
  3

  2
COMPANY
 70
     8
280
     0
  0
LINE
  5
129
330
100
100
AcDbEntity
  8
AM_9
100
AcDbLine
 10
-0.4646637929736899
 20
0.8195624999999999
 30
0.0
 11
-0.4646637929736899
 21
-1.307166666666666
 31
0.0
  0
LINE
  5
12A
330
100
100
AcDbEntity
  8
AM_9
100
AcDbLine
 10
-0.2691504263232685
 20
0.8195624999999999
 30
0.0
 11
-0.2691504263232684
 21
-1.54
 31
0.0
  0
LINE
  5
12B
330
100
100
AcDbEntity
  8
AM_9
100
AcDbLine
 10
-0.4446875375004129
 20
-1.377166666666667
 30
0.0
 11
-0.444687537500413
 21
0.8195624999999999
 31
0.0
  0
LINE
  5
12C
330
100
100
AcDbEntity
  8
AM_9
100
AcDbLine
 10
-0.9375000000000003
 20
0.8195625
 30
0.0
 11
-0.9375000000000003
 21
-1.54
 31
0.0
  0
LINE
  5
12D
330
100
100
AcDbEntity
  8
AM_9
100
AcDbLine
 10
0.9375000000000003
 20
-1.54
 30
0.0
 11
0.9375000000000003
 21
0.8195625
 31
0.0
  0
LINE
  5
12E
330
100
100
AcDbEntity
  8
AM_9
100
AcDbLine
 10
-0.2891266817965455
 20
0.8195624999999999
 30
0.0
 11
-0.2891266817965455
 21
-1.307166666666666
 31
0.0
  0
LINE
  5
12F
330
100
100
AcDbEntity
  8
AM_9
100
AcDbLine
 10
-0.9868421052631579
 20
1.32
 30
0.0
 11
-0.9868421052631579
 21
0.8195625
 31
0.0
  0
LINE
  5
130
330
100
100
AcDbEntity
  8
AM_9
100
AcDbLine
 10
0.9868421052631579
 20
0.8195625
 30
0.0
 11
0.9868421052631579
 21
1.32
 31
0.0
  0
LINE
  5
131
330
100
100
AcDbEntity
  8
AM_9
100
AcDbLine
 10
-0.288125611623998
 20
-1.377166666666667
 30
0.0
 11
-0.288125611623998
 21
-1.307166666666667
 31
0.0
  0
LINE
  5
132
330
100
100
AcDbEntity
  8
AM_9
100
AcDbLine
 10
-0.4636627228011425
 20
-1.307166666666667
 30
0.0
 11
-0.4636627228011424
 21
-1.377166666666667
 31
0.0
  0
LINE
  5
133
330
100
100
AcDbEntity
  8
AM_9
100
AcDbLine
 10
-0.986842105263158
 20
-1.307166666666667
 30
0.0
 11
-0.986842105263158
 21
-1.377166666666667
 31
0.0
  0
LINE
  5
134
330
100
100
AcDbEntity
  8
AM_9
100
AcDbLine
 10
0.986842105263158
 20
-1.377166666666667
 30
0.0
 11
0.986842105263158
 21
-1.307166666666667
 31
0.0
  0
LINE
  5
135
330
100
100
AcDbEntity
  8
AM_9
100
AcDbLine
 10
0.8096372644585971
 20
-0.8671666666666668
 30
0.0
 11
0.8096372644585971
 21
-1.307166666666667
 31
0.0
  0
LINE
  5
136
330
100
100
AcDbEntity
  8
AM_9
100
AcDbLine
 10
1.078337841309485
 20
-0.8671666666666668
 30
0.0
 11
1.078337841309485
 21
-1.1205
 31
0.0
  0
LINE
  5
137
330
100
100
AcDbEntity
  8
AM_9
100
AcDbLine
 10
-0.8096372644585971
 20
-0.8671666666666668
 30
0.0
 11
-0.8096372644585971
 21
-1.307166666666667
 31
0.0
  0
LINE
  5
138
330
100
100
AcDbEntity
  8
AM_9
100
AcDbLine
 10
-1.078337841309485
 20
-0.8671666666666668
 30
0.0
 11
-1.078337841309485
 21
-1.1205
 31
0.0
  0
LINE
  5
139
330
100
100
AcDbEntity
  8
AM_9
100
AcDbLine
 10
1.1484375
 20
1.32
 30
0.0
 11
-1.1484375
 21
1.32
 31
0.0
  0
LINE
  5
13A
330
100
100
AcDbEntity
  8
AM_9
100
AcDbLine
 10
-1.1484375
 20
1.34
 30
0.0
 11
-1.1484375
 21
1.32
 31
0.0
  0
LINE
  5
13B
330
100
100
AcDbEntity
  8
AM_9
100
AcDbLine
 10
1.1484375
 20
1.32
 30
0.0
 11
1.1484375
 21
1.34
 31
0.0
  0
LINE
  5
13C
330
100
100
AcDbEntity
  8
AM_9
100
AcDbLine
 10
0.8096372644585971
 20
-0.8671666666666668
 30
0.0
 11
1.292108926166053
 21
-0.8671666666666668
 31
0.0
  0
LINE
  5
13D
330
100
100
AcDbEntity
  8
AM_9
100
AcDbLine
 10
-1.292108926166053
 20
-0.8671666666666668
 30
0.0
 11
-0.8096372644585971
 21
-0.8671666666666668
 31
0.0
  0
LINE
  5
13E
330
100
100
AcDbEntity
  8
AM_9
100
AcDbLine
 10
-0.0724499999999997
 20
-0.5089956936694549
 30
0.0
 11
-0.0724499999999997
 21
-1.284616666666667
 31
0.0
  0
LINE
  5
13F
330
100
100
AcDbEntity
  8
AM_9
100
AcDbLine
 10
0.0724499999999997
 20
-1.284616666666667
 30
0.0
 11
0.0724499999999997
 21
-0.5089956936694549
 31
0.0
  0
LINE
  5
140
330
100
100
AcDbEntity
  8
AM_9
100
AcDbLine
 10
0.0724499999999997
 20
-0.5089956936694549
 30
0.0
 11
-0.0724499999999997
 21
-0.5089956936694549
 31
0.0
  0
LINE
  5
141
330
100
100
AcDbEntity
  8
AM_9
100
AcDbLine
 10
0.0
 20
-0.4671666666666664
 30
0.0
 11
-0.0724499999999997
 21
-0.5089956936694549
 31
0.0
  0
LINE
  5
142
330
100
100
AcDbEntity
  8
AM_9
100
AcDbLine
 10
0.0724499999999997
 20
-0.5089956936694549
 30
0.0
 11
0.0
 21
-0.4671666666666664
 31
0.0
  0
LINE
  5
143
330
100
100
AcDbEntity
  8
AM_9
100
AcDbLine
 10
0.0724499999999997
 20
-1.284616666666667
 30
0.0
 11
-0.0724499999999997
 21
-1.284616666666667
 31
0.0
  0
LINE
  5
144
330
100
100
AcDbEntity
  8
AM_9
100
AcDbLine
 10
-0.0724499999999997
 20
-1.284616666666667
 30
0.0
 11
-0.0949999999999999
 21
-1.307166666666667
 31
0.0
  0
LINE
  5
145
330
100
100
AcDbEntity
  8
AM_9
100
AcDbLine
 10
0.0949999999999999
 20
-1.307166666666667
 30
0.0
 11
0.0724499999999997
 21
-1.284616666666667
 31
0.0
  0
ARC
  5
146
330
100
100
AcDbEntity
  8
AM_9
100
AcDbCircle
 10
-1.403857578016765
 20
0.9101875000000006
 30
0.0
 40
0.0999999999999992
100
AcDbArc
 50
90.0
 51
150.0000000000001
  0
ARC
  5
147
330
100
100
AcDbEntity
  8
AM_9
100
AcDbCircle
 10
1.403857578016765
 20
0.9101875000000007
 30
0.0
 40
0.0999999999999991
100
AcDbArc
 50
29.99999999999989
 51
90.0
  0
LINE
  5
148
330
100
100
AcDbEntity
  8
AM_9
100
AcDbLine
 10
1.53125
 20
1.0101875
 30
0.0
 11
-1.53125
 21
1.0101875
 31
0.0
  0
LINE
  5
149
330
100
100
AcDbEntity
  8
AM_9
100
AcDbLine
 10
-1.53125
 20
1.1205
 30
0.0
 11
-1.53125
 21
1.0101875
 31
0.0
  0
LINE
  5
14A
330
100
100
AcDbEntity
  8
AM_9
100
AcDbLine
 10
1.53125
 20
1.0101875
 30
0.0
 11
1.53125
 21
1.1205
 31
0.0
  0
LINE
  5
14B
330
100
100
AcDbEntity
  8
AM_9
100
AcDbLine
 10
1.490460118395209
 20
0.9601875000000001
 30
0.0
 11
-1.490460118395209
 21
0.9601875000000001
 31
0.0
  0
LINE
  5
14C
330
100
100
AcDbEntity
  8
AM_9
100
AcDbLine
 10
-1.490460118395209
 20
0.9601875000000001
 30
0.0
 11
-1.57165
 21
0.8195625
 31
0.0
  0
LINE
  5
14D
330
100
100
AcDbEntity
  8
AM_9
100
AcDbLine
 10
1.57165
 20
0.8195625
 30
0.0
 11
1.490460118395209
 21
0.9601875000000001
 31
0.0
  0
LINE
  5
14E
330
100
100
AcDbEntity
  8
AM_9
100
AcDbLine
 10
-1.288961096060209
 20
-1.120500001048639
 30
0.0
 11
-1.292108926166053
 21
-0.8671666666666668
 31
0.0
  0
LINE
  5
14F
330
100
100
AcDbEntity
  8
AM_9
100
AcDbLine
 10
-1.023408349315164
 20
-0.8671666666666664
 30
0.0
 11
-1.020260519209321
 21
-1.120500001048639
 31
0.0
  0
LINE
  5
150
330
100
100
AcDbEntity
  8
AM_9
100
AcDbLine
 10
1.020260519209321
 20
-1.120500001048639
 30
0.0
 11
1.023408349315165
 21
-0.8671666666666664
 31
0.0
  0
LINE
  5
151
330
100
100
AcDbEntity
  8
AM_9
100
AcDbLine
 10
1.292108926166053
 20
-0.8671666666666668
 30
0.0
 11
1.288961096060209
 21
-1.120500001048639
 31
0.0
  0
LINE
  5
152
330
100
100
AcDbEntity
  8
AM_9
100
AcDbLine
 10
1.643883278786602
 20
-1.1205
 30
0.0
 11
1.660252815327159
 21
-0.1826898796781364
 31
0.0
  0
LINE
  5
153
330
100
100
AcDbEntity
  8
AM_9
100
AcDbLine
 10
-1.660252815327159
 20
-0.1826898796781364
 30
0.0
 11
-1.643883278786602
 21
-1.1205
 31
0.0
  0
LINE
  5
154
330
100
100
AcDbEntity
  8
AM_9
100
AcDbLine
 10
1.660252815327159
 20
-0.1826898796781364
 30
0.0
 11
-1.660252815327159
 21
-0.1826898796781364
 31
0.0
  0
ARC
  5
155
330
100
100
AcDbEntity
  8
AM_9
100
AcDbCircle
 10
-1.710245200084978
 20
-0.1835625
 30
0.0
 40
0.0500000000000001
100
AcDbArc
 50
0.9999999999995357
 51
90.0
  0
ARC
  5
156
330
100
100
AcDbEntity
  8
AM_9
100
AcDbCircle
 10
1.710245200084979
 20
-0.1835625000000002
 30
0.0
 40
0.0500000000000003
100
AcDbArc
 50
90.0
 51
179.0000000000005
  0
LINE
  5
157
330
100
100
AcDbEntity
  8
AM_9
100
AcDbLine
 10
-1.72399375
 20
0.3505143487660681
 30
0.0
 11
-1.72399375
 21
0.2954856512339317
 31
0.0
  0
LINE
  5
158
330
100
100
AcDbEntity
  8
AM_9
100
AcDbLine
 10
1.72399375
 20
0.2954856512339317
 30
0.0
 11
1.72399375
 21
0.3505143487660681
 31
0.0
  0
LINE
  5
159
330
100
100
AcDbEntity
  8
AM_9
100
AcDbLine
 10
1.76165
 20
-0.1335625000000002
 30
0.0
 11
-1.761649999999038
 21
-0.1335625000000002
 31
0.0
  0
ARC
  5
15A
330
100
100
AcDbEntity
  8
AM_9
100
AcDbCircle
 10
-1.76165
 20
-0.1235625000000002
 30
0.0
 40
0.01
100
AcDbArc
 50
180.0
 51
270.0
  0
ARC
  5
15B
330
100
100
AcDbEntity
  8
AM_9
100
AcDbCircle
 10
1.76165
 20
-0.1235625000000002
 30
0.0
 40
0.01
100
AcDbArc
 50
270.0
 51
0.0
  0
LINE
  5
15C
330
100
100
AcDbEntity
  8
AM_9
100
AcDbLine
 10
1.72165
 20
0.8195624999999997
 30
0.0
 11
-1.721649999997528
 21
0.8195624999999997
 31
0.0
  0
ARC
  5
15D
330
100
100
AcDbEntity
  8
AM_9
100
AcDbCircle
 10
-1.72165
 20
0.7695624999999995
 30
0.0
 40
0.0500000000000003
100
AcDbArc
 50
90.0
 51
180.0
  0
ARC
  5
15E
330
100
100
AcDbEntity
  8
AM_9
100
AcDbCircle
 10
1.72165
 20
0.7695624999999999
 30
0.0
 40
0.0499999999999998
100
AcDbArc
 50
0.0
 51
90.0
  0
LINE
  5
15F
330
100
100
AcDbEntity
  8
AM_9
100
AcDbLine
 10
1.77165
 20
-0.1235625000000003
 30
0.0
 11
-1.77165
 21
-0.1235625000000003
 31
0.0
  0
LINE
  5
160
330
100
100
AcDbEntity
  8
AM_9
100
AcDbLine
 10
-1.77165
 20
0.2679713024678637
 30
0.0
 11
-1.77165
 21
-0.1235625000000003
 31
0.0
  0
LINE
  5
161
330
100
100
AcDbEntity
  8
AM_9
100
AcDbLine
 10
1.77165
 20
-0.1235625000000003
 30
0.0
 11
1.77165
 21
0.2679713024678637
 31
0.0
  0
LINE
  5
162
330
100
100
AcDbEntity
  8
AM_9
100
AcDbLine
 10
1.77165
 20
0.7695624999999997
 30
0.0
 11
-1.77165
 21
0.7695624999999997
 31
0.0
  0
LINE
  5
163
330
100
100
AcDbEntity
  8
AM_9
100
AcDbLine
 10
-1.77165
 20
0.7695624999999997
 30
0.0
 11
-1.77165
 21
0.378028697532136
 31
0.0
  0
LINE
  5
164
330
100
100
AcDbEntity
  8
AM_9
100
AcDbLine
 10
1.77165
 20
0.378028697532136
 30
0.0
 11
1.77165
 21
0.7695624999999997
 31
0.0
  0
LINE
  5
165
330
100
100
AcDbEntity
  8
AM_9
100
AcDbLine
 10
1.77165
 20
0.378028697532136
 30
0.0
 11
-1.77165
 21
0.378028697532136
 31
0.0
  0
LINE
  5
166
330
100
100
AcDbEntity
  8
AM_9
100
AcDbLine
 10
1.72399375
 20
0.3505143487660681
 30
0.0
 11
-1.72399375
 21
0.3505143487660681
 31
0.0
  0
LINE
  5
167
330
100
100
AcDbEntity
  8
AM_9
100
AcDbLine
 10
1.72399375
 20
0.3505143487660681
 30
0.0
 11
1.77165
 21
0.378028697532136
 31
0.0
  0
LINE
  5
168
330
100
100
AcDbEntity
  8
AM_9
100
AcDbLine
 10
-1.77165
 20
0.378028697532136
 30
0.0
 11
-1.72399375
 21
0.3505143487660681
 31
0.0
  0
LINE
  5
169
330
100
100
AcDbEntity
  8
AM_9
100
AcDbLine
 10
1.72399375
 20
0.2954856512339317
 30
0.0
 11
-1.72399375
 21
0.2954856512339317
 31
0.0
  0
LINE
  5
16A
330
100
100
AcDbEntity
  8
AM_9
100
AcDbLine
 10
1.77165
 20
0.2679713024678637
 30
0.0
 11
-1.77165
 21
0.2679713024678637
 31
0.0
  0
LINE
  5
16B
330
100
100
AcDbEntity
  8
AM_9
100
AcDbLine
 10
-1.72399375
 20
0.2954856512339317
 30
0.0
 11
-1.77165
 21
0.2679713024678637
 31
0.0
  0
LINE
  5
16C
330
100
100
AcDbEntity
  8
AM_9
100
AcDbLine
 10
1.77165
 20
0.2679713024678637
 30
0.0
 11
1.72399375
 21
0.2954856512339317
 31
0.0
  0
LINE
  5
16D
330
100
100
AcDbEntity
  8
AM_5
100
AcDbLine
 10
0.095
 20
-0.6071666666666665
 30
0.0
 11
0.0794273103968577
 21
-0.5801939770635244
 31
0.0
  0
LINE
  5
16E
330
100
100
AcDbEntity
  8
AM_5
100
AcDbLine
 10
0.0949999999999999
 20
-1.307166666666667
 30
0.0
 11
0.0949999999999999
 21
-0.6071666666666551
 31
0.0
  0
LINE
  5
16F
330
100
100
AcDbEntity
  8
AM_5
100
AcDbLine
 10
-0.0950000000000002
 20
-1.307166666666667
 30
0.0
 11
-0.0950000000000002
 21
-0.6071666666666551
 31
0.0
  0
LINE
  5
170
330
100
100
AcDbEntity
  8
AM_5
100
AcDbLine
 10
-0.095
 20
-0.6071666666666545
 30
0.0
 11
-0.079427310396874
 21
-0.5801939770635406
 31
0.0
  0
LINE
  5
173
330
100
100
AcDbEntity
  8
AM_7
100
AcDbLine
 10
0.0
 20
1.484
 30
0.0
 11
0.0
 21
-1.684
 31
0.0
  0
LINE
  5
174
330
100
100
AcDbEntity
  8
AM_4
100
AcDbLine
 10
-0.4446875375004128
 20
-1.54
 30
0.0
 11
-0.4446875375004129
 21
-1.377166666666667
 31
0.0
  0
LINE
  5
175
330
100
100
AcDbEntity
  8
AM_4
100
AcDbLine
 10
-0.288125611623998
 20
-1.54
 30
0.0
 11
-0.288125611623998
 21
-1.377166666666667
 31
0.0
  0
LINE
  5
176
330
100
100
AcDbEntity
  8
AM_4
100
AcDbLine
 10
-0.4636627228011424
 20
-1.377166666666667
 30
0.0
 11
-0.4636627228011425
 21
-1.54
 31
0.0
  0
LINE
  5
177
330
100
100
AcDbEntity
  8
AM_4
100
AcDbLine
 10
-0.986842105263158
 20
-1.377166666666667
 30
0.0
 11
-0.986842105263158
 21
-1.54
 31
0.0
  0
LINE
  5
178
330
100
100
AcDbEntity
  8
AM_4
100
AcDbLine
 10
0.986842105263158
 20
-1.54
 30
0.0
 11
0.986842105263158
 21
-1.377166666666667
 31
0.0
  0
LINE
  5
179
330
100
100
AcDbEntity
  8
AM_4
100
AcDbLine
 10
0.986842105263158
 20
-1.54
 30
0.0
 11
-0.986842105263158
 21
-1.54
 31
0.0
  0
LINE
  5
17A
330
100
100
AcDbEntity
  8
AM_4
100
AcDbLine
 10
1.078337841309485
 20
-1.1205
 30
0.0
 11
1.078337841309485
 21
-1.307166666666667
 31
0.0
  0
LINE
  5
17B
330
100
100
AcDbEntity
  8
AM_4
100
AcDbLine
 10
-1.078337841309485
 20
-1.1205
 30
0.0
 11
-1.078337841309485
 21
-1.307166666666667
 31
0.0
  0
LINE
  5
17C
330
100
100
AcDbEntity
  8
AM_4
100
AcDbLine
 10
1.53125
 20
1.34
 30
0.0
 11
-1.53125
 21
1.34
 31
0.0
  0
LINE
  5
17D
330
100
100
AcDbEntity
  8
AM_4
100
AcDbLine
 10
-1.53125
 20
1.34
 30
0.0
 11
-1.53125
 21
1.1205
 31
0.0
  0
LINE
  5
17E
330
100
100
AcDbEntity
  8
AM_4
100
AcDbLine
 10
1.53125
 20
1.1205
 30
0.0
 11
1.53125
 21
1.34
 31
0.0
  0
LINE
  5
17F
330
100
100
AcDbEntity
  8
AM_4
100
AcDbLine
 10
-1.286641569010567
 20
-1.307166666666667
 30
0.0
 11
-1.640625000000001
 21
-1.307166666666667
 31
0.0
  0
LINE
  5
180
330
100
100
AcDbEntity
  8
AM_4
100
AcDbLine
 10
-1.286641569010567
 20
-1.307166666666667
 30
0.0
 11
-1.288961096060209
 21
-1.120500001048639
 31
0.0
  0
LINE
  5
181
330
100
100
AcDbEntity
  8
AM_4
100
AcDbLine
 10
-1.020260519209321
 20
-1.120500001048639
 30
0.0
 11
-1.017940992159678
 21
-1.307166666666667
 31
0.0
  0
LINE
  5
182
330
100
100
AcDbEntity
  8
AM_4
100
AcDbLine
 10
1.017940992159679
 20
-1.307166666666667
 30
0.0
 11
-1.017940992159678
 21
-1.307166666666667
 31
0.0
  0
LINE
  5
183
330
100
100
AcDbEntity
  8
AM_4
100
AcDbLine
 10
1.017940992159679
 20
-1.307166666666667
 30
0.0
 11
1.020260519209321
 21
-1.120500001048639
 31
0.0
  0
LINE
  5
184
330
100
100
AcDbEntity
  8
AM_4
100
AcDbLine
 10
1.288961096060209
 20
-1.120500001048639
 30
0.0
 11
1.286641569010567
 21
-1.307166666666667
 31
0.0
  0
LINE
  5
185
330
100
100
AcDbEntity
  8
AM_4
100
AcDbLine
 10
1.640625000000001
 20
-1.307166666666667
 30
0.0
 11
1.643883278786602
 21
-1.1205
 31
0.0
  0
LINE
  5
186
330
100
100
AcDbEntity
  8
AM_4
100
AcDbLine
 10
-1.643883278786602
 20
-1.1205
 30
0.0
 11
-1.640625000000001
 21
-1.307166666666667
 31
0.0
  0
LINE
  5
187
330
100
100
AcDbEntity
  8
AM_4
100
AcDbLine
 10
1.640625000000001
 20
-1.307166666666667
 30
0.0
 11
1.286641569010567
 21
-1.307166666666667
 31
0.0
  0
ENDBLK
  5
103
330
100
100
AcDbEntity
  8
0
100
AcDbBlockEnd
  0
BLOCK
  5
18A
330
188
100
AcDbEntity
  8
0
100
AcDbBlockBegin
  2
6_405015E_Inch_0_in_071189_4
 70
     2
 10
0.0
 20
0.0
 30
0.0
  3
6_405015E_Inch_0_in_071189_4
  1

  0
ATTDEF
  5
18C
330
188
100
AcDbEntity
  8
AM_6
100
AcDbText
 10
6.436421671481427
 20
0.2525907427704613
 30
0.0
 40
0.5
  1
405015E -Inch
100
AcDbAttributeDefinition
  3

  2
NN
 70
     8
280
     0
  0
ATTDEF
  5
18D
330
188
100
AcDbEntity
  8
AM_6
100
AcDbText
 10
6.436421671481427
 20
-0.2474092572295387
 30
0.0
 40
0.5
  1
Grease Fitting
100
AcDbAttributeDefinition
  3

  2
NT
 70
     8
280
     0
  0
ATTDEF
  5
18E
330
188
100
AcDbEntity
  8
AM_6
100
AcDbText
 10
6.436421671481427
 20
-0.7474092572295387
 30
0.0
 40
0.5
  1
405015E-Inch
100
AcDbAttributeDefinition
  3

  2
NB
 70
     8
280
     0
  0
ATTDEF
  5
18F
330
188
100
AcDbEntity
  8
AM_6
100
AcDbText
 10
6.436421671481427
 20
-1.247409257229539
 30
0.0
 40
0.5
  1
$MN.-Inch
100
AcDbAttributeDefinition
  3

  2
NBSYN
 70
     8
280
     0
  0
ATTDEF
  5
190
330
188
100
AcDbEntity
  8
AM_6
100
AcDbText
 10
6.436421671481427
 20
-1.747409257229539
 30
0.0
 40
0.5
  1
405015E
100
AcDbAttributeDefinition
  3

  2
LINA
 70
     8
280
     0
  0
ATTDEF
  5
191
330
188
100
AcDbEntity
  8
AM_6
100
AcDbText
 10
6.436421671481427
 20
-2.247409257229539
 30
0.0
 40
0.5
  1
405015E
100
AcDbAttributeDefinition
  3

  2
MN
 70
     8
280
     0
  0
ATTDEF
  5
192
330
188
100
AcDbEntity
  8
AM_6
100
AcDbText
 10
6.436421671481427
 20
-2.747409257229539
 30
0.0
 40
0.5
  1
1/8 x 27PTF
100
AcDbAttributeDefinition
  3

  2
T
 70
     8
280
     0
  0
ATTDEF
  5
193
330
188
100
AcDbEntity
  8
AM_6
100
AcDbText
 10
6.436421671481427
 20
-3.247409257229539
 30
0.0
 40
0.5
  1
baldor
100
AcDbAttributeDefinition
  3

  2
COMPANY
 70
     8
280
     0
  0
ELLIPSE
  5
194
330
188
100
AcDbEntity
  8
AM_9
100
AcDbEllipse
 10
1.0275
 20
0.0000000000000001
 30
0.0
 11
9.913691727296317E-18
 21
0.161902872472269
 31
0.0
210
0.0
220
0.0
230
1.0
 40
0.8660254037844383
 41
0.0
 42
6.283185307179586
  0
LWPOLYLINE
  5
195
330
188
100
AcDbEntity
  8
AM_9
100
AcDbPolyline
 90
        3
 70
     0
 43
0.0
 10
1.254721528538923
 20
0.1894430570778461
 10
1.303278983200902
 20
0.1578692142315384
 10
1.353976856926153
 20
0.1262953713852308
  0
LINE
  5
196
330
188
100
AcDbEntity
  8
AM_9
100
AcDbLine
 10
1.349638494115893
 20
0.0253048675659355
 30
0.0
 11
1.349443057077846
 21
0.0000000000000001
 31
0.0
  0
LWPOLYLINE
  5
197
330
188
100
AcDbEntity
  8
AM_9
100
AcDbPolyline
 90
        3
 70
     0
 43
0.0
 10
1.353976856926153
 20
0.1262953713852308
 10
1.350650319552656
 20
0.0634316146914368
 10
1.349638494115893
 20
0.0253048675659355
  0
LWPOLYLINE
  5
198
330
188
100
AcDbEntity
  8
AM_9
100
AcDbPolyline
 90
        3
 70
     0
 43
0.0
 10
1.353976856926153
 20
-0.1262953713852305
 10
1.30350250203231
 20
-0.1577272497321275
 10
1.254721528538923
 20
-0.1894430570778458
  0
LWPOLYLINE
  5
199
330
188
100
AcDbEntity
  8
AM_9
100
AcDbPolyline
 90
        4
 70
     0
 43
0.0
 10
1.349691386036011
 20
-0.0285370795617597
 10
1.350151837436414
 20
-0.0483998160558988
 10
1.352184263336768
 20
-0.0967996321117977
 10
1.353976856926153
 20
-0.1262953713852305
  0
LINE
  5
19A
330
188
100
AcDbEntity
  8
AM_9
100
AcDbLine
 10
1.349443057077846
 20
0.0000000000000001
 30
0.0
 11
1.349691386036011
 21
-0.0285370795617597
 31
0.0
  0
LINE
  5
19B
330
188
100
AcDbEntity
  8
AM_9
100
AcDbLine
 10
1.394909257229538
 20
-0.1262953713852305
 30
0.0
 11
1.353976856926153
 21
-0.1262953713852305
 31
0.0
  0
LINE
  5
19C
330
188
100
AcDbEntity
  8
AM_9
100
AcDbLine
 10
1.394909257229538
 20
0.1262953713852308
 30
0.0
 11
1.353976856926153
 21
0.1262953713852308
 31
0.0
  0
LWPOLYLINE
  5
19D
330
188
100
AcDbEntity
  8
AM_9
100
AcDbPolyline
 90
        3
 70
     0
 43
0.0
 10
1.397177294546634
 20
-0.0876639037391227
 10
1.39873014295631
 20
-0.0485424412477542
 10
1.399443057077846
 20
0.0000000000000001
  0
LWPOLYLINE
  5
19E
330
188
100
AcDbEntity
  8
AM_9
100
AcDbPolyline
 90
        3
 70
     0
 43
0.0
 10
1.399443057077846
 20
0.0000000000000001
 10
1.398246366685328
 20
0.0631476856926154
 10
1.397167864371098
 20
0.0878529476487881
  0
LWPOLYLINE
  5
19F
330
188
100
AcDbEntity
  8
AM_9
100
AcDbPolyline
 90
        3
 70
     0
 43
0.0
 10
1.254721528538923
 20
-0.1894430570778458
 10
1.208557454661978
 20
-0.2210168999241534
 10
1.164533799848307
 20
-0.2525907427704611
  0
LWPOLYLINE
  5
1A0
330
188
100
AcDbEntity
  8
AM_9
100
AcDbPolyline
 90
        3
 70
     0
 43
0.0
 10
1.164533799848307
 20
0.2525907427704613
 10
1.208355079995155
 20
0.2211588644235644
 10
1.254721528538923
 20
0.1894430570778461
  0
LINE
  5
1A1
330
188
100
AcDbEntity
  8
AM_9
100
AcDbLine
 10
1.036546710626154
 20
-0.1983264404626878
 30
0.0
 11
1.15035489783229
 21
-0.2054502516015133
 31
0.0
  0
LINE
  5
1A2
330
188
100
AcDbEntity
  8
AM_9
100
AcDbLine
 10
1.15035489783229
 20
0.2054502516015136
 30
0.0
 11
1.036546710626154
 21
0.1983264404626881
 31
0.0
  0
ELLIPSE
  5
1A3
330
188
100
AcDbEntity
  8
AM_9
100
AcDbEllipse
 10
1.21
 20
-0.0000000000000003
 30
0.0
 11
-4.018372309702227E-17
 21
-0.2187499999999986
 31
0.0
210
0.0
220
0.0
230
1.0
 40
0.8660254037844414
 41
1.032970329615005
 42
2.108622323974792
  0
ELLIPSE
  5
1A4
330
188
100
AcDbEntity
  8
AM_9
100
AcDbEllipse
 10
1.210000000000001
 20
0.0000000000000002
 30
0.0
 11
-3.926523799766189E-17
 21
-0.2137499999999994
 31
0.0
210
0.0
220
0.0
230
1.0
 40
0.8660254037844354
 41
0.9862868522353514
 42
2.155305801354442
  0
ELLIPSE
  5
1A5
330
188
100
AcDbEntity
  8
AM_9
100
AcDbEllipse
 10
1.21915909927044
 20
0.0000000000000001
 30
0.0
 11
-3.169399141454458E-17
 21
-0.1725340532830155
 31
0.0
210
0.0
220
0.0
230
1.0
 40
0.8660254037844407
 41
0.6732704101474782
 42
2.468322243442314
  0
LINE
  5
1A6
330
188
100
AcDbEntity
  8
AM_9
100
AcDbLine
 10
1.329999999999999
 20
0.0703562363973518
 30
0.0
 11
1.322760904853149
 21
0.0796165180238022
 31
0.0
  0
LINE
  5
1A7
330
188
100
AcDbEntity
  8
AM_9
100
AcDbLine
 10
1.322760904853149
 20
-0.0796165180238019
 30
0.0
 11
1.33
 21
-0.0703562363973515
 31
0.0
  0
ELLIPSE
  5
1A8
330
188
100
AcDbEntity
  8
AM_9
100
AcDbEllipse
 10
1.246376560809286
 20
0.0000000000000002
 30
0.0
 11
-2.182689656893354E-17
 21
-0.1188200907348975
 31
0.0
210
0.0
220
0.0
230
1.0
 40
0.8660254037844387
 41
0.0521714424105522
 42
3.089421211179245
  0
ELLIPSE
  5
1A9
330
188
100
AcDbEntity
  8
AM_9
100
AcDbEllipse
 10
1.262499999999992
 20
-0.0000000000000015
 30
0.0
 11
-1.928818708657051E-17
 21
-0.1049999999999983
 31
0.0
210
0.0
220
0.0
230
1.0
 40
0.8660254037844272
 41
5.858105981271191
 42
9.849857286677763
  0
LINE
  5
1AA
330
188
100
AcDbEntity
  8
AM_9
100
AcDbLine
 10
1.2625
 20
-0.1049999999999999
 30
0.0
 11
1.2775
 21
-0.1049999999999999
 31
0.0
  0
LINE
  5
1AB
330
188
100
AcDbEntity
  8
AM_9
100
AcDbLine
 10
1.2775
 20
0.1050000000000001
 30
0.0
 11
1.2625
 21
0.1050000000000001
 31
0.0
  0
ELLIPSE
  5
1AC
330
188
100
AcDbEntity
  8
AM_9
100
AcDbEllipse
 10
1.2775
 20
0.0000000000000001
 30
0.0
 11
-1.928818708657083E-17
 21
-0.1050000000000001
 31
0.0
210
0.0
220
0.0
230
1.0
 40
0.8660254037844378
 41
5.23598775598299
 42
10.47197551196598
  0
ELLIPSE
  5
1AD
330
188
100
AcDbEntity
  8
AM_9
100
AcDbEllipse
 10
1.3075
 20
0.0000000000000002
 30
0.0
 11
-2.479909768273392E-17
 21
-0.1350000000000001
 31
0.0
210
0.0
220
0.0
230
1.0
 40
0.866025403784437
 41
0.77510901071512
 42
2.366483642874673
  0
ELLIPSE
  5
1AE
330
188
100
AcDbEntity
  8
AM_9
100
AcDbEllipse
 10
1.159999999999999
 20
0.0000000000000004
 30
0.0
 11
-4.018372309702245E-17
 21
-0.2187499999999996
 31
0.0
210
0.0
220
0.0
230
1.0
 40
0.8660254037844375
 41
0.0
 42
6.283185307179586
  0
ELLIPSE
  5
1AF
330
188
100
AcDbEntity
  8
AM_9
100
AcDbEllipse
 10
1.159999999999908
 20
-0.0000000000000245
 30
0.0
 11
-3.779601035291363E-17
 21
-0.2057518972230942
 31
0.0
210
0.0
220
0.0
230
1.0
 40
0.86602540378443
 41
0.0
 42
6.283185307179586
  0
ELLIPSE
  5
1B0
330
188
100
AcDbEntity
  8
AM_9
100
AcDbEllipse
 10
1.045857377154605
 20
-0.0000000000000387
 30
0.0
 11
-3.648546613378600E-17
 21
-0.1986176267812543
 31
0.0
210
0.0
220
0.0
230
1.0
 40
0.8660254037844636
 41
0.0
 42
6.283185307179586
  0
LWPOLYLINE
  5
1B1
330
188
100
AcDbEntity
  8
AM_4
100
AcDbPolyline
 90
        3
 70
     0
 43
0.0
 10
1.304721528538922
 20
-0.1894430570778458
 10
1.350885602415867
 20
-0.1578692142315382
 10
1.394909257229538
 20
-0.1262953713852305
  0
LINE
  5
1B2
330
188
100
AcDbEntity
  8
AM_4
100
AcDbLine
 10
1.394909257229538
 20
-0.1262953713852305
 30
0.0
 11
1.397177294546634
 21
-0.0876639037391227
 31
0.0
  0
LWPOLYLINE
  5
1B3
330
188
100
AcDbEntity
  8
AM_4
100
AcDbPolyline
 90
        3
 70
     0
 43
0.0
 10
1.394909257229538
 20
0.1262953713852308
 10
1.35108797708269
 20
0.1577272497321277
 10
1.304721528538922
 20
0.1894430570778461
  0
LINE
  5
1B4
330
188
100
AcDbEntity
  8
AM_4
100
AcDbLine
 10
1.397167864371098
 20
0.0878529476487881
 30
0.0
 11
1.394909257229538
 21
0.1262953713852308
 31
0.0
  0
LWPOLYLINE
  5
1B5
330
188
100
AcDbEntity
  8
AM_4
100
AcDbPolyline
 90
        3
 70
     0
 43
0.0
 10
1.304721528538922
 20
0.1894430570778461
 10
1.256164073876944
 20
0.2210168999241537
 10
1.205466200151692
 20
0.2525907427704613
  0
LWPOLYLINE
  5
1B6
330
188
100
AcDbEntity
  8
AM_4
100
AcDbPolyline
 90
        3
 70
     0
 43
0.0
 10
1.205466200151692
 20
-0.2525907427704611
 10
1.255940555045535
 20
-0.2211588644235642
 10
1.304721528538922
 20
-0.1894430570778458
  0
LWPOLYLINE
  5
1B7
330
188
100
AcDbEntity
  8
AM_4
100
AcDbPolyline
 90
        4
 70
     0
 43
0.0
 10
1.020556942922154
 20
0.0000000000000001
 10
1.019848162563585
 20
-0.0483998160558988
 10
1.017815736663232
 20
-0.0967996321117977
 10
1.016023143073846
 20
-0.1262953713852305
  0
LWPOLYLINE
  5
1B8
330
188
100
AcDbEntity
  8
AM_4
100
AcDbPolyline
 90
        3
 70
     0
 43
0.0
 10
0.9705569429221538
 20
0.0000000000000001
 10
0.971753633314671
 20
0.0631476856926155
 10
0.975090742770461
 20
0.1262953713852308
  0
LWPOLYLINE
  5
1B9
330
188
100
AcDbEntity
  8
AM_4
100
AcDbPolyline
 90
        4
 70
     0
 43
0.0
 10
0.975090742770461
 20
-0.1262953713852305
 10
0.9732981491810756
 20
-0.0967996321117977
 10
0.9712698570436897
 20
-0.0485424412477542
 10
0.9705569429221538
 20
0.0000000000000001
  0
LWPOLYLINE
  5
1BA
330
188
100
AcDbEntity
  8
AM_4
100
AcDbPolyline
 90
        3
 70
     0
 43
0.0
 10
1.016023143073846
 20
0.1262953713852308
 10
1.019349680447344
 20
0.0634316146914369
 10
1.020556942922154
 20
0.0000000000000001
  0
LINE
  5
1BB
330
188
100
AcDbEntity
  8
AM_4
100
AcDbLine
 10
1.016023143073846
 20
0.1262953713852308
 30
0.0
 11
0.975090742770461
 21
0.1262953713852308
 31
0.0
  0
LWPOLYLINE
  5
1BC
330
188
100
AcDbEntity
  8
AM_4
100
AcDbPolyline
 90
        3
 70
     0
 43
0.0
 10
1.115278471461077
 20
0.1894430570778461
 10
1.066721016799098
 20
0.1578692142315385
 10
1.016023143073846
 20
0.1262953713852308
  0
LWPOLYLINE
  5
1BD
330
188
100
AcDbEntity
  8
AM_4
100
AcDbPolyline
 90
        3
 70
     0
 43
0.0
 10
1.205466200151692
 20
0.2525907427704613
 10
1.161644920004844
 20
0.2211588644235644
 10
1.115278471461077
 20
0.1894430570778461
  0
LINE
  5
1BE
330
188
100
AcDbEntity
  8
AM_4
100
AcDbLine
 10
1.205466200151692
 20
0.2525907427704613
 30
0.0
 11
1.164533799848307
 21
0.2525907427704613
 31
0.0
  0
LWPOLYLINE
  5
1BF
330
188
100
AcDbEntity
  8
AM_4
100
AcDbPolyline
 90
        3
 70
     0
 43
0.0
 10
1.065278471461077
 20
0.1894430570778461
 10
1.113835926123055
 20
0.2210168999241537
 10
1.164533799848307
 20
0.2525907427704613
  0
LWPOLYLINE
  5
1C0
330
188
100
AcDbEntity
  8
AM_4
100
AcDbPolyline
 90
        3
 70
     0
 43
0.0
 10
0.975090742770461
 20
0.1262953713852308
 10
1.018912022917309
 20
0.1577272497321277
 10
1.065278471461077
 20
0.1894430570778461
  0
LINE
  5
1C1
330
188
100
AcDbEntity
  8
AM_4
100
AcDbLine
 10
1.205466200151692
 20
-0.2525907427704611
 30
0.0
 11
1.164533799848307
 21
-0.2525907427704611
 31
0.0
  0
LWPOLYLINE
  5
1C2
330
188
100
AcDbEntity
  8
AM_4
100
AcDbPolyline
 90
        3
 70
     0
 43
0.0
 10
1.115278471461077
 20
-0.1894430570778458
 10
1.161442545338021
 20
-0.2210168999241534
 10
1.205466200151692
 20
-0.2525907427704611
  0
LWPOLYLINE
  5
1C3
330
188
100
AcDbEntity
  8
AM_4
100
AcDbPolyline
 90
        3
 70
     0
 43
0.0
 10
1.016023143073846
 20
-0.1262953713852305
 10
1.066497497967689
 20
-0.1577272497321275
 10
1.115278471461077
 20
-0.1894430570778458
  0
LINE
  5
1C4
330
188
100
AcDbEntity
  8
AM_4
100
AcDbLine
 10
1.016023143073846
 20
-0.1262953713852305
 30
0.0
 11
0.975090742770461
 21
-0.1262953713852305
 31
0.0
  0
LWPOLYLINE
  5
1C5
330
188
100
AcDbEntity
  8
AM_4
100
AcDbPolyline
 90
        3
 70
     0
 43
0.0
 10
1.065278471461077
 20
-0.1894430570778458
 10
1.019114397584132
 20
-0.1578692142315382
 10
0.975090742770461
 20
-0.1262953713852305
  0
LWPOLYLINE
  5
1C6
330
188
100
AcDbEntity
  8
AM_4
100
AcDbPolyline
 90
        3
 70
     0
 43
0.0
 10
1.164533799848307
 20
-0.2525907427704611
 10
1.114059444954464
 20
-0.2211588644235641
 10
1.065278471461077
 20
-0.1894430570778458
  0
ELLIPSE
  5
1C7
330
188
100
AcDbEntity
  8
AM_4
100
AcDbEllipse
 10
1.21
 20
0.0000000000000009
 30
0.0
 11
-4.018372309702268E-17
 21
-0.2187500000000009
 31
0.0
210
0.0
220
0.0
230
1.0
 40
0.8660254037844367
 41
2.108622323974784
 42
7.31615563679459
  0
ELLIPSE
  5
1C8
330
188
100
AcDbEntity
  8
AM_4
100
AcDbEllipse
 10
1.210000000000001
 20
0.0
 30
0.0
 11
-3.926523799766204E-17
 21
-0.2137500000000002
 31
0.0
210
0.0
220
0.0
230
1.0
 40
0.8660254037844362
 41
2.155305801354444
 42
7.269472159414937
  0
ELLIPSE
  5
1C9
330
188
100
AcDbEntity
  8
AM_4
100
AcDbEllipse
 10
1.21915909927044
 20
0.0
 30
0.0
 11
-3.169399141454458E-17
 21
-0.1725340532830156
 31
0.0
210
0.0
220
0.0
230
1.0
 40
0.8660254037844395
 41
2.468322243442313
 42
6.956455717327067
  0
ELLIPSE
  5
1CA
330
188
100
AcDbEntity
  8
AM_4
100
AcDbEllipse
 10
1.246376560809286
 20
0.0
 30
0.0
 11
-2.182689656893356E-17
 21
-0.1188200907348976
 31
0.0
210
0.0
220
0.0
230
1.0
 40
0.8660254037844304
 41
3.089421211179243
 42
6.335356749590137
  0
ELLIPSE
  5
1CB
330
188
100
AcDbEntity
  8
AM_4
100
AcDbEllipse
 10
1.262499999999999
 20
0.0000000000000001
 30
0.0
 11
-1.928818708657076E-17
 21
-0.1049999999999997
 31
0.0
210
0.0
220
0.0
230
1.0
 40
0.8660254037844367
 41
3.566671979498246
 42
5.858105981271134
  0
LINE
  5
1CC
330
188
100
AcDbEntity
  8
AM_4
100
AcDbLine
 10
1.19875
 20
-0.0525
 30
0.0
 11
1.20625
 21
-0.0675
 31
0.0
  0
LINE
  5
1CD
330
188
100
AcDbEntity
  8
AM_4
100
AcDbLine
 10
1.20625
 20
0.0675000000000003
 30
0.0
 11
1.19875
 21
0.0525000000000003
 31
0.0
  0
ELLIPSE
  5
1CE
330
188
100
AcDbEntity
  8
AM_4
100
AcDbEllipse
 10
1.277499999999999
 20
0.0000000000000001
 30
0.0
 11
-1.928818708657068E-17
 21
-0.1049999999999993
 31
0.0
210
0.0
220
0.0
230
1.0
 40
0.866025403784438
 41
4.188790204786386
 42
5.235987755982993
  0
LINE
  5
1CF
330
188
100
AcDbEntity
  8
AM_4
100
AcDbLine
 10
1.409726847792107
 20
0.0733474205218689
 30
0.0
 11
1.389315310731619
 21
0.0964365416902993
 31
0.0
  0
LINE
  5
1D0
330
188
100
AcDbEntity
  8
AM_4
100
AcDbLine
 10
1.389315310731619
 20
-0.096436541690299
 30
0.0
 11
1.409726847792107
 21
-0.0733474205218686
 31
0.0
  0
ELLIPSE
  5
1D1
330
188
100
AcDbEntity
  8
AM_4
100
AcDbEllipse
 10
1.307500000000001
 20
0.0000000000000012
 30
0.0
 11
-2.479909768273372E-17
 21
-0.134999999999999
 31
0.0
210
0.0
220
0.0
230
1.0
 40
0.8660254037844344
 41
2.366483642874675
 42
7.058294317894694
  0
ELLIPSE
  5
1D2
330
188
100
AcDbEntity
  8
AM_4
100
AcDbEllipse
 10
1.3475
 20
0.0000000000000003
 30
0.0
 11
-1.886162459184657E-17
 21
-0.1026779019331874
 31
0.0
210
0.0
220
0.0
230
1.0
 40
0.8660254037844384
 41
0.0
 42
6.283185307179586
  0
ENDBLK
  5
18B
330
188
100
AcDbEntity
  8
0
100
AcDbBlockEnd
  0
BLOCK
  5
1D5
330
1D3
100
AcDbEntity
  8
0
100
AcDbBlockBegin
  2
7_071189Ho_0_in_071189_4
 70
     2
 10
0.0
 20
0.0
 30
0.0
  3
7_071189Ho_0_in_071189_4
  1

  0
ATTDEF
  5
1D7
330
1D3
100
AcDbEntity
  8
AM_6
100
AcDbText
 10
9.435
 20
1.245
 30
0.0
 40
0.5
  1
EP2B-IP -(Labyrinth Seal)-Housing -Inch
100
AcDbAttributeDefinition
  3

  2
NN
 70
     8
280
     0
  0
ATTDEF
  5
1D8
330
1D3
100
AcDbEntity
  8
AM_6
100
AcDbText
 10
9.435
 20
0.7450000000000001
 30
0.0
 40
0.5
  1
Imperial/E 2 Bolt Piliow Block Bearings
100
AcDbAttributeDefinition
  3

  2
NT
 70
     8
280
     0
  0
ATTDEF
  5
1D9
330
1D3
100
AcDbEntity
  8
AM_6
100
AcDbText
 10
9.435
 20
0.2450000000000001
 30
0.0
 40
0.5
  1
071189Ho
100
AcDbAttributeDefinition
  3

  2
NB
 70
     8
280
     0
  0
ATTDEF
  5
1DA
330
1D3
100
AcDbEntity
  8
AM_6
100
AcDbText
 10
9.435
 20
-0.2549999999999999
 30
0.0
 40
0.5
  1
$PN.Ho
100
AcDbAttributeDefinition
  3

  2
NBSYN
 70
     8
280
     0
  0
ATTDEF
  5
1DB
330
1D3
100
AcDbEntity
  8
AM_6
100
AcDbText
 10
9.435
 20
-0.7549999999999999
 30
0.0
 40
0.5
  1
071189
100
AcDbAttributeDefinition
  3

  2
LINA
 70
     8
280
     0
  0
ATTDEF
  5
1DC
330
1D3
100
AcDbEntity
  8
AM_6
100
AcDbText
 10
9.435
 20
-1.255
 30
0.0
 40
0.5
  1
1-7/8
100
AcDbAttributeDefinition
  3

  2
SS
 70
     8
280
     0
  0
ATTDEF
  5
1DD
330
1D3
100
AcDbEntity
  8
AM_6
100
AcDbText
 10
9.435
 20
-1.755
 30
0.0
 40
0.5
  1
1.875000
100
AcDbAttributeDefinition
  3

  2
SS1
 70
     8
280
     0
  0
ATTDEF
  5
1DE
330
1D3
100
AcDbEntity
  8
AM_6
100
AcDbText
 10
9.435
 20
-2.255
 30
0.0
 40
0.5
  1
Expansion
100
AcDbAttributeDefinition
  3

  2
TYPE
 70
     8
280
     0
  0
ATTDEF
  5
1DF
330
1D3
100
AcDbEntity
  8
AM_6
100
AcDbText
 10
9.435
 20
-2.755
 30
0.0
 40
0.5
  1
071168
100
AcDbAttributeDefinition
  3

  2
PN1
 70
     8
280
     0
  0
ATTDEF
  5
1E0
330
1D3
100
AcDbEntity
  8
AM_6
100
AcDbText
 10
9.435
 20
-3.255
 30
0.0
 40
0.5
  1
071189
100
AcDbAttributeDefinition
  3

  2
PN2
 70
     8
280
     0
  0
ATTDEF
  5
1E1
330
1D3
100
AcDbEntity
  8
AM_6
100
AcDbText
 10
9.435
 20
-3.755
 30
0.0
 40
0.5
  1
EP2B-IP-114L
100
AcDbAttributeDefinition
  3

  2
DES1
 70
     8
280
     0
  0
ATTDEF
  5
1E2
330
1D3
100
AcDbEntity
  8
AM_6
100
AcDbText
 10
9.435
 20
-4.255
 30
0.0
 40
0.5
  1
Non-Expansion Type
100
AcDbAttributeDefinition
  3

  2
EF
 70
     8
280
     0
  0
ATTDEF
  5
1E3
330
1D3
100
AcDbEntity
  8
AM_6
100
AcDbText
 10
9.435
 20
-4.755
 30
0.0
 40
0.5
  1
1
100
AcDbAttributeDefinition
  3

  2
EF1
 70
     8
280
     0
  0
ATTDEF
  5
1E4
330
1D3
100
AcDbEntity
  8
AM_6
100
AcDbText
 10
9.435
 20
-5.255
 30
0.0
 40
0.5
  1
Labyrinth Seal
100
AcDbAttributeDefinition
  3

  2
ST
 70
     8
280
     0
  0
ATTDEF
  5
1E5
330
1D3
100
AcDbEntity
  8
AM_6
100
AcDbText
 10
9.435
 20
-5.755
 30
0.0
 40
0.5
  1
1
100
AcDbAttributeDefinition
  3

  2
ST1
 70
     8
280
     0
  0
ATTDEF
  5
1E6
330
1D3
100
AcDbEntity
  8
AM_6
100
AcDbText
 10
9.435
 20
-6.255
 30
0.0
 40
0.5
  1
2.86
100
AcDbAttributeDefinition
  3

  2
A
 70
     8
280
     0
  0
ATTDEF
  5
1E7
330
1D3
100
AcDbEntity
  8
AM_6
100
AcDbText
 10
9.435
 20
-6.755
 30
0.0
 40
0.5
  1
2.8600000
100
AcDbAttributeDefinition
  3

  2
A1
 70
     8
280
     0
  0
ATTDEF
  5
1E8
330
1D3
100
AcDbEntity
  8
AM_6
100
AcDbText
 10
9.435
 20
-7.255
 30
0.0
 40
0.5
  1
8.87
100
AcDbAttributeDefinition
  3

  2
B
 70
     8
280
     0
  0
ATTDEF
  5
1E9
330
1D3
100
AcDbEntity
  8
AM_6
100
AcDbText
 10
9.435
 20
-7.755
 30
0.0
 40
0.5
  1
8.8700000
100
AcDbAttributeDefinition
  3

  2
B1
 70
     8
280
     0
  0
ATTDEF
  5
1EA
330
1D3
100
AcDbEntity
  8
AM_6
100
AcDbText
 10
9.435
 20
-8.254999999999999
 30
0.0
 40
0.5
  1
2.49
100
AcDbAttributeDefinition
  3

  2
C
 70
     8
280
     0
  0
ATTDEF
  5
1EB
330
1D3
100
AcDbEntity
  8
AM_6
100
AcDbText
 10
9.435
 20
-8.754999999999999
 30
0.0
 40
0.5
  1
2.4900000
100
AcDbAttributeDefinition
  3

  2
C1
 70
     8
280
     0
  0
ATTDEF
  5
1EC
330
1D3
100
AcDbEntity
  8
AM_6
100
AcDbText
 10
9.435
 20
-9.254999999999999
 30
0.0
 40
0.5
  1
6.88
100
AcDbAttributeDefinition
  3

  2
DMIN
 70
     8
280
     0
  0
ATTDEF
  5
1ED
330
1D3
100
AcDbEntity
  8
AM_6
100
AcDbText
 10
9.435
 20
-9.754999999999999
 30
0.0
 40
0.5
  1
6.8800000
100
AcDbAttributeDefinition
  3

  2
DMIN1
 70
     8
280
     0
  0
ATTDEF
  5
1EE
330
1D3
100
AcDbEntity
  8
AM_6
100
AcDbText
 10
9.435
 20
-10.255
 30
0.0
 40
0.5
  1
7.12
100
AcDbAttributeDefinition
  3

  2
DMAX
 70
     8
280
     0
  0
ATTDEF
  5
1EF
330
1D3
100
AcDbEntity
  8
AM_6
100
AcDbText
 10
9.435
 20
-10.755
 30
0.0
 40
0.5
  1
7.1200000
100
AcDbAttributeDefinition
  3

  2
DMAX1
 70
     8
280
     0
  0
ATTDEF
  5
1F0
330
1D3
100
AcDbEntity
  8
AM_6
100
AcDbText
 10
9.435
 20
-11.255
 30
0.0
 40
0.5
  1
5/8
100
AcDbAttributeDefinition
  3

  2
F
 70
     8
280
     0
  0
ATTDEF
  5
1F1
330
1D3
100
AcDbEntity
  8
AM_6
100
AcDbText
 10
9.435
 20
-11.755
 30
0.0
 40
0.5
  1
0.6250000
100
AcDbAttributeDefinition
  3

  2
F1
 70
     8
280
     0
  0
ATTDEF
  5
1F2
330
1D3
100
AcDbEntity
  8
AM_6
100
AcDbText
 10
9.435
 20
-12.255
 30
0.0
 40
0.5
  1
0.88
100
AcDbAttributeDefinition
  3

  2
G
 70
     8
280
     0
  0
ATTDEF
  5
1F3
330
1D3
100
AcDbEntity
  8
AM_6
100
AcDbText
 10
9.435
 20
-12.755
 30
0.0
 40
0.5
  1
0.880000
100
AcDbAttributeDefinition
  3

  2
G1
 70
     8
280
     0
  0
ATTDEF
  5
1F4
330
1D3
100
AcDbEntity
  8
AM_6
100
AcDbText
 10
9.435
 20
-13.255
 30
0.0
 40
0.5
  1
1.31
100
AcDbAttributeDefinition
  3

  2
H
 70
     8
280
     0
  0
ATTDEF
  5
1F5
330
1D3
100
AcDbEntity
  8
AM_6
100
AcDbText
 10
9.435
 20
-13.755
 30
0.0
 40
0.5
  1
1.3100000
100
AcDbAttributeDefinition
  3

  2
H1
 70
     8
280
     0
  0
ATTDEF
  5
1F6
330
1D3
100
AcDbEntity
  8
AM_6
100
AcDbText
 10
9.435
 20
-14.255
 30
0.0
 40
0.5
  1
4.47
100
AcDbAttributeDefinition
  3

  2
J
 70
     8
280
     0
  0
ATTDEF
  5
1F7
330
1D3
100
AcDbEntity
  8
AM_6
100
AcDbText
 10
9.435
 20
-14.755
 30
0.0
 40
0.5
  1
4.470000
100
AcDbAttributeDefinition
  3

  2
J1
 70
     8
280
     0
  0
ATTDEF
  5
1F8
330
1D3
100
AcDbEntity
  8
AM_6
100
AcDbText
 10
9.435
 20
-15.255
 30
0.0
 40
0.5
  1
3.28
100
AcDbAttributeDefinition
  3

  2
L
 70
     8
280
     0
  0
ATTDEF
  5
1F9
330
1D3
100
AcDbEntity
  8
AM_6
100
AcDbText
 10
9.435
 20
-15.755
 30
0.0
 40
0.5
  1
3.2800000
100
AcDbAttributeDefinition
  3

  2
L1
 70
     8
280
     0
  0
ATTDEF
  5
1FA
330
1D3
100
AcDbEntity
  8
AM_6
100
AcDbText
 10
9.435
 20
-16.255
 30
0.0
 40
0.5
  1
2.25
100
AcDbAttributeDefinition
  3

  2
M
 70
     8
280
     0
  0
ATTDEF
  5
1FB
330
1D3
100
AcDbEntity
  8
AM_6
100
AcDbText
 10
9.435
 20
-16.755
 30
0.0
 40
0.5
  1
2.250000
100
AcDbAttributeDefinition
  3

  2
M1
 70
     8
280
     0
  0
ATTDEF
  5
1FC
330
1D3
100
AcDbEntity
  8
AM_6
100
AcDbText
 10
9.435
 20
-17.255
 30
0.0
 40
0.5
  1
1.1
100
AcDbAttributeDefinition
  3

  2
R
 70
     8
280
     0
  0
ATTDEF
  5
1FD
330
1D3
100
AcDbEntity
  8
AM_6
100
AcDbText
 10
9.435
 20
-17.755
 30
0.0
 40
0.5
  1
1.100000
100
AcDbAttributeDefinition
  3

  2
R1
 70
     8
280
     0
  0
ATTDEF
  5
1FE
330
1D3
100
AcDbEntity
  8
AM_6
100
AcDbText
 10
9.435
 20
-18.255
 30
0.0
 40
0.5
  1
1.76
100
AcDbAttributeDefinition
  3

  2
S
 70
     8
280
     0
  0
ATTDEF
  5
1FF
330
1D3
100
AcDbEntity
  8
AM_6
100
AcDbText
 10
9.435
 20
-18.755
 30
0.0
 40
0.5
  1
1.760000
100
AcDbAttributeDefinition
  3

  2
S1
 70
     8
280
     0
  0
ATTDEF
  5
200
330
1D3
100
AcDbEntity
  8
AM_6
100
AcDbText
 10
9.435
 20
-19.255
 30
0.0
 40
0.5
  1
0.22
100
AcDbAttributeDefinition
  3

  2
X
 70
     8
280
     0
  0
ATTDEF
  5
201
330
1D3
100
AcDbEntity
  8
AM_6
100
AcDbText
 10
9.435
 20
-19.755
 30
0.0
 40
0.5
  1
0.220000
100
AcDbAttributeDefinition
  3

  2
X1
 70
     8
280
     0
  0
ATTDEF
  5
202
330
1D3
100
AcDbEntity
  8
AM_6
100
AcDbText
 10
9.435
 20
-20.255
 30
0.0
 40
0.5
  1
0.020
100
AcDbAttributeDefinition
  3

  2
Y
 70
     8
280
     0
  0
ATTDEF
  5
203
330
1D3
100
AcDbEntity
  8
AM_6
100
AcDbText
 10
9.435
 20
-20.755
 30
0.0
 40
0.5
  1
2.3
100
AcDbAttributeDefinition
  3

  2
Z
 70
     8
280
     0
  0
ATTDEF
  5
204
330
1D3
100
AcDbEntity
  8
AM_6
100
AcDbText
 10
9.435
 20
-21.255
 30
0.0
 40
0.5
  1
2.300000
100
AcDbAttributeDefinition
  3

  2
Z1
 70
     8
280
     0
  0
ATTDEF
  5
205
330
1D3
100
AcDbEntity
  8
AM_6
100
AcDbText
 10
9.435
 20
-21.755
 30
0.0
 40
0.5
  1
3.5433
100
AcDbAttributeDefinition
  3

  2
BORE
 70
     8
280
     0
  0
ATTDEF
  5
206
330
1D3
100
AcDbEntity
  8
AM_6
100
AcDbText
 10
9.435
 20
-22.255
 30
0.0
 40
0.5
  1
baldor
100
AcDbAttributeDefinition
  3

  2
COMPANY
 70
     8
280
     0
  0
LINE
  5
207
330
1D3
100
AcDbEntity
  8
AM_9
100
AcDbLine
 10
1.77165
 20
-1.1205
 30
0.0
 11
1.77165
 21
1.1205
 31
0.0
  0
LINE
  5
208
330
1D3
100
AcDbEntity
  8
AM_9
100
AcDbLine
 10
-1.77165
 20
1.1205
 30
0.0
 11
-1.77165
 21
-1.1205
 31
0.0
  0
LWPOLYLINE
  5
209
330
1D3
100
AcDbEntity
  8
AM_9
100
AcDbPolyline
 90
       29
 70
     0
 43
0.0
 10
1.113800708584354
 20
-0.4999807170993468
 10
1.154615952464882
 20
-0.4973024399751143
 10
1.200519654524798
 20
-0.4885974960188502
 10
1.244808732282699
 20
-0.4740180286667984
 10
1.286729635058964
 20
-0.453851517858437
 10
1.326235301966952
 20
-0.4280097267324564
 10
1.362788293807007
 20
-0.3969464728847764
 10
1.395855451239734
 20
-0.3612224414927875
 10
1.425826903636872
 20
-0.3201581000721124
 10
1.451832987071816
 20
-0.2749117353764025
 10
1.473506057513371
 20
-0.2263020702381773
 10
1.490735847419673
 20
-0.174546490264897
 10
1.503410946461251
 20
-0.1203207935317966
 10
1.511338767200989
 20
-0.0646751832394834
 10
1.514400454071062
 20
-0.0093744924331288
 10
1.51285868883126
 20
0.0462254746322797
 10
1.506736921280682
 20
0.1010536205591198
 10
1.496179306967176
 20
0.1538971941039636
 10
1.48124350850731
 20
0.2050000749090494
 10
1.462137641145798
 20
0.2534527008382741
 10
1.438490089589113
 20
0.2995147201018472
 10
1.410736600885508
 20
0.3420211515754774
 10
1.379258080122858
 20
0.3802271932444118
 10
1.343426296778426
 20
0.4143595834475457
 10
1.304084122111826
 20
0.4433549317729175
 10
1.261854279544415
 20
0.4666515009449486
 10
1.21729875628994
 20
0.4838259941877791
 10
1.170544850927279
 20
0.4949513772427824
 10
1.126291236039448
 20
0.4996442590236722
  0
LINE
  5
20A
330
1D3
100
AcDbEntity
  8
AM_9
100
AcDbLine
 10
1.109999999999999
 20
-0.4999999999999999
 30
0.0
 11
1.113800708584354
 21
-0.4999807170993468
 31
0.0
  0
ELLIPSE
  5
20B
330
1D3
100
AcDbEntity
  8
AM_9
100
AcDbEllipse
 10
1.11
 20
0.0000000000000001
 30
0.0
 11
-9.184850993605151E-17
 21
-0.5000000000000001
 31
0.0
210
0.0
220
0.0
230
1.0
 40
0.866025403784443
 41
0.0
 42
3.116131889557827
  0
LINE
  5
20C
330
1D3
100
AcDbEntity
  8
AM_7
100
AcDbLine
 10
-3.888125
 20
0.0000000000000003
 30
0.0
 11
-3.111875
 21
0.0000000000000004
 31
0.0
  0
LINE
  5
20D
330
1D3
100
AcDbEntity
  8
AM_7
100
AcDbLine
 10
-3.56
 20
-0.3281249999999997
 30
0.0
 11
-3.56
 21
0.3281250000000003
 31
0.0
  0
LINE
  5
20E
330
1D3
100
AcDbEntity
  8
AM_7
100
AcDbLine
 10
3.111875
 20
-0.0000000000000001
 30
0.0
 11
3.888125
 21
-0.0000000000000002
 31
0.0
  0
LINE
  5
20F
330
1D3
100
AcDbEntity
  8
AM_7
100
AcDbLine
 10
3.44
 20
-0.3281250000000001
 30
0.0
 11
3.44
 21
0.3281249999999999
 31
0.0
  0
LINE
  5
210
330
1D3
100
AcDbEntity
  8
AM_7
100
AcDbLine
 10
-3.44
 20
-0.3281249999999996
 30
0.0
 11
-3.44
 21
0.3281250000000004
 31
0.0
  0
LINE
  5
211
330
1D3
100
AcDbEntity
  8
AM_7
100
AcDbLine
 10
3.56
 20
-0.3281250000000002
 30
0.0
 11
3.56
 21
0.3281249999999998
 31
0.0
  0
LINE
  5
212
330
1D3
100
AcDbEntity
  8
AM_4
100
AcDbLine
 10
2.4755
 20
-1.245
 30
0.0
 11
4.185999999999998
 21
-1.245
 31
0.0
  0
LINE
  5
213
330
1D3
100
AcDbEntity
  8
AM_4
100
AcDbLine
 10
4.186
 20
1.245
 30
0.0
 11
2.475499999999999
 21
1.245
 31
0.0
  0
LINE
  5
214
330
1D3
100
AcDbEntity
  8
AM_4
100
AcDbLine
 10
4.435
 20
-0.9959999999999991
 30
0.0
 11
4.435
 21
0.9959999999999988
 31
0.0
  0
LINE
  5
215
330
1D3
100
AcDbEntity
  8
AM_4
100
AcDbLine
 10
4.435
 20
0.9959999999999988
 30
0.0
 11
4.186
 21
1.245
 31
0.0
  0
LINE
  5
216
330
1D3
100
AcDbEntity
  8
AM_4
100
AcDbLine
 10
4.185999999999998
 20
-1.245
 30
0.0
 11
4.435
 21
-0.9959999999999991
 31
0.0
  0
LINE
  5
217
330
1D3
100
AcDbEntity
  8
AM_4
100
AcDbLine
 10
-4.186000000000005
 20
-1.244999999999995
 30
0.0
 11
-2.4755
 21
-1.245
 31
0.0
  0
LINE
  5
218
330
1D3
100
AcDbEntity
  8
AM_4
100
AcDbLine
 10
-2.4755
 20
1.245
 30
0.0
 11
-4.186000000000005
 21
1.244999999999995
 31
0.0
  0
LINE
  5
219
330
1D3
100
AcDbEntity
  8
AM_4
100
AcDbLine
 10
-4.435
 20
0.9959999999999989
 30
0.0
 11
-4.435
 21
-0.9960000000000002
 31
0.0
  0
LINE
  5
21A
330
1D3
100
AcDbEntity
  8
AM_4
100
AcDbLine
 10
-4.186000000000005
 20
1.244999999999995
 30
0.0
 11
-4.435
 21
0.9959999999999989
 31
0.0
  0
LINE
  5
21B
330
1D3
100
AcDbEntity
  8
AM_4
100
AcDbLine
 10
-4.435
 20
-0.9960000000000002
 30
0.0
 11
-4.186000000000005
 21
-1.244999999999995
 31
0.0
  0
LWPOLYLINE
  5
21C
330
1D3
100
AcDbEntity
  8
AM_4
100
AcDbPolyline
 90
        9
 70
     0
 43
0.0
 10
4.303999999999998
 20
0.2815143251890175
 10
4.316646996576382
 20
0.2171361246692847
 10
4.326015321968638
 20
0.1522063947517644
 10
4.332124026743175
 20
0.0861990260368833
 10
4.33484603119772
 20
0.0199590752628977
 10
4.33380973588966
 20
-0.0554366461717637
 10
4.328387373483421
 20
-0.1306376345865082
 10
4.318422267731058
 20
-0.2064326674582622
 10
4.303999999999998
 20
-0.2815143251890172
  0
LWPOLYLINE
  5
21D
330
1D3
100
AcDbEntity
  8
AM_4
100
AcDbPolyline
 90
        9
 70
     0
 43
0.0
 10
-4.303999999999999
 20
-0.2815143251890174
 10
-4.316646996576383
 20
-0.2171361246692849
 10
-4.326015321968639
 20
-0.1522063947517648
 10
-4.332124026743176
 20
-0.086199026036884
 10
-4.334846031197721
 20
-0.0199590752628987
 10
-4.333809735889661
 20
0.0554366461717629
 10
-4.328387373483422
 20
0.1306376345865077
 10
-4.318422267731058
 20
0.206432667458262
 10
-4.303999999999999
 20
0.2815143251890173
  0
LINE
  5
21E
330
1D3
100
AcDbEntity
  8
AM_4
100
AcDbLine
 10
2.475499999999999
 20
1.245
 30
0.0
 11
2.351
 21
1.1205
 31
0.0
  0
LINE
  5
21F
330
1D3
100
AcDbEntity
  8
AM_4
100
AcDbLine
 10
2.351
 20
-1.1205
 30
0.0
 11
2.4755
 21
-1.245
 31
0.0
  0
ARC
  5
220
330
1D3
100
AcDbEntity
  8
AM_4
100
AcDbCircle
 10
3.041269108280257
 20
-0.0000000000000018
 30
0.0
 40
1.293730891719742
100
AcDbArc
 50
285.7757697966486
 51
347.4319603829598
  0
ARC
  5
221
330
1D3
100
AcDbEntity
  8
AM_4
100
AcDbCircle
 10
3.041269108280257
 20
0.0000000000000018
 30
0.0
 40
1.293730891719743
100
AcDbArc
 50
12.56803961704022
 51
74.22423020335148
  0
LINE
  5
222
330
1D3
100
AcDbEntity
  8
AM_4
100
AcDbLine
 10
3.56
 20
0.3124999999999999
 30
0.0
 11
3.44
 21
0.3124999999999999
 31
0.0
  0
ARC
  5
223
330
1D3
100
AcDbEntity
  8
AM_4
100
AcDbCircle
 10
3.56
 20
-0.0000000000000001
 30
0.0
 40
0.3125
100
AcDbArc
 50
270.0
 51
90.0
  0
LINE
  5
224
330
1D3
100
AcDbEntity
  8
AM_4
100
AcDbLine
 10
3.44
 20
-0.3125000000000001
 30
0.0
 11
3.56
 21
-0.3125000000000001
 31
0.0
  0
ARC
  5
225
330
1D3
100
AcDbEntity
  8
AM_4
100
AcDbCircle
 10
3.44
 20
0.0
 30
0.0
 40
0.3125
100
AcDbArc
 50
90.0
 51
270.0
  0
LINE
  5
226
330
1D3
100
AcDbEntity
  8
AM_4
100
AcDbLine
 10
4.303999999999998
 20
-0.2815143251890171
 30
0.0
 11
4.303999999999998
 21
0.2815143251890175
 31
0.0
  0
LINE
  5
227
330
1D3
100
AcDbEntity
  8
AM_4
100
AcDbLine
 10
-2.4755
 20
-1.245
 30
0.0
 11
-2.351
 21
-1.1205
 31
0.0
  0
LINE
  5
228
330
1D3
100
AcDbEntity
  8
AM_4
100
AcDbLine
 10
-2.351
 20
1.1205
 30
0.0
 11
-2.4755
 21
1.245
 31
0.0
  0
LINE
  5
229
330
1D3
100
AcDbEntity
  8
AM_4
100
AcDbLine
 10
-3.44
 20
0.3125000000000003
 30
0.0
 11
-3.56
 21
0.3125000000000003
 31
0.0
  0
ARC
  5
22A
330
1D3
100
AcDbEntity
  8
AM_4
100
AcDbCircle
 10
-3.439999999999999
 20
0.0000000000000004
 30
0.0
 40
0.3125000000000001
100
AcDbArc
 50
270.0
 51
90.0
  0
LINE
  5
22B
330
1D3
100
AcDbEntity
  8
AM_4
100
AcDbLine
 10
-3.56
 20
-0.3124999999999997
 30
0.0
 11
-3.44
 21
-0.3124999999999996
 31
0.0
  0
ARC
  5
22C
330
1D3
100
AcDbEntity
  8
AM_4
100
AcDbCircle
 10
-3.56
 20
0.0000000000000003
 30
0.0
 40
0.3125
100
AcDbArc
 50
90.0
 51
270.0
  0
ARC
  5
22D
330
1D3
100
AcDbEntity
  8
AM_4
100
AcDbCircle
 10
-3.041269108280254
 20
0.0000000000000019
 30
0.0
 40
1.293730891719747
100
AcDbArc
 50
192.5680396170403
 51
254.2242302033505
  0
ARC
  5
22E
330
1D3
100
AcDbEntity
  8
AM_4
100
AcDbCircle
 10
-3.041269108280255
 20
-0.0000000000000016
 30
0.0
 40
1.293730891719747
100
AcDbArc
 50
105.7757697966495
 51
167.4319603829597
  0
LINE
  5
22F
330
1D3
100
AcDbEntity
  8
AM_4
100
AcDbLine
 10
-4.303999999999999
 20
-0.2815143251890175
 30
0.0
 11
-4.303999999999999
 21
0.2815143251890171
 31
0.0
  0
LINE
  5
230
330
1D3
100
AcDbEntity
  8
AM_4
100
AcDbLine
 10
-2.2593
 20
-0.8892857142857145
 30
0.0
 11
-2.2593
 21
0.8892857142857145
 31
0.0
  0
LINE
  5
231
330
1D3
100
AcDbEntity
  8
AM_4
100
AcDbLine
 10
2.259299999999999
 20
-0.8892857142857145
 30
0.0
 11
2.259299999999999
 21
0.8892857142857145
 31
0.0
  0
LINE
  5
232
330
1D3
100
AcDbEntity
  8
AM_4
100
AcDbLine
 10
-2.467002658318899
 20
0.8892857142857145
 30
0.0
 11
-2.467002658318898
 21
1.236502658318898
 31
0.0
  0
LINE
  5
233
330
1D3
100
AcDbEntity
  8
AM_4
100
AcDbLine
 10
-2.467002658318899
 20
-1.236502658318899
 30
0.0
 11
-2.467002658318899
 21
-0.8892857142857145
 31
0.0
  0
LINE
  5
234
330
1D3
100
AcDbEntity
  8
AM_4
100
AcDbLine
 10
2.467002658318899
 20
0.8892857142857145
 30
0.0
 11
2.467002658318898
 21
1.236502658318898
 31
0.0
  0
LINE
  5
235
330
1D3
100
AcDbEntity
  8
AM_4
100
AcDbLine
 10
2.467002658318899
 20
-1.236502658318899
 30
0.0
 11
2.467002658318899
 21
-0.8892857142857145
 31
0.0
  0
LINE
  5
236
330
1D3
100
AcDbEntity
  8
AM_4
100
AcDbLine
 10
-2.336964998202682
 20
0.8892857142857145
 30
0.0
 11
-2.336964998202682
 21
1.1205
 31
0.0
  0
LINE
  5
237
330
1D3
100
AcDbEntity
  8
AM_4
100
AcDbLine
 10
-2.336964998202682
 20
-1.1205
 30
0.0
 11
-2.336964998202682
 21
-0.8892857142857145
 31
0.0
  0
LINE
  5
238
330
1D3
100
AcDbEntity
  8
AM_4
100
AcDbLine
 10
2.336964998202682
 20
0.8892857142857145
 30
0.0
 11
2.336964998202682
 21
1.1205
 31
0.0
  0
LINE
  5
239
330
1D3
100
AcDbEntity
  8
AM_4
100
AcDbLine
 10
2.336964998202682
 20
-1.1205
 30
0.0
 11
2.336964998202682
 21
-0.8892857142857145
 31
0.0
  0
LINE
  5
23A
330
1D3
100
AcDbEntity
  8
AM_4
100
AcDbLine
 10
-2.203691644717562
 20
0.8892857142857145
 30
0.0
 11
-2.203691644717562
 21
1.1205
 31
0.0
  0
LINE
  5
23B
330
1D3
100
AcDbEntity
  8
AM_4
100
AcDbLine
 10
-2.1938
 20
0.8892857142857145
 30
0.0
 11
-2.467002658318899
 21
0.8892857142857145
 31
0.0
  0
LINE
  5
23C
330
1D3
100
AcDbEntity
  8
AM_4
100
AcDbLine
 10
-2.1938
 20
-0.8892857142857145
 30
0.0
 11
-2.1938
 21
0.8892857142857145
 31
0.0
  0
LINE
  5
23D
330
1D3
100
AcDbEntity
  8
AM_4
100
AcDbLine
 10
-2.1938
 20
-0.8892857142857145
 30
0.0
 11
-2.467002658318899
 21
-0.8892857142857145
 31
0.0
  0
LINE
  5
23E
330
1D3
100
AcDbEntity
  8
AM_4
100
AcDbLine
 10
-2.203691644717562
 20
-1.1205
 30
0.0
 11
-2.203691644717562
 21
-0.8892857142857145
 31
0.0
  0
LINE
  5
23F
330
1D3
100
AcDbEntity
  8
AM_4
100
AcDbLine
 10
2.203691644717562
 20
0.8892857142857145
 30
0.0
 11
2.203691644717562
 21
1.1205
 31
0.0
  0
LINE
  5
240
330
1D3
100
AcDbEntity
  8
AM_4
100
AcDbLine
 10
2.203691644717562
 20
-1.1205
 30
0.0
 11
2.203691644717562
 21
-0.8892857142857145
 31
0.0
  0
LINE
  5
241
330
1D3
100
AcDbEntity
  8
AM_4
100
AcDbLine
 10
2.467002658318899
 20
-0.8892857142857145
 30
0.0
 11
2.1938
 21
-0.8892857142857145
 31
0.0
  0
LINE
  5
242
330
1D3
100
AcDbEntity
  8
AM_4
100
AcDbLine
 10
2.1938
 20
0.8892857142857145
 30
0.0
 11
2.1938
 21
-0.8892857142857145
 31
0.0
  0
LINE
  5
243
330
1D3
100
AcDbEntity
  8
AM_4
100
AcDbLine
 10
2.467002658318899
 20
0.8892857142857145
 30
0.0
 11
2.1938
 21
0.8892857142857145
 31
0.0
  0
LWPOLYLINE
  5
244
330
1D3
100
AcDbEntity
  8
AM_4
100
AcDbPolyline
 90
       37
 70
     0
 43
0.0
 10
1.109999999999999
 20
0.5000000000000002
 10
1.077521727963827
 20
0.4986030564438036
 10
1.044922955168948
 20
0.4944300367791161
 10
1.011612197629205
 20
0.4872976540870875
 10
0.9785959418997017
 20
0.4773303311938099
 10
0.9440466375110579
 20
0.4636842209888751
 10
0.9103275759728942
 20
0.4470070328634887
 10
0.8767980068533918
 20
0.4268187822286131
 10
0.8446736064198503
 20
0.4036975982618382
 10
0.8144423762162241
 20
0.3780050267720227
 10
0.786085815973618
 20
0.3497531914658524
 10
0.7591315961060126
 20
0.3182198688664476
 10
0.7346392070691411
 20
0.2843888810551946
 10
0.7131370061406394
 20
0.2490166112652827
 10
0.6944404163601887
 20
0.2118697643319073
 10
0.6783182397186971
 20
0.1720157247173199
 10
0.665532190719176
 20
0.1308366248564414
 10
0.6528425610079294
 20
0.0666284239922528
 10
0.648467764875442
 20
0.0000000000000001
 10
0.6501172815519785
 20
-0.0409208664880609
 10
0.6550350138336212
 20
-0.0815537965737391
 10
0.663471576625838
 20
-0.1227836805045494
 10
0.6752260946615826
 20
-0.1631075931474784
 10
0.6897120646842807
 20
-0.2011230697808405
 10
0.7070727252526917
 20
-0.2377627379988473
 10
0.7277611270843831
 20
-0.2737461294633529
 10
0.7511260694727474
 20
-0.3077860542914577
 10
0.7766468573271182
 20
-0.3392873057656667
 10
0.8043607859892216
 20
-0.368468437755532
 10
0.8349163562210271
 20
-0.3958508957657755
 10
0.8672913784069044
 20
-0.4203877425969804
 10
0.9006158889819654
 20
-0.4415432444686782
 10
0.9351705350479798
 20
-0.4596288881741261
 10
0.9717636110140777
 20
-0.4748942574213253
 10
1.009065194136757
 20
-0.4866346103152643
 10
1.059190891492744
 20
-0.4965978855565733
 10
1.109999999999999
 20
-0.4999999999999999
  0
LINE
  5
245
330
1D3
100
AcDbEntity
  8
AM_4
100
AcDbLine
 10
0.59055
 20
-1.1205
 30
0.0
 11
0.59055
 21
1.1205
 31
0.0
  0
LINE
  5
246
330
1D3
100
AcDbEntity
  8
AM_4
100
AcDbLine
 10
2.351
 20
1.1205
 30
0.0
 11
-2.351
 21
1.1205
 31
0.0
  0
LINE
  5
247
330
1D3
100
AcDbEntity
  8
AM_4
100
AcDbLine
 10
-0.59055
 20
-1.1205
 30
0.0
 11
-0.59055
 21
1.1205
 31
0.0
  0
LINE
  5
248
330
1D3
100
AcDbEntity
  8
AM_4
100
AcDbLine
 10
-2.351
 20
-1.1205
 30
0.0
 11
2.351
 21
-1.1205
 31
0.0
  0
LINE
  5
249
330
1D3
100
AcDbEntity
  8
AM_4
100
AcDbLine
 10
0.5250500000000001
 20
-1.1205
 30
0.0
 11
0.5250500000000001
 21
1.1205
 31
0.0
  0
LINE
  5
24A
330
1D3
100
AcDbEntity
  8
AM_4
100
AcDbLine
 10
-0.5250499999999991
 20
-1.1205
 30
0.0
 11
-0.5250499999999991
 21
1.1205
 31
0.0
  0
ELLIPSE
  5
24B
330
1D3
100
AcDbEntity
  8
AM_4
100
AcDbEllipse
 10
1.109999999999999
 20
0.0000000000000002
 30
0.0
 11
-9.184850993605146E-17
 21
-0.4999999999999999
 31
0.0
210
0.0
220
0.0
230
1.0
 40
0.8660254037844382
 41
3.141592653589793
 42
6.283185307179586
  0
ELLIPSE
  5
24C
330
1D3
100
AcDbEntity
  8
AM_4
100
AcDbEllipse
 10
1.16
 20
0.0000000000000001
 30
0.0
 11
2.449293598294707E-17
 21
0.4000000000000001
 31
0.0
210
0.0
220
0.0
230
1.0
 40
0.8660254037844387
 41
0.0
 42
6.283185307179586
  0
LWPOLYLINE
  5
24D
330
1D3
100
AcDbEntity
  8
AM_4
100
AcDbPolyline
 90
       51
 70
     0
 43
0.0
 10
1.110911733707293
 20
-0.4999989609259621
 10
1.121893684393593
 20
-0.4998231435727167
 10
1.150675556521814
 20
-0.4979275118828319
 10
1.17926807549867
 20
-0.4939654402399353
 10
1.207557691379685
 20
-0.4879558563809803
 10
1.235432850628029
 20
-0.4799242060487449
 10
1.262783460626248
 20
-0.4699024745205366
 10
1.289500853085756
 20
-0.4579293349506324
 10
1.315477846379393
 20
-0.4440504012120969
 10
1.340608940058519
 20
-0.4283185353524343
 10
1.364790658425938
 20
-0.4107941509114795
 10
1.387922040792532
 20
-0.3915454517961668
 10
1.409905256552309
 20
-0.3706485530913325
 10
1.430646306625968
 20
-0.3481874445485177
 10
1.450055762092916
 20
-0.3242537773065184
 10
1.468049487831804
 20
-0.2989464761353642
 10
1.484549303929417
 20
-0.2723711992147833
 10
1.499483548975296
 20
-0.2446396818463047
 10
1.512787524375686
 20
-0.2158690077118796
 10
1.524403814352129
 20
-0.1861808512622398
 10
1.534282489661202
 20
-0.1557007289782458
 10
1.542381212634677
 20
-0.1245572878649174
 10
1.548665266409514
 20
-0.0928816489646752
 10
1.553107532655122
 20
-0.0608068137812105
 10
1.555688440710923
 20
-0.0284671334052406
 10
1.556395907950939
 20
0.00400216579863
 10
1.55522528735452
 20
0.0364654100308596
 10
1.552179401330499
 20
0.0687863298284602
 10
1.54726856259411
 20
0.100829171392821
 10
1.540510526177804
 20
0.1324591627259857
 10
1.531930565225461
 20
0.1635425769959167
 10
1.521561570249694
 20
0.1939471594226161
 10
1.509444164119667
 20
0.2235426051046718
 10
1.495626817039834
 20
0.2522011027877828
 10
1.480165939564529
 20
0.2797979565794372
 10
1.463125925755636
 20
0.3062122918338996
 10
1.444579114139585
 20
0.3313278425584725
 10
1.424605632717918
 20
0.3550338058815292
 10
1.403293097513748
 20
0.3772257354238585
 10
1.380736143085229
 20
0.3978064318804636
 10
1.357035778125974
 20
0.4166867785975729
 10
1.33229857823174
 20
0.4337864654426568
 10
1.306635748186961
 20
0.4490345480968119
 10
1.280162103845966
 20
0.462369802681783
 10
1.252995035117495
 20
0.4737408558574994
 10
1.225253514249184
 20
0.4831060947639486
 10
1.197057207119754
 20
0.4904333850258548
 10
1.168525731203663
 20
0.4956996443724161
 10
1.139778085268279
 20
0.4988903314929223
 10
1.110932256018539
 20
0.4999989136221964
 10
1.109923774609346
 20
0.4999999927371125
  0
ENDBLK
  5
1D6
330
1D3
100
AcDbEntity
  8
0
100
AcDbBlockEnd
  0
ENDSEC
  0
SECTION
  2
ENTITIES
  0
INSERT
  5
6F
330
1F
100
AcDbEntity
  8
0
100
AcDbBlockReference
  2
1_071189_4
 10
0.0
 20
0.0
 30
0.0
  0
POINT
  5
24F
330
1F
100
AcDbEntity
  8
ConnectionPoints
100
AcDbPoint
 10
0.0
 20
-1.377166666666667
 30
1.341145833333333
  0
POINT
  5
250
330
1F
100
AcDbEntity
  8
ConnectionPoints
100
AcDbPoint
 10
0.0
 20
-1.307166666666667
 30
0.0000000000000001
  0
POINT
  5
251
330
1F
100
AcDbEntity
  8
ConnectionPoints
100
AcDbPoint
 10
0.0
 20
-1.54
 30
0.0000000000000001
  0
POINT
  5
252
330
1F
100
AcDbEntity
  8
ConnectionPoints
100
AcDbPoint
 10
0.0
 20
-1.506166666666667
 30
0.0000000000000001
  0
POINT
  5
253
330
1F
100
AcDbEntity
  8
ConnectionPoints
100
AcDbPoint
 10
0.0
 20
-1.307166666666667
 30
1.341145833333333
  0
POINT
  5
254
330
1F
100
AcDbEntity
  8
ConnectionPoints
100
AcDbPoint
 10
0.0
 20
-1.307166666666667
 30
-1.341145833333333
  0
POINT
  5
255
330
1F
100
AcDbEntity
  8
ConnectionPoints
100
AcDbPoint
 10
0.0
 20
-1.307166666666667
 30
0.0000000000000001
  0
POINT
  5
256
330
1F
100
AcDbEntity
  8
ConnectionPoints
100
AcDbPoint
 10
1.16
 20
0.0000000000000001
 30
2.009178936779898
  0
POINT
  5
257
330
1F
100
AcDbEntity
  8
ConnectionPoints
100
AcDbPoint
 10
1.16
 20
0.0000000000000001
 30
2.009178936779898
  0
POINT
  5
258
330
1F
100
AcDbEntity
  8
ConnectionPoints
100
AcDbPoint
 10
0.0
 20
-1.54
 30
0.0000000000000001
  0
POINT
  5
259
330
1F
100
AcDbEntity
  8
ConnectionPoints
100
AcDbPoint
 10
0.0
 20
-1.76
 30
0.0000000000000001
  0
ENDSEC
  0
SECTION
  2
OBJECTS
  0
DICTIONARY
  5
C
330
0
100
AcDbDictionary
281
     1
  3
ACAD_DETAILVIEWSTYLE
350
261
  3
ACAD_GROUP
350
D
  3
ACAD_LAYOUT
350
1A
  3
ACAD_MATERIAL
350
43
  3
ACAD_MLEADERSTYLE
350
6B
  3
ACAD_MLINESTYLE
350
17
  3
ACAD_PLOTSETTINGS
350
19
  3
ACAD_PLOTSTYLENAME
350
E
  3
ACAD_SCALELIST
350
47
  3
ACAD_SECTIONVIEWSTYLE
350
262
  3
ACAD_TABLESTYLE
350
69
  3
ACAD_VISUALSTYLE
350
2A
  3
ACDB_RECOMPOSE_DATA
350
25E
  3
AcDbVariableDictionary
350
25A
  0
SUN
  5
6D
330
29
100
AcDbSun
 90
        1
290
     0
 63
     7
421
 16777215
 40
1.0
291
     1
 91
  2455826
 92
 54000000
292
     0
 70
     2
 71
   256
280
     1
  0
DICTIONARY
  5
261
102
{ACAD_REACTORS
330
C
102
}
330
C
100
AcDbDictionary
281
     1
  0
DICTIONARY
  5
D
102
{ACAD_REACTORS
330
C
102
}
330
C
100
AcDbDictionary
281
     1
  0
DICTIONARY
  5
1A
102
{ACAD_REACTORS
330
C
102
}
330
C
100
AcDbDictionary
281
     1
  3
Layout1
350
1E
  3
Layout2
350
26
  3
Model
350
22
  0
DICTIONARY
  5
43
102
{ACAD_REACTORS
330
C
102
}
330
C
100
AcDbDictionary
281
     1
  3
ByBlock
350
45
  3
ByLayer
350
44
  3
Global
350
46
  0
DICTIONARY
  5
6B
102
{ACAD_REACTORS
330
C
102
}
330
C
100
AcDbDictionary
281
     1
  3
Standard
350
6C
  0
DICTIONARY
  5
17
102
{ACAD_REACTORS
330
C
102
}
330
C
100
AcDbDictionary
281
     1
  3
Standard
350
18
  0
DICTIONARY
  5
19
102
{ACAD_REACTORS
330
C
102
}
330
C
100
AcDbDictionary
281
     1
  0
ACDBDICTIONARYWDFLT
  5
E
102
{ACAD_REACTORS
330
C
102
}
330
C
100
AcDbDictionary
281
     1
  3
Normal
350
F
100
AcDbDictionaryWithDefault
340
F
  0
DICTIONARY
  5
47
102
{ACAD_REACTORS
330
C
102
}
330
C
100
AcDbDictionary
281
     1
  3
A0
350
48
  3
A1
350
49
  3
A2
350
4A
  3
A3
350
4B
  3
A4
350
4C
  3
A5
350
4D
  3
A6
350
4E
  3
A7
350
4F
  3
A8
350
50
  3
A9
350
51
  3
B0
350
52
  3
B1
350
53
  3
B2
350
54
  3
B3
350
55
  3
B4
350
56
  3
B5
350
57
  3
B6
350
58
  3
B7
350
59
  3
B8
350
5A
  3
B9
350
5B
  3
C0
350
5C
  3
C1
350
5D
  3
C2
350
5E
  3
C3
350
5F
  3
C4
350
60
  3
C5
350
61
  3
C6
350
62
  3
C7
350
63
  3
C8
350
64
  3
C9
350
65
  3
D0
350
66
  3
D1
350
67
  3
D2
350
68
  0
DICTIONARY
  5
262
102
{ACAD_REACTORS
330
C
102
}
330
C
100
AcDbDictionary
281
     1
  0
DICTIONARY
  5
69
102
{ACAD_REACTORS
330
C
102
}
330
C
100
AcDbDictionary
281
     1
  3
Standard
350
6A
  0
DICTIONARY
  5
2A
102
{ACAD_REACTORS
330
C
102
}
330
C
100
AcDbDictionary
281
     1
  3
2dWireframe
350
2F
  3
Basic
350
32
  3
Brighten
350
36
  3
ColorChange
350
3A
  3
Conceptual
350
34
  3
Dim
350
35
  3
EdgeColorOff
350
3D
  3
Facepattern
350
39
  3
Flat
350
2B
  3
FlatWithEdges
350
2C
  3
Gouraud
350
2D
  3
GouraudWithEdges
350
2E
  3
Hidden
350
31
  3
JitterOff
350
3B
  3
Linepattern
350
38
  3
OverhangOff
350
3C
  3
Realistic
350
33
  3
Shaded
350
42
  3
Shaded with edges
350
41
  3
Shades of Gray
350
3E
  3
Sketchy
350
3F
  3
Thicken
350
37
  3
Wireframe
350
30
  3
X-Ray
350
40
  0
XRECORD
  5
25E
102
{ACAD_REACTORS
330
C
102
}
330
C
100
AcDbXrecord
280
     1
 90
        1
330
6A
  0
DICTIONARY
  5
25A
102
{ACAD_REACTORS
330
C
102
}
330
C
100
AcDbDictionary
281
     1
  3
CANNOSCALE
350
25B
  3
CMLEADERSTYLE
350
260
  3
CTABLESTYLE
350
25F
  0
LAYOUT
  5
1E
102
{ACAD_REACTORS
330
1A
102
}
330
1A
100
AcDbPlotSettings
  1

  2
none_device
  4

  6

 40
0.0
 41
0.0
 42
0.0
 43
0.0
 44
0.0
 45
0.0
 46
0.0
 47
0.0
 48
0.0
 49
0.0
140
0.0
141
0.0
142
1.0
143
1.0
 70
   688
 72
     0
 73
     0
 74
     5
  7

 75
    16
 76
     0
 77
     2
 78
   300
147
1.0
148
0.0
149
0.0
100
AcDbLayout
  1
Layout1
 70
     1
 71
     1
 10
0.0
 20
0.0
 11
12.0
 21
9.0
 12
0.0
 22
0.0
 32
0.0
 14
1.000000000000000E+20
 24
1.000000000000000E+20
 34
1.000000000000000E+20
 15
-1.000000000000000E+20
 25
-1.000000000000000E+20
 35
-1.000000000000000E+20
146
0.0
 13
0.0
 23
0.0
 33
0.0
 16
1.0
 26
0.0
 36
0.0
 17
0.0
 27
1.0
 37
0.0
 76
     0
330
1B
  0
LAYOUT
  5
26
102
{ACAD_REACTORS
330
1A
102
}
330
1A
100
AcDbPlotSettings
  1

  2
none_device
  4

  6

 40
0.0
 41
0.0
 42
0.0
 43
0.0
 44
0.0
 45
0.0
 46
0.0
 47
0.0
 48
0.0
 49
0.0
140
0.0
141
0.0
142
1.0
143
1.0
 70
   688
 72
     0
 73
     0
 74
     5
  7

 75
    16
 76
     0
 77
     2
 78
   300
147
1.0
148
0.0
149
0.0
100
AcDbLayout
  1
Layout2
 70
     1
 71
     2
 10
0.0
 20
0.0
 11
0.0
 21
0.0
 12
0.0
 22
0.0
 32
0.0
 14
0.0
 24
0.0
 34
0.0
 15
0.0
 25
0.0
 35
0.0
146
0.0
 13
0.0
 23
0.0
 33
0.0
 16
1.0
 26
0.0
 36
0.0
 17
0.0
 27
1.0
 37
0.0
 76
     0
330
23
  0
LAYOUT
  5
22
102
{ACAD_REACTORS
330
1A
102
}
330
1A
100
AcDbPlotSettings
  1

  2
none_device
  4
Letter_(8.50_x_11.00_Inches)
  6

 40
6.35
 41
6.35
 42
6.35000508
 43
6.35000508
 44
215.9
 45
279.4
 46
0.0
 47
0.0
 48
0.0
 49
0.0
140
0.0
141
0.0
142
1.0
143
1.0
 70
  1712
 72
     0
 73
     0
 74
     0
  7

 75
     0
 76
     0
 77
     2
 78
   300
147
1.0
148
0.0
149
0.0
100
AcDbLayout
  1
Model
 70
     1
 71
     0
 10
0.0
 20
0.0
 11
12.0
 21
9.0
 12
0.0
 22
0.0
 32
0.0
 14
1.000000000000000E+20
 24
1.000000000000000E+20
 34
1.000000000000000E+20
 15
-1.000000000000000E+20
 25
-1.000000000000000E+20
 35
-1.000000000000000E+20
146
0.0
 13
0.0
 23
0.0
 33
0.0
 16
1.0
 26
0.0
 36
0.0
 17
0.0
 27
1.0
 37
0.0
 76
     0
330
1F
331
29
  0
MATERIAL
  5
45
102
{ACAD_REACTORS
330
43
102
}
330
43
100
AcDbMaterial
  1
ByBlock
 72
     1
 94
      127
  0
MATERIAL
  5
44
102
{ACAD_REACTORS
330
43
102
}
330
43
100
AcDbMaterial
  1
ByLayer
 72
     1
 94
      127
  0
MATERIAL
  5
46
102
{ACAD_REACTORS
330
43
102
}
330
43
100
AcDbMaterial
  1
Global
 72
     1
 94
      127
  0
MLEADERSTYLE
  5
6C
102
{ACAD_REACTORS
330
6B
102
}
330
6B
100
AcDbMLeaderStyle
179
     2
170
     2
171
     1
172
     0
 90
        2
 40
0.0
 41
0.0
173
     1
 91
-1056964608
340
14
 92
       -2
290
     1
 42
0.09
291
     1
 43
0.36
  3
Standard
341
0
 44
0.18
300

342
11
174
     1
178
     6
175
     1
176
     0
 93
-1056964608
 45
0.18
292
     0
297
     0
 46
0.18
343
0
 94
-1056964608
 47
1.0
 49
1.0
140
1.0
293
     1
141
0.0
294
     1
177
     0
142
1.0
295
     0
296
     0
143
0.125
271
     0
272
     9
273
     9
298
     0
  0
MLINESTYLE
  5
18
102
{ACAD_REACTORS
330
17
102
}
330
17
100
AcDbMlineStyle
  2
Standard
 70
     0
  3

 62
   256
 51
90.0
 52
90.0
 71
     2
 49
0.5
 62
   256
  6
BYLAYER
 49
-0.5
 62
   256
  6
BYLAYER
  0
ACDBPLACEHOLDER
  5
F
102
{ACAD_REACTORS
330
E
102
}
330
E
  0
SCALE
  5
48
102
{ACAD_REACTORS
330
47
102
}
330
47
100
AcDbScale
 70
     0
300
1:1
140
1.0
141
1.0
290
     1
  0
SCALE
  5
49
102
{ACAD_REACTORS
330
47
102
}
330
47
100
AcDbScale
 70
     0
300
1:2
140
1.0
141
2.0
290
     0
  0
SCALE
  5
4A
102
{ACAD_REACTORS
330
47
102
}
330
47
100
AcDbScale
 70
     0
300
1:4
140
1.0
141
4.0
290
     0
  0
SCALE
  5
4B
102
{ACAD_REACTORS
330
47
102
}
330
47
100
AcDbScale
 70
     0
300
1:5
140
1.0
141
5.0
290
     0
  0
SCALE
  5
4C
102
{ACAD_REACTORS
330
47
102
}
330
47
100
AcDbScale
 70
     0
300
1:8
140
1.0
141
8.0
290
     0
  0
SCALE
  5
4D
102
{ACAD_REACTORS
330
47
102
}
330
47
100
AcDbScale
 70
     0
300
1:10
140
1.0
141
10.0
290
     0
  0
SCALE
  5
4E
102
{ACAD_REACTORS
330
47
102
}
330
47
100
AcDbScale
 70
     0
300
1:16
140
1.0
141
16.0
290
     0
  0
SCALE
  5
4F
102
{ACAD_REACTORS
330
47
102
}
330
47
100
AcDbScale
 70
     0
300
1:20
140
1.0
141
20.0
290
     0
  0
SCALE
  5
50
102
{ACAD_REACTORS
330
47
102
}
330
47
100
AcDbScale
 70
     0
300
1:30
140
1.0
141
30.0
290
     0
  0
SCALE
  5
51
102
{ACAD_REACTORS
330
47
102
}
330
47
100
AcDbScale
 70
     0
300
1:40
140
1.0
141
40.0
290
     0
  0
SCALE
  5
52
102
{ACAD_REACTORS
330
47
102
}
330
47
100
AcDbScale
 70
     0
300
1:50
140
1.0
141
50.0
290
     0
  0
SCALE
  5
53
102
{ACAD_REACTORS
330
47
102
}
330
47
100
AcDbScale
 70
     0
300
1:100
140
1.0
141
100.0
290
     0
  0
SCALE
  5
54
102
{ACAD_REACTORS
330
47
102
}
330
47
100
AcDbScale
 70
     0
300
2:1
140
2.0
141
1.0
290
     0
  0
SCALE
  5
55
102
{ACAD_REACTORS
330
47
102
}
330
47
100
AcDbScale
 70
     0
300
4:1
140
4.0
141
1.0
290
     0
  0
SCALE
  5
56
102
{ACAD_REACTORS
330
47
102
}
330
47
100
AcDbScale
 70
     0
300
8:1
140
8.0
141
1.0
290
     0
  0
SCALE
  5
57
102
{ACAD_REACTORS
330
47
102
}
330
47
100
AcDbScale
 70
     0
300
10:1
140
10.0
141
1.0
290
     0
  0
SCALE
  5
58
102
{ACAD_REACTORS
330
47
102
}
330
47
100
AcDbScale
 70
     0
300
100:1
140
100.0
141
1.0
290
     0
  0
SCALE
  5
59
102
{ACAD_REACTORS
330
47
102
}
330
47
100
AcDbScale
 70
     0
300
1/128" = 1'-0"
140
0.0078125
141
12.0
290
     0
  0
SCALE
  5
5A
102
{ACAD_REACTORS
330
47
102
}
330
47
100
AcDbScale
 70
     0
300
1/64" = 1'-0"
140
0.015625
141
12.0
290
     0
  0
SCALE
  5
5B
102
{ACAD_REACTORS
330
47
102
}
330
47
100
AcDbScale
 70
     0
300
1/32" = 1'-0"
140
0.03125
141
12.0
290
     0
  0
SCALE
  5
5C
102
{ACAD_REACTORS
330
47
102
}
330
47
100
AcDbScale
 70
     0
300
1/16" = 1'-0"
140
0.0625
141
12.0
290
     0
  0
SCALE
  5
5D
102
{ACAD_REACTORS
330
47
102
}
330
47
100
AcDbScale
 70
     0
300
3/32" = 1'-0"
140
0.09375
141
12.0
290
     0
  0
SCALE
  5
5E
102
{ACAD_REACTORS
330
47
102
}
330
47
100
AcDbScale
 70
     0
300
1/8" = 1'-0"
140
0.125
141
12.0
290
     0
  0
SCALE
  5
5F
102
{ACAD_REACTORS
330
47
102
}
330
47
100
AcDbScale
 70
     0
300
3/16" = 1'-0"
140
0.1875
141
12.0
290
     0
  0
SCALE
  5
60
102
{ACAD_REACTORS
330
47
102
}
330
47
100
AcDbScale
 70
     0
300
1/4" = 1'-0"
140
0.25
141
12.0
290
     0
  0
SCALE
  5
61
102
{ACAD_REACTORS
330
47
102
}
330
47
100
AcDbScale
 70
     0
300
3/8" = 1'-0"
140
0.375
141
12.0
290
     0
  0
SCALE
  5
62
102
{ACAD_REACTORS
330
47
102
}
330
47
100
AcDbScale
 70
     0
300
1/2" = 1'-0"
140
0.5
141
12.0
290
     0
  0
SCALE
  5
63
102
{ACAD_REACTORS
330
47
102
}
330
47
100
AcDbScale
 70
     0
300
3/4" = 1'-0"
140
0.75
141
12.0
290
     0
  0
SCALE
  5
64
102
{ACAD_REACTORS
330
47
102
}
330
47
100
AcDbScale
 70
     0
300
1" = 1'-0"
140
1.0
141
12.0
290
     0
  0
SCALE
  5
65
102
{ACAD_REACTORS
330
47
102
}
330
47
100
AcDbScale
 70
     0
300
1-1/2" = 1'-0"
140
1.5
141
12.0
290
     0
  0
SCALE
  5
66
102
{ACAD_REACTORS
330
47
102
}
330
47
100
AcDbScale
 70
     0
300
3" = 1'-0"
140
3.0
141
12.0
290
     0
  0
SCALE
  5
67
102
{ACAD_REACTORS
330
47
102
}
330
47
100
AcDbScale
 70
     0
300
6" = 1'-0"
140
6.0
141
12.0
290
     0
  0
SCALE
  5
68
102
{ACAD_REACTORS
330
47
102
}
330
47
100
AcDbScale
 70
     0
300
1'-0" = 1'-0"
140
12.0
141
12.0
290
     0
  0
TABLESTYLE
  5
6A
102
{ACAD_REACTORS
330
69
102
}
102
{ACAD_XDICTIONARY
360
25C
102
}
330
69
100
AcDbTableStyle
  3
Standard
 70
     0
 71
     0
 40
0.06
 41
0.06
280
     0
281
     0
  7
Standard
140
0.18
170
     2
 62
     0
 63
   257
283
     0
 90
        4
 91
        0
  1

274
    -2
284
     1
 64
     0
275
    -2
285
     1
 65
     0
276
    -2
286
     1
 66
     0
277
    -2
287
     1
 67
     0
278
    -2
288
     1
 68
     0
279
    -2
289
     1
 69
     0
  7
Standard
140
0.25
170
     5
 62
     0
 63
   257
283
     0
 90
        4
 91
        0
  1

274
    -2
284
     1
 64
     0
275
    -2
285
     1
 65
     0
276
    -2
286
     1
 66
     0
277
    -2
287
     1
 67
     0
278
    -2
288
     1
 68
     0
279
    -2
289
     1
 69
     0
  7
Standard
140
0.18
170
     5
 62
     0
 63
   257
283
     0
 90
        4
 91
        0
  1

274
    -2
284
     1
 64
     0
275
    -2
285
     1
 65
     0
276
    -2
286
     1
 66
     0
277
    -2
287
     1
 67
     0
278
    -2
288
     1
 68
     0
279
    -2
289
     1
 69
     0
  0
VISUALSTYLE
  5
2F
102
{ACAD_REACTORS
330
2A
102
}
330
2A
100
AcDbVisualStyle
  2
2dWireframe
 70
     4
177
     3
291
     0
 70
    58
 90
        0
176
     1
 90
        2
176
     1
 90
        0
176
     1
 90
        0
176
     1
 40
0.6
176
     1
 40
30.0
176
     1
 62
     7
420
 16777215
176
     1
 90
        1
176
     1
 90
        4
176
     1
 62
     7
176
     1
 62
   257
176
     1
 90
        1
176
     1
 90
        1
176
     1
 40
1.0
176
     1
 90
        0
176
     1
 62
   257
176
     1
 40
1.0
176
     1
 90
        1
176
     1
 90
        6
176
     1
 90
        2
176
     1
 62
     7
176
     1
 90
        5
176
     1
 90
        0
176
     1
 90
        0
176
     1
290
     0
176
     1
 90
        1
176
     1
 40
0.0
176
     1
 90
        0
176
     1
290
     1
176
     1
290
     1
176
     1
290
     0
176
     1
290
     0
176
     1
290
     0
176
     1
290
     0
176
     1
290
     0
176
     1
290
     0
176
     1
290
     0
176
     1
 90
       50
176
     1
 40
0.0
176
     1
 40
1.0
176
     1
 90
        0
176
     1
 62
    18
420
        0
176
     1
 90
       50
176
     1
 90
        3
176
     1
 62
     5
420
      255
176
     1
290
     0
176
     1
 90
       50
176
     1
 90
       50
176
     1
 90
       50
176
     1
290
     0
176
     1
 90
       50
176
     1
 62
   256
176
     0
 40
1.0
176
     0
 90
        2
176
     1
  1
strokes_ogs.tif
176
     1
290
     0
176
     1
 40
1.0
176
     1
 40
1.0
176
     1
  0
VISUALSTYLE
  5
32
102
{ACAD_REACTORS
330
2A
102
}
330
2A
100
AcDbVisualStyle
  2
Basic
 70
     7
177
     3
291
     1
 70
    58
 90
        1
176
     1
 90
        0
176
     1
 90
        1
176
     1
 90
        0
176
     1
 40
0.6
176
     1
 40
30.0
176
     1
 62
     7
420
 16777215
176
     1
 90
        0
176
     1
 90
        4
176
     1
 62
     7
176
     1
 62
   257
176
     1
 90
        1
176
     1
 90
        1
176
     1
 40
1.0
176
     1
 90
        8
176
     1
 62
     7
176
     1
 40
1.0
176
     1
 90
        1
176
     1
 90
        6
176
     1
 90
        2
176
     1
 62
     7
176
     1
 90
        5
176
     1
 90
        0
176
     1
 90
        0
176
     1
290
     0
176
     1
 90
        1
176
     1
 40
0.0
176
     1
 90
        0
176
     1
290
     0
176
     1
290
     1
176
     1
290
     1
176
     1
290
     0
176
     1
290
     0
176
     1
290
     0
176
     1
290
     0
176
     1
290
     0
176
     1
290
     0
176
     1
 90
       50
176
     1
 40
0.0
176
     1
 40
1.0
176
     1
 90
        0
176
     1
 62
    18
420
        0
176
     1
 90
       50
176
     1
 90
        3
176
     1
 62
     5
420
      255
176
     1
290
     0
176
     1
 90
       50
176
     1
 90
       50
176
     1
 90
       50
176
     1
290
     0
176
     1
 90
       50
176
     1
 62
   256
176
     0
 40
1.0
176
     0
 90
        2
176
     1
  1
strokes_ogs.tif
176
     1
290
     0
176
     1
 40
1.0
176
     1
 40
1.0
176
     1
  0
VISUALSTYLE
  5
36
102
{ACAD_REACTORS
330
2A
102
}
330
2A
100
AcDbVisualStyle
  2
Brighten
 70
    12
177
     3
291
     1
 70
    58
 90
        2
176
     1
 90
        2
176
     1
 90
        0
176
     1
 90
        0
176
     1
 40
0.6
176
     1
 40
30.0
176
     1
 62
     7
420
 16777215
176
     1
 90
        1
176
     1
 90
        4
176
     1
 62
     7
176
     1
 62
   257
176
     1
 90
        1
176
     1
 90
        1
176
     1
 40
1.0
176
     1
 90
        8
176
     1
 62
     7
176
     1
 40
1.0
176
     1
 90
        1
176
     1
 90
        6
176
     1
 90
        2
176
     1
 62
     7
176
     1
 90
        5
176
     1
 90
        0
176
     1
 90
        0
176
     1
290
     0
176
     1
 90
        1
176
     1
 40
50.0
176
     1
 90
        0
176
     1
290
     0
176
     1
290
     1
176
     1
290
     1
176
     1
290
     0
176
     1
290
     0
176
     1
290
     0
176
     1
290
     0
176
     1
290
     0
176
     1
290
     0
176
     1
 90
       50
176
     1
 40
0.0
176
     1
 40
1.0
176
     1
 90
        0
176
     1
 62
    18
420
        0
176
     1
 90
       50
176
     1
 90
        3
176
     1
 62
     5
420
      255
176
     1
290
     0
176
     1
 90
       50
176
     1
 90
       50
176
     1
 90
       50
176
     1
290
     0
176
     1
 90
       50
176
     1
 62
   256
176
     0
 40
1.0
176
     0
 90
        2
176
     1
  1
strokes_ogs.tif
176
     1
290
     0
176
     1
 40
1.0
176
     1
 40
1.0
176
     1
  0
VISUALSTYLE
  5
3A
102
{ACAD_REACTORS
330
2A
102
}
330
2A
100
AcDbVisualStyle
  2
ColorChange
 70
    16
177
     3
291
     1
 70
    58
 90
        2
176
     1
 90
        2
176
     1
 90
        3
176
     1
 90
        0
176
     1
 40
0.6
176
     1
 40
30.0
176
     1
 62
     8
420
  8421504
176
     1
 90
        1
176
     1
 90
        4
176
     1
 62
     7
176
     1
 62
   257
176
     1
 90
        1
176
     1
 90
        1
176
     1
 40
1.0
176
     1
 90
        8
176
     1
 62
     8
420
  8421504
176
     1
 40
1.0
176
     1
 90
        1
176
     1
 90
        6
176
     1
 90
        2
176
     1
 62
     7
176
     1
 90
        5
176
     1
 90
        0
176
     1
 90
        0
176
     1
290
     0
176
     1
 90
        1
176
     1
 40
0.0
176
     1
 90
        0
176
     1
290
     0
176
     1
290
     1
176
     1
290
     1
176
     1
290
     0
176
     1
290
     0
176
     1
290
     0
176
     1
290
     0
176
     1
290
     0
176
     1
290
     0
176
     1
 90
       50
176
     1
 40
0.0
176
     1
 40
1.0
176
     1
 90
        0
176
     1
 62
    18
420
        0
176
     1
 90
       50
176
     1
 90
        3
176
     1
 62
     5
420
      255
176
     1
290
     0
176
     1
 90
       50
176
     1
 90
       50
176
     1
 90
       50
176
     1
290
     0
176
     1
 90
       50
176
     1
 62
   256
176
     0
 40
1.0
176
     0
 90
        2
176
     1
  1
strokes_ogs.tif
176
     1
290
     0
176
     1
 40
1.0
176
     1
 40
1.0
176
     1
  0
VISUALSTYLE
  5
34
102
{ACAD_REACTORS
330
2A
102
}
330
2A
100
AcDbVisualStyle
  2
Conceptual
 70
     9
177
     3
291
     0
 70
    58
 90
        3
176
     1
 90
        2
176
     1
 90
        0
176
     1
 90
        0
176
     1
 40
0.6
176
     1
 40
30.0
176
     1
 62
     7
420
 16777215
176
     1
 90
        2
176
     1
 90
        2
176
     1
 62
     7
176
     1
 62
   257
176
     1
 90
        1
176
     1
 90
        1
176
     1
 40
179.0
176
     1
 90
        8
176
     1
 62
     7
176
     1
 40
1.0
176
     1
 90
        1
176
     1
 90
        6
176
     1
 90
        2
176
     1
 62
     7
176
     1
 90
        3
176
     1
 90
        0
176
     1
 90
        0
176
     1
290
     0
176
     1
 90
        1
176
     1
 40
0.0
176
     1
 90
        0
176
     1
290
     0
176
     1
290
     1
176
     1
290
     1
176
     1
290
     0
176
     1
290
     0
176
     1
290
     0
176
     1
290
     0
176
     1
290
     0
176
     1
290
     0
176
     1
 90
       50
176
     1
 40
0.0
176
     1
 40
1.0
176
     1
 90
        0
176
     1
 62
    18
420
        0
176
     1
 90
       50
176
     1
 90
        3
176
     1
 62
     5
420
      255
176
     1
290
     0
176
     1
 90
       50
176
     1
 90
       50
176
     1
 90
       50
176
     1
290
     0
176
     1
 90
       50
176
     1
 62
   256
176
     0
 40
1.0
176
     0
 90
        2
176
     1
  1
strokes_ogs.tif
176
     1
290
     0
176
     1
 40
1.0
176
     1
 40
1.0
176
     1
  0
VISUALSTYLE
  5
35
102
{ACAD_REACTORS
330
2A
102
}
330
2A
100
AcDbVisualStyle
  2
Dim
 70
    11
177
     3
291
     1
 70
    58
 90
        2
176
     1
 90
        2
176
     1
 90
        0
176
     1
 90
        0
176
     1
 40
0.6
176
     1
 40
30.0
176
     1
 62
     7
420
 16777215
176
     1
 90
        1
176
     1
 90
        4
176
     1
 62
     7
176
     1
 62
   257
176
     1
 90
        1
176
     1
 90
        1
176
     1
 40
1.0
176
     1
 90
        8
176
     1
 62
     7
176
     1
 40
1.0
176
     1
 90
        1
176
     1
 90
        6
176
     1
 90
        2
176
     1
 62
     7
176
     1
 90
        5
176
     1
 90
        0
176
     1
 90
        0
176
     1
290
     0
176
     1
 90
        1
176
     1
 40
-50.0
176
     1
 90
        0
176
     1
290
     0
176
     1
290
     1
176
     1
290
     1
176
     1
290
     0
176
     1
290
     0
176
     1
290
     0
176
     1
290
     0
176
     1
290
     0
176
     1
290
     0
176
     1
 90
       50
176
     1
 40
0.0
176
     1
 40
1.0
176
     1
 90
        0
176
     1
 62
    18
420
        0
176
     1
 90
       50
176
     1
 90
        3
176
     1
 62
     5
420
      255
176
     1
290
     0
176
     1
 90
       50
176
     1
 90
       50
176
     1
 90
       50
176
     1
290
     0
176
     1
 90
       50
176
     1
 62
   256
176
     0
 40
1.0
176
     0
 90
        2
176
     1
  1
strokes_ogs.tif
176
     1
290
     0
176
     1
 40
1.0
176
     1
 40
1.0
176
     1
  0
VISUALSTYLE
  5
3D
102
{ACAD_REACTORS
330
2A
102
}
330
2A
100
AcDbVisualStyle
  2
EdgeColorOff
 70
    22
177
     3
291
     1
 70
    58
 90
        2
176
     0
 90
        2
176
     0
 90
        0
176
     0
 90
        0
176
     0
 40
0.6
176
     0
 40
30.0
176
     0
 62
     7
420
 16777215
176
     0
 90
        1
176
     0
 90
        4
176
     0
 62
     7
176
     0
 62
   257
176
     0
 90
        1
176
     0
 90
        1
176
     0
 40
1.0
176
     0
 90
        8
176
     2
 62
     7
176
     0
 40
1.0
176
     0
 90
        1
176
     0
 90
        6
176
     0
 90
        2
176
     0
 62
     7
176
     0
 90
        5
176
     0
 90
        0
176
     0
 90
        0
176
     0
290
     0
176
     0
 90
        1
176
     0
 40
0.0
176
     0
 90
        0
176
     0
290
     0
176
     0
290
     1
176
     0
290
     1
176
     0
290
     0
176
     0
290
     0
176
     0
290
     0
176
     0
290
     0
176
     0
290
     0
176
     0
290
     0
176
     0
 90
       50
176
     0
 40
0.0
176
     0
 40
1.0
176
     0
 90
        0
176
     0
 62
    18
420
        0
176
     0
 90
       50
176
     0
 90
        3
176
     0
 62
     5
420
      255
176
     0
290
     0
176
     0
 90
       50
176
     0
 90
       50
176
     0
 90
       50
176
     0
290
     0
176
     0
 90
       50
176
     0
 62
   256
176
     0
 40
1.0
176
     0
 90
        2
176
     0
  1
strokes_ogs.tif
176
     0
290
     0
176
     0
 40
1.0
176
     0
 40
1.0
176
     0
  0
VISUALSTYLE
  5
39
102
{ACAD_REACTORS
330
2A
102
}
330
2A
100
AcDbVisualStyle
  2
Facepattern
 70
    15
177
     3
291
     1
 70
    58
 90
        2
176
     1
 90
        2
176
     1
 90
        0
176
     1
 90
        0
176
     1
 40
0.6
176
     1
 40
30.0
176
     1
 62
     7
420
 16777215
176
     1
 90
        1
176
     1
 90
        4
176
     1
 62
     7
176
     1
 62
   257
176
     1
 90
        1
176
     1
 90
        1
176
     1
 40
1.0
176
     1
 90
        8
176
     1
 62
     7
176
     1
 40
1.0
176
     1
 90
        1
176
     1
 90
        6
176
     1
 90
        2
176
     1
 62
     7
176
     1
 90
        5
176
     1
 90
        0
176
     1
 90
        0
176
     1
290
     0
176
     1
 90
        1
176
     1
 40
0.0
176
     1
 90
        0
176
     1
290
     0
176
     1
290
     1
176
     1
290
     1
176
     1
290
     0
176
     1
290
     0
176
     1
290
     0
176
     1
290
     0
176
     1
290
     0
176
     1
290
     0
176
     1
 90
       50
176
     1
 40
0.0
176
     1
 40
1.0
176
     1
 90
        0
176
     1
 62
    18
420
        0
176
     1
 90
       50
176
     1
 90
        3
176
     1
 62
     5
420
      255
176
     1
290
     0
176
     1
 90
       50
176
     1
 90
       50
176
     1
 90
       50
176
     1
290
     0
176
     1
 90
       50
176
     1
 62
   256
176
     0
 40
1.0
176
     0
 90
        2
176
     1
  1
strokes_ogs.tif
176
     1
290
     0
176
     1
 40
1.0
176
     1
 40
1.0
176
     1
  0
VISUALSTYLE
  5
2B
102
{ACAD_REACTORS
330
2A
102
}
330
2A
100
AcDbVisualStyle
  2
Flat
 70
     0
177
     3
291
     1
 70
    58
 90
        2
176
     1
 90
        1
176
     1
 90
        1
176
     1
 90
        2
176
     1
 40
0.6
176
     1
 40
30.0
176
     1
 62
     7
420
 16777215
176
     1
 90
        0
176
     1
 90
        0
176
     1
 62
     7
176
     1
 62
   257
176
     1
 90
        1
176
     1
 90
        1
176
     1
 40
1.0
176
     1
 90
        8
176
     1
 62
     7
176
     1
 40
1.0
176
     1
 90
        1
176
     1
 90
        6
176
     1
 90
        2
176
     1
 62
     7
176
     1
 90
        5
176
     1
 90
        0
176
     1
 90
        0
176
     1
290
     0
176
     1
 90
       13
176
     1
 40
0.0
176
     1
 90
        0
176
     1
290
     0
176
     1
290
     1
176
     1
290
     1
176
     1
290
     0
176
     1
290
     0
176
     1
290
     0
176
     1
290
     0
176
     1
290
     0
176
     1
290
     0
176
     1
 90
       50
176
     1
 40
0.0
176
     1
 40
1.0
176
     1
 90
        0
176
     1
 62
    18
420
        0
176
     1
 90
       50
176
     1
 90
        3
176
     1
 62
     5
420
      255
176
     1
290
     0
176
     1
 90
       50
176
     1
 90
       50
176
     1
 90
       50
176
     1
290
     0
176
     1
 90
       50
176
     1
 62
   256
176
     0
 40
1.0
176
     0
 90
        2
176
     1
  1
strokes_ogs.tif
176
     1
290
     0
176
     1
 40
1.0
176
     1
 40
1.0
176
     1
  0
VISUALSTYLE
  5
2C
102
{ACAD_REACTORS
330
2A
102
}
330
2A
100
AcDbVisualStyle
  2
FlatWithEdges
 70
     1
177
     3
291
     1
 70
    58
 90
        2
176
     1
 90
        1
176
     1
 90
        1
176
     1
 90
        2
176
     1
 40
0.6
176
     1
 40
30.0
176
     1
 62
     7
420
 16777215
176
     1
 90
        1
176
     1
 90
        0
176
     1
 62
     7
176
     1
 62
   257
176
     1
 90
        1
176
     1
 90
        1
176
     1
 40
1.0
176
     1
 90
        0
176
     1
 62
   257
176
     1
 40
1.0
176
     1
 90
        1
176
     1
 90
        6
176
     1
 90
        2
176
     1
 62
     7
176
     1
 90
        5
176
     1
 90
        0
176
     1
 90
        0
176
     1
290
     0
176
     1
 90
       13
176
     1
 40
0.0
176
     1
 90
        0
176
     1
290
     0
176
     1
290
     1
176
     1
290
     1
176
     1
290
     0
176
     1
290
     0
176
     1
290
     0
176
     1
290
     0
176
     1
290
     0
176
     1
290
     0
176
     1
 90
       50
176
     1
 40
0.0
176
     1
 40
1.0
176
     1
 90
        0
176
     1
 62
    18
420
        0
176
     1
 90
       50
176
     1
 90
        3
176
     1
 62
     5
420
      255
176
     1
290
     0
176
     1
 90
       50
176
     1
 90
       50
176
     1
 90
       50
176
     1
290
     0
176
     1
 90
       50
176
     1
 62
   256
176
     0
 40
1.0
176
     0
 90
        2
176
     1
  1
strokes_ogs.tif
176
     1
290
     0
176
     1
 40
1.0
176
     1
 40
1.0
176
     1
  0
VISUALSTYLE
  5
2D
102
{ACAD_REACTORS
330
2A
102
}
330
2A
100
AcDbVisualStyle
  2
Gouraud
 70
     2
177
     3
291
     1
 70
    58
 90
        2
176
     1
 90
        2
176
     1
 90
        1
176
     1
 90
        2
176
     1
 40
0.6
176
     1
 40
30.0
176
     1
 62
     7
420
 16777215
176
     1
 90
        0
176
     1
 90
        0
176
     1
 62
     7
176
     1
 62
   257
176
     1
 90
        1
176
     1
 90
        1
176
     1
 40
1.0
176
     1
 90
        0
176
     1
 62
     7
176
     1
 40
1.0
176
     1
 90
        1
176
     1
 90
        6
176
     1
 90
        2
176
     1
 62
     7
176
     1
 90
        5
176
     1
 90
        0
176
     1
 90
        0
176
     1
290
     0
176
     1
 90
       13
176
     1
 40
0.0
176
     1
 90
        0
176
     1
290
     0
176
     1
290
     1
176
     1
290
     1
176
     1
290
     0
176
     1
290
     0
176
     1
290
     0
176
     1
290
     0
176
     1
290
     0
176
     1
290
     0
176
     1
 90
       50
176
     1
 40
0.0
176
     1
 40
1.0
176
     1
 90
        0
176
     1
 62
    18
420
        0
176
     1
 90
       50
176
     1
 90
        3
176
     1
 62
     5
420
      255
176
     1
290
     0
176
     1
 90
       50
176
     1
 90
       50
176
     1
 90
       50
176
     1
290
     0
176
     1
 90
       50
176
     1
 62
   256
176
     0
 40
1.0
176
     0
 90
        2
176
     1
  1
strokes_ogs.tif
176
     1
290
     0
176
     1
 40
1.0
176
     1
 40
1.0
176
     1
  0
VISUALSTYLE
  5
2E
102
{ACAD_REACTORS
330
2A
102
}
330
2A
100
AcDbVisualStyle
  2
GouraudWithEdges
 70
     3
177
     3
291
     1
 70
    58
 90
        2
176
     1
 90
        2
176
     1
 90
        1
176
     1
 90
        2
176
     1
 40
0.6
176
     1
 40
30.0
176
     1
 62
     7
420
 16777215
176
     1
 90
        1
176
     1
 90
        0
176
     1
 62
     7
176
     1
 62
   257
176
     1
 90
        1
176
     1
 90
        1
176
     1
 40
1.0
176
     1
 90
        0
176
     1
 62
   257
176
     1
 40
1.0
176
     1
 90
        1
176
     1
 90
        6
176
     1
 90
        2
176
     1
 62
     7
176
     1
 90
        5
176
     1
 90
        0
176
     1
 90
        0
176
     1
290
     0
176
     1
 90
       13
176
     1
 40
0.0
176
     1
 90
        0
176
     1
290
     0
176
     1
290
     1
176
     1
290
     1
176
     1
290
     0
176
     1
290
     0
176
     1
290
     0
176
     1
290
     0
176
     1
290
     0
176
     1
290
     0
176
     1
 90
       50
176
     1
 40
0.0
176
     1
 40
1.0
176
     1
 90
        0
176
     1
 62
    18
420
        0
176
     1
 90
       50
176
     1
 90
        3
176
     1
 62
     5
420
      255
176
     1
290
     0
176
     1
 90
       50
176
     1
 90
       50
176
     1
 90
       50
176
     1
290
     0
176
     1
 90
       50
176
     1
 62
   256
176
     0
 40
1.0
176
     0
 90
        2
176
     1
  1
strokes_ogs.tif
176
     1
290
     0
176
     1
 40
1.0
176
     1
 40
1.0
176
     1
  0
VISUALSTYLE
  5
31
102
{ACAD_REACTORS
330
2A
102
}
330
2A
100
AcDbVisualStyle
  2
Hidden
 70
     6
177
     3
291
     0
 70
    58
 90
        1
176
     1
 90
        2
176
     1
 90
        2
176
     1
 90
        0
176
     1
 40
0.6
176
     1
 40
30.0
176
     1
 62
     7
420
 16777215
176
     1
 90
        2
176
     1
 90
        2
176
     1
 62
     7
176
     1
 62
   257
176
     1
 90
        2
176
     1
 90
        1
176
     1
 40
40.0
176
     1
 90
        0
176
     1
 62
   257
176
     1
 40
1.0
176
     1
 90
        1
176
     1
 90
        6
176
     1
 90
        2
176
     1
 62
     7
176
     1
 90
        3
176
     1
 90
        0
176
     1
 90
        0
176
     1
290
     0
176
     1
 90
        1
176
     1
 40
0.0
176
     1
 90
        0
176
     1
290
     0
176
     1
290
     1
176
     1
290
     1
176
     1
290
     0
176
     1
290
     0
176
     1
290
     0
176
     1
290
     0
176
     1
290
     0
176
     1
290
     0
176
     1
 90
       50
176
     1
 40
0.0
176
     1
 40
1.0
176
     1
 90
        0
176
     1
 62
    18
420
        0
176
     1
 90
       50
176
     1
 90
        3
176
     1
 62
     5
420
      255
176
     1
290
     0
176
     1
 90
       50
176
     1
 90
       50
176
     1
 90
       50
176
     1
290
     0
176
     1
 90
       50
176
     1
 62
   256
176
     0
 40
1.0
176
     0
 90
        2
176
     1
  1
strokes_ogs.tif
176
     1
290
     0
176
     1
 40
1.0
176
     1
 40
1.0
176
     1
  0
VISUALSTYLE
  5
3B
102
{ACAD_REACTORS
330
2A
102
}
330
2A
100
AcDbVisualStyle
  2
JitterOff
 70
    20
177
     3
291
     1
 70
    58
 90
        2
176
     0
 90
        2
176
     0
 90
        0
176
     0
 90
        0
176
     0
 40
0.6
176
     0
 40
30.0
176
     0
 62
     7
420
 16777215
176
     0
 90
        1
176
     0
 90
        4
176
     0
 62
     7
176
     0
 62
   257
176
     0
 90
        1
176
     0
 90
        1
176
     0
 40
1.0
176
     0
 90
       10
176
     2
 62
     7
176
     0
 40
1.0
176
     0
 90
        1
176
     0
 90
        6
176
     0
 90
        2
176
     0
 62
     7
176
     0
 90
        5
176
     0
 90
        0
176
     0
 90
        0
176
     0
290
     0
176
     0
 90
        1
176
     0
 40
0.0
176
     0
 90
        0
176
     0
290
     0
176
     0
290
     1
176
     0
290
     1
176
     0
290
     0
176
     0
290
     0
176
     0
290
     0
176
     0
290
     0
176
     0
290
     0
176
     0
290
     0
176
     0
 90
       50
176
     0
 40
0.0
176
     0
 40
1.0
176
     0
 90
        0
176
     0
 62
    18
420
        0
176
     0
 90
       50
176
     0
 90
        3
176
     0
 62
     5
420
      255
176
     0
290
     0
176
     0
 90
       50
176
     0
 90
       50
176
     0
 90
       50
176
     0
290
     0
176
     0
 90
       50
176
     0
 62
   256
176
     0
 40
1.0
176
     0
 90
        2
176
     0
  1
strokes_ogs.tif
176
     0
290
     0
176
     0
 40
1.0
176
     0
 40
1.0
176
     0
  0
VISUALSTYLE
  5
38
102
{ACAD_REACTORS
330
2A
102
}
330
2A
100
AcDbVisualStyle
  2
Linepattern
 70
    14
177
     3
291
     1
 70
    58
 90
        2
176
     1
 90
        2
176
     1
 90
        0
176
     1
 90
        0
176
     1
 40
0.6
176
     1
 40
30.0
176
     1
 62
     7
420
 16777215
176
     1
 90
        1
176
     1
 90
        4
176
     1
 62
     7
176
     1
 62
   257
176
     1
 90
        7
176
     1
 90
        7
176
     1
 40
1.0
176
     1
 90
        8
176
     1
 62
     7
176
     1
 40
1.0
176
     1
 90
        1
176
     1
 90
        6
176
     1
 90
        2
176
     1
 62
     7
176
     1
 90
        5
176
     1
 90
        0
176
     1
 90
        0
176
     1
290
     0
176
     1
 90
        1
176
     1
 40
0.0
176
     1
 90
        0
176
     1
290
     0
176
     1
290
     1
176
     1
290
     1
176
     1
290
     0
176
     1
290
     0
176
     1
290
     0
176
     1
290
     0
176
     1
290
     0
176
     1
290
     0
176
     1
 90
       50
176
     1
 40
0.0
176
     1
 40
1.0
176
     1
 90
        0
176
     1
 62
    18
420
        0
176
     1
 90
       50
176
     1
 90
        3
176
     1
 62
     5
420
      255
176
     1
290
     0
176
     1
 90
       50
176
     1
 90
       50
176
     1
 90
       50
176
     1
290
     0
176
     1
 90
       50
176
     1
 62
   256
176
     0
 40
1.0
176
     0
 90
        2
176
     1
  1
strokes_ogs.tif
176
     1
290
     0
176
     1
 40
1.0
176
     1
 40
1.0
176
     1
  0
VISUALSTYLE
  5
3C
102
{ACAD_REACTORS
330
2A
102
}
330
2A
100
AcDbVisualStyle
  2
OverhangOff
 70
    21
177
     3
291
     1
 70
    58
 90
        2
176
     0
 90
        2
176
     0
 90
        0
176
     0
 90
        0
176
     0
 40
0.6
176
     0
 40
30.0
176
     0
 62
     7
420
 16777215
176
     0
 90
        1
176
     0
 90
        4
176
     0
 62
     7
176
     0
 62
   257
176
     0
 90
        1
176
     0
 90
        1
176
     0
 40
1.0
176
     0
 90
        9
176
     2
 62
     7
176
     0
 40
1.0
176
     0
 90
        1
176
     0
 90
        6
176
     0
 90
        2
176
     0
 62
     7
176
     0
 90
        5
176
     0
 90
        0
176
     0
 90
        0
176
     0
290
     0
176
     0
 90
        1
176
     0
 40
0.0
176
     0
 90
        0
176
     0
290
     0
176
     0
290
     1
176
     0
290
     1
176
     0
290
     0
176
     0
290
     0
176
     0
290
     0
176
     0
290
     0
176
     0
290
     0
176
     0
290
     0
176
     0
 90
       50
176
     0
 40
0.0
176
     0
 40
1.0
176
     0
 90
        0
176
     0
 62
    18
420
        0
176
     0
 90
       50
176
     0
 90
        3
176
     0
 62
     5
420
      255
176
     0
290
     0
176
     0
 90
       50
176
     0
 90
       50
176
     0
 90
       50
176
     0
290
     0
176
     0
 90
       50
176
     0
 62
   256
176
     0
 40
1.0
176
     0
 90
        2
176
     0
  1
strokes_ogs.tif
176
     0
290
     0
176
     0
 40
1.0
176
     0
 40
1.0
176
     0
  0
VISUALSTYLE
  5
33
102
{ACAD_REACTORS
330
2A
102
}
330
2A
100
AcDbVisualStyle
  2
Realistic
 70
     8
177
     3
291
     0
 70
    58
 90
        2
176
     1
 90
        3
176
     1
 90
        0
176
     1
 90
        2
176
     1
 40
0.6
176
     1
 40
30.0
176
     1
 62
     7
420
 16777215
176
     1
 90
        0
176
     1
 90
        0
176
     1
 62
     7
176
     1
 62
   257
176
     1
 90
        1
176
     1
 90
        1
176
     1
 40
1.0
176
     1
 90
        8
176
     1
 62
   257
176
     1
 40
1.0
176
     1
 90
        1
176
     1
 90
        6
176
     1
 90
        2
176
     1
 62
     7
176
     1
 90
        3
176
     1
 90
        0
176
     1
 90
        0
176
     1
290
     0
176
     1
 90
       13
176
     1
 40
0.0
176
     1
 90
        0
176
     1
290
     0
176
     1
290
     1
176
     1
290
     1
176
     1
290
     0
176
     1
290
     0
176
     1
290
     0
176
     1
290
     0
176
     1
290
     0
176
     1
290
     0
176
     1
 90
       50
176
     1
 40
0.0
176
     1
 40
1.0
176
     1
 90
        0
176
     1
 62
    18
420
        0
176
     1
 90
       50
176
     1
 90
        3
176
     1
 62
     5
420
      255
176
     1
290
     0
176
     1
 90
       50
176
     1
 90
       50
176
     1
 90
       50
176
     1
290
     0
176
     1
 90
       50
176
     1
 62
   256
176
     0
 40
1.0
176
     0
 90
        2
176
     1
  1
strokes_ogs.tif
176
     1
290
     0
176
     1
 40
1.0
176
     1
 40
1.0
176
     1
  0
VISUALSTYLE
  5
42
102
{ACAD_REACTORS
330
2A
102
}
330
2A
100
AcDbVisualStyle
  2
Shaded
 70
    27
177
     3
291
     0
 70
    58
 90
        2
176
     1
 90
        2
176
     1
 90
        1
176
     1
 90
        2
176
     1
 40
0.6
176
     1
 40
30.0
176
     1
 62
     7
420
 16777215
176
     1
 90
        0
176
     1
 90
        4
176
     1
 62
     7
176
     1
 62
   257
176
     1
 90
        1
176
     1
 90
        1
176
     1
 40
1.0
176
     1
 90
        8
176
     1
 62
   257
176
     1
 40
1.0
176
     1
 90
        1
176
     1
 90
        6
176
     1
 90
        2
176
     1
 62
     8
420
  7895160
176
     1
 90
        3
176
     1
 90
        0
176
     1
 90
        0
176
     1
290
     0
176
     1
 90
        5
176
     1
 40
0.0
176
     1
 90
        0
176
     1
290
     0
176
     1
290
     1
176
     1
290
     1
176
     1
290
     0
176
     1
290
     0
176
     1
290
     0
176
     1
290
     0
176
     1
290
     0
176
     1
290
     0
176
     1
 90
       50
176
     1
 40
0.0
176
     1
 40
1.0
176
     1
 90
        0
176
     1
 62
    18
420
        0
176
     1
 90
       50
176
     1
 90
        3
176
     1
 62
     5
420
      255
176
     1
290
     0
176
     1
 90
       50
176
     1
 90
       50
176
     1
 90
       50
176
     1
290
     0
176
     1
 90
       50
176
     1
 62
   256
176
     0
 40
1.0
176
     0
 90
        2
176
     1
  1
strokes_ogs.tif
176
     1
290
     0
176
     1
 40
1.0
176
     1
 40
1.0
176
     1
  0
VISUALSTYLE
  5
41
102
{ACAD_REACTORS
330
2A
102
}
330
2A
100
AcDbVisualStyle
  2
Shaded with edges
 70
    26
177
     3
291
     0
 70
    58
 90
        2
176
     1
 90
        2
176
     1
 90
        1
176
     1
 90
        2
176
     1
 40
0.6
176
     1
 40
30.0
176
     1
 62
     7
420
 16777215
176
     1
 90
        1
176
     1
 90
       10
176
     1
 62
     7
176
     1
 62
   257
176
     1
 90
        2
176
     1
 90
        1
176
     1
 40
1.0
176
     1
 90
        8
176
     1
 62
   257
176
     1
 40
1.0
176
     1
 90
        1
176
     1
 90
        6
176
     1
 90
        2
176
     1
 62
     7
176
     1
 90
        3
176
     1
 90
        0
176
     1
 90
        0
176
     1
290
     0
176
     1
 90
        5
176
     1
 40
0.0
176
     1
 90
        0
176
     1
290
     0
176
     1
290
     1
176
     1
290
     1
176
     1
290
     0
176
     1
290
     0
176
     1
290
     0
176
     1
290
     0
176
     1
290
     0
176
     1
290
     0
176
     1
 90
       50
176
     1
 40
0.0
176
     1
 40
1.0
176
     1
 90
        0
176
     1
 62
    18
420
        0
176
     1
 90
       50
176
     1
 90
        3
176
     1
 62
     5
420
      255
176
     1
290
     0
176
     1
 90
       50
176
     1
 90
       50
176
     1
 90
       50
176
     1
290
     0
176
     1
 90
       50
176
     1
 62
   256
176
     0
 40
1.0
176
     0
 90
        2
176
     1
  1
strokes_ogs.tif
176
     1
290
     0
176
     1
 40
1.0
176
     1
 40
1.0
176
     1
  0
VISUALSTYLE
  5
3E
102
{ACAD_REACTORS
330
2A
102
}
330
2A
100
AcDbVisualStyle
  2
Shades of Gray
 70
    23
177
     3
291
     0
 70
    58
 90
        2
176
     1
 90
        2
176
     1
 90
        3
176
     1
 90
        0
176
     1
 40
0.6
176
     1
 40
30.0
176
     1
 62
     7
420
 16777215
176
     1
 90
        2
176
     1
 90
        2
176
     1
 62
     7
176
     1
 62
     7
176
     1
 90
        1
176
     1
 90
        1
176
     1
 40
40.0
176
     1
 90
        8
176
     1
 62
     7
176
     1
 40
1.0
176
     1
 90
        1
176
     1
 90
        6
176
     1
 90
        2
176
     1
 62
     7
176
     1
 90
        3
176
     1
 90
        0
176
     1
 90
        0
176
     1
290
     0
176
     1
 90
        1
176
     1
 40
0.0
176
     1
 90
        0
176
     1
290
     0
176
     1
290
     1
176
     1
290
     1
176
     1
290
     0
176
     1
290
     0
176
     1
290
     0
176
     1
290
     0
176
     1
290
     0
176
     1
290
     0
176
     1
 90
       50
176
     1
 40
0.0
176
     1
 40
1.0
176
     1
 90
        0
176
     1
 62
    18
420
        0
176
     1
 90
       50
176
     1
 90
        3
176
     1
 62
     5
420
      255
176
     1
290
     0
176
     1
 90
       50
176
     1
 90
       50
176
     1
 90
       50
176
     1
290
     0
176
     1
 90
       50
176
     1
 62
   256
176
     0
 40
1.0
176
     0
 90
        2
176
     1
  1
strokes_ogs.tif
176
     1
290
     0
176
     1
 40
1.0
176
     1
 40
1.0
176
     1
  0
VISUALSTYLE
  5
3F
102
{ACAD_REACTORS
330
2A
102
}
330
2A
100
AcDbVisualStyle
  2
Sketchy
 70
    24
177
     3
291
     0
 70
    58
 90
        1
176
     1
 90
        2
176
     1
 90
        2
176
     1
 90
        0
176
     1
 40
0.6
176
     1
 40
30.0
176
     1
 62
     7
420
 16777215
176
     1
 90
        2
176
     1
 90
        2
176
     1
 62
     7
176
     1
 62
     7
176
     1
 90
        1
176
     1
 90
        1
176
     1
 40
40.0
176
     1
 90
       11
176
     1
 62
     7
176
     1
 40
1.0
176
     1
 90
        1
176
     1
 90
        6
176
     1
 90
        2
176
     1
 62
     7
176
     1
 90
        6
176
     1
 90
        0
176
     1
 90
        0
176
     1
290
     0
176
     1
 90
        1
176
     1
 40
0.0
176
     1
 90
        0
176
     1
290
     0
176
     1
290
     1
176
     1
290
     1
176
     1
290
     0
176
     1
290
     0
176
     1
290
     0
176
     1
290
     0
176
     1
290
     0
176
     1
290
     0
176
     1
 90
       50
176
     1
 40
0.0
176
     1
 40
1.0
176
     1
 90
        0
176
     1
 62
    18
420
        0
176
     1
 90
       50
176
     1
 90
        3
176
     1
 62
     5
420
      255
176
     1
290
     0
176
     1
 90
       50
176
     1
 90
       50
176
     1
 90
       50
176
     1
290
     0
176
     1
 90
       50
176
     1
 62
   256
176
     0
 40
1.0
176
     0
 90
        2
176
     1
  1
strokes_ogs.tif
176
     1
290
     0
176
     1
 40
1.0
176
     1
 40
1.0
176
     1
  0
VISUALSTYLE
  5
37
102
{ACAD_REACTORS
330
2A
102
}
330
2A
100
AcDbVisualStyle
  2
Thicken
 70
    13
177
     3
291
     1
 70
    58
 90
        2
176
     1
 90
        2
176
     1
 90
        0
176
     1
 90
        0
176
     1
 40
0.6
176
     1
 40
30.0
176
     1
 62
     7
420
 16777215
176
     1
 90
        1
176
     1
 90
        4
176
     1
 62
     7
176
     1
 62
   257
176
     1
 90
        1
176
     1
 90
        1
176
     1
 40
1.0
176
     1
 90
       12
176
     1
 62
     7
176
     1
 40
1.0
176
     1
 90
        1
176
     1
 90
        6
176
     1
 90
        2
176
     1
 62
     7
176
     1
 90
        5
176
     1
 90
        0
176
     1
 90
        0
176
     1
290
     0
176
     1
 90
        1
176
     1
 40
0.0
176
     1
 90
        0
176
     1
290
     0
176
     1
290
     1
176
     1
290
     1
176
     1
290
     0
176
     1
290
     0
176
     1
290
     0
176
     1
290
     0
176
     1
290
     0
176
     1
290
     0
176
     1
 90
       50
176
     1
 40
0.0
176
     1
 40
1.0
176
     1
 90
        0
176
     1
 62
    18
420
        0
176
     1
 90
       50
176
     1
 90
        3
176
     1
 62
     5
420
      255
176
     1
290
     0
176
     1
 90
       50
176
     1
 90
       50
176
     1
 90
       50
176
     1
290
     0
176
     1
 90
       50
176
     1
 62
   256
176
     0
 40
1.0
176
     0
 90
        2
176
     1
  1
strokes_ogs.tif
176
     1
290
     0
176
     1
 40
1.0
176
     1
 40
1.0
176
     1
  0
VISUALSTYLE
  5
30
102
{ACAD_REACTORS
330
2A
102
}
330
2A
100
AcDbVisualStyle
  2
Wireframe
 70
     5
177
     3
291
     0
 70
    58
 90
        0
176
     1
 90
        2
176
     1
 90
        0
176
     1
 90
        0
176
     1
 40
0.6
176
     1
 40
30.0
176
     1
 62
     7
420
 16777215
176
     1
 90
        1
176
     1
 90
        4
176
     1
 62
     7
176
     1
 62
   257
176
     1
 90
        1
176
     1
 90
        1
176
     1
 40
1.0
176
     1
 90
        0
176
     1
 62
   257
176
     1
 40
1.0
176
     1
 90
        1
176
     1
 90
        6
176
     1
 90
        2
176
     1
 62
     7
176
     1
 90
        3
176
     1
 90
        0
176
     1
 90
        0
176
     1
290
     0
176
     1
 90
        1
176
     1
 40
0.0
176
     1
 90
        0
176
     1
290
     0
176
     1
290
     1
176
     1
290
     1
176
     1
290
     0
176
     1
290
     0
176
     1
290
     0
176
     1
290
     0
176
     1
290
     0
176
     1
290
     0
176
     1
 90
       50
176
     1
 40
0.0
176
     1
 40
1.0
176
     1
 90
        0
176
     1
 62
    18
420
        0
176
     1
 90
       50
176
     1
 90
        3
176
     1
 62
     5
420
      255
176
     1
290
     0
176
     1
 90
       50
176
     1
 90
       50
176
     1
 90
       50
176
     1
290
     0
176
     1
 90
       50
176
     1
 62
   256
176
     0
 40
1.0
176
     0
 90
        2
176
     1
  1
strokes_ogs.tif
176
     1
290
     0
176
     1
 40
1.0
176
     1
 40
1.0
176
     1
  0
VISUALSTYLE
  5
40
102
{ACAD_REACTORS
330
2A
102
}
330
2A
100
AcDbVisualStyle
  2
X-Ray
 70
    25
177
     3
291
     0
 70
    58
 90
        2
176
     1
 90
        2
176
     1
 90
        1
176
     1
 90
        1
176
     1
 40
0.5
176
     1
 40
30.0
176
     1
 62
     7
420
 16777215
176
     1
 90
        1
176
     1
 90
        0
176
     1
 62
     7
176
     1
 62
   257
176
     1
 90
        1
176
     1
 90
        1
176
     1
 40
1.0
176
     1
 90
        8
176
     1
 62
     7
176
     1
 40
1.0
176
     1
 90
        1
176
     1
 90
        6
176
     1
 90
        2
176
     1
 62
     7
176
     1
 90
        3
176
     1
 90
        0
176
     1
 90
        0
176
     1
290
     0
176
     1
 90
       13
176
     1
 40
0.0
176
     1
 90
        0
176
     1
290
     0
176
     1
290
     1
176
     1
290
     1
176
     1
290
     0
176
     1
290
     0
176
     1
290
     0
176
     1
290
     0
176
     1
290
     0
176
     1
290
     0
176
     1
 90
       50
176
     1
 40
0.0
176
     1
 40
1.0
176
     1
 90
        0
176
     1
 62
    18
420
        0
176
     1
 90
       50
176
     1
 90
        3
176
     1
 62
     5
420
      255
176
     1
290
     0
176
     1
 90
       50
176
     1
 90
       50
176
     1
 90
       50
176
     1
290
     0
176
     1
 90
       50
176
     1
 62
   256
176
     0
 40
1.0
176
     0
 90
        2
176
     1
  1
strokes_ogs.tif
176
     1
290
     0
176
     1
 40
1.0
176
     1
 40
1.0
176
     1
  0
DICTIONARYVAR
  5
25B
102
{ACAD_REACTORS
330
25A
102
}
330
25A
100
DictionaryVariables
280
     0
  1
1:1
  0
DICTIONARYVAR
  5
260
102
{ACAD_REACTORS
330
25A
102
}
330
25A
100
DictionaryVariables
280
     0
  1
Standard
  0
DICTIONARYVAR
  5
25F
102
{ACAD_REACTORS
330
25A
102
}
330
25A
100
DictionaryVariables
280
     0
  1
Standard
  0
DICTIONARY
  5
25C
330
6A
100
AcDbDictionary
280
     1
281
     1
  3
ACAD_ROUNDTRIP_2008_TABLESTYLE_CELLSTYLEMAP
360
25D
  0
CELLSTYLEMAP
  5
25D
102
{ACAD_REACTORS
330
25C
102
}
330
25C
100
AcDbCellStyleMap
 90
        3
300
CELLSTYLE
  1
TABLEFORMAT_BEGIN
 90
        5
170
     1
 91
        0
 92
    32768
 62
   257
 93
        1
300
CONTENTFORMAT
  1
CONTENTFORMAT_BEGIN
 90
        0
 91
        0
 92
        4
 93
        0
300

 40
0.0
140
1.0
 94
        5
 62
     0
340
11
144
0.25
309
CONTENTFORMAT_END
171
     1
301
MARGIN
  1
CELLMARGIN_BEGIN
 40
0.06
 40
0.06
 40
0.06
 40
0.06
 40
0.06
 40
0.06
309
CELLMARGIN_END
 94
        6
 95
        1
302
GRIDFORMAT
  1
GRIDFORMAT_BEGIN
 90
        0
 91
        1
 62
     0
 92
       -2
340
14
 93
        0
 40
0.045
309
GRIDFORMAT_END
 95
        2
302
GRIDFORMAT
  1
GRIDFORMAT_BEGIN
 90
        0
 91
        1
 62
     0
 92
       -2
340
14
 93
        0
 40
0.045
309
GRIDFORMAT_END
 95
        4
302
GRIDFORMAT
  1
GRIDFORMAT_BEGIN
 90
        0
 91
        1
 62
     0
 92
       -2
340
14
 93
        0
 40
0.045
309
GRIDFORMAT_END
 95
        8
302
GRIDFORMAT
  1
GRIDFORMAT_BEGIN
 90
        0
 91
        1
 62
     0
 92
       -2
340
14
 93
        0
 40
0.045
309
GRIDFORMAT_END
 95
       16
302
GRIDFORMAT
  1
GRIDFORMAT_BEGIN
 90
        0
 91
        1
 62
     0
 92
       -2
340
14
 93
        0
 40
0.045
309
GRIDFORMAT_END
 95
       32
302
GRIDFORMAT
  1
GRIDFORMAT_BEGIN
 90
        0
 91
        1
 62
     0
 92
       -2
340
14
 93
        0
 40
0.045
309
GRIDFORMAT_END
309
TABLEFORMAT_END
  1
CELLSTYLE_BEGIN
 90
        1
 91
        1
300
_TITLE
309
CELLSTYLE_END
300
CELLSTYLE
  1
TABLEFORMAT_BEGIN
 90
        5
170
     1
 91
        0
 92
        0
 62
   257
 93
        1
300
CONTENTFORMAT
  1
CONTENTFORMAT_BEGIN
 90
        0
 91
        0
 92
        4
 93
        0
300

 40
0.0
140
1.0
 94
        5
 62
     0
340
11
144
0.18
309
CONTENTFORMAT_END
171
     1
301
MARGIN
  1
CELLMARGIN_BEGIN
 40
0.06
 40
0.06
 40
0.06
 40
0.06
 40
0.06
 40
0.06
309
CELLMARGIN_END
 94
        6
 95
        1
302
GRIDFORMAT
  1
GRIDFORMAT_BEGIN
 90
        0
 91
        1
 62
     0
 92
       -2
340
14
 93
        0
 40
0.045
309
GRIDFORMAT_END
 95
        2
302
GRIDFORMAT
  1
GRIDFORMAT_BEGIN
 90
        0
 91
        1
 62
     0
 92
       -2
340
14
 93
        0
 40
0.045
309
GRIDFORMAT_END
 95
        4
302
GRIDFORMAT
  1
GRIDFORMAT_BEGIN
 90
        0
 91
        1
 62
     0
 92
       -2
340
14
 93
        0
 40
0.045
309
GRIDFORMAT_END
 95
        8
302
GRIDFORMAT
  1
GRIDFORMAT_BEGIN
 90
        0
 91
        1
 62
     0
 92
       -2
340
14
 93
        0
 40
0.045
309
GRIDFORMAT_END
 95
       16
302
GRIDFORMAT
  1
GRIDFORMAT_BEGIN
 90
        0
 91
        1
 62
     0
 92
       -2
340
14
 93
        0
 40
0.045
309
GRIDFORMAT_END
 95
       32
302
GRIDFORMAT
  1
GRIDFORMAT_BEGIN
 90
        0
 91
        1
 62
     0
 92
       -2
340
14
 93
        0
 40
0.045
309
GRIDFORMAT_END
309
TABLEFORMAT_END
  1
CELLSTYLE_BEGIN
 90
        2
 91
        1
300
_HEADER
309
CELLSTYLE_END
300
CELLSTYLE
  1
TABLEFORMAT_BEGIN
 90
        5
170
     1
 91
        0
 92
        0
 62
   257
 93
        1
300
CONTENTFORMAT
  1
CONTENTFORMAT_BEGIN
 90
        0
 91
        0
 92
        4
 93
        0
300

 40
0.0
140
1.0
 94
        2
 62
     0
340
11
144
0.18
309
CONTENTFORMAT_END
171
     1
301
MARGIN
  1
CELLMARGIN_BEGIN
 40
0.06
 40
0.06
 40
0.06
 40
0.06
 40
0.06
 40
0.06
309
CELLMARGIN_END
 94
        6
 95
        1
302
GRIDFORMAT
  1
GRIDFORMAT_BEGIN
 90
        0
 91
        1
 62
     0
 92
       -2
340
14
 93
        0
 40
0.045
309
GRIDFORMAT_END
 95
        2
302
GRIDFORMAT
  1
GRIDFORMAT_BEGIN
 90
        0
 91
        1
 62
     0
 92
       -2
340
14
 93
        0
 40
0.045
309
GRIDFORMAT_END
 95
        4
302
GRIDFORMAT
  1
GRIDFORMAT_BEGIN
 90
        0
 91
        1
 62
     0
 92
       -2
340
14
 93
        0
 40
0.045
309
GRIDFORMAT_END
 95
        8
302
GRIDFORMAT
  1
GRIDFORMAT_BEGIN
 90
        0
 91
        1
 62
     0
 92
       -2
340
14
 93
        0
 40
0.045
309
GRIDFORMAT_END
 95
       16
302
GRIDFORMAT
  1
GRIDFORMAT_BEGIN
 90
        0
 91
        1
 62
     0
 92
       -2
340
14
 93
        0
 40
0.045
309
GRIDFORMAT_END
 95
       32
302
GRIDFORMAT
  1
GRIDFORMAT_BEGIN
 90
        0
 91
        1
 62
     0
 92
       -2
340
14
 93
        0
 40
0.045
309
GRIDFORMAT_END
309
TABLEFORMAT_END
  1
CELLSTYLE_BEGIN
 90
        3
 91
        2
300
_DATA
309
CELLSTYLE_END
  0
ENDSEC
  0
EOF