0
SECTION
  2
HEADER
  9
$ACADVER
  1
AC1027
  9
$ACADMAINTVER
 70
     8
  9
$DWGCODEPAGE
  3
ANSI_1252
  9
$REQUIREDVERSIONS
160
                 0
  9
$COMMENTS
  1
File was created by Cadenas
  9
$CUSTOMPROPERTYTAG
  1
NN
  9
$CUSTOMPROPERTY
  1
Imperial - IP Pillow Block with Type E Dimensions 1-3/8 thru 2-3/16 inch 2-Bolt Labyrinth Seal Expansion
  9
$CUSTOMPROPERTYTAG
  1
NT
  9
$CUSTOMPROPERTY
  1
Imperial/E 2 Bolt Piliow Block Bearings
  9
$CUSTOMPROPERTYTAG
  1
NB
  9
$CUSTOMPROPERTY
  1
071189
  9
$CUSTOMPROPERTYTAG
  1
NBSYN
  9
$CUSTOMPROPERTY
  1
$PN.
  9
$CUSTOMPROPERTYTAG
  1
LINA
  9
$CUSTOMPROPERTY
  1
071189
  9
$CUSTOMPROPERTYTAG
  1
SS
  9
$CUSTOMPROPERTY
  1
1-7/8
  9
$CUSTOMPROPERTYTAG
  1
TYPE
  9
$CUSTOMPROPERTY
  1
Expansion
  9
$CUSTOMPROPERTYTAG
  1
PN
  9
$CUSTOMPROPERTY
  1
071189
  9
$CUSTOMPROPERTYTAG
  1
DESCRIPTION
  9
$CUSTOMPROPERTY
  1
EP2B-IP-114LE
  9
$CUSTOMPROPERTYTAG
  1
ST
  9
$CUSTOMPROPERTY
  1
Labyrinth Seal
  9
$CUSTOMPROPERTYTAG
  1
A
  9
$CUSTOMPROPERTY
  1
2.86
  9
$CUSTOMPROPERTYTAG
  1
B
  9
$CUSTOMPROPERTY
  1
8.87
  9
$CUSTOMPROPERTYTAG
  1
C
  9
$CUSTOMPROPERTY
  1
2.49
  9
$CUSTOMPROPERTYTAG
  1
DMIN
  9
$CUSTOMPROPERTY
  1
6.88
  9
$CUSTOMPROPERTYTAG
  1
DMAX
  9
$CUSTOMPROPERTY
  1
7.12
  9
$CUSTOMPROPERTYTAG
  1
F
  9
$CUSTOMPROPERTY
  1
5/8
  9
$CUSTOMPROPERTYTAG
  1
G
  9
$CUSTOMPROPERTY
  1
0.88
  9
$CUSTOMPROPERTYTAG
  1
H
  9
$CUSTOMPROPERTY
  1
1.31
  9
$CUSTOMPROPERTYTAG
  1
J
  9
$CUSTOMPROPERTY
  1
4.47
  9
$CUSTOMPROPERTYTAG
  1
L
  9
$CUSTOMPROPERTY
  1
3.28
  9
$CUSTOMPROPERTYTAG
  1
M
  9
$CUSTOMPROPERTY
  1
2.25
  9
$CUSTOMPROPERTYTAG
  1
R
  9
$CUSTOMPROPERTY
  1
1.1
  9
$CUSTOMPROPERTYTAG
  1
S
  9
$CUSTOMPROPERTY
  1
1.76
  9
$CUSTOMPROPERTYTAG
  1
X
  9
$CUSTOMPROPERTY
  1
0.22
  9
$CUSTOMPROPERTYTAG
  1
Y
  9
$CUSTOMPROPERTY
  1
0.020
  9
$CUSTOMPROPERTYTAG
  1
Z
  9
$CUSTOMPROPERTY
  1
2.3
  9
$CUSTOMPROPERTYTAG
  1
COMPANY
  9
$CUSTOMPROPERTY
  1
baldor
  9
$INSBASE
 10
0.0
 20
0.0
 30
0.0
  9
$EXTMIN
 10
1.000000000000000E+20
 20
1.000000000000000E+20
 30
1.000000000000000E+20
  9
$EXTMAX
 10
-1.000000000000000E+20
 20
-1.000000000000000E+20
 30
-1.000000000000000E+20
  9
$LIMMIN
 10
0.0
 20
0.0
  9
$LIMMAX
 10
12.0
 20
9.0
  9
$ORTHOMODE
 70
     0
  9
$REGENMODE
 70
     1
  9
$FILLMODE
 70
     1
  9
$QTEXTMODE
 70
     0
  9
$MIRRTEXT
 70
     1
  9
$LTSCALE
 40
1.0
  9
$ATTMODE
 70
     1
  9
$TEXTSIZE
 40
0.2
  9
$TRACEWID
 40
0.05
  9
$TEXTSTYLE
  7
Standard
  9
$CLAYER
  8
0
  9
$CELTYPE
  6
ByLayer
  9
$CECOLOR
 62
   256
  9
$CELTSCALE
 40
1.0
  9
$DISPSILH
 70
     0
  9
$DIMSCALE
 40
1.0
  9
$DIMASZ
 40
0.18
  9
$DIMEXO
 40
0.0625
  9
$DIMDLI
 40
0.38
  9
$DIMRND
 40
0.0
  9
$DIMDLE
 40
0.0
  9
$DIMEXE
 40
0.18
  9
$DIMTP
 40
0.0
  9
$DIMTM
 40
0.0
  9
$DIMTXT
 40
0.18
  9
$DIMCEN
 40
0.09
  9
$DIMTSZ
 40
0.0
  9
$DIMTOL
 70
     0
  9
$DIMLIM
 70
     0
  9
$DIMTIH
 70
     1
  9
$DIMTOH
 70
     1
  9
$DIMSE1
 70
     0
  9
$DIMSE2
 70
     0
  9
$DIMTAD
 70
     0
  9
$DIMZIN
 70
     0
  9
$DIMBLK
  1

  9
$DIMASO
 70
     1
  9
$DIMSHO
 70
     1
  9
$DIMPOST
  1

  9
$DIMAPOST
  1

  9
$DIMALT
 70
     0
  9
$DIMALTD
 70
     2
  9
$DIMALTF
 40
25.4
  9
$DIMLFAC
 40
1.0
  9
$DIMTOFL
 70
     0
  9
$DIMTVP
 40
0.0
  9
$DIMTIX
 70
     0
  9
$DIMSOXD
 70
     0
  9
$DIMSAH
 70
     0
  9
$DIMBLK1
  1

  9
$DIMBLK2
  1

  9
$DIMSTYLE
  2
Standard
  9
$DIMCLRD
 70
     0
  9
$DIMCLRE
 70
     0
  9
$DIMCLRT
 70
     0
  9
$DIMTFAC
 40
1.0
  9
$DIMGAP
 40
0.09
  9
$DIMJUST
 70
     0
  9
$DIMSD1
 70
     0
  9
$DIMSD2
 70
     0
  9
$DIMTOLJ
 70
     1
  9
$DIMTZIN
 70
     0
  9
$DIMALTZ
 70
     0
  9
$DIMALTTZ
 70
     0
  9
$DIMUPT
 70
     0
  9
$DIMDEC
 70
     4
  9
$DIMTDEC
 70
     4
  9
$DIMALTU
 70
     2
  9
$DIMALTTD
 70
     2
  9
$DIMTXSTY
  7
Standard
  9
$DIMAUNIT
 70
     0
  9
$DIMADEC
 70
     0
  9
$DIMALTRND
 40
0.0
  9
$DIMAZIN
 70
     0
  9
$DIMDSEP
 70
    46
  9
$DIMATFIT
 70
     3
  9
$DIMFRAC
 70
     0
  9
$DIMLDRBLK
  1

  9
$DIMLUNIT
 70
     2
  9
$DIMLWD
 70
    -2
  9
$DIMLWE
 70
    -2
  9
$DIMTMOVE
 70
     0
  9
$DIMFXL
 40
1.0
  9
$DIMFXLON
 70
     0
  9
$DIMJOGANG
 40
0.7853981633974483
  9
$DIMTFILL
 70
     0
  9
$DIMTFILLCLR
 70
     0
  9
$DIMARCSYM
 70
     0
  9
$DIMLTYPE
  6

  9
$DIMLTEX1
  6

  9
$DIMLTEX2
  6

  9
$DIMTXTDIRECTION
 70
     0
  9
$LUNITS
 70
     2
  9
$LUPREC
 70
     4
  9
$SKETCHINC
 40
0.1
  9
$FILLETRAD
 40
0.5
  9
$AUNITS
 70
     0
  9
$AUPREC
 70
     0
  9
$MENU
  1
.
  9
$ELEVATION
 40
0.0
  9
$PELEVATION
 40
0.0
  9
$THICKNESS
 40
0.0
  9
$LIMCHECK
 70
     0
  9
$CHAMFERA
 40
0.0
  9
$CHAMFERB
 40
0.0
  9
$CHAMFERC
 40
0.0
  9
$CHAMFERD
 40
0.0
  9
$SKPOLY
 70
     0
  9
$TDCREATE
 40
2458168.976230243
  9
$TDUCREATE
 40
2458168.934563576
  9
$TDUPDATE
 40
2458168.976230602
  9
$TDUUPDATE
 40
2458168.934563935
  9
$TDINDWG
 40
0.0000000116
  9
$TDUSRTIMER
 40
0.0000000116
  9
$USRTIMER
 70
     1
  9
$ANGBASE
 50
0.0
  9
$ANGDIR
 70
     0
  9
$PDMODE
 70
     0
  9
$PDSIZE
 40
0.0
  9
$PLINEWID
 40
0.0
  9
$SPLFRAME
 70
     0
  9
$SPLINETYPE
 70
     6
  9
$SPLINESEGS
 70
     8
  9
$HANDSEED
  5
289
  9
$SURFTAB1
 70
     6
  9
$SURFTAB2
 70
     6
  9
$SURFTYPE
 70
     6
  9
$SURFU
 70
     6
  9
$SURFV
 70
     6
  9
$UCSBASE
  2

  9
$UCSNAME
  2

  9
$UCSORG
 10
0.0
 20
0.0
 30
0.0
  9
$UCSXDIR
 10
1.0
 20
0.0
 30
0.0
  9
$UCSYDIR
 10
0.0
 20
1.0
 30
0.0
  9
$UCSORTHOREF
  2

  9
$UCSORTHOVIEW
 70
     0
  9
$UCSORGTOP
 10
0.0
 20
0.0
 30
0.0
  9
$UCSORGBOTTOM
 10
0.0
 20
0.0
 30
0.0
  9
$UCSORGLEFT
 10
0.0
 20
0.0
 30
0.0
  9
$UCSORGRIGHT
 10
0.0
 20
0.0
 30
0.0
  9
$UCSORGFRONT
 10
0.0
 20
0.0
 30
0.0
  9
$UCSORGBACK
 10
0.0
 20
0.0
 30
0.0
  9
$PUCSBASE
  2

  9
$PUCSNAME
  2

  9
$PUCSORG
 10
0.0
 20
0.0
 30
0.0
  9
$PUCSXDIR
 10
1.0
 20
0.0
 30
0.0
  9
$PUCSYDIR
 10
0.0
 20
1.0
 30
0.0
  9
$PUCSORTHOREF
  2

  9
$PUCSORTHOVIEW
 70
     0
  9
$PUCSORGTOP
 10
0.0
 20
0.0
 30
0.0
  9
$PUCSORGBOTTOM
 10
0.0
 20
0.0
 30
0.0
  9
$PUCSORGLEFT
 10
0.0
 20
0.0
 30
0.0
  9
$PUCSORGRIGHT
 10
0.0
 20
0.0
 30
0.0
  9
$PUCSORGFRONT
 10
0.0
 20
0.0
 30
0.0
  9
$PUCSORGBACK
 10
0.0
 20
0.0
 30
0.0
  9
$USERI1
 70
     0
  9
$USERI2
 70
     0
  9
$USERI3
 70
     0
  9
$USERI4
 70
     0
  9
$USERI5
 70
     0
  9
$USERR1
 40
0.0
  9
$USERR2
 40
0.0
  9
$USERR3
 40
0.0
  9
$USERR4
 40
0.0
  9
$USERR5
 40
0.0
  9
$WORLDVIEW
 70
     1
  9
$SHADEDGE
 70
     3
  9
$SHADEDIF
 70
    70
  9
$TILEMODE
 70
     1
  9
$MAXACTVP
 70
    64
  9
$PINSBASE
 10
0.0
 20
0.0
 30
0.0
  9
$PLIMCHECK
 70
     0
  9
$PEXTMIN
 10
1.000000000000000E+20
 20
1.000000000000000E+20
 30
1.000000000000000E+20
  9
$PEXTMAX
 10
-1.000000000000000E+20
 20
-1.000000000000000E+20
 30
-1.000000000000000E+20
  9
$PLIMMIN
 10
0.0
 20
0.0
  9
$PLIMMAX
 10
12.0
 20
9.0
  9
$UNITMODE
 70
     0
  9
$VISRETAIN
 70
     1
  9
$PLINEGEN
 70
     0
  9
$PSLTSCALE
 70
     1
  9
$TREEDEPTH
 70
  3020
  9
$CMLSTYLE
  2
Standard
  9
$CMLJUST
 70
     0
  9
$CMLSCALE
 40
1.0
  9
$PROXYGRAPHICS
 70
     1
  9
$MEASUREMENT
 70
     0
  9
$CELWEIGHT
370
    -1
  9
$ENDCAPS
280
     0
  9
$JOINSTYLE
280
     0
  9
$LWDISPLAY
290
     0
  9
$INSUNITS
 70
     1
  9
$HYPERLINKBASE
  1

  9
$STYLESHEET
  1

  9
$XEDIT
290
     1
  9
$CEPSNTYPE
380
     0
  9
$PSTYLEMODE
290
     1
  9
$FINGERPRINTGUID
  2
{5288BBF6-FC97-4CC4-96F8-BBEB3779C151}
  9
$VERSIONGUID
  2
{FAEB1C32-E019-11D5-929B-00C0DF256EC4}
  9
$EXTNAMES
290
     1
  9
$PSVPSCALE
 40
0.0
  9
$OLESTARTUP
290
     0
  9
$SORTENTS
280
   127
  9
$INDEXCTL
280
     0
  9
$HIDETEXT
280
     1
  9
$XCLIPFRAME
280
     2
  9
$HALOGAP
280
     0
  9
$OBSCOLOR
 70
   257
  9
$OBSLTYPE
280
     0
  9
$INTERSECTIONDISPLAY
280
     0
  9
$INTERSECTIONCOLOR
 70
   257
  9
$DIMASSOC
280
     2
  9
$PROJECTNAME
  1

  9
$CAMERADISPLAY
290
     0
  9
$LENSLENGTH
 40
50.0
  9
$CAMERAHEIGHT
 40
0.0
  9
$STEPSPERSEC
 40
2.0
  9
$STEPSIZE
 40
6.0
  9
$3DDWFPREC
 40
2.0
  9
$PSOLWIDTH
 40
0.25
  9
$PSOLHEIGHT
 40
4.0
  9
$LOFTANG1
 40
1.570796326794897
  9
$LOFTANG2
 40
1.570796326794897
  9
$LOFTMAG1
 40
0.0
  9
$LOFTMAG2
 40
0.0
  9
$LOFTPARAM
 70
     7
  9
$LOFTNORMALS
280
     1
  9
$LATITUDE
 40
37.795
  9
$LONGITUDE
 40
-122.394
  9
$NORTHDIRECTION
 40
0.0
  9
$TIMEZONE
 70
 -8000
  9
$LIGHTGLYPHDISPLAY
280
     1
  9
$TILEMODELIGHTSYNCH
280
     1
  9
$CMATERIAL
347
44
  9
$SOLIDHIST
280
     0
  9
$SHOWHIST
280
     1
  9
$DWFFRAME
280
     2
  9
$DGNFRAME
280
     2
  9
$REALWORLDSCALE
290
     1
  9
$INTERFERECOLOR
 62
   256
  9
$CSHADOW
280
     0
  9
$SHADOWPLANELOCATION
 40
0.0
  0
ENDSEC
  0
SECTION
  2
CLASSES
  0
CLASS
  1
ACDBDICTIONARYWDFLT
  2
AcDbDictionaryWithDefault
  3
ObjectDBX Classes
 90
        0
 91
        4
280
     0
281
     0
  0
CLASS
  1
VISUALSTYLE
  2
AcDbVisualStyle
  3
ObjectDBX Classes
 90
     4095
 91
        4
280
     0
281
     0
  0
CLASS
  1
MATERIAL
  2
AcDbMaterial
  3
ObjectDBX Classes
 90
     1153
 91
        4
280
     0
281
     0
  0
CLASS
  1
SCALE
  2
AcDbScale
  3
ObjectDBX Classes
 90
     1153
 91
        4
280
     0
281
     0
  0
CLASS
  1
TABLESTYLE
  2
AcDbTableStyle
  3
ObjectDBX Classes
 90
     4095
 91
        4
280
     0
281
     0
  0
CLASS
  1
MLEADERSTYLE
  2
AcDbMLeaderStyle
  3
ACDB_MLEADERSTYLE_CLASS
 90
     4095
 91
        4
280
     0
281
     0
  0
CLASS
  1
SUN
  2
AcDbSun
  3
SCENEOE
 90
     1153
 91
        4
280
     0
281
     0
  0
CLASS
  1
DICTIONARYVAR
  2
AcDbDictionaryVar
  3
ObjectDBX Classes
 90
        0
 91
        4
280
     0
281
     0
  0
CLASS
  1
CELLSTYLEMAP
  2
AcDbCellStyleMap
  3
ObjectDBX Classes
 90
     1152
 91
        4
280
     0
281
     0
  0
ENDSEC
  0
SECTION
  2
TABLES
  0
TABLE
  2
VPORT
  5
8
330
0
100
AcDbSymbolTable
 70
     1
  0
VPORT
  5
29
330
8
100
AcDbSymbolTableRecord
100
AcDbViewportTableRecord
  2
*Active
 70
     0
 10
0.0
 20
0.0
 11
1.0
 21
1.0
 12
-0.1379999999999999
 22
0.0676387070828355
 13
0.0
 23
0.0
 14
0.5
 24
0.5
 15
0.5
 25
0.5
 16
0.0
 26
0.0
 36
1.0
 17
0.0
 27
0.0
 37
0.0
 40
4.727982962448984
 41
0.699850237676423
 42
50.0
 43
0.0
 44
0.0
 50
0.0
 51
0.0
 71
     0
 72
   100
 73
     1
 74
     3
 75
     0
 76
     0
 77
     0
 78
     0
281
     0
 65
     1
110
0.0
120
0.0
130
0.0
111
1.0
121
0.0
131
0.0
112
0.0
122
1.0
132
0.0
 79
     0
146
0.0
348
2F
 60
     3
 61
     5
292
     1
282
     1
141
0.0
142
0.0
 63
   250
361
6D
  0
ENDTAB
  0
TABLE
  2
LTYPE
  5
5
330
0
100
AcDbSymbolTable
 70
     3
  0
LTYPE
  5
14
330
5
100
AcDbSymbolTableRecord
100
AcDbLinetypeTableRecord
  2
ByBlock
 70
     0
  3

 72
    65
 73
     0
 40
0.0
  0
LTYPE
  5
15
330
5
100
AcDbSymbolTableRecord
100
AcDbLinetypeTableRecord
  2
ByLayer
 70
     0
  3

 72
    65
 73
     0
 40
0.0
  0
LTYPE
  5
16
330
5
100
AcDbSymbolTableRecord
100
AcDbLinetypeTableRecord
  2
Continuous
 70
     0
  3
Solid line
 72
    65
 73
     0
 40
0.0
  0
LTYPE
  5
9E
330
5
100
AcDbSymbolTableRecord
100
AcDbLinetypeTableRecord
  2
Dashed
 70
     0
  3

 72
    65
 73
     2
 40
2.0
 49
1.0
 74
     0
 49
-1.0
 74
     0
  0
LTYPE
  5
18F
330
5
100
AcDbSymbolTableRecord
100
AcDbLinetypeTableRecord
  2
Center
 70
     0
  3

 72
    65
 73
     4
 40
1.5
 49
0.45
 74
     0
 49
-0.5
 74
     0
 49
0.05
 74
     0
 49
-0.5
 74
     0
  0
ENDTAB
  0
TABLE
  2
LAYER
  5
2
330
0
100
AcDbSymbolTable
 70
     7
  0
LAYER
  5
10
330
2
100
AcDbSymbolTableRecord
100
AcDbLayerTableRecord
  2
0
 70
     0
 62
     7
  6
Continuous
370
    -3
390
F
347
46
348
0
  0
LAYER
  5
72
330
2
100
AcDbSymbolTableRecord
100
AcDbLayerTableRecord
  2
AM_6
 70
     0
 62
    -2
  6
Continuous
370
    35
390
F
347
46
348
0
  0
LAYER
  5
9F
330
2
100
AcDbSymbolTableRecord
100
AcDbLayerTableRecord
  2
AM_9
 70
     0
 62
     6
  6
Dashed
370
    25
390
F
347
46
348
0
  0
LAYER
  5
AB
330
2
100
AcDbSymbolTableRecord
100
AcDbLayerTableRecord
  2
AM_5
 70
     0
 62
     3
  6
Continuous
370
    25
390
F
347
46
348
0
  0
LAYER
  5
AF
330
2
100
AcDbSymbolTableRecord
100
AcDbLayerTableRecord
  2
AM_4
 70
     0
 62
     7
  6
Continuous
370
    50
390
F
347
46
348
0
  0
LAYER
  5
190
330
2
100
AcDbSymbolTableRecord
100
AcDbLayerTableRecord
  2
AM_7
 70
     0
 62
     7
  6
Center
370
    25
390
F
347
46
348
0
  0
LAYER
  5
274
330
2
100
AcDbSymbolTableRecord
100
AcDbLayerTableRecord
  2
ConnectionPoints
 70
     0
 62
     7
  6
Continuous
370
    50
390
F
347
46
348
0
  0
ENDTAB
  0
TABLE
  2
STYLE
  5
3
330
0
100
AcDbSymbolTable
 70
     1
  0
STYLE
  5
11
330
3
100
AcDbSymbolTableRecord
100
AcDbTextStyleTableRecord
  2
Standard
 70
     0
 40
0.0
 41
1.0
 50
0.0
 71
     0
 42
0.2
  3
txt
  4

  0
ENDTAB
  0
TABLE
  2
VIEW
  5
6
330
0
100
AcDbSymbolTable
 70
     0
  0
ENDTAB
  0
TABLE
  2
UCS
  5
7
330
0
100
AcDbSymbolTable
 70
     0
  0
ENDTAB
  0
TABLE
  2
APPID
  5
9
330
0
100
AcDbSymbolTable
 70
     1
  0
APPID
  5
12
330
9
100
AcDbSymbolTableRecord
100
AcDbRegAppTableRecord
  2
ACAD
 70
     0
  0
ENDTAB
  0
TABLE
  2
DIMSTYLE
  5
A
330
0
100
AcDbSymbolTable
 70
     1
100
AcDbDimStyleTable
  0
DIMSTYLE
105
27
330
A
100
AcDbSymbolTableRecord
100
AcDbDimStyleTableRecord
  2
Standard
 70
     0
178
     0
340
11
  0
ENDTAB
  0
TABLE
  2
BLOCK_RECORD
  5
1
330
0
100
AcDbSymbolTable
 70
     8
  0
BLOCK_RECORD
  5
1F
330
1
100
AcDbSymbolTableRecord
100
AcDbBlockTableRecord
  2
*Model_Space
340
22
 70
     0
280
     1
281
     0
  0
BLOCK_RECORD
  5
1B
330
1
100
AcDbSymbolTableRecord
100
AcDbBlockTableRecord
  2
*Paper_Space
340
1E
 70
     0
280
     1
281
     0
  0
BLOCK_RECORD
  5
23
330
1
100
AcDbSymbolTableRecord
100
AcDbBlockTableRecord
  2
*Paper_Space0
340
26
 70
     0
280
     1
281
     0
  0
BLOCK_RECORD
  5
6E
330
1
100
AcDbSymbolTableRecord
100
AcDbBlockTableRecord
  2
1_071189_2
340
0
102
{BLKREFS
331
6F
102
}
 70
     0
280
     1
281
     0
  0
BLOCK_RECORD
  5
8E
330
1
100
AcDbSymbolTableRecord
100
AcDbBlockTableRecord
  2
2_ASME_B18_3_10_1_0_in_071189_2
340
0
102
{BLKREFS
331
8F
102
}
 70
     0
280
     1
281
     0
  0
BLOCK_RECORD
  5
B6
330
1
100
AcDbSymbolTableRecord
100
AcDbBlockTableRecord
  2
3_ASME_B18_3_10_2_0_in_071189_2
340
0
102
{BLKREFS
331
B7
102
}
 70
     0
280
     1
281
     0
  0
BLOCK_RECORD
  5
D9
330
1
100
AcDbSymbolTableRecord
100
AcDbBlockTableRecord
  2
4_070889LWE_0_in_071189_2
340
0
102
{BLKREFS
331
DA
102
}
 70
     0
280
     1
281
     0
  0
BLOCK_RECORD
  5
113
330
1
100
AcDbSymbolTableRecord
100
AcDbBlockTableRecord
  2
5_070889EL_0_in_071189_2
340
0
102
{BLKREFS
331
114
102
}
 70
     0
280
     1
281
     0
  0
BLOCK_RECORD
  5
1A5
330
1
100
AcDbSymbolTableRecord
100
AcDbBlockTableRecord
  2
6_405015E_Inch_0_in_071189_2
340
0
102
{BLKREFS
331
1A6
102
}
 70
     0
280
     1
281
     0
  0
BLOCK_RECORD
  5
20C
330
1
100
AcDbSymbolTableRecord
100
AcDbBlockTableRecord
  2
7_071189Ho_0_in_071189_2
340
0
102
{BLKREFS
331
20D
102
}
 70
     0
280
     1
281
     0
  0
ENDTAB
  0
ENDSEC
  0
SECTION
  2
BLOCKS
  0
BLOCK
  5
20
330
1F
100
AcDbEntity
  8
0
100
AcDbBlockBegin
  2
*Model_Space
 70
     0
 10
0.0
 20
0.0
 30
0.0
  3
*Model_Space
  1

  0
ENDBLK
  5
21
330
1F
100
AcDbEntity
  8
0
100
AcDbBlockEnd
  0
BLOCK
  5
1C
330
1B
100
AcDbEntity
 67
     1
  8
0
100
AcDbBlockBegin
  2
*Paper_Space
 70
     0
 10
0.0
 20
0.0
 30
0.0
  3
*Paper_Space
  1

  0
ENDBLK
  5
1D
330
1B
100
AcDbEntity
 67
     1
  8
0
100
AcDbBlockEnd
  0
BLOCK
  5
24
330
23
100
AcDbEntity
  8
0
100
AcDbBlockBegin
  2
*Paper_Space0
 70
     0
 10
0.0
 20
0.0
 30
0.0
  3
*Paper_Space0
  1

  0
ENDBLK
  5
25
330
23
100
AcDbEntity
  8
0
100
AcDbBlockEnd
  0
BLOCK
  5
70
330
6E
100
AcDbEntity
  8
0
100
AcDbBlockBegin
  2
1_071189_2
 70
     2
 10
0.0
 20
0.0
 30
0.0
  3
1_071189_2
  1

  0
ATTDEF
  5
73
330
6E
100
AcDbEntity
  8
AM_6
100
AcDbText
 10
6.484
 20
2.385277414165671
 30
0.0
 40
0.5
  1
Imperial - IP Pillow Block with Type E Dimensions 1-3/8 thru 2-3/16 inch 2-Bolt Labyrinth Seal Expansion
100
AcDbAttributeDefinition
  3

  2
NN
 70
     8
280
     0
  0
ATTDEF
  5
74
330
6E
100
AcDbEntity
  8
AM_6
100
AcDbText
 10
6.484
 20
1.885277414165671
 30
0.0
 40
0.5
  1
Imperial/E 2 Bolt Piliow Block Bearings
100
AcDbAttributeDefinition
  3

  2
NT
 70
     8
280
     0
  0
ATTDEF
  5
75
330
6E
100
AcDbEntity
  8
AM_6
100
AcDbText
 10
6.484
 20
1.385277414165671
 30
0.0
 40
0.5
  1
071189
100
AcDbAttributeDefinition
  3

  2
NB
 70
     8
280
     0
  0
ATTDEF
  5
76
330
6E
100
AcDbEntity
  8
AM_6
100
AcDbText
 10
6.484
 20
0.885277414165671
 30
0.0
 40
0.5
  1
$PN.
100
AcDbAttributeDefinition
  3

  2
NBSYN
 70
     8
280
     0
  0
ATTDEF
  5
77
330
6E
100
AcDbEntity
  8
AM_6
100
AcDbText
 10
6.484
 20
0.385277414165671
 30
0.0
 40
0.5
  1
071189
100
AcDbAttributeDefinition
  3

  2
LINA
 70
     8
280
     0
  0
ATTDEF
  5
78
330
6E
100
AcDbEntity
  8
AM_6
100
AcDbText
 10
6.484
 20
-0.114722585834329
 30
0.0
 40
0.5
  1
1-7/8
100
AcDbAttributeDefinition
  3

  2
SS
 70
     8
280
     0
  0
ATTDEF
  5
79
330
6E
100
AcDbEntity
  8
AM_6
100
AcDbText
 10
6.484
 20
-0.614722585834329
 30
0.0
 40
0.5
  1
Expansion
100
AcDbAttributeDefinition
  3

  2
TYPE
 70
     8
280
     0
  0
ATTDEF
  5
7A
330
6E
100
AcDbEntity
  8
AM_6
100
AcDbText
 10
6.484
 20
-1.114722585834329
 30
0.0
 40
0.5
  1
071189
100
AcDbAttributeDefinition
  3

  2
PN
 70
     8
280
     0
  0
ATTDEF
  5
7B
330
6E
100
AcDbEntity
  8
AM_6
100
AcDbText
 10
6.484
 20
-1.614722585834329
 30
0.0
 40
0.5
  1
EP2B-IP-114LE
100
AcDbAttributeDefinition
  3

  2
DESCRIPTION
 70
     8
280
     0
  0
ATTDEF
  5
7C
330
6E
100
AcDbEntity
  8
AM_6
100
AcDbText
 10
6.484
 20
-2.114722585834329
 30
0.0
 40
0.5
  1
Labyrinth Seal
100
AcDbAttributeDefinition
  3

  2
ST
 70
     8
280
     0
  0
ATTDEF
  5
7D
330
6E
100
AcDbEntity
  8
AM_6
100
AcDbText
 10
6.484
 20
-2.614722585834329
 30
0.0
 40
0.5
  1
2.86
100
AcDbAttributeDefinition
  3

  2
A
 70
     8
280
     0
  0
ATTDEF
  5
7E
330
6E
100
AcDbEntity
  8
AM_6
100
AcDbText
 10
6.484
 20
-3.114722585834329
 30
0.0
 40
0.5
  1
8.87
100
AcDbAttributeDefinition
  3

  2
B
 70
     8
280
     0
  0
ATTDEF
  5
7F
330
6E
100
AcDbEntity
  8
AM_6
100
AcDbText
 10
6.484
 20
-3.614722585834329
 30
0.0
 40
0.5
  1
2.49
100
AcDbAttributeDefinition
  3

  2
C
 70
     8
280
     0
  0
ATTDEF
  5
80
330
6E
100
AcDbEntity
  8
AM_6
100
AcDbText
 10
6.484
 20
-4.114722585834329
 30
0.0
 40
0.5
  1
6.88
100
AcDbAttributeDefinition
  3

  2
DMIN
 70
     8
280
     0
  0
ATTDEF
  5
81
330
6E
100
AcDbEntity
  8
AM_6
100
AcDbText
 10
6.484
 20
-4.614722585834329
 30
0.0
 40
0.5
  1
7.12
100
AcDbAttributeDefinition
  3

  2
DMAX
 70
     8
280
     0
  0
ATTDEF
  5
82
330
6E
100
AcDbEntity
  8
AM_6
100
AcDbText
 10
6.484
 20
-5.114722585834329
 30
0.0
 40
0.5
  1
5/8
100
AcDbAttributeDefinition
  3

  2
F
 70
     8
280
     0
  0
ATTDEF
  5
83
330
6E
100
AcDbEntity
  8
AM_6
100
AcDbText
 10
6.484
 20
-5.614722585834329
 30
0.0
 40
0.5
  1
0.88
100
AcDbAttributeDefinition
  3

  2
G
 70
     8
280
     0
  0
ATTDEF
  5
84
330
6E
100
AcDbEntity
  8
AM_6
100
AcDbText
 10
6.484
 20
-6.114722585834329
 30
0.0
 40
0.5
  1
1.31
100
AcDbAttributeDefinition
  3

  2
H
 70
     8
280
     0
  0
ATTDEF
  5
85
330
6E
100
AcDbEntity
  8
AM_6
100
AcDbText
 10
6.484
 20
-6.614722585834329
 30
0.0
 40
0.5
  1
4.47
100
AcDbAttributeDefinition
  3

  2
J
 70
     8
280
     0
  0
ATTDEF
  5
86
330
6E
100
AcDbEntity
  8
AM_6
100
AcDbText
 10
6.484
 20
-7.114722585834329
 30
0.0
 40
0.5
  1
3.28
100
AcDbAttributeDefinition
  3

  2
L
 70
     8
280
     0
  0
ATTDEF
  5
87
330
6E
100
AcDbEntity
  8
AM_6
100
AcDbText
 10
6.484
 20
-7.614722585834329
 30
0.0
 40
0.5
  1
2.25
100
AcDbAttributeDefinition
  3

  2
M
 70
     8
280
     0
  0
ATTDEF
  5
88
330
6E
100
AcDbEntity
  8
AM_6
100
AcDbText
 10
6.484
 20
-8.114722585834329
 30
0.0
 40
0.5
  1
1.1
100
AcDbAttributeDefinition
  3

  2
R
 70
     8
280
     0
  0
ATTDEF
  5
89
330
6E
100
AcDbEntity
  8
AM_6
100
AcDbText
 10
6.484
 20
-8.614722585834329
 30
0.0
 40
0.5
  1
1.76
100
AcDbAttributeDefinition
  3

  2
S
 70
     8
280
     0
  0
ATTDEF
  5
8A
330
6E
100
AcDbEntity
  8
AM_6
100
AcDbText
 10
6.484
 20
-9.114722585834329
 30
0.0
 40
0.5
  1
0.22
100
AcDbAttributeDefinition
  3

  2
X
 70
     8
280
     0
  0
ATTDEF
  5
8B
330
6E
100
AcDbEntity
  8
AM_6
100
AcDbText
 10
6.484
 20
-9.614722585834329
 30
0.0
 40
0.5
  1
0.020
100
AcDbAttributeDefinition
  3

  2
Y
 70
     8
280
     0
  0
ATTDEF
  5
8C
330
6E
100
AcDbEntity
  8
AM_6
100
AcDbText
 10
6.484
 20
-10.11472258583433
 30
0.0
 40
0.5
  1
2.3
100
AcDbAttributeDefinition
  3

  2
Z
 70
     8
280
     0
  0
ATTDEF
  5
8D
330
6E
100
AcDbEntity
  8
AM_6
100
AcDbText
 10
6.484
 20
-10.61472258583433
 30
0.0
 40
0.5
  1
baldor
100
AcDbAttributeDefinition
  3

  2
COMPANY
 70
     8
280
     0
  0
INSERT
  5
8F
330
6E
100
AcDbEntity
  8
0
100
AcDbBlockReference
  2
2_ASME_B18_3_10_1_0_in_071189_2
 10
0.0
 20
0.0
 30
0.0
  0
INSERT
  5
B7
330
6E
100
AcDbEntity
  8
0
100
AcDbBlockReference
  2
3_ASME_B18_3_10_2_0_in_071189_2
 10
0.0
 20
0.0
 30
0.0
  0
INSERT
  5
DA
330
6E
100
AcDbEntity
  8
0
100
AcDbBlockReference
  2
4_070889LWE_0_in_071189_2
 10
0.0
 20
0.0
 30
0.0
  0
INSERT
  5
114
330
6E
100
AcDbEntity
  8
0
100
AcDbBlockReference
  2
5_070889EL_0_in_071189_2
 10
0.0
 20
0.0
 30
0.0
  0
INSERT
  5
1A6
330
6E
100
AcDbEntity
  8
0
100
AcDbBlockReference
  2
6_405015E_Inch_0_in_071189_2
 10
0.0
 20
0.0
 30
0.0
  0
INSERT
  5
20D
330
6E
100
AcDbEntity
  8
0
100
AcDbBlockReference
  2
7_071189Ho_0_in_071189_2
 10
0.0
 20
0.0
 30
0.0
  0
ENDBLK
  5
71
330
6E
100
AcDbEntity
  8
0
100
AcDbBlockEnd
  0
BLOCK
  5
90
330
8E
100
AcDbEntity
  8
0
100
AcDbBlockBegin
  2
2_ASME_B18_3_10_1_0_in_071189_2
 70
     2
 10
0.0
 20
0.0
 30
0.0
  3
2_ASME_B18_3_10_1_0_in_071189_2
  1

  0
ATTDEF
  5
92
330
8E
100
AcDbEntity
  8
AM_6
100
AcDbText
 10
4.422833333333333
 20
-1.160645833333334
 30
0.0
 40
0.5
  1
ANSI/ASME B18.3-1998
100
AcDbAttributeDefinition
  3

  2
NN
 70
     8
280
     0
  0
ATTDEF
  5
93
330
8E
100
AcDbEntity
  8
AM_6
100
AcDbText
 10
4.422833333333333
 20
-1.660645833333334
 30
0.0
 40
0.5
  1
Socket Button Head Cap Screws
100
AcDbAttributeDefinition
  3

  2
NT
 70
     8
280
     0
  0
ATTDEF
  5
94
330
8E
100
AcDbEntity
  8
AM_6
100
AcDbText
 10
4.422833333333333
 20
-2.160645833333334
 30
0.0
 40
0.5
  1
ASME B18.3-10
100
AcDbAttributeDefinition
  3

  2
NB
 70
     8
280
     0
  0
ATTDEF
  5
95
330
8E
100
AcDbEntity
  8
AM_6
100
AcDbText
 10
4.422833333333333
 20
-2.660645833333334
 30
0.0
 40
0.5
  1
ASME B18.3-$NS.
100
AcDbAttributeDefinition
  3

  2
NBSYN
 70
     8
280
     0
  0
ATTDEF
  5
96
330
8E
100
AcDbEntity
  8
AM_6
100
AcDbText
 10
4.422833333333333
 20
-3.160645833333334
 30
0.0
 40
0.5
  1
ASME B18.3-10
100
AcDbAttributeDefinition
  3

  2
LINA
 70
     8
280
     0
  0
ATTDEF
  5
97
330
8E
100
AcDbEntity
  8
AM_6
100
AcDbText
 10
4.422833333333333
 20
-3.660645833333334
 30
0.0
 40
0.5
  1
10
100
AcDbAttributeDefinition
  3

  2
NS
 70
     8
280
     0
  0
ATTDEF
  5
98
330
8E
100
AcDbEntity
  8
AM_6
100
AcDbText
 10
4.422833333333333
 20
-4.160645833333334
 30
0.0
 40
0.5
  1
0.361
100
AcDbAttributeDefinition
  3

  2
A
 70
     8
280
     0
  0
ATTDEF
  5
99
330
8E
100
AcDbEntity
  8
AM_6
100
AcDbText
 10
4.422833333333333
 20
-4.660645833333334
 30
0.0
 40
0.5
  1
0.101
100
AcDbAttributeDefinition
  3

  2
H
 70
     8
280
     0
  0
ATTDEF
  5
9A
330
8E
100
AcDbEntity
  8
AM_6
100
AcDbText
 10
4.422833333333333
 20
-5.160645833333334
 30
0.0
 40
0.5
  1
0.800
100
AcDbAttributeDefinition
  3

  2
L
 70
     8
280
     0
  0
ATTDEF
  5
9B
330
8E
100
AcDbEntity
  8
AM_6
100
AcDbText
 10
4.422833333333333
 20
-5.660645833333334
 30
0.0
 40
0.5
  1
0.020
100
AcDbAttributeDefinition
  3

  2
S
 70
     8
280
     0
  0
ATTDEF
  5
9C
330
8E
100
AcDbEntity
  8
AM_6
100
AcDbText
 10
4.422833333333333
 20
-6.160645833333334
 30
0.0
 40
0.5
  1
0.125000
100
AcDbAttributeDefinition
  3

  2
J
 70
     8
280
     0
  0
ATTDEF
  5
9D
330
8E
100
AcDbEntity
  8
AM_6
100
AcDbText
 10
4.422833333333333
 20
-6.660645833333334
 30
0.0
 40
0.5
  1
baldor
100
AcDbAttributeDefinition
  3

  2
COMPANY
 70
     8
280
     0
  0
LINE
  5
A0
330
8E
100
AcDbEntity
  8
AM_9
100
AcDbLine
 10
-1.417166666666667
 20
-1.26897704968463
 30
0.0
 11
-1.478166666666667
 21
-1.26897704968463
 31
0.0
  0
LINE
  5
A1
330
8E
100
AcDbEntity
  8
AM_9
100
AcDbLine
 10
-1.417166666666667
 20
-1.413314616982037
 30
0.0
 11
-1.478166666666667
 21
-1.413314616982037
 31
0.0
  0
LINE
  5
A2
330
8E
100
AcDbEntity
  8
AM_9
100
AcDbLine
 10
-1.417166666666667
 20
-1.26897704968463
 30
0.0
 11
-1.417166666666667
 21
-1.413314616982037
 31
0.0
  0
LINE
  5
A3
330
8E
100
AcDbEntity
  8
AM_9
100
AcDbLine
 10
-1.417166666666667
 20
-1.305061441508982
 30
0.0
 11
-1.478166666666667
 21
-1.305061441508982
 31
0.0
  0
LINE
  5
A4
330
8E
100
AcDbEntity
  8
AM_9
100
AcDbLine
 10
-1.417166666666667
 20
-1.377230225157685
 30
0.0
 11
-1.478166666666667
 21
-1.377230225157685
 31
0.0
  0
LINE
  5
A5
330
8E
100
AcDbEntity
  8
AM_9
100
AcDbLine
 10
-0.5771666666666666
 20
-1.264745833333333
 30
0.0
 11
-0.5771666666666666
 21
-1.417545833333334
 31
0.0
  0
LINE
  5
A6
330
8E
100
AcDbEntity
  8
AM_9
100
AcDbLine
 10
-0.5771666666666666
 20
-1.264745833333333
 30
0.0
 11
-0.5957666666666667
 21
-1.246145833333334
 31
0.0
  0
LINE
  5
A7
330
8E
100
AcDbEntity
  8
AM_9
100
AcDbLine
 10
-0.5957666666666667
 20
-1.436145833333333
 30
0.0
 11
-0.5771666666666666
 21
-1.417545833333334
 31
0.0
  0
LINE
  5
A8
330
8E
100
AcDbEntity
  8
AM_9
100
AcDbLine
 10
-0.5957666666666667
 20
-1.246145833333334
 30
0.0
 11
-0.5957666666666667
 21
-1.436145833333333
 31
0.0
  0
LINE
  5
A9
330
8E
100
AcDbEntity
  8
AM_9
100
AcDbLine
 10
-1.377166666666667
 20
-1.436145833333333
 30
0.0
 11
-0.5957666666666667
 21
-1.436145833333333
 31
0.0
  0
LINE
  5
AA
330
8E
100
AcDbEntity
  8
AM_9
100
AcDbLine
 10
-0.5957666666666667
 20
-1.246145833333334
 30
0.0
 11
-1.377166666666667
 21
-1.246145833333334
 31
0.0
  0
LINE
  5
AC
330
8E
100
AcDbEntity
  8
AM_5
100
AcDbLine
 10
-1.297166666666667
 20
-1.417545833333334
 30
0.0
 11
-1.329382811687448
 21
-1.436145833333333
 31
0.0
  0
LINE
  5
AD
330
8E
100
AcDbEntity
  8
AM_5
100
AcDbLine
 10
-1.297166666666667
 20
-1.246145833333334
 30
0.0
 11
-1.297166666666667
 21
-1.436145833333327
 31
0.0
  0
LINE
  5
AE
330
8E
100
AcDbEntity
  8
AM_5
100
AcDbLine
 10
-1.297166666666667
 20
-1.264745833333333
 30
0.0
 11
-1.329382811687449
 21
-1.246145833333333
 31
0.0
  0
LINE
  5
B0
330
8E
100
AcDbEntity
  8
AM_4
100
AcDbLine
 10
-1.478166666666667
 20
-1.241645833333334
 30
0.0
 11
-1.478166666666667
 21
-1.440645833333334
 31
0.0
  0
ARC
  5
B1
330
8E
100
AcDbEntity
  8
AM_4
100
AcDbCircle
 10
-1.397166666666666
 20
-1.440645833333333
 30
0.0
 40
0.0810000000000006
100
AcDbArc
 50
180.0
 51
270.0
  0
ARC
  5
B2
330
8E
100
AcDbEntity
  8
AM_4
100
AcDbCircle
 10
-1.397166666666666
 20
-1.241645833333334
 30
0.0
 40
0.0810000000000004
100
AcDbArc
 50
90.0
 51
180.0
  0
LINE
  5
B3
330
8E
100
AcDbEntity
  8
AM_4
100
AcDbLine
 10
-1.397166666666667
 20
-1.160645833333334
 30
0.0
 11
-1.397166666666667
 21
-1.521645833333334
 31
0.0
  0
LINE
  5
B4
330
8E
100
AcDbEntity
  8
AM_4
100
AcDbLine
 10
-1.397166666666667
 20
-1.521645833333334
 30
0.0
 11
-1.377166666666667
 21
-1.521645833333334
 31
0.0
  0
LINE
  5
B5
330
8E
100
AcDbEntity
  8
AM_4
100
AcDbLine
 10
-1.377166666666667
 20
-1.160645833333334
 30
0.0
 11
-1.397166666666667
 21
-1.160645833333334
 31
0.0
  0
ENDBLK
  5
91
330
8E
100
AcDbEntity
  8
0
100
AcDbBlockEnd
  0
BLOCK
  5
B8
330
B6
100
AcDbEntity
  8
0
100
AcDbBlockBegin
  2
3_ASME_B18_3_10_2_0_in_071189_2
 70
     2
 10
0.0
 20
0.0
 30
0.0
  3
3_ASME_B18_3_10_2_0_in_071189_2
  1

  0
ATTDEF
  5
BA
330
B6
100
AcDbEntity
  8
AM_6
100
AcDbText
 10
4.422833333333333
 20
1.521645833333334
 30
0.0
 40
0.5
  1
ANSI/ASME B18.3-1998
100
AcDbAttributeDefinition
  3

  2
NN
 70
     8
280
     0
  0
ATTDEF
  5
BB
330
B6
100
AcDbEntity
  8
AM_6
100
AcDbText
 10
4.422833333333333
 20
1.021645833333334
 30
0.0
 40
0.5
  1
Socket Button Head Cap Screws
100
AcDbAttributeDefinition
  3

  2
NT
 70
     8
280
     0
  0
ATTDEF
  5
BC
330
B6
100
AcDbEntity
  8
AM_6
100
AcDbText
 10
4.422833333333333
 20
0.5216458333333336
 30
0.0
 40
0.5
  1
ASME B18.3-10
100
AcDbAttributeDefinition
  3

  2
NB
 70
     8
280
     0
  0
ATTDEF
  5
BD
330
B6
100
AcDbEntity
  8
AM_6
100
AcDbText
 10
4.422833333333333
 20
0.0216458333333336
 30
0.0
 40
0.5
  1
ASME B18.3-$NS.
100
AcDbAttributeDefinition
  3

  2
NBSYN
 70
     8
280
     0
  0
ATTDEF
  5
BE
330
B6
100
AcDbEntity
  8
AM_6
100
AcDbText
 10
4.422833333333333
 20
-0.4783541666666664
 30
0.0
 40
0.5
  1
ASME B18.3-10
100
AcDbAttributeDefinition
  3

  2
LINA
 70
     8
280
     0
  0
ATTDEF
  5
BF
330
B6
100
AcDbEntity
  8
AM_6
100
AcDbText
 10
4.422833333333333
 20
-0.9783541666666664
 30
0.0
 40
0.5
  1
10
100
AcDbAttributeDefinition
  3

  2
NS
 70
     8
280
     0
  0
ATTDEF
  5
C0
330
B6
100
AcDbEntity
  8
AM_6
100
AcDbText
 10
4.422833333333333
 20
-1.478354166666666
 30
0.0
 40
0.5
  1
0.361
100
AcDbAttributeDefinition
  3

  2
A
 70
     8
280
     0
  0
ATTDEF
  5
C1
330
B6
100
AcDbEntity
  8
AM_6
100
AcDbText
 10
4.422833333333333
 20
-1.978354166666666
 30
0.0
 40
0.5
  1
0.101
100
AcDbAttributeDefinition
  3

  2
H
 70
     8
280
     0
  0
ATTDEF
  5
C2
330
B6
100
AcDbEntity
  8
AM_6
100
AcDbText
 10
4.422833333333333
 20
-2.478354166666667
 30
0.0
 40
0.5
  1
0.800
100
AcDbAttributeDefinition
  3

  2
L
 70
     8
280
     0
  0
ATTDEF
  5
C3
330
B6
100
AcDbEntity
  8
AM_6
100
AcDbText
 10
4.422833333333333
 20
-2.978354166666667
 30
0.0
 40
0.5
  1
0.020
100
AcDbAttributeDefinition
  3

  2
S
 70
     8
280
     0
  0
ATTDEF
  5
C4
330
B6
100
AcDbEntity
  8
AM_6
100
AcDbText
 10
4.422833333333333
 20
-3.478354166666667
 30
0.0
 40
0.5
  1
0.125000
100
AcDbAttributeDefinition
  3

  2
J
 70
     8
280
     0
  0
ATTDEF
  5
C5
330
B6
100
AcDbEntity
  8
AM_6
100
AcDbText
 10
4.422833333333333
 20
-3.978354166666667
 30
0.0
 40
0.5
  1
baldor
100
AcDbAttributeDefinition
  3

  2
COMPANY
 70
     8
280
     0
  0
LINE
  5
C6
330
B6
100
AcDbEntity
  8
AM_9
100
AcDbLine
 10
-1.417166666666667
 20
1.413314616982037
 30
0.0
 11
-1.478166666666667
 21
1.413314616982037
 31
0.0
  0
LINE
  5
C7
330
B6
100
AcDbEntity
  8
AM_9
100
AcDbLine
 10
-1.417166666666667
 20
1.26897704968463
 30
0.0
 11
-1.478166666666667
 21
1.26897704968463
 31
0.0
  0
LINE
  5
C8
330
B6
100
AcDbEntity
  8
AM_9
100
AcDbLine
 10
-1.417166666666667
 20
1.413314616982037
 30
0.0
 11
-1.417166666666667
 21
1.26897704968463
 31
0.0
  0
LINE
  5
C9
330
B6
100
AcDbEntity
  8
AM_9
100
AcDbLine
 10
-1.417166666666667
 20
1.377230225157685
 30
0.0
 11
-1.478166666666667
 21
1.377230225157685
 31
0.0
  0
LINE
  5
CA
330
B6
100
AcDbEntity
  8
AM_9
100
AcDbLine
 10
-1.417166666666667
 20
1.305061441508982
 30
0.0
 11
-1.478166666666667
 21
1.305061441508982
 31
0.0
  0
LINE
  5
CB
330
B6
100
AcDbEntity
  8
AM_9
100
AcDbLine
 10
-0.5771666666666666
 20
1.417545833333334
 30
0.0
 11
-0.5771666666666666
 21
1.264745833333333
 31
0.0
  0
LINE
  5
CC
330
B6
100
AcDbEntity
  8
AM_9
100
AcDbLine
 10
-0.5771666666666666
 20
1.417545833333334
 30
0.0
 11
-0.5957666666666667
 21
1.436145833333333
 31
0.0
  0
LINE
  5
CD
330
B6
100
AcDbEntity
  8
AM_9
100
AcDbLine
 10
-0.5957666666666667
 20
1.246145833333334
 30
0.0
 11
-0.5771666666666666
 21
1.264745833333333
 31
0.0
  0
LINE
  5
CE
330
B6
100
AcDbEntity
  8
AM_9
100
AcDbLine
 10
-0.5957666666666667
 20
1.436145833333333
 30
0.0
 11
-0.5957666666666667
 21
1.246145833333334
 31
0.0
  0
LINE
  5
CF
330
B6
100
AcDbEntity
  8
AM_9
100
AcDbLine
 10
-1.377166666666667
 20
1.246145833333334
 30
0.0
 11
-0.5957666666666667
 21
1.246145833333334
 31
0.0
  0
LINE
  5
D0
330
B6
100
AcDbEntity
  8
AM_9
100
AcDbLine
 10
-0.5957666666666667
 20
1.436145833333333
 30
0.0
 11
-1.377166666666667
 21
1.436145833333333
 31
0.0
  0
LINE
  5
D1
330
B6
100
AcDbEntity
  8
AM_5
100
AcDbLine
 10
-1.297166666666667
 20
1.264745833333333
 30
0.0
 11
-1.329382811687449
 21
1.246145833333333
 31
0.0
  0
LINE
  5
D2
330
B6
100
AcDbEntity
  8
AM_5
100
AcDbLine
 10
-1.297166666666667
 20
1.436145833333328
 30
0.0
 11
-1.297166666666667
 21
1.246145833333334
 31
0.0
  0
LINE
  5
D3
330
B6
100
AcDbEntity
  8
AM_4
100
AcDbLine
 10
-1.478166666666667
 20
1.440645833333334
 30
0.0
 11
-1.478166666666667
 21
1.241645833333334
 31
0.0
  0
ARC
  5
D4
330
B6
100
AcDbEntity
  8
AM_4
100
AcDbCircle
 10
-1.397166666666666
 20
1.241645833333334
 30
0.0
 40
0.0810000000000004
100
AcDbArc
 50
180.0
 51
270.0
  0
ARC
  5
D5
330
B6
100
AcDbEntity
  8
AM_4
100
AcDbCircle
 10
-1.397166666666667
 20
1.440645833333333
 30
0.0
 40
0.0810000000000004
100
AcDbArc
 50
90.0
 51
179.9999991462263
  0
LINE
  5
D6
330
B6
100
AcDbEntity
  8
AM_4
100
AcDbLine
 10
-1.397166666666667
 20
1.521645833333334
 30
0.0
 11
-1.397166666666667
 21
1.160645833333334
 31
0.0
  0
LINE
  5
D7
330
B6
100
AcDbEntity
  8
AM_4
100
AcDbLine
 10
-1.397166666666667
 20
1.160645833333334
 30
0.0
 11
-1.377166666666667
 21
1.160645833333334
 31
0.0
  0
LINE
  5
D8
330
B6
100
AcDbEntity
  8
AM_4
100
AcDbLine
 10
-1.377166666666667
 20
1.521645833333334
 30
0.0
 11
-1.397166666666667
 21
1.521645833333334
 31
0.0
  0
ENDBLK
  5
B9
330
B6
100
AcDbEntity
  8
0
100
AcDbBlockEnd
  0
BLOCK
  5
DB
330
D9
100
AcDbEntity
  8
0
100
AcDbBlockBegin
  2
4_070889LWE_0_in_071189_2
 70
     2
 10
0.0
 20
0.0
 30
0.0
  3
4_070889LWE_0_in_071189_2
  1

  0
ATTDEF
  5
DD
330
D9
100
AcDbEntity
  8
AM_6
100
AcDbText
 10
4.062833333333333
 20
1.64
 30
0.0
 40
0.5
  1
Imperial/E Insert Lockwasher -Inch
100
AcDbAttributeDefinition
  3

  2
NN
 70
     8
280
     0
  0
ATTDEF
  5
DE
330
D9
100
AcDbEntity
  8
AM_6
100
AcDbText
 10
4.062833333333333
 20
1.14
 30
0.0
 40
0.5
  1
Imperial/E Bearings
100
AcDbAttributeDefinition
  3

  2
NT
 70
     8
280
     0
  0
ATTDEF
  5
DF
330
D9
100
AcDbEntity
  8
AM_6
100
AcDbText
 10
4.062833333333333
 20
0.6400000000000003
 30
0.0
 40
0.5
  1
070889LWE
100
AcDbAttributeDefinition
  3

  2
NB
 70
     8
280
     0
  0
ATTDEF
  5
E0
330
D9
100
AcDbEntity
  8
AM_6
100
AcDbText
 10
4.062833333333333
 20
0.1400000000000003
 30
0.0
 40
0.5
  1
$PN.LWE
100
AcDbAttributeDefinition
  3

  2
NBSYN
 70
     8
280
     0
  0
ATTDEF
  5
E1
330
D9
100
AcDbEntity
  8
AM_6
100
AcDbText
 10
4.062833333333333
 20
-0.3599999999999997
 30
0.0
 40
0.5
  1
070889
100
AcDbAttributeDefinition
  3

  2
LINA
 70
     8
280
     0
  0
ATTDEF
  5
E2
330
D9
100
AcDbEntity
  8
AM_6
100
AcDbText
 10
4.062833333333333
 20
-0.8599999999999997
 30
0.0
 40
0.5
  1
1-7/8
100
AcDbAttributeDefinition
  3

  2
SS
 70
     8
280
     0
  0
ATTDEF
  5
E3
330
D9
100
AcDbEntity
  8
AM_6
100
AcDbText
 10
4.062833333333333
 20
-1.36
 30
0.0
 40
0.5
  1
3.280000
100
AcDbAttributeDefinition
  3

  2
E1
 70
     8
280
     0
  0
ATTDEF
  5
E4
330
D9
100
AcDbEntity
  8
AM_6
100
AcDbText
 10
4.062833333333333
 20
-1.86
 30
0.0
 40
0.5
  1
1.875000
100
AcDbAttributeDefinition
  3

  2
SS1
 70
     8
280
     0
  0
ATTDEF
  5
E5
330
D9
100
AcDbEntity
  8
AM_6
100
AcDbText
 10
4.062833333333333
 20
-2.359999999999999
 30
0.0
 40
0.5
  1
070889
100
AcDbAttributeDefinition
  3

  2
PN
 70
     8
280
     0
  0
ATTDEF
  5
E6
330
D9
100
AcDbEntity
  8
AM_6
100
AcDbText
 10
4.062833333333333
 20
-2.859999999999999
 30
0.0
 40
0.5
  1
INS-IP-114R
100
AcDbAttributeDefinition
  3

  2
DESCRIPTION
 70
     8
280
     0
  0
ATTDEF
  5
E7
330
D9
100
AcDbEntity
  8
AM_6
100
AcDbText
 10
4.062833333333333
 20
-3.359999999999999
 30
0.0
 40
0.5
  1
3.5433
100
AcDbAttributeDefinition
  3

  2
A
 70
     8
280
     0
  0
ATTDEF
  5
E8
330
D9
100
AcDbEntity
  8
AM_6
100
AcDbText
 10
4.062833333333333
 20
-3.859999999999999
 30
0.0
 40
0.5
  1
61/64
100
AcDbAttributeDefinition
  3

  2
B
 70
     8
280
     0
  0
ATTDEF
  5
E9
330
D9
100
AcDbEntity
  8
AM_6
100
AcDbText
 10
4.062833333333333
 20
-4.359999999999999
 30
0.0
 40
0.5
  1
0.953125
100
AcDbAttributeDefinition
  3

  2
B1
 70
     8
280
     0
  0
ATTDEF
  5
EA
330
D9
100
AcDbEntity
  8
AM_6
100
AcDbText
 10
4.062833333333333
 20
-4.859999999999999
 30
0.0
 40
0.5
  1
2-55/64
100
AcDbAttributeDefinition
  3

  2
C
 70
     8
280
     0
  0
ATTDEF
  5
EB
330
D9
100
AcDbEntity
  8
AM_6
100
AcDbText
 10
4.062833333333333
 20
-5.359999999999999
 30
0.0
 40
0.5
  1
2.859375
100
AcDbAttributeDefinition
  3

  2
C1
 70
     8
280
     0
  0
ATTDEF
  5
EC
330
D9
100
AcDbEntity
  8
AM_6
100
AcDbText
 10
4.062833333333333
 20
-5.859999999999999
 30
0.0
 40
0.5
  1
0.977
100
AcDbAttributeDefinition
  3

  2
D
 70
     8
280
     0
  0
ATTDEF
  5
ED
330
D9
100
AcDbEntity
  8
AM_6
100
AcDbText
 10
4.062833333333333
 20
-6.359999999999999
 30
0.0
 40
0.5
  1
3-9/32
100
AcDbAttributeDefinition
  3

  2
E
 70
     8
280
     0
  0
ATTDEF
  5
EE
330
D9
100
AcDbEntity
  8
AM_6
100
AcDbText
 10
4.062833333333333
 20
-6.859999999999999
 30
0.0
 40
0.5
  1
0.1900
100
AcDbAttributeDefinition
  3

  2
NDM
 70
     8
280
     0
  0
ATTDEF
  5
EF
330
D9
100
AcDbEntity
  8
AM_6
100
AcDbText
 10
4.062833333333333
 20
-7.359999999999999
 30
0.0
 40
0.5
  1
0.1450
100
AcDbAttributeDefinition
  3

  2
KDM
 70
     8
280
     0
  0
ATTDEF
  5
F0
330
D9
100
AcDbEntity
  8
AM_6
100
AcDbText
 10
4.062833333333333
 20
-7.859999999999999
 30
0.0
 40
0.5
  1
2.67
100
AcDbAttributeDefinition
  3

  2
AL
 70
     8
280
     0
  0
ATTDEF
  5
F1
330
D9
100
AcDbEntity
  8
AM_6
100
AcDbText
 10
4.062833333333333
 20
-8.36
 30
0.0
 40
0.5
  1
0.38
100
AcDbAttributeDefinition
  3

  2
BL
 70
     8
280
     0
  0
ATTDEF
  5
F2
330
D9
100
AcDbEntity
  8
AM_6
100
AcDbText
 10
4.062833333333333
 20
-8.86
 30
0.0
 40
0.5
  1
0.07
100
AcDbAttributeDefinition
  3

  2
CL
 70
     8
280
     0
  0
ATTDEF
  5
F3
330
D9
100
AcDbEntity
  8
AM_6
100
AcDbText
 10
4.062833333333333
 20
-9.36
 30
0.0
 40
0.5
  1
0.44
100
AcDbAttributeDefinition
  3

  2
DL
 70
     8
280
     0
  0
ATTDEF
  5
F4
330
D9
100
AcDbEntity
  8
AM_6
100
AcDbText
 10
4.062833333333333
 20
-9.86
 30
0.0
 40
0.5
  1
baldor
100
AcDbAttributeDefinition
  3

  2
COMPANY
 70
     8
280
     0
  0
LINE
  5
F5
330
D9
100
AcDbEntity
  8
AM_9
100
AcDbLine
 10
-1.307166666666667
 20
0.8958869703731722
 30
0.0
 11
-1.377166666666667
 21
0.8958869703731722
 31
0.0
  0
LINE
  5
F6
330
D9
100
AcDbEntity
  8
AM_9
100
AcDbLine
 10
-0.9371666666666668
 20
0.8711338704268436
 30
0.0
 11
-1.307166666666667
 21
0.8711338704268436
 31
0.0
  0
LINE
  5
F7
330
D9
100
AcDbEntity
  8
AM_9
100
AcDbLine
 10
-0.9371666666666668
 20
0.8253237207252796
 30
0.0
 11
-1.377166666666667
 21
0.8253237207252796
 31
0.0
  0
LINE
  5
F8
330
D9
100
AcDbEntity
  8
AM_9
100
AcDbLine
 10
-1.307166666666667
 20
0.9438437225762107
 30
0.0
 11
-0.9371666666666668
 21
0.9438437225762107
 31
0.0
  0
LINE
  5
F9
330
D9
100
AcDbEntity
  8
AM_9
100
AcDbLine
 10
-0.9371666666666668
 20
0.8980335728746464
 30
0.0
 11
-1.377166666666667
 21
0.8980335728746464
 31
0.0
  0
LINE
  5
FA
330
D9
100
AcDbEntity
  8
AM_9
100
AcDbLine
 10
-0.9371666666666668
 20
0.8253237207252796
 30
0.0
 11
-0.9371666666666668
 21
0.9438437225762107
 31
0.0
  0
LINE
  5
FB
330
D9
100
AcDbEntity
  8
AM_9
100
AcDbLine
 10
-1.307166666666667
 20
0.9685968225225395
 30
0.0
 11
-1.377166666666667
 21
0.9685968225225395
 31
0.0
  0
LINE
  5
FC
330
D9
100
AcDbEntity
  8
AM_9
100
AcDbLine
 10
-1.307166666666667
 20
1.340833333333333
 30
0.0
 11
-1.377166666666667
 21
1.340833333333333
 31
0.0
  0
LINE
  5
FD
330
D9
100
AcDbEntity
  8
AM_9
100
AcDbLine
 10
-1.307166666666667
 20
1.432523397721421
 30
0.0
 11
-1.377166666666667
 21
1.432523397721421
 31
0.0
  0
LINE
  5
FE
330
D9
100
AcDbEntity
  8
AM_9
100
AcDbLine
 10
-1.307166666666667
 20
-1.340833333333333
 30
0.0
 11
-1.377166666666667
 21
-1.340833333333333
 31
0.0
  0
LINE
  5
FF
330
D9
100
AcDbEntity
  8
AM_9
100
AcDbLine
 10
-1.377166666666667
 20
-1.43926275488768
 30
0.0
 11
-1.307166666666667
 21
-1.43926275488768
 31
0.0
  0
LINE
  5
100
330
D9
100
AcDbEntity
  8
AM_9
100
AcDbLine
 10
-1.307166666666667
 20
1.009051357500948
 30
0.0
 11
-1.377166666666667
 21
1.009051357500948
 31
0.0
  0
LINE
  5
101
330
D9
100
AcDbEntity
  8
AM_9
100
AcDbLine
 10
-1.307166666666667
 20
-1.009051357500948
 30
0.0
 11
-1.377166666666667
 21
-1.009051357500948
 31
0.0
  0
LINE
  5
102
330
D9
100
AcDbEntity
  8
AM_9
100
AcDbLine
 10
-1.307166666666667
 20
0.7806822016671341
 30
0.0
 11
-1.377166666666667
 21
0.7806822016671341
 31
0.0
  0
LINE
  5
103
330
D9
100
AcDbEntity
  8
AM_9
100
AcDbLine
 10
-1.307166666666667
 20
-0.7806822016671338
 30
0.0
 11
-1.377166666666667
 21
-0.7806822016671338
 31
0.0
  0
LINE
  5
104
330
D9
100
AcDbEntity
  8
AM_9
100
AcDbLine
 10
-1.307166666666667
 20
-0.6463319132416899
 30
0.0
 11
-1.377166666666667
 21
-0.6463319132416899
 31
0.0
  0
LINE
  5
105
330
D9
100
AcDbEntity
  8
AM_9
100
AcDbLine
 10
-1.307166666666667
 20
0.6463319132416899
 30
0.0
 11
-1.377166666666667
 21
0.6463319132416899
 31
0.0
  0
LINE
  5
106
330
D9
100
AcDbEntity
  8
AM_9
100
AcDbLine
 10
-1.307166666666667
 20
-0.8809371982282405
 30
0.0
 11
-1.377166666666667
 21
-0.8809371982282405
 31
0.0
  0
LINE
  5
107
330
D9
100
AcDbEntity
  8
AM_9
100
AcDbLine
 10
-1.307166666666667
 20
-1.0152874866537
 30
0.0
 11
-1.377166666666667
 21
-1.0152874866537
 31
0.0
  0
LINE
  5
108
330
D9
100
AcDbEntity
  8
AM_9
100
AcDbLine
 10
-1.377166666666667
 20
-1.04315459259969
 30
0.0
 11
-1.307166666666667
 21
-1.04315459259969
 31
0.0
  0
LINE
  5
109
330
D9
100
AcDbEntity
  8
AM_9
100
AcDbLine
 10
-1.307166666666667
 20
1.015287486653685
 30
0.0
 11
-1.377166666666667
 21
1.015287486653685
 31
0.0
  0
LINE
  5
10A
330
D9
100
AcDbEntity
  8
AM_9
100
AcDbLine
 10
-1.307166666666667
 20
0.8809371982282409
 30
0.0
 11
-1.377166666666667
 21
0.8809371982282409
 31
0.0
  0
LINE
  5
10B
330
D9
100
AcDbEntity
  8
AM_9
100
AcDbLine
 10
-1.307166666666667
 20
1.043154592599691
 30
0.0
 11
-1.377166666666667
 21
1.043154592599691
 31
0.0
  0
LINE
  5
10C
330
D9
100
AcDbEntity
  8
AM_9
100
AcDbLine
 10
-1.307166666666667
 20
0.0950597429712159
 30
0.0
 11
-1.377166666666667
 21
0.0950597429712159
 31
0.0
  0
LINE
  5
10D
330
D9
100
AcDbEntity
  8
AM_9
100
AcDbLine
 10
-1.377166666666667
 20
-0.0950597429712157
 30
0.0
 11
-1.307166666666667
 21
-0.0950597429712157
 31
0.0
  0
LINE
  5
10E
330
D9
100
AcDbEntity
  8
AM_4
100
AcDbLine
 10
-1.307166666666667
 20
1.64
 30
0.0
 11
-1.377166666666667
 21
1.64
 31
0.0
  0
LINE
  5
10F
330
D9
100
AcDbEntity
  8
AM_4
100
AcDbLine
 10
-1.377166666666667
 20
-1.64
 30
0.0
 11
-1.307166666666667
 21
-1.64
 31
0.0
  0
LINE
  5
110
330
D9
100
AcDbEntity
  8
AM_4
100
AcDbLine
 10
-1.377166666666667
 20
1.64
 30
0.0
 11
-1.377166666666667
 21
-1.64
 31
0.0
  0
LINE
  5
111
330
D9
100
AcDbEntity
  8
AM_4
100
AcDbLine
 10
-1.307166666666667
 20
-1.017940992159679
 30
0.0
 11
-1.307166666666667
 21
-1.286196632344632
 31
0.0
  0
LINE
  5
112
330
D9
100
AcDbEntity
  8
AM_4
100
AcDbLine
 10
-1.307166666666667
 20
1.286641569010567
 30
0.0
 11
-1.307166666666667
 21
1.017940992159678
 31
0.0
  0
ENDBLK
  5
DC
330
D9
100
AcDbEntity
  8
0
100
AcDbBlockEnd
  0
BLOCK
  5
115
330
113
100
AcDbEntity
  8
0
100
AcDbBlockBegin
  2
5_070889EL_0_in_071189_2
 70
     2
 10
0.0
 20
0.0
 30
0.0
  3
5_070889EL_0_in_071189_2
  1

  0
ATTDEF
  5
117
330
113
100
AcDbEntity
  8
AM_6
100
AcDbText
 10
6.484
 20
1.77165
 30
0.0
 40
0.5
  1
Imperial/E Insert -Inch
100
AcDbAttributeDefinition
  3

  2
NN
 70
     8
280
     0
  0
ATTDEF
  5
118
330
113
100
AcDbEntity
  8
AM_6
100
AcDbText
 10
6.484
 20
1.27165
 30
0.0
 40
0.5
  1
Imperial Bearings
100
AcDbAttributeDefinition
  3

  2
NT
 70
     8
280
     0
  0
ATTDEF
  5
119
330
113
100
AcDbEntity
  8
AM_6
100
AcDbText
 10
6.484
 20
0.7716500000000002
 30
0.0
 40
0.5
  1
070889EL
100
AcDbAttributeDefinition
  3

  2
NB
 70
     8
280
     0
  0
ATTDEF
  5
11A
330
113
100
AcDbEntity
  8
AM_6
100
AcDbText
 10
6.484
 20
0.2716500000000002
 30
0.0
 40
0.5
  1
$PN.
100
AcDbAttributeDefinition
  3

  2
NBSYN
 70
     8
280
     0
  0
ATTDEF
  5
11B
330
113
100
AcDbEntity
  8
AM_6
100
AcDbText
 10
6.484
 20
-0.2283499999999998
 30
0.0
 40
0.5
  1
070889EL
100
AcDbAttributeDefinition
  3

  2
LINA
 70
     8
280
     0
  0
ATTDEF
  5
11C
330
113
100
AcDbEntity
  8
AM_6
100
AcDbText
 10
6.484
 20
-0.7283499999999998
 30
0.0
 40
0.5
  1
1-7/8
100
AcDbAttributeDefinition
  3

  2
SS
 70
     8
280
     0
  0
ATTDEF
  5
11D
330
113
100
AcDbEntity
  8
AM_6
100
AcDbText
 10
6.484
 20
-1.22835
 30
0.0
 40
0.5
  1
1.875000
100
AcDbAttributeDefinition
  3

  2
SS1
 70
     8
280
     0
  0
ATTDEF
  5
11E
330
113
100
AcDbEntity
  8
AM_6
100
AcDbText
 10
6.484
 20
-1.72835
 30
0.0
 40
0.5
  1
070889EL
100
AcDbAttributeDefinition
  3

  2
PN
 70
     8
280
     0
  0
ATTDEF
  5
11F
330
113
100
AcDbEntity
  8
AM_6
100
AcDbText
 10
6.484
 20
-2.22835
 30
0.0
 40
0.5
  1
INS-IP-114R
100
AcDbAttributeDefinition
  3

  2
DESCRIPTION
 70
     8
280
     0
  0
ATTDEF
  5
120
330
113
100
AcDbEntity
  8
AM_6
100
AcDbText
 10
6.484
 20
-2.72835
 30
0.0
 40
0.5
  1
Labyrinth Seal
100
AcDbAttributeDefinition
  3

  2
ST
 70
     8
280
     0
  0
ATTDEF
  5
121
330
113
100
AcDbEntity
  8
AM_6
100
AcDbText
 10
6.484
 20
-3.22835
 30
0.0
 40
0.5
  1
1
100
AcDbAttributeDefinition
  3

  2
ST1
 70
     8
280
     0
  0
ATTDEF
  5
122
330
113
100
AcDbEntity
  8
AM_6
100
AcDbText
 10
6.484
 20
-3.72835
 30
0.0
 40
0.5
  1
3.5433
100
AcDbAttributeDefinition
  3

  2
A
 70
     8
280
     0
  0
ATTDEF
  5
123
330
113
100
AcDbEntity
  8
AM_6
100
AcDbText
 10
6.484
 20
-4.22835
 30
0.0
 40
0.5
  1
61/64
100
AcDbAttributeDefinition
  3

  2
B
 70
     8
280
     0
  0
ATTDEF
  5
124
330
113
100
AcDbEntity
  8
AM_6
100
AcDbText
 10
6.484
 20
-4.72835
 30
0.0
 40
0.5
  1
0.953125
100
AcDbAttributeDefinition
  3

  2
B1
 70
     8
280
     0
  0
ATTDEF
  5
125
330
113
100
AcDbEntity
  8
AM_6
100
AcDbText
 10
6.484
 20
-5.22835
 30
0.0
 40
0.5
  1
2-55/64
100
AcDbAttributeDefinition
  3

  2
C
 70
     8
280
     0
  0
ATTDEF
  5
126
330
113
100
AcDbEntity
  8
AM_6
100
AcDbText
 10
6.484
 20
-5.72835
 30
0.0
 40
0.5
  1
2.860000
100
AcDbAttributeDefinition
  3

  2
C1
 70
     8
280
     0
  0
ATTDEF
  5
127
330
113
100
AcDbEntity
  8
AM_6
100
AcDbText
 10
6.484
 20
-6.22835
 30
0.0
 40
0.5
  1
3.64000
100
AcDbAttributeDefinition
  3

  2
CR
 70
     8
280
     0
  0
ATTDEF
  5
128
330
113
100
AcDbEntity
  8
AM_6
100
AcDbText
 10
6.484
 20
-6.72835
 30
0.0
 40
0.5
  1
0.977
100
AcDbAttributeDefinition
  3

  2
D
 70
     8
280
     0
  0
ATTDEF
  5
129
330
113
100
AcDbEntity
  8
AM_6
100
AcDbText
 10
6.484
 20
-7.22835
 30
0.0
 40
0.5
  1
3-9/32
100
AcDbAttributeDefinition
  3

  2
E
 70
     8
280
     0
  0
ATTDEF
  5
12A
330
113
100
AcDbEntity
  8
AM_6
100
AcDbText
 10
6.484
 20
-7.72835
 30
0.0
 40
0.5
  1
3.281250
100
AcDbAttributeDefinition
  3

  2
E1
 70
     8
280
     0
  0
ATTDEF
  5
12B
330
113
100
AcDbEntity
  8
AM_6
100
AcDbText
 10
6.484
 20
-8.228349999999999
 30
0.0
 40
0.5
  1
0.1900
100
AcDbAttributeDefinition
  3

  2
NDM
 70
     8
280
     0
  0
ATTDEF
  5
12C
330
113
100
AcDbEntity
  8
AM_6
100
AcDbText
 10
6.484
 20
-8.728349999999999
 30
0.0
 40
0.5
  1
0.1450
100
AcDbAttributeDefinition
  3

  2
KDM
 70
     8
280
     0
  0
ATTDEF
  5
12D
330
113
100
AcDbEntity
  8
AM_6
100
AcDbText
 10
6.484
 20
-9.228349999999999
 30
0.0
 40
0.5
  1
2.67
100
AcDbAttributeDefinition
  3

  2
AL
 70
     8
280
     0
  0
ATTDEF
  5
12E
330
113
100
AcDbEntity
  8
AM_6
100
AcDbText
 10
6.484
 20
-9.728349999999999
 30
0.0
 40
0.5
  1
0.38
100
AcDbAttributeDefinition
  3

  2
BL
 70
     8
280
     0
  0
ATTDEF
  5
12F
330
113
100
AcDbEntity
  8
AM_6
100
AcDbText
 10
6.484
 20
-10.22835
 30
0.0
 40
0.5
  1
0.07
100
AcDbAttributeDefinition
  3

  2
CL
 70
     8
280
     0
  0
ATTDEF
  5
130
330
113
100
AcDbEntity
  8
AM_6
100
AcDbText
 10
6.484
 20
-10.72835
 30
0.0
 40
0.5
  1
0.44
100
AcDbAttributeDefinition
  3

  2
DL
 70
     8
280
     0
  0
ATTDEF
  5
131
330
113
100
AcDbEntity
  8
AM_6
100
AcDbText
 10
6.484
 20
-11.22835
 30
0.0
 40
0.5
  1
0.8000
100
AcDbAttributeDefinition
  3

  2
LL
 70
     8
280
     0
  0
ATTDEF
  5
132
330
113
100
AcDbEntity
  8
AM_6
100
AcDbText
 10
6.484
 20
-11.72835
 30
0.0
 40
0.5
  1
0.020
100
AcDbAttributeDefinition
  3

  2
Y
 70
     8
280
     0
  0
ATTDEF
  5
133
330
113
100
AcDbEntity
  8
AM_6
100
AcDbText
 10
6.484
 20
-12.22835
 30
0.0
 40
0.5
  1
0.020000
100
AcDbAttributeDefinition
  3

  2
Y1
 70
     8
280
     0
  0
ATTDEF
  5
134
330
113
100
AcDbEntity
  8
AM_6
100
AcDbText
 10
6.484
 20
-12.72835
 30
0.0
 40
0.5
  1
2-19/64
100
AcDbAttributeDefinition
  3

  2
Z
 70
     8
280
     0
  0
ATTDEF
  5
135
330
113
100
AcDbEntity
  8
AM_6
100
AcDbText
 10
6.484
 20
-13.22835
 30
0.0
 40
0.5
  1
2.296875
100
AcDbAttributeDefinition
  3

  2
Z1
 70
     8
280
     0
  0
ATTDEF
  5
136
330
113
100
AcDbEntity
  8
AM_6
100
AcDbText
 10
6.484
 20
-13.72835
 30
0.0
 40
0.5
  1
0.79000
100
AcDbAttributeDefinition
  3

  2
P1
 70
     8
280
     0
  0
ATTDEF
  5
137
330
113
100
AcDbEntity
  8
AM_6
100
AcDbText
 10
6.484
 20
-14.22835
 30
0.0
 40
0.5
  1
1.18000
100
AcDbAttributeDefinition
  3

  2
H1
 70
     8
280
     0
  0
ATTDEF
  5
138
330
113
100
AcDbEntity
  8
AM_6
100
AcDbText
 10
6.484
 20
-14.72835
 30
0.0
 40
0.5
  1
0.65000
100
AcDbAttributeDefinition
  3

  2
G1
 70
     8
280
     0
  0
ATTDEF
  5
139
330
113
100
AcDbEntity
  8
AM_6
100
AcDbText
 10
6.484
 20
-15.22835
 30
0.0
 40
0.5
  1
0.10100
100
AcDbAttributeDefinition
  3

  2
CW
 70
     8
280
     0
  0
ATTDEF
  5
13A
330
113
100
AcDbEntity
  8
AM_6
100
AcDbText
 10
6.484
 20
-15.72835
 30
0.0
 40
0.5
  1
3.28000
100
AcDbAttributeDefinition
  3

  2
L1
 70
     8
280
     0
  0
ATTDEF
  5
13B
330
113
100
AcDbEntity
  8
AM_6
100
AcDbText
 10
6.484
 20
-16.22835
 30
0.0
 40
0.5
  1
baldor
100
AcDbAttributeDefinition
  3

  2
COMPANY
 70
     8
280
     0
  0
LINE
  5
13C
330
113
100
AcDbEntity
  8
AM_9
100
AcDbLine
 10
0.8195624999999997
 20
0.946260519763662
 30
0.0
 11
-1.307166666666666
 21
0.946260519763662
 31
0.0
  0
LINE
  5
13D
330
113
100
AcDbEntity
  8
AM_9
100
AcDbLine
 10
0.8195624999999997
 20
0.873550667614295
 30
0.0
 11
-1.307166666666666
 21
0.873550667614295
 31
0.0
  0
LINE
  5
13E
330
113
100
AcDbEntity
  8
AM_9
100
AcDbLine
 10
-0.4671666666666665
 20
1.341145833333334
 30
0.0
 11
-0.508995693669455
 21
1.413595833333333
 31
0.0
  0
LINE
  5
13F
330
113
100
AcDbEntity
  8
AM_9
100
AcDbLine
 10
-0.508995693669455
 20
1.268695833333334
 30
0.0
 11
-0.4671666666666665
 21
1.341145833333334
 31
0.0
  0
LINE
  5
140
330
113
100
AcDbEntity
  8
AM_9
100
AcDbLine
 10
-0.4671666666666541
 20
-1.341145833333334
 30
0.0
 11
-0.5089956936694762
 21
-1.268695833333334
 31
0.0
  0
LINE
  5
141
330
113
100
AcDbEntity
  8
AM_9
100
AcDbLine
 10
-0.5089956936694762
 20
-1.413595833333333
 30
0.0
 11
-0.4671666666666541
 21
-1.341145833333334
 31
0.0
  0
LINE
  5
142
330
113
100
AcDbEntity
  8
AM_9
100
AcDbLine
 10
-0.508995693669455
 20
1.268695833333334
 30
0.0
 11
-0.508995693669455
 21
1.413595833333333
 31
0.0
  0
LINE
  5
143
330
113
100
AcDbEntity
  8
AM_9
100
AcDbLine
 10
-0.508995693669455
 20
1.413595833333333
 30
0.0
 11
-1.284616666666667
 21
1.413595833333333
 31
0.0
  0
LINE
  5
144
330
113
100
AcDbEntity
  8
AM_9
100
AcDbLine
 10
-1.284616666666667
 20
1.268695833333334
 30
0.0
 11
-0.508995693669455
 21
1.268695833333334
 31
0.0
  0
LINE
  5
145
330
113
100
AcDbEntity
  8
AM_9
100
AcDbLine
 10
-1.284616666666685
 20
-1.413595833333333
 30
0.0
 11
-0.5089956936694762
 21
-1.413595833333333
 31
0.0
  0
LINE
  5
146
330
113
100
AcDbEntity
  8
AM_9
100
AcDbLine
 10
-0.5089956936694762
 20
-1.268695833333334
 30
0.0
 11
-1.284616666666685
 21
-1.268695833333334
 31
0.0
  0
LINE
  5
147
330
113
100
AcDbEntity
  8
AM_9
100
AcDbLine
 10
-0.5089956936694762
 20
-1.268695833333334
 30
0.0
 11
-0.5089956936694762
 21
-1.413595833333333
 31
0.0
  0
LINE
  5
148
330
113
100
AcDbEntity
  8
AM_9
100
AcDbLine
 10
-1.284616666666667
 20
1.268695833333334
 30
0.0
 11
-1.284616666666667
 21
1.413595833333333
 31
0.0
  0
LINE
  5
149
330
113
100
AcDbEntity
  8
AM_9
100
AcDbLine
 10
-1.284616666666667
 20
1.413595833333333
 30
0.0
 11
-1.307166666666667
 21
1.436145833333333
 31
0.0
  0
LINE
  5
14A
330
113
100
AcDbEntity
  8
AM_9
100
AcDbLine
 10
-1.307166666666667
 20
1.246145833333334
 30
0.0
 11
-1.284616666666667
 21
1.268695833333334
 31
0.0
  0
LINE
  5
14B
330
113
100
AcDbEntity
  8
AM_9
100
AcDbLine
 10
-1.284616666666685
 20
-1.268695833333334
 30
0.0
 11
-1.307166666666661
 21
-1.246145833333334
 31
0.0
  0
LINE
  5
14C
330
113
100
AcDbEntity
  8
AM_9
100
AcDbLine
 10
-1.307166666666661
 20
-1.436145833333333
 30
0.0
 11
-1.284616666666685
 21
-1.413595833333333
 31
0.0
  0
LINE
  5
14D
330
113
100
AcDbEntity
  8
AM_9
100
AcDbLine
 10
-1.284616666666685
 20
-1.268695833333334
 30
0.0
 11
-1.284616666666685
 21
-1.413595833333333
 31
0.0
  0
LINE
  5
14E
330
113
100
AcDbEntity
  8
AM_9
100
AcDbLine
 10
0.8195624999999997
 20
0.8980335728746468
 30
0.0
 11
-1.54
 21
0.8980335728746468
 31
0.0
  0
LINE
  5
14F
330
113
100
AcDbEntity
  8
AM_9
100
AcDbLine
 10
-1.54
 20
0.8253237207252796
 30
0.0
 11
0.8195624999999997
 21
0.8253237207252798
 31
0.0
  0
LINE
  5
150
330
113
100
AcDbEntity
  8
AM_9
100
AcDbLine
 10
0.8195625
 20
0.9375000000000003
 30
0.0
 11
-1.54
 21
0.9375000000000003
 31
0.0
  0
LINE
  5
151
330
113
100
AcDbEntity
  8
AM_9
100
AcDbLine
 10
-1.54
 20
-0.9375000000000003
 30
0.0
 11
0.8195625
 21
-0.9375000000000003
 31
0.0
  0
LINE
  5
152
330
113
100
AcDbEntity
  8
AM_9
100
AcDbLine
 10
1.32
 20
0.9868421052631579
 30
0.0
 11
0.8195625
 21
0.9868421052631579
 31
0.0
  0
LINE
  5
153
330
113
100
AcDbEntity
  8
AM_9
100
AcDbLine
 10
0.8195625
 20
-0.9868421052631579
 30
0.0
 11
1.32
 21
-0.9868421052631579
 31
0.0
  0
LINE
  5
154
330
113
100
AcDbEntity
  8
AM_9
100
AcDbLine
 10
-1.54
 20
0.9438437225762107
 30
0.0
 11
-1.307166666666667
 21
0.9438437225762105
 31
0.0
  0
LINE
  5
155
330
113
100
AcDbEntity
  8
AM_9
100
AcDbLine
 10
-1.307166666666667
 20
0.8711338704268436
 30
0.0
 11
-1.54
 21
0.8711338704268436
 31
0.0
  0
LINE
  5
156
330
113
100
AcDbEntity
  8
AM_9
100
AcDbLine
 10
-1.307166666666667
 20
0.986842105263158
 30
0.0
 11
-1.377166666666667
 21
0.986842105263158
 31
0.0
  0
LINE
  5
157
330
113
100
AcDbEntity
  8
AM_9
100
AcDbLine
 10
-1.377166666666667
 20
-0.986842105263158
 30
0.0
 11
-1.307166666666667
 21
-0.986842105263158
 31
0.0
  0
LINE
  5
158
330
113
100
AcDbEntity
  8
AM_9
100
AcDbLine
 10
-0.8671666666666668
 20
-0.8096372644585969
 30
0.0
 11
-1.307166666666667
 21
-0.8096372644585969
 31
0.0
  0
LINE
  5
159
330
113
100
AcDbEntity
  8
AM_9
100
AcDbLine
 10
-0.8671666666666668
 20
-1.078337841309485
 30
0.0
 11
-1.244999999999999
 21
-1.078337841309485
 31
0.0
  0
LINE
  5
15A
330
113
100
AcDbEntity
  8
AM_9
100
AcDbLine
 10
-0.8671666666666668
 20
0.8096372644585967
 30
0.0
 11
-1.307166666666667
 21
0.8096372644585967
 31
0.0
  0
LINE
  5
15B
330
113
100
AcDbEntity
  8
AM_9
100
AcDbLine
 10
-0.8671666666666668
 20
1.078337841309485
 30
0.0
 11
-1.1205
 21
1.078337841309485
 31
0.0
  0
LINE
  5
15C
330
113
100
AcDbEntity
  8
AM_9
100
AcDbLine
 10
1.32
 20
-1.1484375
 30
0.0
 11
1.32
 21
1.1484375
 31
0.0
  0
LINE
  5
15D
330
113
100
AcDbEntity
  8
AM_9
100
AcDbLine
 10
1.34
 20
1.1484375
 30
0.0
 11
1.32
 21
1.1484375
 31
0.0
  0
LINE
  5
15E
330
113
100
AcDbEntity
  8
AM_9
100
AcDbLine
 10
1.32
 20
-1.1484375
 30
0.0
 11
1.34
 21
-1.1484375
 31
0.0
  0
LINE
  5
15F
330
113
100
AcDbEntity
  8
AM_9
100
AcDbLine
 10
-0.8671666666666668
 20
1.292108926166053
 30
0.0
 11
-0.8671666666666668
 21
0.8096372644585967
 31
0.0
  0
ARC
  5
160
330
113
100
AcDbEntity
  8
AM_9
100
AcDbCircle
 10
0.9101875000000006
 20
1.403857578016765
 30
0.0
 40
0.0999999999999992
100
AcDbArc
 50
0.0
 51
60.00000000000006
  0
ARC
  5
161
330
113
100
AcDbEntity
  8
AM_9
100
AcDbCircle
 10
0.9101875000000007
 20
-1.403857578016765
 30
0.0
 40
0.0999999999999991
100
AcDbArc
 50
299.9999999999998
 51
0.0
  0
LINE
  5
162
330
113
100
AcDbEntity
  8
AM_9
100
AcDbLine
 10
1.1205
 20
1.53125
 30
0.0
 11
1.0101875
 21
1.53125
 31
0.0
  0
LINE
  5
163
330
113
100
AcDbEntity
  8
AM_9
100
AcDbLine
 10
1.0101875
 20
-1.53125
 30
0.0
 11
1.245
 21
-1.53125
 31
0.0
  0
LINE
  5
164
330
113
100
AcDbEntity
  8
AM_9
100
AcDbLine
 10
1.0101875
 20
-1.53125
 30
0.0
 11
1.0101875
 21
1.53125
 31
0.0
  0
LINE
  5
165
330
113
100
AcDbEntity
  8
AM_9
100
AcDbLine
 10
0.9601875000000001
 20
1.490460118395209
 30
0.0
 11
0.8195625
 21
1.57165
 31
0.0
  0
LINE
  5
166
330
113
100
AcDbEntity
  8
AM_9
100
AcDbLine
 10
0.8195625
 20
-1.57165
 30
0.0
 11
0.9601875000000001
 21
-1.490460118395209
 31
0.0
  0
LINE
  5
167
330
113
100
AcDbEntity
  8
AM_9
100
AcDbLine
 10
0.9601875000000001
 20
-1.490460118395209
 30
0.0
 11
0.9601875000000001
 21
1.490460118395209
 31
0.0
  0
LINE
  5
168
330
113
100
AcDbEntity
  8
AM_9
100
AcDbLine
 10
-1.245000000521572
 20
-1.018713484441748
 30
0.0
 11
-0.8671666666666664
 21
-1.023408349315165
 31
0.0
  0
LINE
  5
169
330
113
100
AcDbEntity
  8
AM_9
100
AcDbLine
 10
-0.8671666666666668
 20
-0.8096372644585969
 30
0.0
 11
-0.8671666666666668
 21
-1.292108926166053
 31
0.0
  0
LINE
  5
16A
330
113
100
AcDbEntity
  8
AM_9
100
AcDbLine
 10
-0.8671666666666668
 20
-1.292108926166053
 30
0.0
 11
-1.245000000521571
 21
-1.287414061292636
 31
0.0
  0
LINE
  5
16B
330
113
100
AcDbEntity
  8
AM_9
100
AcDbLine
 10
-1.120500001048639
 20
1.288961096060209
 30
0.0
 11
-0.8671666666666668
 21
1.292108926166053
 31
0.0
  0
LINE
  5
16C
330
113
100
AcDbEntity
  8
AM_9
100
AcDbLine
 10
-0.8671666666666664
 20
1.023408349315164
 30
0.0
 11
-1.120500001048639
 21
1.020260519209321
 31
0.0
  0
LINE
  5
16D
330
113
100
AcDbEntity
  8
AM_9
100
AcDbLine
 10
-1.245
 20
-1.641710123203039
 30
0.0
 11
-0.1826898796781364
 21
-1.660252815327159
 31
0.0
  0
LINE
  5
16E
330
113
100
AcDbEntity
  8
AM_9
100
AcDbLine
 10
-0.1826898796781364
 20
1.660252815327159
 30
0.0
 11
-1.1205
 21
1.643883278786602
 31
0.0
  0
ARC
  5
16F
330
113
100
AcDbEntity
  8
AM_9
100
AcDbCircle
 10
-0.1835625000000002
 20
1.710245200084979
 30
0.0
 40
0.0500000000000003
100
AcDbArc
 50
270.9999999999996
 51
0.0
  0
ARC
  5
170
330
113
100
AcDbEntity
  8
AM_9
100
AcDbCircle
 10
-0.1835625000000002
 20
-1.710245200084979
 30
0.0
 40
0.0500000000000003
100
AcDbArc
 50
0.0
 51
89.00000000000044
  0
LINE
  5
171
330
113
100
AcDbEntity
  8
AM_9
100
AcDbLine
 10
-0.1826898796781364
 20
-1.660252815327159
 30
0.0
 11
-0.1826898796781364
 21
1.660252815327159
 31
0.0
  0
LINE
  5
172
330
113
100
AcDbEntity
  8
AM_9
100
AcDbLine
 10
0.3505143487660681
 20
1.72399375
 30
0.0
 11
0.2954856512339317
 21
1.72399375
 31
0.0
  0
LINE
  5
173
330
113
100
AcDbEntity
  8
AM_9
100
AcDbLine
 10
0.2954856512339317
 20
-1.72399375
 30
0.0
 11
0.3505143487660681
 21
-1.72399375
 31
0.0
  0
LINE
  5
174
330
113
100
AcDbEntity
  8
AM_9
100
AcDbLine
 10
-0.1335625000000002
 20
-1.76165
 30
0.0
 11
-0.1335625000000002
 21
1.76165
 31
0.0
  0
ARC
  5
175
330
113
100
AcDbEntity
  8
AM_9
100
AcDbCircle
 10
-0.1235625000000002
 20
1.76165
 30
0.0
 40
0.01
100
AcDbArc
 50
90.0
 51
180.0
  0
ARC
  5
176
330
113
100
AcDbEntity
  8
AM_9
100
AcDbCircle
 10
-0.1235625000000002
 20
-1.76165
 30
0.0
 40
0.01
100
AcDbArc
 50
180.0
 51
270.0
  0
LINE
  5
177
330
113
100
AcDbEntity
  8
AM_9
100
AcDbLine
 10
0.2954856512339317
 20
1.72399375
 30
0.0
 11
0.2679713024678637
 21
1.77165
 31
0.0
  0
LINE
  5
178
330
113
100
AcDbEntity
  8
AM_9
100
AcDbLine
 10
0.2679713024678637
 20
-1.77165
 30
0.0
 11
0.2954856512339317
 21
-1.72399375
 31
0.0
  0
LINE
  5
179
330
113
100
AcDbEntity
  8
AM_9
100
AcDbLine
 10
0.2954856512339317
 20
-1.72399375
 30
0.0
 11
0.2954856512339317
 21
1.72399375
 31
0.0
  0
LINE
  5
17A
330
113
100
AcDbEntity
  8
AM_9
100
AcDbLine
 10
0.8195624999999997
 20
-1.72165
 30
0.0
 11
0.8195624999999997
 21
1.72165
 31
0.0
  0
ARC
  5
17B
330
113
100
AcDbEntity
  8
AM_9
100
AcDbCircle
 10
0.7695624999999995
 20
1.72165
 30
0.0
 40
0.0500000000000003
100
AcDbArc
 50
0.0
 51
90.0
  0
ARC
  5
17C
330
113
100
AcDbEntity
  8
AM_9
100
AcDbCircle
 10
0.7695624999999999
 20
-1.72165
 30
0.0
 40
0.0499999999999998
100
AcDbArc
 50
270.0
 51
0.0
  0
LINE
  5
17D
330
113
100
AcDbEntity
  8
AM_9
100
AcDbLine
 10
0.2679713024678637
 20
1.77165
 30
0.0
 11
-0.1235625000000003
 21
1.77165
 31
0.0
  0
LINE
  5
17E
330
113
100
AcDbEntity
  8
AM_9
100
AcDbLine
 10
-0.1235625000000003
 20
-1.77165
 30
0.0
 11
0.2679713024678637
 21
-1.77165
 31
0.0
  0
LINE
  5
17F
330
113
100
AcDbEntity
  8
AM_9
100
AcDbLine
 10
0.2679713024678637
 20
-1.77165
 30
0.0
 11
0.2679713024678637
 21
1.77165
 31
0.0
  0
LINE
  5
180
330
113
100
AcDbEntity
  8
AM_9
100
AcDbLine
 10
-0.1235625000000003
 20
-1.77165
 30
0.0
 11
-0.1235625000000003
 21
1.77165
 31
0.0
  0
LINE
  5
181
330
113
100
AcDbEntity
  8
AM_9
100
AcDbLine
 10
0.3505143487660681
 20
-1.72399375
 30
0.0
 11
0.378028697532136
 21
-1.77165
 31
0.0
  0
LINE
  5
182
330
113
100
AcDbEntity
  8
AM_9
100
AcDbLine
 10
0.378028697532136
 20
1.77165
 30
0.0
 11
0.3505143487660681
 21
1.72399375
 31
0.0
  0
LINE
  5
183
330
113
100
AcDbEntity
  8
AM_9
100
AcDbLine
 10
0.3505143487660681
 20
-1.72399375
 30
0.0
 11
0.3505143487660681
 21
1.72399375
 31
0.0
  0
LINE
  5
184
330
113
100
AcDbEntity
  8
AM_9
100
AcDbLine
 10
0.7695624999999997
 20
1.77165
 30
0.0
 11
0.378028697532136
 21
1.77165
 31
0.0
  0
LINE
  5
185
330
113
100
AcDbEntity
  8
AM_9
100
AcDbLine
 10
0.378028697532136
 20
-1.77165
 30
0.0
 11
0.7695624999999997
 21
-1.77165
 31
0.0
  0
LINE
  5
186
330
113
100
AcDbEntity
  8
AM_9
100
AcDbLine
 10
0.7695624999999997
 20
-1.77165
 30
0.0
 11
0.7695624999999997
 21
1.77165
 31
0.0
  0
LINE
  5
187
330
113
100
AcDbEntity
  8
AM_9
100
AcDbLine
 10
0.378028697532136
 20
-1.77165
 30
0.0
 11
0.378028697532136
 21
1.77165
 31
0.0
  0
LINE
  5
188
330
113
100
AcDbEntity
  8
AM_5
100
AcDbLine
 10
-0.6071666666666669
 20
1.436145833333333
 30
0.0
 11
-0.5801939770635236
 21
1.420573143730191
 31
0.0
  0
LINE
  5
189
330
113
100
AcDbEntity
  8
AM_5
100
AcDbLine
 10
-1.307166666666667
 20
1.246145833333333
 30
0.0
 11
-0.6071666666666666
 21
1.246145833333333
 31
0.0
  0
LINE
  5
18A
330
113
100
AcDbEntity
  8
AM_5
100
AcDbLine
 10
-0.6071666666666665
 20
1.246145833333334
 30
0.0
 11
-0.5801939770635244
 21
1.261718522936476
 31
0.0
  0
LINE
  5
18B
330
113
100
AcDbEntity
  8
AM_5
100
AcDbLine
 10
-1.307166666666667
 20
-1.436145833333333
 30
0.0
 11
-0.6071666666666551
 21
-1.436145833333333
 31
0.0
  0
LINE
  5
18C
330
113
100
AcDbEntity
  8
AM_5
100
AcDbLine
 10
-0.6071666666666551
 20
-1.436145833333333
 30
0.0
 11
-0.5801939770635399
 21
-1.420573143730207
 31
0.0
  0
LINE
  5
18D
330
113
100
AcDbEntity
  8
AM_5
100
AcDbLine
 10
-1.307166666666667
 20
-1.246145833333333
 30
0.0
 11
-0.6071666666666551
 21
-1.246145833333333
 31
0.0
  0
LINE
  5
18E
330
113
100
AcDbEntity
  8
AM_5
100
AcDbLine
 10
-0.6071666666666545
 20
-1.246145833333334
 30
0.0
 11
-0.5801939770635406
 21
-1.26171852293646
 31
0.0
  0
LINE
  5
191
330
113
100
AcDbEntity
  8
AM_7
100
AcDbLine
 10
1.484
 20
0.0
 30
0.0
 11
-1.684
 21
0.0
 31
0.0
  0
LINE
  5
192
330
113
100
AcDbEntity
  8
AM_7
100
AcDbLine
 10
-0.4251666666666665
 20
1.341145833333334
 30
0.0
 11
-1.523216666666667
 21
1.341145833333334
 31
0.0
  0
LINE
  5
193
330
113
100
AcDbEntity
  8
AM_7
100
AcDbLine
 10
-0.4251666666666537
 20
-1.341145833333334
 30
0.0
 11
-1.523216666666667
 21
-1.341145833333334
 31
0.0
  0
LINE
  5
194
330
113
100
AcDbEntity
  8
AM_4
100
AcDbLine
 10
-1.377166666666667
 20
0.986842105263158
 30
0.0
 11
-1.54
 21
0.986842105263158
 31
0.0
  0
LINE
  5
195
330
113
100
AcDbEntity
  8
AM_4
100
AcDbLine
 10
-1.54
 20
-0.986842105263158
 30
0.0
 11
-1.377166666666667
 21
-0.986842105263158
 31
0.0
  0
LINE
  5
196
330
113
100
AcDbEntity
  8
AM_4
100
AcDbLine
 10
-1.54
 20
-0.986842105263158
 30
0.0
 11
-1.54
 21
0.986842105263158
 31
0.0
  0
LINE
  5
197
330
113
100
AcDbEntity
  8
AM_4
100
AcDbLine
 10
-1.244999999999999
 20
-1.078337841309485
 30
0.0
 11
-1.307166666666667
 21
-1.078337841309485
 31
0.0
  0
LINE
  5
198
330
113
100
AcDbEntity
  8
AM_4
100
AcDbLine
 10
-1.1205
 20
1.078337841309485
 30
0.0
 11
-1.307166666666667
 21
1.078337841309485
 31
0.0
  0
LINE
  5
199
330
113
100
AcDbEntity
  8
AM_4
100
AcDbLine
 10
1.34
 20
-1.53125
 30
0.0
 11
1.34
 21
1.53125
 31
0.0
  0
LINE
  5
19A
330
113
100
AcDbEntity
  8
AM_4
100
AcDbLine
 10
1.34
 20
1.53125
 30
0.0
 11
1.1205
 21
1.53125
 31
0.0
  0
LINE
  5
19B
330
113
100
AcDbEntity
  8
AM_4
100
AcDbLine
 10
1.245
 20
-1.53125
 30
0.0
 11
1.34
 21
-1.53125
 31
0.0
  0
LINE
  5
19C
330
113
100
AcDbEntity
  8
AM_4
100
AcDbLine
 10
-1.307166666666667
 20
-1.017940992159679
 30
0.0
 11
-1.307166666666667
 21
1.017940992159678
 31
0.0
  0
LINE
  5
19D
330
113
100
AcDbEntity
  8
AM_4
100
AcDbLine
 10
-1.307166666666667
 20
-1.017940992159679
 30
0.0
 11
-1.245000000521572
 21
-1.018713484441748
 31
0.0
  0
LINE
  5
19E
330
113
100
AcDbEntity
  8
AM_4
100
AcDbLine
 10
-1.245000000521571
 20
-1.287414061292636
 30
0.0
 11
-1.307166666666667
 21
-1.286641569010567
 31
0.0
  0
LINE
  5
19F
330
113
100
AcDbEntity
  8
AM_4
100
AcDbLine
 10
-1.307166666666667
 20
1.286641569010567
 30
0.0
 11
-1.307166666666667
 21
1.640625000000001
 31
0.0
  0
LINE
  5
1A0
330
113
100
AcDbEntity
  8
AM_4
100
AcDbLine
 10
-1.307166666666667
 20
1.286641569010567
 30
0.0
 11
-1.120500001048639
 21
1.288961096060209
 31
0.0
  0
LINE
  5
1A1
330
113
100
AcDbEntity
  8
AM_4
100
AcDbLine
 10
-1.120500001048639
 20
1.020260519209321
 30
0.0
 11
-1.307166666666667
 21
1.017940992159678
 31
0.0
  0
LINE
  5
1A2
330
113
100
AcDbEntity
  8
AM_4
100
AcDbLine
 10
-1.307166666666667
 20
-1.640625000000001
 30
0.0
 11
-1.245
 21
-1.641710123203039
 31
0.0
  0
LINE
  5
1A3
330
113
100
AcDbEntity
  8
AM_4
100
AcDbLine
 10
-1.1205
 20
1.643883278786602
 30
0.0
 11
-1.307166666666667
 21
1.640625000000001
 31
0.0
  0
LINE
  5
1A4
330
113
100
AcDbEntity
  8
AM_4
100
AcDbLine
 10
-1.307166666666667
 20
-1.640625000000001
 30
0.0
 11
-1.307166666666667
 21
-1.286641569010567
 31
0.0
  0
ENDBLK
  5
116
330
113
100
AcDbEntity
  8
0
100
AcDbBlockEnd
  0
BLOCK
  5
1A7
330
1A5
100
AcDbEntity
  8
0
100
AcDbBlockBegin
  2
6_405015E_Inch_0_in_071189_2
 70
     2
 10
0.0
 20
0.0
 30
0.0
  3
6_405015E_Inch_0_in_071189_2
  1

  0
ATTDEF
  5
1A9
330
1A5
100
AcDbEntity
  8
AM_6
100
AcDbText
 10
5.252590742770462
 20
2.385277414165671
 30
0.0
 40
0.5
  1
405015E -Inch
100
AcDbAttributeDefinition
  3

  2
NN
 70
     8
280
     0
  0
ATTDEF
  5
1AA
330
1A5
100
AcDbEntity
  8
AM_6
100
AcDbText
 10
5.252590742770462
 20
1.885277414165671
 30
0.0
 40
0.5
  1
Grease Fitting
100
AcDbAttributeDefinition
  3

  2
NT
 70
     8
280
     0
  0
ATTDEF
  5
1AB
330
1A5
100
AcDbEntity
  8
AM_6
100
AcDbText
 10
5.252590742770462
 20
1.385277414165671
 30
0.0
 40
0.5
  1
405015E-Inch
100
AcDbAttributeDefinition
  3

  2
NB
 70
     8
280
     0
  0
ATTDEF
  5
1AC
330
1A5
100
AcDbEntity
  8
AM_6
100
AcDbText
 10
5.252590742770462
 20
0.885277414165671
 30
0.0
 40
0.5
  1
$MN.-Inch
100
AcDbAttributeDefinition
  3

  2
NBSYN
 70
     8
280
     0
  0
ATTDEF
  5
1AD
330
1A5
100
AcDbEntity
  8
AM_6
100
AcDbText
 10
5.252590742770462
 20
0.385277414165671
 30
0.0
 40
0.5
  1
405015E
100
AcDbAttributeDefinition
  3

  2
LINA
 70
     8
280
     0
  0
ATTDEF
  5
1AE
330
1A5
100
AcDbEntity
  8
AM_6
100
AcDbText
 10
5.252590742770462
 20
-0.114722585834329
 30
0.0
 40
0.5
  1
405015E
100
AcDbAttributeDefinition
  3

  2
MN
 70
     8
280
     0
  0
ATTDEF
  5
1AF
330
1A5
100
AcDbEntity
  8
AM_6
100
AcDbText
 10
5.252590742770462
 20
-0.614722585834329
 30
0.0
 40
0.5
  1
1/8 x 27PTF
100
AcDbAttributeDefinition
  3

  2
T
 70
     8
280
     0
  0
ATTDEF
  5
1B0
330
1A5
100
AcDbEntity
  8
AM_6
100
AcDbText
 10
5.252590742770462
 20
-1.114722585834329
 30
0.0
 40
0.5
  1
baldor
100
AcDbAttributeDefinition
  3

  2
COMPANY
 70
     8
280
     0
  0
LINE
  5
1B1
330
1A5
100
AcDbEntity
  8
AM_9
100
AcDbLine
 10
-0.1262953713852306
 20
2.197303705469726
 30
0.0
 11
-0.1262953713852306
 21
2.126406708468514
 31
0.0
  0
LINE
  5
1B2
330
1A5
100
AcDbEntity
  8
AM_9
100
AcDbLine
 10
0.1262953713852307
 20
2.197303705469726
 30
0.0
 11
0.1262953713852307
 21
2.126406708468514
 31
0.0
  0
LWPOLYLINE
  5
1B3
330
1A5
100
AcDbEntity
  8
AM_9
100
AcDbPolyline
 90
        3
 70
     0
 43
0.0
 10
0.0000000000000001
 20
2.118553936779898
 10
0.0631476856926154
 20
2.120626665340667
 10
0.1262953713852307
 20
2.126406708468514
  0
LWPOLYLINE
  5
1B4
330
1A5
100
AcDbEntity
  8
AM_9
100
AcDbPolyline
 90
        4
 70
     0
 43
0.0
 10
-0.1262953713852306
 20
2.126406708468514
 10
-0.0967996321117977
 20
2.123301845294376
 10
-0.0485424412477543
 20
2.119788740259831
 10
0.0000000000000001
 20
2.118553936779898
  0
ELLIPSE
  5
1B5
330
1A5
100
AcDbEntity
  8
AM_9
100
AcDbEllipse
 10
-0.0000000000000002
 20
2.009178936779897
 30
0.0
 11
0.2187499999999996
 21
0.0
 31
0.0
210
0.0
220
0.0
230
1.0
 40
0.500000000000003
 41
1.570796326794897
 42
2.617993877991493
  0
LWPOLYLINE
  5
1B6
330
1A5
100
AcDbEntity
  8
AM_9
100
AcDbPolyline
 90
        3
 70
     0
 43
0.0
 10
-0.1894430570778459
 20
2.063866436779898
 10
-0.1578692142315382
 20
2.093282915340667
 10
-0.1262953713852306
 20
2.126406708468514
  0
LWPOLYLINE
  5
1B7
330
1A5
100
AcDbEntity
  8
AM_9
100
AcDbPolyline
 90
        3
 70
     0
 43
0.0
 10
0.1262953713852307
 20
2.126406708468514
 10
0.1577272497321277
 20
2.093424171587265
 10
0.189443057077846
 20
2.063866436779898
  0
LWPOLYLINE
  5
1B8
330
1A5
100
AcDbEntity
  8
AM_9
100
AcDbPolyline
 90
        3
 70
     0
 43
0.0
 10
0.1018642058435938
 20
2.199922678943108
 10
0.0634316146914368
 20
2.203065437213899
 10
0.0000000000000001
 20
2.205156477158341
  0
LINE
  5
1B9
330
1A5
100
AcDbEntity
  8
AM_9
100
AcDbLine
 10
0.1050470645306125
 20
2.199606912268561
 30
0.0
 11
0.1018642058435938
 21
2.199922678943108
 31
0.0
  0
LINE
  5
1BA
330
1A5
100
AcDbEntity
  8
AM_9
100
AcDbLine
 10
-0.1018610490843368
 20
2.199922988168491
 30
0.0
 11
-0.1050087569988762
 21
2.199610759773071
 31
0.0
  0
LWPOLYLINE
  5
1BB
330
1A5
100
AcDbEntity
  8
AM_9
100
AcDbPolyline
 90
        4
 70
     0
 43
0.0
 10
0.0000000000000001
 20
2.205156477158341
 10
-0.0483998160558988
 20
2.203928833565894
 10
-0.0967996321117978
 20
2.200408568643863
 10
-0.1018610490843368
 20
2.199922988168491
  0
LWPOLYLINE
  5
1BC
330
1A5
100
AcDbEntity
  8
AM_9
100
AcDbPolyline
 90
        3
 70
     0
 43
0.0
 10
0.189443057077846
 20
2.063866436779898
 10
0.2210168999241537
 20
2.038595415340667
 10
0.2525907427704613
 20
2.017031708468514
  0
LWPOLYLINE
  5
1BD
330
1A5
100
AcDbEntity
  8
AM_9
100
AcDbPolyline
 90
        3
 70
     0
 43
0.0
 10
-0.2525907427704611
 20
2.017031708468514
 10
-0.2211588644235642
 20
2.038490781861415
 10
-0.1894430570778459
 20
2.063866436779898
  0
ELLIPSE
  5
1BE
330
1A5
100
AcDbEntity
  8
AM_9
100
AcDbEllipse
 10
0.0
 20
1.779682204777021
 30
0.0
 11
0.161902872472269
 21
0.0
 31
0.0
210
0.0
220
0.0
230
1.0
 40
0.5000000000000002
 41
5.667705598509201
 42
10.04025766943976
  0
LINE
  5
1BF
330
1A5
100
AcDbEntity
  8
AM_9
100
AcDbLine
 10
0.1321931418159854
 20
1.732944871274802
 30
0.0
 11
0.1621706131788416
 21
1.754142144558303
 31
0.0
  0
LINE
  5
1C0
330
1A5
100
AcDbEntity
  8
AM_9
100
AcDbLine
 10
-0.1621706131788415
 20
1.754142144558303
 30
0.0
 11
-0.1321931418159852
 21
1.732944871274802
 31
0.0
  0
ELLIPSE
  5
1C1
330
1A5
100
AcDbEntity
  8
AM_9
100
AcDbEllipse
 10
-0.0000000000000019
 20
1.811478114702272
 30
0.0
 11
0.1986176267812173
 21
0.0
 31
0.0
210
0.0
220
0.0
230
1.0
 40
0.4999999999999974
 41
5.667705598509215
 42
6.26514123047515
  0
ELLIPSE
  5
1C2
330
1A5
100
AcDbEntity
  8
AM_9
100
AcDbEllipse
 10
0.0000000000000001
 20
1.779682204777021
 30
0.0
 11
0.1619028724722689
 21
0.0
 31
0.0
210
0.0
220
0.0
230
1.0
 40
0.4999999999999978
 41
3.757072362260178
 42
5.667705598509201
  0
ELLIPSE
  5
1C3
330
1A5
100
AcDbEntity
  8
AM_9
100
AcDbEllipse
 10
0.0000000000000002
 20
2.009178936779898
 30
0.0
 11
0.2187500000000001
 21
0.0
 31
0.0
210
0.0
220
0.0
230
1.0
 40
0.4999999999999997
 41
2.617993877991498
 42
4.71238898038469
  0
ELLIPSE
  5
1C4
330
1A5
100
AcDbEntity
  8
AM_9
100
AcDbEllipse
 10
0.0
 20
1.811478114702273
 30
0.0
 11
0.1986176267812153
 21
0.0
 31
0.0
210
0.0
220
0.0
230
1.0
 40
0.5000000000000026
 41
0.0
 42
5.667705598509201
  0
LINE
  5
1C5
330
1A5
100
AcDbEntity
  8
AM_9
100
AcDbLine
 10
0.1985852938306409
 20
1.809686276093453
 30
0.0
 11
0.2057184028850728
 21
2.007322736002268
 31
0.0
  0
LINE
  5
1C6
330
1A5
100
AcDbEntity
  8
AM_9
100
AcDbLine
 10
-0.2057184028850727
 20
2.007322736002268
 30
0.0
 11
-0.1985852938306407
 21
1.809686276093453
 31
0.0
  0
ELLIPSE
  5
1C7
330
1A5
100
AcDbEntity
  8
AM_9
100
AcDbEllipse
 10
-0.0000000000009861
 20
1.811478114704772
 30
0.0
 11
0.1986176267822016
 21
2.959633272621060E-9
 31
0.0
210
0.0
220
0.0
230
1.0
 40
0.5000000000001648
 41
6.265141200655028
 42
6.283187026699269
  0
ELLIPSE
  5
1C8
330
1A5
100
AcDbEntity
  8
AM_9
100
AcDbEllipse
 10
0.0000000000000002
 20
2.009178936779898
 30
0.0
 11
0.2187499999999995
 21
3.259629011154168E-9
 31
0.0
210
0.0
220
0.0
230
1.0
 40
0.5000000000000031
 41
4.71238898038469
 42
7.853981633974483
  0
LINE
  5
1C9
330
1A5
100
AcDbEntity
  8
AM_9
100
AcDbLine
 10
-0.10178102724221
 20
2.199614310944185
 30
0.0
 11
-0.1049999999999999
 21
2.193311916304657
 31
0.0
  0
LINE
  5
1CA
330
1A5
100
AcDbEntity
  8
AM_9
100
AcDbLine
 10
0.1050000000000001
 20
2.193311916304657
 30
0.0
 11
0.1017810272422101
 21
2.199614310944185
 31
0.0
  0
ELLIPSE
  5
1CB
330
1A5
100
AcDbEntity
  8
AM_9
100
AcDbEllipse
 10
0.0000000000000001
 20
2.186714144555708
 30
0.0
 11
0.1050000000000001
 21
0.0
 31
0.0
210
0.0
220
0.0
230
1.0
 40
0.4999999999999973
 41
0.2500328930988021
 42
3.141592653589793
  0
ELLIPSE
  5
1CC
330
1A5
100
AcDbEntity
  8
AM_9
100
AcDbEllipse
 10
-0.0000000000000004
 20
2.158787528684642
 30
0.0
 11
0.118820090734898
 21
1.770557325108321E-9
 31
0.0
210
0.0
220
0.0
230
1.0
 40
0.500000000000008
 41
0.2500328646649805
 42
2.535447490846891
  0
ELLIPSE
  5
1CD
330
1A5
100
AcDbEntity
  8
AM_9
100
AcDbEllipse
 10
-0.0000000000000019
 20
2.186714144555694
 30
0.0
 11
0.1050000000000019
 21
1.564621925354033E-9
 31
0.0
210
0.0
220
0.0
230
1.0
 40
0.5000000000000097
 41
0.0000017195196831
 42
0.2500328646651882
  0
LINE
  5
1CE
330
1A5
100
AcDbEntity
  8
AM_9
100
AcDbLine
 10
0.1050000000000001
 20
2.204952373368167
 30
0.0
 11
0.1050000000000001
 21
2.212694906669241
 31
0.0
  0
LINE
  5
1CF
330
1A5
100
AcDbEntity
  8
AM_9
100
AcDbLine
 10
-0.1049999999999999
 20
2.212694906669241
 30
0.0
 11
-0.1049999999999999
 21
2.204952373368167
 31
0.0
  0
ELLIPSE
  5
1D0
330
1A5
100
AcDbEntity
  8
AM_9
100
AcDbEllipse
 10
0.0000000000000006
 20
2.212694906669245
 30
0.0
 11
0.1050000000000005
 21
0.0
 31
0.0
210
0.0
220
0.0
230
1.0
 40
0.4999999999999996
 41
3.141592653589793
 42
3.434435425318452
  0
LINE
  5
1D1
330
1A5
100
AcDbEntity
  8
AM_9
100
AcDbLine
 10
-0.0976523208201057
 20
2.19263364441709
 30
0.0
 11
-0.1098343496897826
 21
2.18384679129024
 31
0.0
  0
LINE
  5
1D2
330
1A5
100
AcDbEntity
  8
AM_9
100
AcDbLine
 10
0.1098343496897827
 20
2.18384679129024
 30
0.0
 11
0.0976523208201058
 21
2.19263364441709
 31
0.0
  0
ELLIPSE
  5
1D3
330
1A5
100
AcDbEntity
  8
AM_9
100
AcDbEllipse
 10
0.0000000000000005
 20
2.158787528684642
 30
0.0
 11
0.118820090734898
 21
0.0
 31
0.0
210
0.0
220
0.0
230
1.0
 40
0.5000000000000083
 41
2.535447513394688
 42
2.891559760490965
  0
ELLIPSE
  5
1D4
330
1A5
100
AcDbEntity
  8
AM_9
100
AcDbEllipse
 10
0.0000000000000001
 20
2.111645502446313
 30
0.0
 11
0.1725340532830152
 21
2.570957739398110E-9
 31
0.0
210
0.0
220
0.0
230
1.0
 40
0.4999999999999997
 41
0.6061451176472872
 42
2.535447490846922
  0
ELLIPSE
  5
1D5
330
1A5
100
AcDbEntity
  8
AM_9
100
AcDbEllipse
 10
0.0000000000000012
 20
2.095781477158338
 30
0.0
 11
0.2187499999999951
 21
0.0
 31
0.0
210
0.0
220
0.0
230
1.0
 40
0.5000000000000274
 41
1.065244638251231
 42
1.570796326794897
  0
ELLIPSE
  5
1D6
330
1A5
100
AcDbEntity
  8
AM_9
100
AcDbEllipse
 10
-0.0000000000000011
 20
2.095781477158338
 30
0.0
 11
0.2187499999999949
 21
3.259629011154099E-9
 31
0.0
210
0.0
220
0.0
230
1.0
 40
0.5000000000000259
 41
1.570796326794897
 42
2.076348002645673
  0
ELLIPSE
  5
1D7
330
1A5
100
AcDbEntity
  8
AM_9
100
AcDbEllipse
 10
-0.0000000000011286
 20
2.095781477159025
 30
0.0
 11
0.2137499999977131
 21
0.0
 31
0.0
210
0.0
220
0.0
230
1.0
 40
0.5000000000012714
 41
-4.198889882953824
 42
-4.184564777757497
  0
ELLIPSE
  5
1D8
330
1A5
100
AcDbEntity
  8
AM_9
100
AcDbEllipse
 10
-0.0000000000001584
 20
2.095781477161551
 30
0.0
 11
0.2137499999996745
 21
0.0
 31
0.0
210
0.0
220
0.0
230
1.0
 40
0.4999999999874317
 41
-4.217356306592681
 42
-4.198889882950103
  0
ELLIPSE
  5
1D9
330
1A5
100
AcDbEntity
  8
AM_9
100
AcDbEllipse
 10
0.0000000000000001
 20
2.095781477158341
 30
0.0
 11
0.2137499999999986
 21
0.0
 31
0.0
210
0.0
220
0.0
230
1.0
 40
0.5000000000000058
 41
1.075763653005988
 42
2.065829000583805
  0
ELLIPSE
  5
1DA
330
1A5
100
AcDbEntity
  8
AM_9
100
AcDbEllipse
 10
0.0000000000001221
 20
2.095781477161519
 30
0.0
 11
0.2137499999997481
 21
0.0
 31
0.0
210
0.0
220
0.0
230
1.0
 40
0.4999999999874321
 41
1.042972124163921
 42
1.075763653002877
  0
ELLIPSE
  5
1DB
330
1A5
100
AcDbEntity
  8
AM_9
100
AcDbEllipse
 10
0.0000000000000001
 20
2.212694906669241
 30
0.0
 11
0.1050000000000001
 21
0.0
 31
0.0
210
0.0
220
0.0
230
1.0
 40
0.5000000000000017
 41
5.990342535451017
 42
9.42477796076938
  0
ELLIPSE
  5
1DC
330
1A5
100
AcDbEntity
  8
AM_9
100
AcDbEllipse
 10
0.0
 20
2.264656430896307
 30
0.0
 11
0.1349999999999999
 21
0.0
 31
0.0
210
0.0
220
0.0
230
1.0
 40
0.5000000000000029
 41
0.2354336045415577
 42
2.906159049048235
  0
ELLIPSE
  5
1DD
330
1A5
100
AcDbEntity
  8
AM_9
100
AcDbEllipse
 10
0.0
 20
2.009178936779898
 30
0.0
 11
0.2057518972230695
 21
0.0
 31
0.0
210
0.0
220
0.0
230
1.0
 40
0.5000000000000062
 41
0.0
 42
6.283185307179586
  0
LWPOLYLINE
  5
1DE
330
1A5
100
AcDbEntity
  8
AM_4
100
AcDbPolyline
 90
        3
 70
     0
 43
0.0
 10
0.189443057077846
 20
2.150468977158341
 10
0.1578692142315384
 20
2.175739998597572
 10
0.1262953713852307
 20
2.197303705469726
  0
LINE
  5
1DF
330
1A5
100
AcDbEntity
  8
AM_4
100
AcDbLine
 10
0.1262953713852307
 20
2.197303705469726
 30
0.0
 11
0.1050470645306125
 21
2.199606912268561
 31
0.0
  0
LWPOLYLINE
  5
1E0
330
1A5
100
AcDbEntity
  8
AM_4
100
AcDbPolyline
 90
        3
 70
     0
 43
0.0
 10
-0.1262953713852306
 20
2.197303705469726
 10
-0.1577272497321275
 20
2.175844632076824
 10
-0.1894430570778459
 20
2.150468977158341
  0
LINE
  5
1E1
330
1A5
100
AcDbEntity
  8
AM_4
100
AcDbLine
 10
-0.1050087569988762
 20
2.199610759773071
 30
0.0
 11
-0.1262953713852306
 21
2.197303705469726
 31
0.0
  0
LWPOLYLINE
  5
1E2
330
1A5
100
AcDbEntity
  8
AM_4
100
AcDbPolyline
 90
        3
 70
     0
 43
0.0
 10
0.2525907427704613
 20
2.087928705469725
 10
0.2211588644235644
 20
2.120911242350974
 10
0.189443057077846
 20
2.150468977158341
  0
LWPOLYLINE
  5
1E3
330
1A5
100
AcDbEntity
  8
AM_4
100
AcDbPolyline
 90
        3
 70
     0
 43
0.0
 10
-0.1894430570778459
 20
2.150468977158341
 10
-0.2210168999241535
 20
2.121052498597572
 10
-0.2525907427704611
 20
2.087928705469725
  0
LINE
  5
1E4
330
1A5
100
AcDbEntity
  8
AM_4
100
AcDbLine
 10
-0.1049999999999999
 20
2.193311916304657
 30
0.0
 11
-0.1151252948555657
 21
2.173487702549843
 31
0.0
  0
LINE
  5
1E5
330
1A5
100
AcDbEntity
  8
AM_4
100
AcDbLine
 10
0.1151252948555658
 20
2.173487702549843
 30
0.0
 11
0.1050000000000001
 21
2.193311916304657
 31
0.0
  0
ELLIPSE
  5
1E6
330
1A5
100
AcDbEntity
  8
AM_4
100
AcDbEllipse
 10
0.0000000000000001
 20
2.158787528684644
 30
0.0
 11
0.1188200907348976
 21
0.0
 31
0.0
210
0.0
220
0.0
230
1.0
 40
0.4999999999999988
 41
2.891559760490988
 42
6.283185307179586
  0
LINE
  5
1E7
330
1A5
100
AcDbEntity
  8
AM_4
100
AcDbLine
 10
0.1050000000000001
 20
2.186714144555708
 30
0.0
 11
0.1050000000000001
 21
2.204952373368167
 31
0.0
  0
LINE
  5
1E8
330
1A5
100
AcDbEntity
  8
AM_4
100
AcDbLine
 10
-0.1049999999999999
 20
2.204952373368167
 30
0.0
 11
-0.1049999999999999
 21
2.186714144555708
 31
0.0
  0
ELLIPSE
  5
1E9
330
1A5
100
AcDbEntity
  8
AM_4
100
AcDbEllipse
 10
0.0000000000000001
 20
2.186714144555708
 30
0.0
 11
0.1049999999999999
 21
0.0
 31
0.0
210
0.0
220
0.0
230
1.0
 40
0.5000000000000024
 41
3.141592653589793
 42
6.283185307179586
  0
ELLIPSE
  5
1EA
330
1A5
100
AcDbEntity
  8
AM_4
100
AcDbEllipse
 10
0.0000000000000002
 20
2.158787528684643
 30
0.0
 11
0.1188200907348974
 21
1.770557325108311E-9
 31
0.0
210
0.0
220
0.0
230
1.0
 40
0.5000000000000034
 41
0.0000017195196831
 42
0.2500328646649764
  0
LINE
  5
1EB
330
1A5
100
AcDbEntity
  8
AM_4
100
AcDbLine
 10
-0.1098343496897826
 20
2.18384679129024
 30
0.0
 11
-0.1417971541629017
 21
2.160792136648383
 31
0.0
  0
LINE
  5
1EC
330
1A5
100
AcDbEntity
  8
AM_4
100
AcDbLine
 10
0.1417971541629018
 20
2.160792136648383
 30
0.0
 11
0.1098343496897827
 21
2.18384679129024
 31
0.0
  0
ELLIPSE
  5
1ED
330
1A5
100
AcDbEntity
  8
AM_4
100
AcDbEllipse
 10
0.0000000000000001
 20
2.111645502446312
 30
0.0
 11
0.1725340532830152
 21
2.570957739398110E-9
 31
0.0
210
0.0
220
0.0
230
1.0
 40
0.4999999999999995
 41
2.535447490846909
 42
6.28318702669927
  0
LWPOLYLINE
  5
1EE
330
1A5
100
AcDbEntity
  8
AM_4
100
AcDbPolyline
 90
        4
 70
     0
 43
0.0
 10
-0.1262953713852306
 20
1.978553705469725
 10
-0.0967996321117977
 20
1.981658568643863
 10
-0.0485424412477543
 20
1.985171673678408
 10
0.0000000000000001
 20
1.986406477158341
  0
LWPOLYLINE
  5
1EF
330
1A5
100
AcDbEntity
  8
AM_4
100
AcDbPolyline
 90
        4
 70
     0
 43
0.0
 10
0.0000000000000001
 20
1.899803936779898
 10
-0.0483998160558988
 20
1.901031580372345
 10
-0.0967996321117977
 20
1.904551845294376
 10
-0.1262953713852306
 20
1.907656708468514
  0
LWPOLYLINE
  5
1F0
330
1A5
100
AcDbEntity
  8
AM_4
100
AcDbPolyline
 90
        3
 70
     0
 43
0.0
 10
0.1262953713852307
 20
1.907656708468514
 10
0.0634316146914368
 20
1.90189497672434
 10
0.0000000000000001
 20
1.899803936779898
  0
ELLIPSE
  5
1F1
330
1A5
100
AcDbEntity
  8
AM_4
100
AcDbEllipse
 10
-0.0000000000000005
 20
2.095781477158341
 30
0.0
 11
0.2187499999999989
 21
0.0
 31
0.0
210
0.0
220
0.0
230
1.0
 40
0.5000000000000026
 41
3.665191429188091
 42
4.71238898038469
  0
ELLIPSE
  5
1F2
330
1A5
100
AcDbEntity
  8
AM_4
100
AcDbEllipse
 10
0.0000000000000005
 20
2.095781477158341
 30
0.0
 11
0.2187499999999995
 21
3.259629011154168E-9
 31
0.0
210
0.0
220
0.0
230
1.0
 40
0.5000000000000011
 41
4.71238898038469
 42
7.348429932737931
  0
ELLIPSE
  5
1F3
330
1A5
100
AcDbEntity
  8
AM_4
100
AcDbEllipse
 10
-0.0000000000000011
 20
2.09578147715834
 30
0.0
 11
0.2187499999999986
 21
0.0
 31
0.0
210
0.0
220
0.0
230
1.0
 40
0.5000000000000072
 41
2.076348015338555
 42
2.617993877991488
  0
ELLIPSE
  5
1F4
330
1A5
100
AcDbEntity
  8
AM_4
100
AcDbEllipse
 10
0.0000000000000006
 20
2.095781477158341
 30
0.0
 11
0.2187500000000005
 21
0.0
 31
0.0
210
0.0
220
0.0
230
1.0
 40
0.4999999999999988
 41
2.617993877991491
 42
3.665191429188088
  0
LINE
  5
1F5
330
1A5
100
AcDbEntity
  8
AM_4
100
AcDbLine
 10
-0.1262953713852306
 20
1.978553705469725
 30
0.0
 11
-0.1262953713852306
 21
1.907656708468514
 31
0.0
  0
LWPOLYLINE
  5
1F6
330
1A5
100
AcDbEntity
  8
AM_4
100
AcDbPolyline
 90
        3
 70
     0
 43
0.0
 10
-0.1894430570778459
 20
2.041093977158341
 10
-0.1578692142315383
 20
2.011677498597572
 10
-0.1262953713852306
 20
1.978553705469725
  0
LWPOLYLINE
  5
1F7
330
1A5
100
AcDbEntity
  8
AM_4
100
AcDbPolyline
 90
        3
 70
     0
 43
0.0
 10
-0.2525907427704611
 20
2.087928705469725
 10
-0.2211588644235642
 20
2.066469632076824
 10
-0.1894430570778459
 20
2.041093977158341
  0
LINE
  5
1F8
330
1A5
100
AcDbEntity
  8
AM_4
100
AcDbLine
 10
-0.2525907427704611
 20
2.087928705469725
 30
0.0
 11
-0.2525907427704611
 21
2.017031708468514
 31
0.0
  0
LWPOLYLINE
  5
1F9
330
1A5
100
AcDbEntity
  8
AM_4
100
AcDbPolyline
 90
        3
 70
     0
 43
0.0
 10
-0.1894430570778459
 20
1.954491436779898
 10
-0.2210168999241535
 20
1.983907915340667
 10
-0.2525907427704611
 20
2.017031708468514
  0
LWPOLYLINE
  5
1FA
330
1A5
100
AcDbEntity
  8
AM_4
100
AcDbPolyline
 90
        3
 70
     0
 43
0.0
 10
-0.1262953713852306
 20
1.907656708468514
 10
-0.1577272497321275
 20
1.929115781861415
 10
-0.1894430570778459
 20
1.954491436779898
  0
LWPOLYLINE
  5
1FB
330
1A5
100
AcDbEntity
  8
AM_4
100
AcDbPolyline
 90
        3
 70
     0
 43
0.0
 10
0.0000000000000001
 20
1.986406477158341
 10
0.0631476856926154
 20
1.984333748597572
 10
0.1262953713852307
 20
1.978553705469725
  0
LINE
  5
1FC
330
1A5
100
AcDbEntity
  8
AM_4
100
AcDbLine
 10
0.2525907427704613
 20
2.087928705469725
 30
0.0
 11
0.2525907427704613
 21
2.017031708468514
 31
0.0
  0
LWPOLYLINE
  5
1FD
330
1A5
100
AcDbEntity
  8
AM_4
100
AcDbPolyline
 90
        3
 70
     0
 43
0.0
 10
0.189443057077846
 20
2.041093977158341
 10
0.2210168999241536
 20
2.066364998597572
 10
0.2525907427704613
 20
2.087928705469725
  0
LWPOLYLINE
  5
1FE
330
1A5
100
AcDbEntity
  8
AM_4
100
AcDbPolyline
 90
        3
 70
     0
 43
0.0
 10
0.1262953713852307
 20
1.978553705469725
 10
0.1577272497321276
 20
2.011536242350974
 10
0.189443057077846
 20
2.041093977158341
  0
LINE
  5
1FF
330
1A5
100
AcDbEntity
  8
AM_4
100
AcDbLine
 10
0.1262953713852307
 20
1.978553705469725
 30
0.0
 11
0.1262953713852307
 21
1.907656708468514
 31
0.0
  0
LWPOLYLINE
  5
200
330
1A5
100
AcDbEntity
  8
AM_4
100
AcDbPolyline
 90
        3
 70
     0
 43
0.0
 10
0.189443057077846
 20
1.954491436779898
 10
0.1578692142315384
 20
1.929220415340667
 10
0.1262953713852307
 20
1.907656708468514
  0
LWPOLYLINE
  5
201
330
1A5
100
AcDbEntity
  8
AM_4
100
AcDbPolyline
 90
        3
 70
     0
 43
0.0
 10
0.2525907427704613
 20
2.017031708468514
 10
0.2211588644235643
 20
1.984049171587265
 10
0.189443057077846
 20
1.954491436779898
  0
ELLIPSE
  5
202
330
1A5
100
AcDbEntity
  8
AM_4
100
AcDbEllipse
 10
0.0000000000000012
 20
2.111645502446309
 30
0.0
 11
0.1725340532830144
 21
0.0
 31
0.0
210
0.0
220
0.0
230
1.0
 40
0.5000000000000047
 41
0.0
 42
0.6061451401951146
  0
ELLIPSE
  5
203
330
1A5
100
AcDbEntity
  8
AM_4
100
AcDbEllipse
 10
0.0000000000000001
 20
2.095781477158341
 30
0.0
 11
0.21375
 21
3.185123205184937E-9
 31
0.0
210
0.0
220
0.0
230
1.0
 40
0.5000000000000003
 41
2.098620516301818
 42
7.326157418226547
  0
LINE
  5
204
330
1A5
100
AcDbEntity
  8
AM_4
100
AcDbLine
 10
0.1005298463144156
 20
2.197539462103013
 30
0.0
 11
0.1292526595471057
 21
2.245170859311157
 31
0.0
  0
LINE
  5
205
330
1A5
100
AcDbEntity
  8
AM_4
100
AcDbLine
 10
-0.1292526595471056
 20
2.245170859311157
 30
0.0
 11
-0.1005298463144154
 21
2.197539462103013
 31
0.0
  0
ELLIPSE
  5
206
330
1A5
100
AcDbEntity
  8
AM_4
100
AcDbEllipse
 10
0.0000000000000001
 20
2.212694906669241
 30
0.0
 11
0.1049999999999998
 21
1.564621925354002E-9
 31
0.0
210
0.0
220
0.0
230
1.0
 40
0.4999999999999942
 41
3.434435397378689
 42
5.990342507511335
  0
ELLIPSE
  5
207
330
1A5
100
AcDbEntity
  8
AM_4
100
AcDbEllipse
 10
0.0000000000000052
 20
2.264656430896332
 30
0.0
 11
0.1349999999999949
 21
0.0
 31
0.0
210
0.0
220
0.0
230
1.0
 40
0.4999999999999784
 41
3.434435425318718
 42
6.518618911720813
  0
LINE
  5
208
330
1A5
100
AcDbEntity
  8
AM_4
100
AcDbLine
 10
-0.0998453562378796
 20
2.34591402564026
 30
0.0
 11
-0.1312757938985218
 21
2.280401794787885
 31
0.0
  0
LINE
  5
209
330
1A5
100
AcDbEntity
  8
AM_4
100
AcDbLine
 10
0.131275793898522
 20
2.280401794787885
 30
0.0
 11
0.0998453562378798
 21
2.34591402564026
 31
0.0
  0
ELLIPSE
  5
20A
330
1A5
100
AcDbEntity
  8
AM_4
100
AcDbEllipse
 10
0.0000000000000012
 20
2.264656430896313
 30
0.0
 11
0.1350000000000011
 21
0.0
 31
0.0
210
0.0
220
0.0
230
1.0
 40
0.5000000000000017
 41
2.906159049048326
 42
3.434435425318453
  0
ELLIPSE
  5
20B
330
1A5
100
AcDbEntity
  8
AM_4
100
AcDbEllipse
 10
-0.0000000000000044
 20
2.333938463199078
 30
0.0
 11
0.102677901933192
 21
0.0
 31
0.0
210
0.0
220
0.0
230
1.0
 40
0.4999999999999744
 41
0.0
 42
6.283185307179586
  0
ENDBLK
  5
1A8
330
1A5
100
AcDbEntity
  8
0
100
AcDbBlockEnd
  0
BLOCK
  5
20E
330
20C
100
AcDbEntity
  8
0
100
AcDbBlockBegin
  2
7_071189Ho_0_in_071189_2
 70
     2
 10
0.0
 20
0.0
 30
0.0
  3
7_071189Ho_0_in_071189_2
  1

  0
ATTDEF
  5
210
330
20C
100
AcDbEntity
  8
AM_6
100
AcDbText
 10
6.245
 20
2.222576396401453
 30
0.0
 40
0.5
  1
EP2B-IP -(Labyrinth Seal)-Housing -Inch
100
AcDbAttributeDefinition
  3

  2
NN
 70
     8
280
     0
  0
ATTDEF
  5
211
330
20C
100
AcDbEntity
  8
AM_6
100
AcDbText
 10
6.245
 20
1.722576396401453
 30
0.0
 40
0.5
  1
Imperial/E 2 Bolt Piliow Block Bearings
100
AcDbAttributeDefinition
  3

  2
NT
 70
     8
280
     0
  0
ATTDEF
  5
212
330
20C
100
AcDbEntity
  8
AM_6
100
AcDbText
 10
6.245
 20
1.222576396401453
 30
0.0
 40
0.5
  1
071189Ho
100
AcDbAttributeDefinition
  3

  2
NB
 70
     8
280
     0
  0
ATTDEF
  5
213
330
20C
100
AcDbEntity
  8
AM_6
100
AcDbText
 10
6.245
 20
0.7225763964014531
 30
0.0
 40
0.5
  1
$PN.Ho
100
AcDbAttributeDefinition
  3

  2
NBSYN
 70
     8
280
     0
  0
ATTDEF
  5
214
330
20C
100
AcDbEntity
  8
AM_6
100
AcDbText
 10
6.245
 20
0.2225763964014531
 30
0.0
 40
0.5
  1
071189
100
AcDbAttributeDefinition
  3

  2
LINA
 70
     8
280
     0
  0
ATTDEF
  5
215
330
20C
100
AcDbEntity
  8
AM_6
100
AcDbText
 10
6.245
 20
-0.2774236035985469
 30
0.0
 40
0.5
  1
1-7/8
100
AcDbAttributeDefinition
  3

  2
SS
 70
     8
280
     0
  0
ATTDEF
  5
216
330
20C
100
AcDbEntity
  8
AM_6
100
AcDbText
 10
6.245
 20
-0.7774236035985469
 30
0.0
 40
0.5
  1
1.875000
100
AcDbAttributeDefinition
  3

  2
SS1
 70
     8
280
     0
  0
ATTDEF
  5
217
330
20C
100
AcDbEntity
  8
AM_6
100
AcDbText
 10
6.245
 20
-1.277423603598547
 30
0.0
 40
0.5
  1
Expansion
100
AcDbAttributeDefinition
  3

  2
TYPE
 70
     8
280
     0
  0
ATTDEF
  5
218
330
20C
100
AcDbEntity
  8
AM_6
100
AcDbText
 10
6.245
 20
-1.777423603598547
 30
0.0
 40
0.5
  1
071168
100
AcDbAttributeDefinition
  3

  2
PN1
 70
     8
280
     0
  0
ATTDEF
  5
219
330
20C
100
AcDbEntity
  8
AM_6
100
AcDbText
 10
6.245
 20
-2.277423603598547
 30
0.0
 40
0.5
  1
071189
100
AcDbAttributeDefinition
  3

  2
PN2
 70
     8
280
     0
  0
ATTDEF
  5
21A
330
20C
100
AcDbEntity
  8
AM_6
100
AcDbText
 10
6.245
 20
-2.777423603598547
 30
0.0
 40
0.5
  1
EP2B-IP-114L
100
AcDbAttributeDefinition
  3

  2
DES1
 70
     8
280
     0
  0
ATTDEF
  5
21B
330
20C
100
AcDbEntity
  8
AM_6
100
AcDbText
 10
6.245
 20
-3.277423603598547
 30
0.0
 40
0.5
  1
Non-Expansion Type
100
AcDbAttributeDefinition
  3

  2
EF
 70
     8
280
     0
  0
ATTDEF
  5
21C
330
20C
100
AcDbEntity
  8
AM_6
100
AcDbText
 10
6.245
 20
-3.777423603598547
 30
0.0
 40
0.5
  1
1
100
AcDbAttributeDefinition
  3

  2
EF1
 70
     8
280
     0
  0
ATTDEF
  5
21D
330
20C
100
AcDbEntity
  8
AM_6
100
AcDbText
 10
6.245
 20
-4.277423603598547
 30
0.0
 40
0.5
  1
Labyrinth Seal
100
AcDbAttributeDefinition
  3

  2
ST
 70
     8
280
     0
  0
ATTDEF
  5
21E
330
20C
100
AcDbEntity
  8
AM_6
100
AcDbText
 10
6.245
 20
-4.777423603598547
 30
0.0
 40
0.5
  1
1
100
AcDbAttributeDefinition
  3

  2
ST1
 70
     8
280
     0
  0
ATTDEF
  5
21F
330
20C
100
AcDbEntity
  8
AM_6
100
AcDbText
 10
6.245
 20
-5.277423603598547
 30
0.0
 40
0.5
  1
2.86
100
AcDbAttributeDefinition
  3

  2
A
 70
     8
280
     0
  0
ATTDEF
  5
220
330
20C
100
AcDbEntity
  8
AM_6
100
AcDbText
 10
6.245
 20
-5.777423603598547
 30
0.0
 40
0.5
  1
2.8600000
100
AcDbAttributeDefinition
  3

  2
A1
 70
     8
280
     0
  0
ATTDEF
  5
221
330
20C
100
AcDbEntity
  8
AM_6
100
AcDbText
 10
6.245
 20
-6.277423603598547
 30
0.0
 40
0.5
  1
8.87
100
AcDbAttributeDefinition
  3

  2
B
 70
     8
280
     0
  0
ATTDEF
  5
222
330
20C
100
AcDbEntity
  8
AM_6
100
AcDbText
 10
6.245
 20
-6.777423603598547
 30
0.0
 40
0.5
  1
8.8700000
100
AcDbAttributeDefinition
  3

  2
B1
 70
     8
280
     0
  0
ATTDEF
  5
223
330
20C
100
AcDbEntity
  8
AM_6
100
AcDbText
 10
6.245
 20
-7.277423603598547
 30
0.0
 40
0.5
  1
2.49
100
AcDbAttributeDefinition
  3

  2
C
 70
     8
280
     0
  0
ATTDEF
  5
224
330
20C
100
AcDbEntity
  8
AM_6
100
AcDbText
 10
6.245
 20
-7.777423603598547
 30
0.0
 40
0.5
  1
2.4900000
100
AcDbAttributeDefinition
  3

  2
C1
 70
     8
280
     0
  0
ATTDEF
  5
225
330
20C
100
AcDbEntity
  8
AM_6
100
AcDbText
 10
6.245
 20
-8.277423603598546
 30
0.0
 40
0.5
  1
6.88
100
AcDbAttributeDefinition
  3

  2
DMIN
 70
     8
280
     0
  0
ATTDEF
  5
226
330
20C
100
AcDbEntity
  8
AM_6
100
AcDbText
 10
6.245
 20
-8.777423603598546
 30
0.0
 40
0.5
  1
6.8800000
100
AcDbAttributeDefinition
  3

  2
DMIN1
 70
     8
280
     0
  0
ATTDEF
  5
227
330
20C
100
AcDbEntity
  8
AM_6
100
AcDbText
 10
6.245
 20
-9.277423603598546
 30
0.0
 40
0.5
  1
7.12
100
AcDbAttributeDefinition
  3

  2
DMAX
 70
     8
280
     0
  0
ATTDEF
  5
228
330
20C
100
AcDbEntity
  8
AM_6
100
AcDbText
 10
6.245
 20
-9.777423603598546
 30
0.0
 40
0.5
  1
7.1200000
100
AcDbAttributeDefinition
  3

  2
DMAX1
 70
     8
280
     0
  0
ATTDEF
  5
229
330
20C
100
AcDbEntity
  8
AM_6
100
AcDbText
 10
6.245
 20
-10.27742360359855
 30
0.0
 40
0.5
  1
5/8
100
AcDbAttributeDefinition
  3

  2
F
 70
     8
280
     0
  0
ATTDEF
  5
22A
330
20C
100
AcDbEntity
  8
AM_6
100
AcDbText
 10
6.245
 20
-10.77742360359855
 30
0.0
 40
0.5
  1
0.6250000
100
AcDbAttributeDefinition
  3

  2
F1
 70
     8
280
     0
  0
ATTDEF
  5
22B
330
20C
100
AcDbEntity
  8
AM_6
100
AcDbText
 10
6.245
 20
-11.27742360359855
 30
0.0
 40
0.5
  1
0.88
100
AcDbAttributeDefinition
  3

  2
G
 70
     8
280
     0
  0
ATTDEF
  5
22C
330
20C
100
AcDbEntity
  8
AM_6
100
AcDbText
 10
6.245
 20
-11.77742360359855
 30
0.0
 40
0.5
  1
0.880000
100
AcDbAttributeDefinition
  3

  2
G1
 70
     8
280
     0
  0
ATTDEF
  5
22D
330
20C
100
AcDbEntity
  8
AM_6
100
AcDbText
 10
6.245
 20
-12.27742360359855
 30
0.0
 40
0.5
  1
1.31
100
AcDbAttributeDefinition
  3

  2
H
 70
     8
280
     0
  0
ATTDEF
  5
22E
330
20C
100
AcDbEntity
  8
AM_6
100
AcDbText
 10
6.245
 20
-12.77742360359855
 30
0.0
 40
0.5
  1
1.3100000
100
AcDbAttributeDefinition
  3

  2
H1
 70
     8
280
     0
  0
ATTDEF
  5
22F
330
20C
100
AcDbEntity
  8
AM_6
100
AcDbText
 10
6.245
 20
-13.27742360359855
 30
0.0
 40
0.5
  1
4.47
100
AcDbAttributeDefinition
  3

  2
J
 70
     8
280
     0
  0
ATTDEF
  5
230
330
20C
100
AcDbEntity
  8
AM_6
100
AcDbText
 10
6.245
 20
-13.77742360359855
 30
0.0
 40
0.5
  1
4.470000
100
AcDbAttributeDefinition
  3

  2
J1
 70
     8
280
     0
  0
ATTDEF
  5
231
330
20C
100
AcDbEntity
  8
AM_6
100
AcDbText
 10
6.245
 20
-14.27742360359855
 30
0.0
 40
0.5
  1
3.28
100
AcDbAttributeDefinition
  3

  2
L
 70
     8
280
     0
  0
ATTDEF
  5
232
330
20C
100
AcDbEntity
  8
AM_6
100
AcDbText
 10
6.245
 20
-14.77742360359855
 30
0.0
 40
0.5
  1
3.2800000
100
AcDbAttributeDefinition
  3

  2
L1
 70
     8
280
     0
  0
ATTDEF
  5
233
330
20C
100
AcDbEntity
  8
AM_6
100
AcDbText
 10
6.245
 20
-15.27742360359855
 30
0.0
 40
0.5
  1
2.25
100
AcDbAttributeDefinition
  3

  2
M
 70
     8
280
     0
  0
ATTDEF
  5
234
330
20C
100
AcDbEntity
  8
AM_6
100
AcDbText
 10
6.245
 20
-15.77742360359855
 30
0.0
 40
0.5
  1
2.250000
100
AcDbAttributeDefinition
  3

  2
M1
 70
     8
280
     0
  0
ATTDEF
  5
235
330
20C
100
AcDbEntity
  8
AM_6
100
AcDbText
 10
6.245
 20
-16.27742360359855
 30
0.0
 40
0.5
  1
1.1
100
AcDbAttributeDefinition
  3

  2
R
 70
     8
280
     0
  0
ATTDEF
  5
236
330
20C
100
AcDbEntity
  8
AM_6
100
AcDbText
 10
6.245
 20
-16.77742360359855
 30
0.0
 40
0.5
  1
1.100000
100
AcDbAttributeDefinition
  3

  2
R1
 70
     8
280
     0
  0
ATTDEF
  5
237
330
20C
100
AcDbEntity
  8
AM_6
100
AcDbText
 10
6.245
 20
-17.27742360359855
 30
0.0
 40
0.5
  1
1.76
100
AcDbAttributeDefinition
  3

  2
S
 70
     8
280
     0
  0
ATTDEF
  5
238
330
20C
100
AcDbEntity
  8
AM_6
100
AcDbText
 10
6.245
 20
-17.77742360359855
 30
0.0
 40
0.5
  1
1.760000
100
AcDbAttributeDefinition
  3

  2
S1
 70
     8
280
     0
  0
ATTDEF
  5
239
330
20C
100
AcDbEntity
  8
AM_6
100
AcDbText
 10
6.245
 20
-18.27742360359855
 30
0.0
 40
0.5
  1
0.22
100
AcDbAttributeDefinition
  3

  2
X
 70
     8
280
     0
  0
ATTDEF
  5
23A
330
20C
100
AcDbEntity
  8
AM_6
100
AcDbText
 10
6.245
 20
-18.77742360359855
 30
0.0
 40
0.5
  1
0.220000
100
AcDbAttributeDefinition
  3

  2
X1
 70
     8
280
     0
  0
ATTDEF
  5
23B
330
20C
100
AcDbEntity
  8
AM_6
100
AcDbText
 10
6.245
 20
-19.27742360359855
 30
0.0
 40
0.5
  1
0.020
100
AcDbAttributeDefinition
  3

  2
Y
 70
     8
280
     0
  0
ATTDEF
  5
23C
330
20C
100
AcDbEntity
  8
AM_6
100
AcDbText
 10
6.245
 20
-19.77742360359855
 30
0.0
 40
0.5
  1
2.3
100
AcDbAttributeDefinition
  3

  2
Z
 70
     8
280
     0
  0
ATTDEF
  5
23D
330
20C
100
AcDbEntity
  8
AM_6
100
AcDbText
 10
6.245
 20
-20.27742360359855
 30
0.0
 40
0.5
  1
2.300000
100
AcDbAttributeDefinition
  3

  2
Z1
 70
     8
280
     0
  0
ATTDEF
  5
23E
330
20C
100
AcDbEntity
  8
AM_6
100
AcDbText
 10
6.245
 20
-20.77742360359855
 30
0.0
 40
0.5
  1
3.5433
100
AcDbAttributeDefinition
  3

  2
BORE
 70
     8
280
     0
  0
ATTDEF
  5
23F
330
20C
100
AcDbEntity
  8
AM_6
100
AcDbText
 10
6.245
 20
-21.27742360359855
 30
0.0
 40
0.5
  1
baldor
100
AcDbAttributeDefinition
  3

  2
COMPANY
 70
     8
280
     0
  0
LINE
  5
240
330
20C
100
AcDbEntity
  8
AM_9
100
AcDbLine
 10
-0.1140740602769358
 20
2.22
 30
0.0
 11
0.1140740602769362
 21
2.22
 31
0.0
  0
LINE
  5
241
330
20C
100
AcDbEntity
  8
AM_9
100
AcDbLine
 10
-0.3249933992613144
 20
2.1545
 30
0.0
 11
0.3250295353072243
 21
2.1545
 31
0.0
  0
ELLIPSE
  5
242
330
20C
100
AcDbEntity
  8
AM_9
100
AcDbEllipse
 10
-0.0000000000142537
 20
1.92257639639101
 30
0.0
 11
0.4999999999857463
 21
0.0
 31
0.0
210
0.0
220
0.0
230
1.0
 40
0.5000000000003022
 41
3.135981889126616
 42
3.141592653589793
  0
ELLIPSE
  5
243
330
20C
100
AcDbEntity
  8
AM_9
100
AcDbEllipse
 10
0.0000000000000002
 20
1.922576396401454
 30
0.0
 11
0.5000000000000002
 21
0.0
 31
0.0
210
0.0
220
0.0
230
1.0
 40
0.4999999999999487
 41
0.0
 42
3.119887946782808
  0
ELLIPSE
  5
244
330
20C
100
AcDbEntity
  8
AM_9
100
AcDbEllipse
 10
-0.0000000000000045
 20
2.009178936779913
 30
0.0
 11
0.4000000000000286
 21
0.0
 31
0.0
210
0.0
220
0.0
230
1.0
 40
0.4999999999999258
 41
1.309208643565822
 42
1.570796326794897
  0
ELLIPSE
  5
245
330
20C
100
AcDbEntity
  8
AM_9
100
AcDbEllipse
 10
0.0000000000000046
 20
2.009178936779913
 30
0.0
 11
0.4000000000000278
 21
0.0
 31
0.0
210
0.0
220
0.0
230
1.0
 40
0.4999999999999258
 41
1.570796326794897
 42
1.832384010023971
  0
LWPOLYLINE
  5
246
330
20C
100
AcDbEntity
  8
AM_9
100
AcDbPolyline
 90
        5
 70
     0
 43
0.0
 10
0.0
 20
2.222576396401453
 10
-0.017060935616915
 20
2.222414634476277
 10
-0.0489206073341305
 20
2.221243207188081
 10
-0.0806014733015414
 20
2.218940269643746
 10
-0.1114069368956487
 20
2.215581640935921
  0
LWPOLYLINE
  5
247
330
20C
100
AcDbEntity
  8
AM_9
100
AcDbPolyline
 90
        6
 70
     0
 43
0.0
 10
0.1113888602948356
 20
2.215583943800178
 10
0.1038747255998089
 20
2.216507061303198
 10
0.0723560481419899
 20
2.219650416148578
 10
0.0405911694289998
 20
2.221659326399936
 10
0.0086906247534875
 20
2.22253443339304
 10
0.0
 20
2.222576396401453
  0
LINE
  5
248
330
20C
100
AcDbEntity
  8
AM_9
100
AcDbLine
 10
-1.1205
 20
-1.77165
 30
0.0
 11
1.1205
 21
-1.77165
 31
0.0
  0
LINE
  5
249
330
20C
100
AcDbEntity
  8
AM_9
100
AcDbLine
 10
1.1205
 20
1.77165
 30
0.0
 11
-1.1205
 21
1.77165
 31
0.0
  0
LINE
  5
24A
330
20C
100
AcDbEntity
  8
AM_9
100
AcDbLine
 10
-0.3521072320530427
 20
2.140011845177498
 30
0.0
 11
0.352244565472393
 21
2.140011845177498
 31
0.0
  0
LWPOLYLINE
  5
24B
330
20C
100
AcDbEntity
  8
AM_9
100
AcDbPolyline
 90
       14
 70
     0
 43
0.0
 10
-0.0713390198747389
 20
2.121639967836975
 10
-0.1099608456640747
 20
2.119471782368424
 10
-0.1631075931474785
 20
2.114821439528185
 10
-0.2141249612803105
 20
2.108239950312987
 10
-0.262636513933004
 20
2.099658702099807
 10
-0.3077860542914578
 20
2.089069081614684
 10
-0.3497765068084357
 20
2.076135675725354
 10
-0.3875376732353177
 20
2.060948337719338
 10
-0.4203877425969804
 20
2.043576684379876
 10
-0.4482306985093353
 20
2.023706987962397
 10
-0.4704633666861276
 20
2.00156407999537
 10
-0.4866346103152644
 20
1.977419387479992
 10
-0.4966331341203182
 20
1.9508303326212
 10
-0.5
 20
1.922576396401454
  0
LWPOLYLINE
  5
24C
330
20C
100
AcDbEntity
  8
AM_9
100
AcDbPolyline
 90
        5
 70
     0
 43
0.0
 10
0.072434625237107
 20
2.121591898400178
 10
0.0660204329981337
 20
2.121859947116415
 10
0.0
 20
2.123179115834894
 10
-0.0552461437370039
 20
2.122254079802405
 10
-0.0713390198747389
 20
2.121639967836975
  0
LWPOLYLINE
  5
24D
330
20C
100
AcDbEntity
  8
AM_9
100
AcDbPolyline
 90
       14
 70
     0
 43
0.0
 10
0.5000000000000001
 20
1.922576396401454
 10
0.4974378740072023
 20
1.947212006606956
 10
0.4898380438352509
 20
1.97068628453458
 10
0.4773303311938099
 20
1.992674078342324
 10
0.458148020487011
 20
2.01481706520744
 10
0.4334508357491608
 20
2.03500292851439
 10
0.4036975982618381
 20
2.053028616122454
 10
0.3683533312576014
 20
2.069177934034394
 10
0.3283459623210949
 20
2.083158872767737
 10
0.2843888810551944
 20
2.094923682485073
 10
0.2361184222685962
 20
2.104663247798269
 10
0.1846102312157916
 20
2.11231469266062
 10
0.1308366248564413
 20
2.117892089582595
 10
0.072434625237107
 20
2.121591898400178
  0
LINE
  5
24E
330
20C
100
AcDbEntity
  8
AM_9
100
AcDbLine
 10
1.1205
 20
-0.869863644837855
 30
0.0
 11
1.1205
 21
-2.25
 31
0.0
  0
LINE
  5
24F
330
20C
100
AcDbEntity
  8
AM_9
100
AcDbLine
 10
-1.1205
 20
-0.869863644837857
 30
0.0
 11
-1.1205
 21
-2.25
 31
0.0
  0
LINE
  5
250
330
20C
100
AcDbEntity
  8
AM_9
100
AcDbLine
 10
-0.3124999999999998
 20
-0.94
 30
0.0
 11
-0.3124999999999998
 21
-2.25
 31
0.0
  0
LINE
  5
251
330
20C
100
AcDbEntity
  8
AM_9
100
AcDbLine
 10
0.3125000000000002
 20
-0.9400000000000001
 30
0.0
 11
0.3125000000000002
 21
-2.25
 31
0.0
  0
LINE
  5
252
330
20C
100
AcDbEntity
  8
AM_4
100
AcDbLine
 10
0.1140740602769362
 20
2.22
 30
0.0
 11
1.1205
 21
2.22
 31
0.0
  0
LINE
  5
253
330
20C
100
AcDbEntity
  8
AM_4
100
AcDbLine
 10
-1.1205
 20
2.22
 30
0.0
 11
-0.1140740602769358
 21
2.22
 31
0.0
  0
LINE
  5
254
330
20C
100
AcDbEntity
  8
AM_4
100
AcDbLine
 10
0.3250295353072243
 20
2.1545
 30
0.0
 11
1.1205
 21
2.1545
 31
0.0
  0
LINE
  5
255
330
20C
100
AcDbEntity
  8
AM_4
100
AcDbLine
 10
-1.1205
 20
2.1545
 30
0.0
 11
-0.3249933992613144
 21
2.1545
 31
0.0
  0
ELLIPSE
  5
256
330
20C
100
AcDbEntity
  8
AM_4
100
AcDbEllipse
 10
0.0000000000000001
 20
1.922576396401453
 30
0.0
 11
0.4999999999999999
 21
0.0
 31
0.0
210
0.0
220
0.0
230
1.0
 40
0.4999999999999982
 41
3.141592653589793
 42
6.283185307179586
  0
ELLIPSE
  5
257
330
20C
100
AcDbEntity
  8
AM_4
100
AcDbEllipse
 10
0.0000000000007386
 20
2.009178936780186
 30
0.0
 11
0.399999999997329
 21
0.0
 31
0.0
210
0.0
220
0.0
230
1.0
 40
0.5000000000024
 41
1.275536707775111
 42
1.305184177224881
  0
ELLIPSE
  5
258
330
20C
100
AcDbEntity
  8
AM_4
100
AcDbEllipse
 10
0.0000000000002107
 20
2.009178936779585
 30
0.0
 11
0.3999999999993083
 21
0.0
 31
0.0
210
0.0
220
0.0
230
1.0
 40
0.5000000000015268
 41
1.897105785442592
 42
7.558722014954795
  0
ELLIPSE
  5
259
330
20C
100
AcDbEntity
  8
AM_4
100
AcDbEllipse
 10
-0.0000000000007122
 20
2.009178936781813
 30
0.0
 11
0.399999999997736
 21
0.0
 31
0.0
210
0.0
220
0.0
230
1.0
 40
0.4999999999980053
 41
-4.399445421083164
 42
-4.386079521737747
  0
ELLIPSE
  5
25A
330
20C
100
AcDbEntity
  8
AM_4
100
AcDbEllipse
 10
-0.0000000000002322
 20
2.009178936780016
 30
0.0
 11
0.3999999999991811
 21
0.0
 31
0.0
210
0.0
220
0.0
230
1.0
 40
0.5000000000006621
 41
-4.446776830814557
 42
-4.399445421083233
  0
LWPOLYLINE
  5
25B
330
20C
100
AcDbEntity
  8
AM_4
100
AcDbPolyline
 90
       23
 70
     0
 43
0.0
 10
-0.1114069368956487
 20
2.215581640935921
 10
-0.1119901187739351
 20
2.215507134193197
 10
-0.1429794207639901
 20
2.210944377619109
 10
-0.1734645680062378
 20
2.205251283121576
 10
-0.2033432444137556
 20
2.198424992256917
 10
-0.2325153739196365
 20
2.190459497473021
 10
-0.2608821646294078
 20
2.181344600316435
 10
-0.2883440811758292
 20
2.171065114707902
 10
-0.3147972663301195
 20
2.159600875378153
 10
-0.3401279330359944
 20
2.146928563729794
 10
-0.364204631981076
 20
2.133026936428021
 10
-0.3868668915762064
 20
2.117889290075634
 10
-0.407891065729268
 20
2.101565634622967
 10
-0.4270598501684636
 20
2.084142131951745
 10
-0.4441649230405002
 20
2.065759047448717
 10
-0.45904367678292
 20
2.046594933367393
 10
-0.4716035599828067
 20
2.026837097850147
 10
-0.4818201595805441
 20
2.006656885007867
 10
-0.4897163079252828
 20
1.986201380268338
 10
-0.4953391242766677
 20
1.965597831343653
 10
-0.4987448683093435
 20
1.944960977432561
 10
-0.4999917124362453
 20
1.924397105761829
 10
-0.4999999984198069
 20
1.922551255255173
  0
LWPOLYLINE
  5
25C
330
20C
100
AcDbEntity
  8
AM_4
100
AcDbPolyline
 90
       22
 70
     0
 43
0.0
 10
0.4999974779435747
 20
1.923580796020487
 10
0.4989441020032954
 20
1.943110835774891
 10
0.4958481223539064
 20
1.963196925809837
 10
0.4907680923464656
 20
1.982909177937756
 10
0.4837453885068578
 20
2.002198565977858
 10
0.474802172509261
 20
2.021030947368951
 10
0.4639389897595776
 20
2.039381941529059
 10
0.4511370047853277
 20
2.057228325337754
 10
0.4363675390355609
 20
2.074536827562563
 10
0.4196102794433181
 20
2.091252908129193
 10
0.4008774992873033
 20
2.107294255881905
 10
0.3802353643972383
 20
2.122554377363132
 10
0.3578100747064271
 20
2.136917803489184
 10
0.3337732123961116
 20
2.150280651508478
 10
0.3083208216996886
 20
2.162562956218365
 10
0.2816577571415453
 20
2.173710712368169
 10
0.2539381629304122
 20
2.183709508885114
 10
0.2252976654368764
 20
2.192557102316241
 10
0.1958585274537242
 20
2.200256584425745
 10
0.1657350038704047
 20
2.206812357909115
 10
0.1350374081056804
 20
2.212228273196702
 10
0.1113888602948356
 20
2.215583943800178
  0
LINE
  5
25D
330
20C
100
AcDbEntity
  8
AM_4
100
AcDbLine
 10
0.352244565472393
 20
2.140011845177498
 30
0.0
 11
1.1205
 21
2.140011845177498
 31
0.0
  0
LINE
  5
25E
330
20C
100
AcDbEntity
  8
AM_4
100
AcDbLine
 10
-1.1205
 20
2.140011845177498
 30
0.0
 11
-0.3521072320530427
 21
2.140011845177498
 31
0.0
  0
LINE
  5
25F
330
20C
100
AcDbEntity
  8
AM_4
100
AcDbLine
 10
0.8892857142857146
 20
0.3400611121548603
 30
0.0
 11
-0.8892857142857142
 21
0.3400611121548603
 31
0.0
  0
LWPOLYLINE
  5
260
330
20C
100
AcDbEntity
  8
AM_4
100
AcDbPolyline
 90
       30
 70
     0
 43
0.0
 10
-0.5
 20
1.922576396401454
 10
-0.4973024399751143
 20
1.89611761299599
 10
-0.4885974960188503
 20
1.86737448599002
 10
-0.4740180286667984
 20
1.838147725703154
 10
-0.453851517858437
 20
1.809067949597533
 10
-0.4280097267324564
 20
1.780297959038767
 10
-0.3969464728847764
 20
1.752475584782752
 10
-0.3612224414927876
 20
1.726264046791312
 10
-0.3201581000721125
 20
1.701590811322089
 10
-0.2749117353764025
 20
1.679457294667326
 10
-0.2263020702381773
 20
1.660475804843719
 10
-0.174546490264897
 20
1.645033447709496
 10
-0.1203207935317966
 20
1.633458148892042
 10
-0.0646751832394834
 20
1.626116579693902
 10
-0.0093744924331288
 20
1.623277672482505
 10
0.0462254746322797
 20
1.624714597434807
 10
0.1010536205591198
 20
1.630381504449069
 10
0.1538971941039636
 20
1.640081838908238
 10
0.2050000749090494
 20
1.653583107721862
 10
0.2534527008382741
 20
1.670494992014222
 10
0.2995147201018472
 20
1.690898045471647
 10
0.3420211515754773
 20
1.714120813897363
 10
0.3802271932444117
 20
1.73955372104911
 10
0.4143595834475456
 20
1.767358942569158
 10
0.4433549317729174
 20
1.796584150752816
 10
0.4666515009449485
 20
1.826505893008682
 10
0.4838259941877791
 20
1.856477207944201
 10
0.4949513772427824
 20
1.886305337446522
 10
0.4997921649757243
 20
1.915328372888674
 10
0.5000000000000001
 20
1.922576396401454
  0
LINE
  5
261
330
20C
100
AcDbEntity
  8
AM_4
100
AcDbLine
 10
-0.8892857142857142
 20
-0.8745
 30
0.0
 11
0.8892857142857146
 21
-0.8745
 31
0.0
  0
LINE
  5
262
330
20C
100
AcDbEntity
  8
AM_4
100
AcDbLine
 10
0.8892857142857146
 20
0.2685947412031821
 30
0.0
 11
1.1205
 21
0.2685947412031821
 31
0.0
  0
LINE
  5
263
330
20C
100
AcDbEntity
  8
AM_4
100
AcDbLine
 10
-1.1205
 20
0.2685947412031821
 30
0.0
 11
-0.8892857142857142
 21
0.2685947412031821
 31
0.0
  0
LWPOLYLINE
  5
264
330
20C
100
AcDbEntity
  8
AM_4
100
AcDbPolyline
 90
       14
 70
     0
 43
0.0
 10
-1.236502658318898
 20
-0.94
 10
-1.225085256018956
 20
-0.9395015054500188
 10
-1.213754747044531
 20
-0.9380098156445993
 10
-1.202597363410469
 20
-0.9355362832438681
 10
-1.191698019543236
 20
-0.932099733322954
 10
-1.181139666030867
 20
-0.9277263201018011
 10
-1.171002658318899
 20
-0.9224493278957615
 10
-1.161364145156912
 20
-0.916308917801858
 10
-1.152297481449962
 20
-0.9093518220485862
 10
-1.143871669983461
 20
-0.9016309883354378
 10
-1.136150836270313
 20
-0.8932051768689367
 10
-1.129193740517041
 20
-0.8841385131619871
 10
-1.123053330423137
 20
-0.8745
 10
-1.1205
 20
-0.8698636448378572
  0
LINE
  5
265
330
20C
100
AcDbEntity
  8
AM_4
100
AcDbLine
 10
-0.8892857142857142
 20
0.3400611121548603
 30
0.0
 11
-0.8892857142857142
 21
-0.94
 31
0.0
  0
LINE
  5
266
330
20C
100
AcDbEntity
  8
AM_4
100
AcDbLine
 10
-1.1205
 20
-0.8248495095034308
 30
0.0
 11
-0.8892857142857142
 21
-0.8248495095034308
 31
0.0
  0
LINE
  5
267
330
20C
100
AcDbEntity
  8
AM_4
100
AcDbLine
 10
-1.1205
 20
-0.869863644837857
 30
0.0
 11
-1.1205
 21
2.22
 31
0.0
  0
LWPOLYLINE
  5
268
330
20C
100
AcDbEntity
  8
AM_4
100
AcDbPolyline
 90
       14
 70
     0
 43
0.0
 10
1.1205
 20
-0.8698636448378568
 10
1.126246041309237
 20
-0.8797423381404984
 10
1.132831202048682
 20
-0.8890826395344992
 10
1.140205365168881
 20
-0.8978134636864227
 10
1.148312408835847
 20
-0.9058683637526568
 10
1.157090633552107
 20
-0.9131860370800159
 10
1.166473231727135
 20
-0.919710791755947
 10
1.176388796123449
 20
-0.9253929704576116
 10
1.186761863308814
 20
-0.9301893283740966
 10
1.197513487978518
 20
-0.9340633623255377
 10
1.208561843776817
 20
-0.9369855885743584
 10
1.219822846044907
 20
-0.9389337672143172
 10
1.231210791755947
 20
-0.9398930714296211
 10
1.236502658318898
 20
-0.94
  0
LINE
  5
269
330
20C
100
AcDbEntity
  8
AM_4
100
AcDbLine
 10
0.8892857142857146
 20
0.3400611121548603
 30
0.0
 11
0.8892857142857146
 21
-0.94
 31
0.0
  0
LINE
  5
26A
330
20C
100
AcDbEntity
  8
AM_4
100
AcDbLine
 10
1.1205
 20
2.22
 30
0.0
 11
1.1205
 21
-0.869863644837855
 31
0.0
  0
LINE
  5
26B
330
20C
100
AcDbEntity
  8
AM_4
100
AcDbLine
 10
0.8892857142857146
 20
-0.8248495095034308
 30
0.0
 11
1.1205
 21
-0.8248495095034308
 31
0.0
  0
LWPOLYLINE
  5
26C
330
20C
100
AcDbEntity
  8
AM_4
100
AcDbPolyline
 90
        9
 70
     0
 43
0.0
 10
0.2815143251890179
 20
-0.94
 10
0.2171361246692851
 20
-0.9406027542232147
 10
0.1522063947517647
 20
-0.9418631516622108
 10
0.0861990260368836
 20
-0.9430435948748004
 10
0.019959075262898
 20
-0.9436833775214359
 10
-0.0554366461717634
 20
-0.9434175798327943
 10
-0.1306376345865079
 20
-0.9422900314094511
 10
-0.2064326674582619
 20
-0.9407795226333879
 10
-0.2815143251890168
 20
-0.94
  0
LINE
  5
26D
330
20C
100
AcDbEntity
  8
AM_4
100
AcDbLine
 10
-1.245
 20
-2.25
 30
0.0
 11
-1.244999999999999
 21
-0.94
 31
0.0
  0
LINE
  5
26E
330
20C
100
AcDbEntity
  8
AM_4
100
AcDbLine
 10
1.245
 20
-2.25
 30
0.0
 11
1.245
 21
-0.94
 31
0.0
  0
LINE
  5
26F
330
20C
100
AcDbEntity
  8
AM_4
100
AcDbLine
 10
-1.244999999999999
 20
-0.94
 30
0.0
 11
1.245
 21
-0.94
 31
0.0
  0
LINE
  5
270
330
20C
100
AcDbEntity
  8
AM_4
100
AcDbLine
 10
-1.245
 20
-1.595
 30
0.0
 11
1.245
 21
-1.595
 31
0.0
  0
LINE
  5
271
330
20C
100
AcDbEntity
  8
AM_4
100
AcDbLine
 10
-1.245
 20
-2.25
 30
0.0
 11
1.245
 21
-2.25
 31
0.0
  0
LINE
  5
272
330
20C
100
AcDbEntity
  8
AM_4
100
AcDbLine
 10
-0.9959999999999988
 20
-1.595
 30
0.0
 11
-0.9959999999999999
 21
-2.25
 31
0.0
  0
LINE
  5
273
330
20C
100
AcDbEntity
  8
AM_4
100
AcDbLine
 10
0.9959999999999991
 20
-1.595
 30
0.0
 11
0.9960000000000001
 21
-2.25
 31
0.0
  0
ENDBLK
  5
20F
330
20C
100
AcDbEntity
  8
0
100
AcDbBlockEnd
  0
ENDSEC
  0
SECTION
  2
ENTITIES
  0
INSERT
  5
6F
330
1F
100
AcDbEntity
  8
0
100
AcDbBlockReference
  2
1_071189_2
 10
0.0
 20
0.0
 30
0.0
  0
POINT
  5
275
330
1F
100
AcDbEntity
  8
ConnectionPoints
100
AcDbPoint
 10
-1.377166666666667
 20
1.341145833333333
 30
0.0000000000000001
  0
POINT
  5
276
330
1F
100
AcDbEntity
  8
ConnectionPoints
100
AcDbPoint
 10
-1.307166666666667
 20
0.0
 30
0.0000000000000001
  0
POINT
  5
277
330
1F
100
AcDbEntity
  8
ConnectionPoints
100
AcDbPoint
 10
-1.54
 20
0.0
 30
0.0000000000000001
  0
POINT
  5
278
330
1F
100
AcDbEntity
  8
ConnectionPoints
100
AcDbPoint
 10
-1.506166666666667
 20
0.0
 30
0.0000000000000001
  0
POINT
  5
279
330
1F
100
AcDbEntity
  8
ConnectionPoints
100
AcDbPoint
 10
-1.307166666666667
 20
1.341145833333333
 30
0.0000000000000001
  0
POINT
  5
27A
330
1F
100
AcDbEntity
  8
ConnectionPoints
100
AcDbPoint
 10
-1.307166666666667
 20
-1.341145833333333
 30
0.0000000000000001
  0
POINT
  5
27B
330
1F
100
AcDbEntity
  8
ConnectionPoints
100
AcDbPoint
 10
-1.307166666666667
 20
0.0
 30
0.0000000000000001
  0
POINT
  5
27C
330
1F
100
AcDbEntity
  8
ConnectionPoints
100
AcDbPoint
 10
0.0000000000000001
 20
2.009178936779898
 30
1.16
  0
POINT
  5
27D
330
1F
100
AcDbEntity
  8
ConnectionPoints
100
AcDbPoint
 10
0.0000000000000001
 20
2.009178936779898
 30
1.16
  0
POINT
  5
27E
330
1F
100
AcDbEntity
  8
ConnectionPoints
100
AcDbPoint
 10
-1.54
 20
0.0
 30
0.0000000000000001
  0
POINT
  5
27F
330
1F
100
AcDbEntity
  8
ConnectionPoints
100
AcDbPoint
 10
-1.76
 20
0.0
 30
0.0000000000000001
  0
ENDSEC
  0
SECTION
  2
OBJECTS
  0
DICTIONARY
  5
C
330
0
100
AcDbDictionary
281
     1
  3
ACAD_DETAILVIEWSTYLE
350
287
  3
ACAD_GROUP
350
D
  3
ACAD_LAYOUT
350
1A
  3
ACAD_MATERIAL
350
43
  3
ACAD_MLEADERSTYLE
350
6B
  3
ACAD_MLINESTYLE
350
17
  3
ACAD_PLOTSETTINGS
350
19
  3
ACAD_PLOTSTYLENAME
350
E
  3
ACAD_SCALELIST
350
47
  3
ACAD_SECTIONVIEWSTYLE
350
288
  3
ACAD_TABLESTYLE
350
69
  3
ACAD_VISUALSTYLE
350
2A
  3
ACDB_RECOMPOSE_DATA
350
284
  3
AcDbVariableDictionary
350
280
  0
SUN
  5
6D
330
29
100
AcDbSun
 90
        1
290
     0
 63
     7
421
 16777215
 40
1.0
291
     1
 91
  2455826
 92
 54000000
292
     0
 70
     2
 71
   256
280
     1
  0
DICTIONARY
  5
287
102
{ACAD_REACTORS
330
C
102
}
330
C
100
AcDbDictionary
281
     1
  0
DICTIONARY
  5
D
102
{ACAD_REACTORS
330
C
102
}
330
C
100
AcDbDictionary
281
     1
  0
DICTIONARY
  5
1A
102
{ACAD_REACTORS
330
C
102
}
330
C
100
AcDbDictionary
281
     1
  3
Layout1
350
1E
  3
Layout2
350
26
  3
Model
350
22
  0
DICTIONARY
  5
43
102
{ACAD_REACTORS
330
C
102
}
330
C
100
AcDbDictionary
281
     1
  3
ByBlock
350
45
  3
ByLayer
350
44
  3
Global
350
46
  0
DICTIONARY
  5
6B
102
{ACAD_REACTORS
330
C
102
}
330
C
100
AcDbDictionary
281
     1
  3
Standard
350
6C
  0
DICTIONARY
  5
17
102
{ACAD_REACTORS
330
C
102
}
330
C
100
AcDbDictionary
281
     1
  3
Standard
350
18
  0
DICTIONARY
  5
19
102
{ACAD_REACTORS
330
C
102
}
330
C
100
AcDbDictionary
281
     1
  0
ACDBDICTIONARYWDFLT
  5
E
102
{ACAD_REACTORS
330
C
102
}
330
C
100
AcDbDictionary
281
     1
  3
Normal
350
F
100
AcDbDictionaryWithDefault
340
F
  0
DICTIONARY
  5
47
102
{ACAD_REACTORS
330
C
102
}
330
C
100
AcDbDictionary
281
     1
  3
A0
350
48
  3
A1
350
49
  3
A2
350
4A
  3
A3
350
4B
  3
A4
350
4C
  3
A5
350
4D
  3
A6
350
4E
  3
A7
350
4F
  3
A8
350
50
  3
A9
350
51
  3
B0
350
52
  3
B1
350
53
  3
B2
350
54
  3
B3
350
55
  3
B4
350
56
  3
B5
350
57
  3
B6
350
58
  3
B7
350
59
  3
B8
350
5A
  3
B9
350
5B
  3
C0
350
5C
  3
C1
350
5D
  3
C2
350
5E
  3
C3
350
5F
  3
C4
350
60
  3
C5
350
61
  3
C6
350
62
  3
C7
350
63
  3
C8
350
64
  3
C9
350
65
  3
D0
350
66
  3
D1
350
67
  3
D2
350
68
  0
DICTIONARY
  5
288
102
{ACAD_REACTORS
330
C
102
}
330
C
100
AcDbDictionary
281
     1
  0
DICTIONARY
  5
69
102
{ACAD_REACTORS
330
C
102
}
330
C
100
AcDbDictionary
281
     1
  3
Standard
350
6A
  0
DICTIONARY
  5
2A
102
{ACAD_REACTORS
330
C
102
}
330
C
100
AcDbDictionary
281
     1
  3
2dWireframe
350
2F
  3
Basic
350
32
  3
Brighten
350
36
  3
ColorChange
350
3A
  3
Conceptual
350
34
  3
Dim
350
35
  3
EdgeColorOff
350
3D
  3
Facepattern
350
39
  3
Flat
350
2B
  3
FlatWithEdges
350
2C
  3
Gouraud
350
2D
  3
GouraudWithEdges
350
2E
  3
Hidden
350
31
  3
JitterOff
350
3B
  3
Linepattern
350
38
  3
OverhangOff
350
3C
  3
Realistic
350
33
  3
Shaded
350
42
  3
Shaded with edges
350
41
  3
Shades of Gray
350
3E
  3
Sketchy
350
3F
  3
Thicken
350
37
  3
Wireframe
350
30
  3
X-Ray
350
40
  0
XRECORD
  5
284
102
{ACAD_REACTORS
330
C
102
}
330
C
100
AcDbXrecord
280
     1
 90
        1
330
6A
  0
DICTIONARY
  5
280
102
{ACAD_REACTORS
330
C
102
}
330
C
100
AcDbDictionary
281
     1
  3
CANNOSCALE
350
281
  3
CMLEADERSTYLE
350
286
  3
CTABLESTYLE
350
285
  0
LAYOUT
  5
1E
102
{ACAD_REACTORS
330
1A
102
}
330
1A
100
AcDbPlotSettings
  1

  2
none_device
  4

  6

 40
0.0
 41
0.0
 42
0.0
 43
0.0
 44
0.0
 45
0.0
 46
0.0
 47
0.0
 48
0.0
 49
0.0
140
0.0
141
0.0
142
1.0
143
1.0
 70
   688
 72
     0
 73
     0
 74
     5
  7

 75
    16
 76
     0
 77
     2
 78
   300
147
1.0
148
0.0
149
0.0
100
AcDbLayout
  1
Layout1
 70
     1
 71
     1
 10
0.0
 20
0.0
 11
12.0
 21
9.0
 12
0.0
 22
0.0
 32
0.0
 14
1.000000000000000E+20
 24
1.000000000000000E+20
 34
1.000000000000000E+20
 15
-1.000000000000000E+20
 25
-1.000000000000000E+20
 35
-1.000000000000000E+20
146
0.0
 13
0.0
 23
0.0
 33
0.0
 16
1.0
 26
0.0
 36
0.0
 17
0.0
 27
1.0
 37
0.0
 76
     0
330
1B
  0
LAYOUT
  5
26
102
{ACAD_REACTORS
330
1A
102
}
330
1A
100
AcDbPlotSettings
  1

  2
none_device
  4

  6

 40
0.0
 41
0.0
 42
0.0
 43
0.0
 44
0.0
 45
0.0
 46
0.0
 47
0.0
 48
0.0
 49
0.0
140
0.0
141
0.0
142
1.0
143
1.0
 70
   688
 72
     0
 73
     0
 74
     5
  7

 75
    16
 76
     0
 77
     2
 78
   300
147
1.0
148
0.0
149
0.0
100
AcDbLayout
  1
Layout2
 70
     1
 71
     2
 10
0.0
 20
0.0
 11
0.0
 21
0.0
 12
0.0
 22
0.0
 32
0.0
 14
0.0
 24
0.0
 34
0.0
 15
0.0
 25
0.0
 35
0.0
146
0.0
 13
0.0
 23
0.0
 33
0.0
 16
1.0
 26
0.0
 36
0.0
 17
0.0
 27
1.0
 37
0.0
 76
     0
330
23
  0
LAYOUT
  5
22
102
{ACAD_REACTORS
330
1A
102
}
330
1A
100
AcDbPlotSettings
  1

  2
none_device
  4
Letter_(8.50_x_11.00_Inches)
  6

 40
6.35
 41
6.35
 42
6.35000508
 43
6.35000508
 44
215.9
 45
279.4
 46
0.0
 47
0.0
 48
0.0
 49
0.0
140
0.0
141
0.0
142
1.0
143
1.0
 70
  1712
 72
     0
 73
     0
 74
     0
  7

 75
     0
 76
     0
 77
     2
 78
   300
147
1.0
148
0.0
149
0.0
100
AcDbLayout
  1
Model
 70
     1
 71
     0
 10
0.0
 20
0.0
 11
12.0
 21
9.0
 12
0.0
 22
0.0
 32
0.0
 14
1.000000000000000E+20
 24
1.000000000000000E+20
 34
1.000000000000000E+20
 15
-1.000000000000000E+20
 25
-1.000000000000000E+20
 35
-1.000000000000000E+20
146
0.0
 13
0.0
 23
0.0
 33
0.0
 16
1.0
 26
0.0
 36
0.0
 17
0.0
 27
1.0
 37
0.0
 76
     0
330
1F
331
29
  0
MATERIAL
  5
45
102
{ACAD_REACTORS
330
43
102
}
330
43
100
AcDbMaterial
  1
ByBlock
 72
     1
 94
      127
  0
MATERIAL
  5
44
102
{ACAD_REACTORS
330
43
102
}
330
43
100
AcDbMaterial
  1
ByLayer
 72
     1
 94
      127
  0
MATERIAL
  5
46
102
{ACAD_REACTORS
330
43
102
}
330
43
100
AcDbMaterial
  1
Global
 72
     1
 94
      127
  0
MLEADERSTYLE
  5
6C
102
{ACAD_REACTORS
330
6B
102
}
330
6B
100
AcDbMLeaderStyle
179
     2
170
     2
171
     1
172
     0
 90
        2
 40
0.0
 41
0.0
173
     1
 91
-1056964608
340
14
 92
       -2
290
     1
 42
0.09
291
     1
 43
0.36
  3
Standard
341
0
 44
0.18
300

342
11
174
     1
178
     6
175
     1
176
     0
 93
-1056964608
 45
0.18
292
     0
297
     0
 46
0.18
343
0
 94
-1056964608
 47
1.0
 49
1.0
140
1.0
293
     1
141
0.0
294
     1
177
     0
142
1.0
295
     0
296
     0
143
0.125
271
     0
272
     9
273
     9
298
     0
  0
MLINESTYLE
  5
18
102
{ACAD_REACTORS
330
17
102
}
330
17
100
AcDbMlineStyle
  2
Standard
 70
     0
  3

 62
   256
 51
90.0
 52
90.0
 71
     2
 49
0.5
 62
   256
  6
BYLAYER
 49
-0.5
 62
   256
  6
BYLAYER
  0
ACDBPLACEHOLDER
  5
F
102
{ACAD_REACTORS
330
E
102
}
330
E
  0
SCALE
  5
48
102
{ACAD_REACTORS
330
47
102
}
330
47
100
AcDbScale
 70
     0
300
1:1
140
1.0
141
1.0
290
     1
  0
SCALE
  5
49
102
{ACAD_REACTORS
330
47
102
}
330
47
100
AcDbScale
 70
     0
300
1:2
140
1.0
141
2.0
290
     0
  0
SCALE
  5
4A
102
{ACAD_REACTORS
330
47
102
}
330
47
100
AcDbScale
 70
     0
300
1:4
140
1.0
141
4.0
290
     0
  0
SCALE
  5
4B
102
{ACAD_REACTORS
330
47
102
}
330
47
100
AcDbScale
 70
     0
300
1:5
140
1.0
141
5.0
290
     0
  0
SCALE
  5
4C
102
{ACAD_REACTORS
330
47
102
}
330
47
100
AcDbScale
 70
     0
300
1:8
140
1.0
141
8.0
290
     0
  0
SCALE
  5
4D
102
{ACAD_REACTORS
330
47
102
}
330
47
100
AcDbScale
 70
     0
300
1:10
140
1.0
141
10.0
290
     0
  0
SCALE
  5
4E
102
{ACAD_REACTORS
330
47
102
}
330
47
100
AcDbScale
 70
     0
300
1:16
140
1.0
141
16.0
290
     0
  0
SCALE
  5
4F
102
{ACAD_REACTORS
330
47
102
}
330
47
100
AcDbScale
 70
     0
300
1:20
140
1.0
141
20.0
290
     0
  0
SCALE
  5
50
102
{ACAD_REACTORS
330
47
102
}
330
47
100
AcDbScale
 70
     0
300
1:30
140
1.0
141
30.0
290
     0
  0
SCALE
  5
51
102
{ACAD_REACTORS
330
47
102
}
330
47
100
AcDbScale
 70
     0
300
1:40
140
1.0
141
40.0
290
     0
  0
SCALE
  5
52
102
{ACAD_REACTORS
330
47
102
}
330
47
100
AcDbScale
 70
     0
300
1:50
140
1.0
141
50.0
290
     0
  0
SCALE
  5
53
102
{ACAD_REACTORS
330
47
102
}
330
47
100
AcDbScale
 70
     0
300
1:100
140
1.0
141
100.0
290
     0
  0
SCALE
  5
54
102
{ACAD_REACTORS
330
47
102
}
330
47
100
AcDbScale
 70
     0
300
2:1
140
2.0
141
1.0
290
     0
  0
SCALE
  5
55
102
{ACAD_REACTORS
330
47
102
}
330
47
100
AcDbScale
 70
     0
300
4:1
140
4.0
141
1.0
290
     0
  0
SCALE
  5
56
102
{ACAD_REACTORS
330
47
102
}
330
47
100
AcDbScale
 70
     0
300
8:1
140
8.0
141
1.0
290
     0
  0
SCALE
  5
57
102
{ACAD_REACTORS
330
47
102
}
330
47
100
AcDbScale
 70
     0
300
10:1
140
10.0
141
1.0
290
     0
  0
SCALE
  5
58
102
{ACAD_REACTORS
330
47
102
}
330
47
100
AcDbScale
 70
     0
300
100:1
140
100.0
141
1.0
290
     0
  0
SCALE
  5
59
102
{ACAD_REACTORS
330
47
102
}
330
47
100
AcDbScale
 70
     0
300
1/128" = 1'-0"
140
0.0078125
141
12.0
290
     0
  0
SCALE
  5
5A
102
{ACAD_REACTORS
330
47
102
}
330
47
100
AcDbScale
 70
     0
300
1/64" = 1'-0"
140
0.015625
141
12.0
290
     0
  0
SCALE
  5
5B
102
{ACAD_REACTORS
330
47
102
}
330
47
100
AcDbScale
 70
     0
300
1/32" = 1'-0"
140
0.03125
141
12.0
290
     0
  0
SCALE
  5
5C
102
{ACAD_REACTORS
330
47
102
}
330
47
100
AcDbScale
 70
     0
300
1/16" = 1'-0"
140
0.0625
141
12.0
290
     0
  0
SCALE
  5
5D
102
{ACAD_REACTORS
330
47
102
}
330
47
100
AcDbScale
 70
     0
300
3/32" = 1'-0"
140
0.09375
141
12.0
290
     0
  0
SCALE
  5
5E
102
{ACAD_REACTORS
330
47
102
}
330
47
100
AcDbScale
 70
     0
300
1/8" = 1'-0"
140
0.125
141
12.0
290
     0
  0
SCALE
  5
5F
102
{ACAD_REACTORS
330
47
102
}
330
47
100
AcDbScale
 70
     0
300
3/16" = 1'-0"
140
0.1875
141
12.0
290
     0
  0
SCALE
  5
60
102
{ACAD_REACTORS
330
47
102
}
330
47
100
AcDbScale
 70
     0
300
1/4" = 1'-0"
140
0.25
141
12.0
290
     0
  0
SCALE
  5
61
102
{ACAD_REACTORS
330
47
102
}
330
47
100
AcDbScale
 70
     0
300
3/8" = 1'-0"
140
0.375
141
12.0
290
     0
  0
SCALE
  5
62
102
{ACAD_REACTORS
330
47
102
}
330
47
100
AcDbScale
 70
     0
300
1/2" = 1'-0"
140
0.5
141
12.0
290
     0
  0
SCALE
  5
63
102
{ACAD_REACTORS
330
47
102
}
330
47
100
AcDbScale
 70
     0
300
3/4" = 1'-0"
140
0.75
141
12.0
290
     0
  0
SCALE
  5
64
102
{ACAD_REACTORS
330
47
102
}
330
47
100
AcDbScale
 70
     0
300
1" = 1'-0"
140
1.0
141
12.0
290
     0
  0
SCALE
  5
65
102
{ACAD_REACTORS
330
47
102
}
330
47
100
AcDbScale
 70
     0
300
1-1/2" = 1'-0"
140
1.5
141
12.0
290
     0
  0
SCALE
  5
66
102
{ACAD_REACTORS
330
47
102
}
330
47
100
AcDbScale
 70
     0
300
3" = 1'-0"
140
3.0
141
12.0
290
     0
  0
SCALE
  5
67
102
{ACAD_REACTORS
330
47
102
}
330
47
100
AcDbScale
 70
     0
300
6" = 1'-0"
140
6.0
141
12.0
290
     0
  0
SCALE
  5
68
102
{ACAD_REACTORS
330
47
102
}
330
47
100
AcDbScale
 70
     0
300
1'-0" = 1'-0"
140
12.0
141
12.0
290
     0
  0
TABLESTYLE
  5
6A
102
{ACAD_REACTORS
330
69
102
}
102
{ACAD_XDICTIONARY
360
282
102
}
330
69
100
AcDbTableStyle
  3
Standard
 70
     0
 71
     0
 40
0.06
 41
0.06
280
     0
281
     0
  7
Standard
140
0.18
170
     2
 62
     0
 63
   257
283
     0
 90
        4
 91
        0
  1

274
    -2
284
     1
 64
     0
275
    -2
285
     1
 65
     0
276
    -2
286
     1
 66
     0
277
    -2
287
     1
 67
     0
278
    -2
288
     1
 68
     0
279
    -2
289
     1
 69
     0
  7
Standard
140
0.25
170
     5
 62
     0
 63
   257
283
     0
 90
        4
 91
        0
  1

274
    -2
284
     1
 64
     0
275
    -2
285
     1
 65
     0
276
    -2
286
     1
 66
     0
277
    -2
287
     1
 67
     0
278
    -2
288
     1
 68
     0
279
    -2
289
     1
 69
     0
  7
Standard
140
0.18
170
     5
 62
     0
 63
   257
283
     0
 90
        4
 91
        0
  1

274
    -2
284
     1
 64
     0
275
    -2
285
     1
 65
     0
276
    -2
286
     1
 66
     0
277
    -2
287
     1
 67
     0
278
    -2
288
     1
 68
     0
279
    -2
289
     1
 69
     0
  0
VISUALSTYLE
  5
2F
102
{ACAD_REACTORS
330
2A
102
}
330
2A
100
AcDbVisualStyle
  2
2dWireframe
 70
     4
177
     3
291
     0
 70
    58
 90
        0
176
     1
 90
        2
176
     1
 90
        0
176
     1
 90
        0
176
     1
 40
0.6
176
     1
 40
30.0
176
     1
 62
     7
420
 16777215
176
     1
 90
        1
176
     1
 90
        4
176
     1
 62
     7
176
     1
 62
   257
176
     1
 90
        1
176
     1
 90
        1
176
     1
 40
1.0
176
     1
 90
        0
176
     1
 62
   257
176
     1
 40
1.0
176
     1
 90
        1
176
     1
 90
        6
176
     1
 90
        2
176
     1
 62
     7
176
     1
 90
        5
176
     1
 90
        0
176
     1
 90
        0
176
     1
290
     0
176
     1
 90
        1
176
     1
 40
0.0
176
     1
 90
        0
176
     1
290
     1
176
     1
290
     1
176
     1
290
     0
176
     1
290
     0
176
     1
290
     0
176
     1
290
     0
176
     1
290
     0
176
     1
290
     0
176
     1
290
     0
176
     1
 90
       50
176
     1
 40
0.0
176
     1
 40
1.0
176
     1
 90
        0
176
     1
 62
    18
420
        0
176
     1
 90
       50
176
     1
 90
        3
176
     1
 62
     5
420
      255
176
     1
290
     0
176
     1
 90
       50
176
     1
 90
       50
176
     1
 90
       50
176
     1
290
     0
176
     1
 90
       50
176
     1
 62
   256
176
     0
 40
1.0
176
     0
 90
        2
176
     1
  1
strokes_ogs.tif
176
     1
290
     0
176
     1
 40
1.0
176
     1
 40
1.0
176
     1
  0
VISUALSTYLE
  5
32
102
{ACAD_REACTORS
330
2A
102
}
330
2A
100
AcDbVisualStyle
  2
Basic
 70
     7
177
     3
291
     1
 70
    58
 90
        1
176
     1
 90
        0
176
     1
 90
        1
176
     1
 90
        0
176
     1
 40
0.6
176
     1
 40
30.0
176
     1
 62
     7
420
 16777215
176
     1
 90
        0
176
     1
 90
        4
176
     1
 62
     7
176
     1
 62
   257
176
     1
 90
        1
176
     1
 90
        1
176
     1
 40
1.0
176
     1
 90
        8
176
     1
 62
     7
176
     1
 40
1.0
176
     1
 90
        1
176
     1
 90
        6
176
     1
 90
        2
176
     1
 62
     7
176
     1
 90
        5
176
     1
 90
        0
176
     1
 90
        0
176
     1
290
     0
176
     1
 90
        1
176
     1
 40
0.0
176
     1
 90
        0
176
     1
290
     0
176
     1
290
     1
176
     1
290
     1
176
     1
290
     0
176
     1
290
     0
176
     1
290
     0
176
     1
290
     0
176
     1
290
     0
176
     1
290
     0
176
     1
 90
       50
176
     1
 40
0.0
176
     1
 40
1.0
176
     1
 90
        0
176
     1
 62
    18
420
        0
176
     1
 90
       50
176
     1
 90
        3
176
     1
 62
     5
420
      255
176
     1
290
     0
176
     1
 90
       50
176
     1
 90
       50
176
     1
 90
       50
176
     1
290
     0
176
     1
 90
       50
176
     1
 62
   256
176
     0
 40
1.0
176
     0
 90
        2
176
     1
  1
strokes_ogs.tif
176
     1
290
     0
176
     1
 40
1.0
176
     1
 40
1.0
176
     1
  0
VISUALSTYLE
  5
36
102
{ACAD_REACTORS
330
2A
102
}
330
2A
100
AcDbVisualStyle
  2
Brighten
 70
    12
177
     3
291
     1
 70
    58
 90
        2
176
     1
 90
        2
176
     1
 90
        0
176
     1
 90
        0
176
     1
 40
0.6
176
     1
 40
30.0
176
     1
 62
     7
420
 16777215
176
     1
 90
        1
176
     1
 90
        4
176
     1
 62
     7
176
     1
 62
   257
176
     1
 90
        1
176
     1
 90
        1
176
     1
 40
1.0
176
     1
 90
        8
176
     1
 62
     7
176
     1
 40
1.0
176
     1
 90
        1
176
     1
 90
        6
176
     1
 90
        2
176
     1
 62
     7
176
     1
 90
        5
176
     1
 90
        0
176
     1
 90
        0
176
     1
290
     0
176
     1
 90
        1
176
     1
 40
50.0
176
     1
 90
        0
176
     1
290
     0
176
     1
290
     1
176
     1
290
     1
176
     1
290
     0
176
     1
290
     0
176
     1
290
     0
176
     1
290
     0
176
     1
290
     0
176
     1
290
     0
176
     1
 90
       50
176
     1
 40
0.0
176
     1
 40
1.0
176
     1
 90
        0
176
     1
 62
    18
420
        0
176
     1
 90
       50
176
     1
 90
        3
176
     1
 62
     5
420
      255
176
     1
290
     0
176
     1
 90
       50
176
     1
 90
       50
176
     1
 90
       50
176
     1
290
     0
176
     1
 90
       50
176
     1
 62
   256
176
     0
 40
1.0
176
     0
 90
        2
176
     1
  1
strokes_ogs.tif
176
     1
290
     0
176
     1
 40
1.0
176
     1
 40
1.0
176
     1
  0
VISUALSTYLE
  5
3A
102
{ACAD_REACTORS
330
2A
102
}
330
2A
100
AcDbVisualStyle
  2
ColorChange
 70
    16
177
     3
291
     1
 70
    58
 90
        2
176
     1
 90
        2
176
     1
 90
        3
176
     1
 90
        0
176
     1
 40
0.6
176
     1
 40
30.0
176
     1
 62
     8
420
  8421504
176
     1
 90
        1
176
     1
 90
        4
176
     1
 62
     7
176
     1
 62
   257
176
     1
 90
        1
176
     1
 90
        1
176
     1
 40
1.0
176
     1
 90
        8
176
     1
 62
     8
420
  8421504
176
     1
 40
1.0
176
     1
 90
        1
176
     1
 90
        6
176
     1
 90
        2
176
     1
 62
     7
176
     1
 90
        5
176
     1
 90
        0
176
     1
 90
        0
176
     1
290
     0
176
     1
 90
        1
176
     1
 40
0.0
176
     1
 90
        0
176
     1
290
     0
176
     1
290
     1
176
     1
290
     1
176
     1
290
     0
176
     1
290
     0
176
     1
290
     0
176
     1
290
     0
176
     1
290
     0
176
     1
290
     0
176
     1
 90
       50
176
     1
 40
0.0
176
     1
 40
1.0
176
     1
 90
        0
176
     1
 62
    18
420
        0
176
     1
 90
       50
176
     1
 90
        3
176
     1
 62
     5
420
      255
176
     1
290
     0
176
     1
 90
       50
176
     1
 90
       50
176
     1
 90
       50
176
     1
290
     0
176
     1
 90
       50
176
     1
 62
   256
176
     0
 40
1.0
176
     0
 90
        2
176
     1
  1
strokes_ogs.tif
176
     1
290
     0
176
     1
 40
1.0
176
     1
 40
1.0
176
     1
  0
VISUALSTYLE
  5
34
102
{ACAD_REACTORS
330
2A
102
}
330
2A
100
AcDbVisualStyle
  2
Conceptual
 70
     9
177
     3
291
     0
 70
    58
 90
        3
176
     1
 90
        2
176
     1
 90
        0
176
     1
 90
        0
176
     1
 40
0.6
176
     1
 40
30.0
176
     1
 62
     7
420
 16777215
176
     1
 90
        2
176
     1
 90
        2
176
     1
 62
     7
176
     1
 62
   257
176
     1
 90
        1
176
     1
 90
        1
176
     1
 40
179.0
176
     1
 90
        8
176
     1
 62
     7
176
     1
 40
1.0
176
     1
 90
        1
176
     1
 90
        6
176
     1
 90
        2
176
     1
 62
     7
176
     1
 90
        3
176
     1
 90
        0
176
     1
 90
        0
176
     1
290
     0
176
     1
 90
        1
176
     1
 40
0.0
176
     1
 90
        0
176
     1
290
     0
176
     1
290
     1
176
     1
290
     1
176
     1
290
     0
176
     1
290
     0
176
     1
290
     0
176
     1
290
     0
176
     1
290
     0
176
     1
290
     0
176
     1
 90
       50
176
     1
 40
0.0
176
     1
 40
1.0
176
     1
 90
        0
176
     1
 62
    18
420
        0
176
     1
 90
       50
176
     1
 90
        3
176
     1
 62
     5
420
      255
176
     1
290
     0
176
     1
 90
       50
176
     1
 90
       50
176
     1
 90
       50
176
     1
290
     0
176
     1
 90
       50
176
     1
 62
   256
176
     0
 40
1.0
176
     0
 90
        2
176
     1
  1
strokes_ogs.tif
176
     1
290
     0
176
     1
 40
1.0
176
     1
 40
1.0
176
     1
  0
VISUALSTYLE
  5
35
102
{ACAD_REACTORS
330
2A
102
}
330
2A
100
AcDbVisualStyle
  2
Dim
 70
    11
177
     3
291
     1
 70
    58
 90
        2
176
     1
 90
        2
176
     1
 90
        0
176
     1
 90
        0
176
     1
 40
0.6
176
     1
 40
30.0
176
     1
 62
     7
420
 16777215
176
     1
 90
        1
176
     1
 90
        4
176
     1
 62
     7
176
     1
 62
   257
176
     1
 90
        1
176
     1
 90
        1
176
     1
 40
1.0
176
     1
 90
        8
176
     1
 62
     7
176
     1
 40
1.0
176
     1
 90
        1
176
     1
 90
        6
176
     1
 90
        2
176
     1
 62
     7
176
     1
 90
        5
176
     1
 90
        0
176
     1
 90
        0
176
     1
290
     0
176
     1
 90
        1
176
     1
 40
-50.0
176
     1
 90
        0
176
     1
290
     0
176
     1
290
     1
176
     1
290
     1
176
     1
290
     0
176
     1
290
     0
176
     1
290
     0
176
     1
290
     0
176
     1
290
     0
176
     1
290
     0
176
     1
 90
       50
176
     1
 40
0.0
176
     1
 40
1.0
176
     1
 90
        0
176
     1
 62
    18
420
        0
176
     1
 90
       50
176
     1
 90
        3
176
     1
 62
     5
420
      255
176
     1
290
     0
176
     1
 90
       50
176
     1
 90
       50
176
     1
 90
       50
176
     1
290
     0
176
     1
 90
       50
176
     1
 62
   256
176
     0
 40
1.0
176
     0
 90
        2
176
     1
  1
strokes_ogs.tif
176
     1
290
     0
176
     1
 40
1.0
176
     1
 40
1.0
176
     1
  0
VISUALSTYLE
  5
3D
102
{ACAD_REACTORS
330
2A
102
}
330
2A
100
AcDbVisualStyle
  2
EdgeColorOff
 70
    22
177
     3
291
     1
 70
    58
 90
        2
176
     0
 90
        2
176
     0
 90
        0
176
     0
 90
        0
176
     0
 40
0.6
176
     0
 40
30.0
176
     0
 62
     7
420
 16777215
176
     0
 90
        1
176
     0
 90
        4
176
     0
 62
     7
176
     0
 62
   257
176
     0
 90
        1
176
     0
 90
        1
176
     0
 40
1.0
176
     0
 90
        8
176
     2
 62
     7
176
     0
 40
1.0
176
     0
 90
        1
176
     0
 90
        6
176
     0
 90
        2
176
     0
 62
     7
176
     0
 90
        5
176
     0
 90
        0
176
     0
 90
        0
176
     0
290
     0
176
     0
 90
        1
176
     0
 40
0.0
176
     0
 90
        0
176
     0
290
     0
176
     0
290
     1
176
     0
290
     1
176
     0
290
     0
176
     0
290
     0
176
     0
290
     0
176
     0
290
     0
176
     0
290
     0
176
     0
290
     0
176
     0
 90
       50
176
     0
 40
0.0
176
     0
 40
1.0
176
     0
 90
        0
176
     0
 62
    18
420
        0
176
     0
 90
       50
176
     0
 90
        3
176
     0
 62
     5
420
      255
176
     0
290
     0
176
     0
 90
       50
176
     0
 90
       50
176
     0
 90
       50
176
     0
290
     0
176
     0
 90
       50
176
     0
 62
   256
176
     0
 40
1.0
176
     0
 90
        2
176
     0
  1
strokes_ogs.tif
176
     0
290
     0
176
     0
 40
1.0
176
     0
 40
1.0
176
     0
  0
VISUALSTYLE
  5
39
102
{ACAD_REACTORS
330
2A
102
}
330
2A
100
AcDbVisualStyle
  2
Facepattern
 70
    15
177
     3
291
     1
 70
    58
 90
        2
176
     1
 90
        2
176
     1
 90
        0
176
     1
 90
        0
176
     1
 40
0.6
176
     1
 40
30.0
176
     1
 62
     7
420
 16777215
176
     1
 90
        1
176
     1
 90
        4
176
     1
 62
     7
176
     1
 62
   257
176
     1
 90
        1
176
     1
 90
        1
176
     1
 40
1.0
176
     1
 90
        8
176
     1
 62
     7
176
     1
 40
1.0
176
     1
 90
        1
176
     1
 90
        6
176
     1
 90
        2
176
     1
 62
     7
176
     1
 90
        5
176
     1
 90
        0
176
     1
 90
        0
176
     1
290
     0
176
     1
 90
        1
176
     1
 40
0.0
176
     1
 90
        0
176
     1
290
     0
176
     1
290
     1
176
     1
290
     1
176
     1
290
     0
176
     1
290
     0
176
     1
290
     0
176
     1
290
     0
176
     1
290
     0
176
     1
290
     0
176
     1
 90
       50
176
     1
 40
0.0
176
     1
 40
1.0
176
     1
 90
        0
176
     1
 62
    18
420
        0
176
     1
 90
       50
176
     1
 90
        3
176
     1
 62
     5
420
      255
176
     1
290
     0
176
     1
 90
       50
176
     1
 90
       50
176
     1
 90
       50
176
     1
290
     0
176
     1
 90
       50
176
     1
 62
   256
176
     0
 40
1.0
176
     0
 90
        2
176
     1
  1
strokes_ogs.tif
176
     1
290
     0
176
     1
 40
1.0
176
     1
 40
1.0
176
     1
  0
VISUALSTYLE
  5
2B
102
{ACAD_REACTORS
330
2A
102
}
330
2A
100
AcDbVisualStyle
  2
Flat
 70
     0
177
     3
291
     1
 70
    58
 90
        2
176
     1
 90
        1
176
     1
 90
        1
176
     1
 90
        2
176
     1
 40
0.6
176
     1
 40
30.0
176
     1
 62
     7
420
 16777215
176
     1
 90
        0
176
     1
 90
        0
176
     1
 62
     7
176
     1
 62
   257
176
     1
 90
        1
176
     1
 90
        1
176
     1
 40
1.0
176
     1
 90
        8
176
     1
 62
     7
176
     1
 40
1.0
176
     1
 90
        1
176
     1
 90
        6
176
     1
 90
        2
176
     1
 62
     7
176
     1
 90
        5
176
     1
 90
        0
176
     1
 90
        0
176
     1
290
     0
176
     1
 90
       13
176
     1
 40
0.0
176
     1
 90
        0
176
     1
290
     0
176
     1
290
     1
176
     1
290
     1
176
     1
290
     0
176
     1
290
     0
176
     1
290
     0
176
     1
290
     0
176
     1
290
     0
176
     1
290
     0
176
     1
 90
       50
176
     1
 40
0.0
176
     1
 40
1.0
176
     1
 90
        0
176
     1
 62
    18
420
        0
176
     1
 90
       50
176
     1
 90
        3
176
     1
 62
     5
420
      255
176
     1
290
     0
176
     1
 90
       50
176
     1
 90
       50
176
     1
 90
       50
176
     1
290
     0
176
     1
 90
       50
176
     1
 62
   256
176
     0
 40
1.0
176
     0
 90
        2
176
     1
  1
strokes_ogs.tif
176
     1
290
     0
176
     1
 40
1.0
176
     1
 40
1.0
176
     1
  0
VISUALSTYLE
  5
2C
102
{ACAD_REACTORS
330
2A
102
}
330
2A
100
AcDbVisualStyle
  2
FlatWithEdges
 70
     1
177
     3
291
     1
 70
    58
 90
        2
176
     1
 90
        1
176
     1
 90
        1
176
     1
 90
        2
176
     1
 40
0.6
176
     1
 40
30.0
176
     1
 62
     7
420
 16777215
176
     1
 90
        1
176
     1
 90
        0
176
     1
 62
     7
176
     1
 62
   257
176
     1
 90
        1
176
     1
 90
        1
176
     1
 40
1.0
176
     1
 90
        0
176
     1
 62
   257
176
     1
 40
1.0
176
     1
 90
        1
176
     1
 90
        6
176
     1
 90
        2
176
     1
 62
     7
176
     1
 90
        5
176
     1
 90
        0
176
     1
 90
        0
176
     1
290
     0
176
     1
 90
       13
176
     1
 40
0.0
176
     1
 90
        0
176
     1
290
     0
176
     1
290
     1
176
     1
290
     1
176
     1
290
     0
176
     1
290
     0
176
     1
290
     0
176
     1
290
     0
176
     1
290
     0
176
     1
290
     0
176
     1
 90
       50
176
     1
 40
0.0
176
     1
 40
1.0
176
     1
 90
        0
176
     1
 62
    18
420
        0
176
     1
 90
       50
176
     1
 90
        3
176
     1
 62
     5
420
      255
176
     1
290
     0
176
     1
 90
       50
176
     1
 90
       50
176
     1
 90
       50
176
     1
290
     0
176
     1
 90
       50
176
     1
 62
   256
176
     0
 40
1.0
176
     0
 90
        2
176
     1
  1
strokes_ogs.tif
176
     1
290
     0
176
     1
 40
1.0
176
     1
 40
1.0
176
     1
  0
VISUALSTYLE
  5
2D
102
{ACAD_REACTORS
330
2A
102
}
330
2A
100
AcDbVisualStyle
  2
Gouraud
 70
     2
177
     3
291
     1
 70
    58
 90
        2
176
     1
 90
        2
176
     1
 90
        1
176
     1
 90
        2
176
     1
 40
0.6
176
     1
 40
30.0
176
     1
 62
     7
420
 16777215
176
     1
 90
        0
176
     1
 90
        0
176
     1
 62
     7
176
     1
 62
   257
176
     1
 90
        1
176
     1
 90
        1
176
     1
 40
1.0
176
     1
 90
        0
176
     1
 62
     7
176
     1
 40
1.0
176
     1
 90
        1
176
     1
 90
        6
176
     1
 90
        2
176
     1
 62
     7
176
     1
 90
        5
176
     1
 90
        0
176
     1
 90
        0
176
     1
290
     0
176
     1
 90
       13
176
     1
 40
0.0
176
     1
 90
        0
176
     1
290
     0
176
     1
290
     1
176
     1
290
     1
176
     1
290
     0
176
     1
290
     0
176
     1
290
     0
176
     1
290
     0
176
     1
290
     0
176
     1
290
     0
176
     1
 90
       50
176
     1
 40
0.0
176
     1
 40
1.0
176
     1
 90
        0
176
     1
 62
    18
420
        0
176
     1
 90
       50
176
     1
 90
        3
176
     1
 62
     5
420
      255
176
     1
290
     0
176
     1
 90
       50
176
     1
 90
       50
176
     1
 90
       50
176
     1
290
     0
176
     1
 90
       50
176
     1
 62
   256
176
     0
 40
1.0
176
     0
 90
        2
176
     1
  1
strokes_ogs.tif
176
     1
290
     0
176
     1
 40
1.0
176
     1
 40
1.0
176
     1
  0
VISUALSTYLE
  5
2E
102
{ACAD_REACTORS
330
2A
102
}
330
2A
100
AcDbVisualStyle
  2
GouraudWithEdges
 70
     3
177
     3
291
     1
 70
    58
 90
        2
176
     1
 90
        2
176
     1
 90
        1
176
     1
 90
        2
176
     1
 40
0.6
176
     1
 40
30.0
176
     1
 62
     7
420
 16777215
176
     1
 90
        1
176
     1
 90
        0
176
     1
 62
     7
176
     1
 62
   257
176
     1
 90
        1
176
     1
 90
        1
176
     1
 40
1.0
176
     1
 90
        0
176
     1
 62
   257
176
     1
 40
1.0
176
     1
 90
        1
176
     1
 90
        6
176
     1
 90
        2
176
     1
 62
     7
176
     1
 90
        5
176
     1
 90
        0
176
     1
 90
        0
176
     1
290
     0
176
     1
 90
       13
176
     1
 40
0.0
176
     1
 90
        0
176
     1
290
     0
176
     1
290
     1
176
     1
290
     1
176
     1
290
     0
176
     1
290
     0
176
     1
290
     0
176
     1
290
     0
176
     1
290
     0
176
     1
290
     0
176
     1
 90
       50
176
     1
 40
0.0
176
     1
 40
1.0
176
     1
 90
        0
176
     1
 62
    18
420
        0
176
     1
 90
       50
176
     1
 90
        3
176
     1
 62
     5
420
      255
176
     1
290
     0
176
     1
 90
       50
176
     1
 90
       50
176
     1
 90
       50
176
     1
290
     0
176
     1
 90
       50
176
     1
 62
   256
176
     0
 40
1.0
176
     0
 90
        2
176
     1
  1
strokes_ogs.tif
176
     1
290
     0
176
     1
 40
1.0
176
     1
 40
1.0
176
     1
  0
VISUALSTYLE
  5
31
102
{ACAD_REACTORS
330
2A
102
}
330
2A
100
AcDbVisualStyle
  2
Hidden
 70
     6
177
     3
291
     0
 70
    58
 90
        1
176
     1
 90
        2
176
     1
 90
        2
176
     1
 90
        0
176
     1
 40
0.6
176
     1
 40
30.0
176
     1
 62
     7
420
 16777215
176
     1
 90
        2
176
     1
 90
        2
176
     1
 62
     7
176
     1
 62
   257
176
     1
 90
        2
176
     1
 90
        1
176
     1
 40
40.0
176
     1
 90
        0
176
     1
 62
   257
176
     1
 40
1.0
176
     1
 90
        1
176
     1
 90
        6
176
     1
 90
        2
176
     1
 62
     7
176
     1
 90
        3
176
     1
 90
        0
176
     1
 90
        0
176
     1
290
     0
176
     1
 90
        1
176
     1
 40
0.0
176
     1
 90
        0
176
     1
290
     0
176
     1
290
     1
176
     1
290
     1
176
     1
290
     0
176
     1
290
     0
176
     1
290
     0
176
     1
290
     0
176
     1
290
     0
176
     1
290
     0
176
     1
 90
       50
176
     1
 40
0.0
176
     1
 40
1.0
176
     1
 90
        0
176
     1
 62
    18
420
        0
176
     1
 90
       50
176
     1
 90
        3
176
     1
 62
     5
420
      255
176
     1
290
     0
176
     1
 90
       50
176
     1
 90
       50
176
     1
 90
       50
176
     1
290
     0
176
     1
 90
       50
176
     1
 62
   256
176
     0
 40
1.0
176
     0
 90
        2
176
     1
  1
strokes_ogs.tif
176
     1
290
     0
176
     1
 40
1.0
176
     1
 40
1.0
176
     1
  0
VISUALSTYLE
  5
3B
102
{ACAD_REACTORS
330
2A
102
}
330
2A
100
AcDbVisualStyle
  2
JitterOff
 70
    20
177
     3
291
     1
 70
    58
 90
        2
176
     0
 90
        2
176
     0
 90
        0
176
     0
 90
        0
176
     0
 40
0.6
176
     0
 40
30.0
176
     0
 62
     7
420
 16777215
176
     0
 90
        1
176
     0
 90
        4
176
     0
 62
     7
176
     0
 62
   257
176
     0
 90
        1
176
     0
 90
        1
176
     0
 40
1.0
176
     0
 90
       10
176
     2
 62
     7
176
     0
 40
1.0
176
     0
 90
        1
176
     0
 90
        6
176
     0
 90
        2
176
     0
 62
     7
176
     0
 90
        5
176
     0
 90
        0
176
     0
 90
        0
176
     0
290
     0
176
     0
 90
        1
176
     0
 40
0.0
176
     0
 90
        0
176
     0
290
     0
176
     0
290
     1
176
     0
290
     1
176
     0
290
     0
176
     0
290
     0
176
     0
290
     0
176
     0
290
     0
176
     0
290
     0
176
     0
290
     0
176
     0
 90
       50
176
     0
 40
0.0
176
     0
 40
1.0
176
     0
 90
        0
176
     0
 62
    18
420
        0
176
     0
 90
       50
176
     0
 90
        3
176
     0
 62
     5
420
      255
176
     0
290
     0
176
     0
 90
       50
176
     0
 90
       50
176
     0
 90
       50
176
     0
290
     0
176
     0
 90
       50
176
     0
 62
   256
176
     0
 40
1.0
176
     0
 90
        2
176
     0
  1
strokes_ogs.tif
176
     0
290
     0
176
     0
 40
1.0
176
     0
 40
1.0
176
     0
  0
VISUALSTYLE
  5
38
102
{ACAD_REACTORS
330
2A
102
}
330
2A
100
AcDbVisualStyle
  2
Linepattern
 70
    14
177
     3
291
     1
 70
    58
 90
        2
176
     1
 90
        2
176
     1
 90
        0
176
     1
 90
        0
176
     1
 40
0.6
176
     1
 40
30.0
176
     1
 62
     7
420
 16777215
176
     1
 90
        1
176
     1
 90
        4
176
     1
 62
     7
176
     1
 62
   257
176
     1
 90
        7
176
     1
 90
        7
176
     1
 40
1.0
176
     1
 90
        8
176
     1
 62
     7
176
     1
 40
1.0
176
     1
 90
        1
176
     1
 90
        6
176
     1
 90
        2
176
     1
 62
     7
176
     1
 90
        5
176
     1
 90
        0
176
     1
 90
        0
176
     1
290
     0
176
     1
 90
        1
176
     1
 40
0.0
176
     1
 90
        0
176
     1
290
     0
176
     1
290
     1
176
     1
290
     1
176
     1
290
     0
176
     1
290
     0
176
     1
290
     0
176
     1
290
     0
176
     1
290
     0
176
     1
290
     0
176
     1
 90
       50
176
     1
 40
0.0
176
     1
 40
1.0
176
     1
 90
        0
176
     1
 62
    18
420
        0
176
     1
 90
       50
176
     1
 90
        3
176
     1
 62
     5
420
      255
176
     1
290
     0
176
     1
 90
       50
176
     1
 90
       50
176
     1
 90
       50
176
     1
290
     0
176
     1
 90
       50
176
     1
 62
   256
176
     0
 40
1.0
176
     0
 90
        2
176
     1
  1
strokes_ogs.tif
176
     1
290
     0
176
     1
 40
1.0
176
     1
 40
1.0
176
     1
  0
VISUALSTYLE
  5
3C
102
{ACAD_REACTORS
330
2A
102
}
330
2A
100
AcDbVisualStyle
  2
OverhangOff
 70
    21
177
     3
291
     1
 70
    58
 90
        2
176
     0
 90
        2
176
     0
 90
        0
176
     0
 90
        0
176
     0
 40
0.6
176
     0
 40
30.0
176
     0
 62
     7
420
 16777215
176
     0
 90
        1
176
     0
 90
        4
176
     0
 62
     7
176
     0
 62
   257
176
     0
 90
        1
176
     0
 90
        1
176
     0
 40
1.0
176
     0
 90
        9
176
     2
 62
     7
176
     0
 40
1.0
176
     0
 90
        1
176
     0
 90
        6
176
     0
 90
        2
176
     0
 62
     7
176
     0
 90
        5
176
     0
 90
        0
176
     0
 90
        0
176
     0
290
     0
176
     0
 90
        1
176
     0
 40
0.0
176
     0
 90
        0
176
     0
290
     0
176
     0
290
     1
176
     0
290
     1
176
     0
290
     0
176
     0
290
     0
176
     0
290
     0
176
     0
290
     0
176
     0
290
     0
176
     0
290
     0
176
     0
 90
       50
176
     0
 40
0.0
176
     0
 40
1.0
176
     0
 90
        0
176
     0
 62
    18
420
        0
176
     0
 90
       50
176
     0
 90
        3
176
     0
 62
     5
420
      255
176
     0
290
     0
176
     0
 90
       50
176
     0
 90
       50
176
     0
 90
       50
176
     0
290
     0
176
     0
 90
       50
176
     0
 62
   256
176
     0
 40
1.0
176
     0
 90
        2
176
     0
  1
strokes_ogs.tif
176
     0
290
     0
176
     0
 40
1.0
176
     0
 40
1.0
176
     0
  0
VISUALSTYLE
  5
33
102
{ACAD_REACTORS
330
2A
102
}
330
2A
100
AcDbVisualStyle
  2
Realistic
 70
     8
177
     3
291
     0
 70
    58
 90
        2
176
     1
 90
        3
176
     1
 90
        0
176
     1
 90
        2
176
     1
 40
0.6
176
     1
 40
30.0
176
     1
 62
     7
420
 16777215
176
     1
 90
        0
176
     1
 90
        0
176
     1
 62
     7
176
     1
 62
   257
176
     1
 90
        1
176
     1
 90
        1
176
     1
 40
1.0
176
     1
 90
        8
176
     1
 62
   257
176
     1
 40
1.0
176
     1
 90
        1
176
     1
 90
        6
176
     1
 90
        2
176
     1
 62
     7
176
     1
 90
        3
176
     1
 90
        0
176
     1
 90
        0
176
     1
290
     0
176
     1
 90
       13
176
     1
 40
0.0
176
     1
 90
        0
176
     1
290
     0
176
     1
290
     1
176
     1
290
     1
176
     1
290
     0
176
     1
290
     0
176
     1
290
     0
176
     1
290
     0
176
     1
290
     0
176
     1
290
     0
176
     1
 90
       50
176
     1
 40
0.0
176
     1
 40
1.0
176
     1
 90
        0
176
     1
 62
    18
420
        0
176
     1
 90
       50
176
     1
 90
        3
176
     1
 62
     5
420
      255
176
     1
290
     0
176
     1
 90
       50
176
     1
 90
       50
176
     1
 90
       50
176
     1
290
     0
176
     1
 90
       50
176
     1
 62
   256
176
     0
 40
1.0
176
     0
 90
        2
176
     1
  1
strokes_ogs.tif
176
     1
290
     0
176
     1
 40
1.0
176
     1
 40
1.0
176
     1
  0
VISUALSTYLE
  5
42
102
{ACAD_REACTORS
330
2A
102
}
330
2A
100
AcDbVisualStyle
  2
Shaded
 70
    27
177
     3
291
     0
 70
    58
 90
        2
176
     1
 90
        2
176
     1
 90
        1
176
     1
 90
        2
176
     1
 40
0.6
176
     1
 40
30.0
176
     1
 62
     7
420
 16777215
176
     1
 90
        0
176
     1
 90
        4
176
     1
 62
     7
176
     1
 62
   257
176
     1
 90
        1
176
     1
 90
        1
176
     1
 40
1.0
176
     1
 90
        8
176
     1
 62
   257
176
     1
 40
1.0
176
     1
 90
        1
176
     1
 90
        6
176
     1
 90
        2
176
     1
 62
     8
420
  7895160
176
     1
 90
        3
176
     1
 90
        0
176
     1
 90
        0
176
     1
290
     0
176
     1
 90
        5
176
     1
 40
0.0
176
     1
 90
        0
176
     1
290
     0
176
     1
290
     1
176
     1
290
     1
176
     1
290
     0
176
     1
290
     0
176
     1
290
     0
176
     1
290
     0
176
     1
290
     0
176
     1
290
     0
176
     1
 90
       50
176
     1
 40
0.0
176
     1
 40
1.0
176
     1
 90
        0
176
     1
 62
    18
420
        0
176
     1
 90
       50
176
     1
 90
        3
176
     1
 62
     5
420
      255
176
     1
290
     0
176
     1
 90
       50
176
     1
 90
       50
176
     1
 90
       50
176
     1
290
     0
176
     1
 90
       50
176
     1
 62
   256
176
     0
 40
1.0
176
     0
 90
        2
176
     1
  1
strokes_ogs.tif
176
     1
290
     0
176
     1
 40
1.0
176
     1
 40
1.0
176
     1
  0
VISUALSTYLE
  5
41
102
{ACAD_REACTORS
330
2A
102
}
330
2A
100
AcDbVisualStyle
  2
Shaded with edges
 70
    26
177
     3
291
     0
 70
    58
 90
        2
176
     1
 90
        2
176
     1
 90
        1
176
     1
 90
        2
176
     1
 40
0.6
176
     1
 40
30.0
176
     1
 62
     7
420
 16777215
176
     1
 90
        1
176
     1
 90
       10
176
     1
 62
     7
176
     1
 62
   257
176
     1
 90
        2
176
     1
 90
        1
176
     1
 40
1.0
176
     1
 90
        8
176
     1
 62
   257
176
     1
 40
1.0
176
     1
 90
        1
176
     1
 90
        6
176
     1
 90
        2
176
     1
 62
     7
176
     1
 90
        3
176
     1
 90
        0
176
     1
 90
        0
176
     1
290
     0
176
     1
 90
        5
176
     1
 40
0.0
176
     1
 90
        0
176
     1
290
     0
176
     1
290
     1
176
     1
290
     1
176
     1
290
     0
176
     1
290
     0
176
     1
290
     0
176
     1
290
     0
176
     1
290
     0
176
     1
290
     0
176
     1
 90
       50
176
     1
 40
0.0
176
     1
 40
1.0
176
     1
 90
        0
176
     1
 62
    18
420
        0
176
     1
 90
       50
176
     1
 90
        3
176
     1
 62
     5
420
      255
176
     1
290
     0
176
     1
 90
       50
176
     1
 90
       50
176
     1
 90
       50
176
     1
290
     0
176
     1
 90
       50
176
     1
 62
   256
176
     0
 40
1.0
176
     0
 90
        2
176
     1
  1
strokes_ogs.tif
176
     1
290
     0
176
     1
 40
1.0
176
     1
 40
1.0
176
     1
  0
VISUALSTYLE
  5
3E
102
{ACAD_REACTORS
330
2A
102
}
330
2A
100
AcDbVisualStyle
  2
Shades of Gray
 70
    23
177
     3
291
     0
 70
    58
 90
        2
176
     1
 90
        2
176
     1
 90
        3
176
     1
 90
        0
176
     1
 40
0.6
176
     1
 40
30.0
176
     1
 62
     7
420
 16777215
176
     1
 90
        2
176
     1
 90
        2
176
     1
 62
     7
176
     1
 62
     7
176
     1
 90
        1
176
     1
 90
        1
176
     1
 40
40.0
176
     1
 90
        8
176
     1
 62
     7
176
     1
 40
1.0
176
     1
 90
        1
176
     1
 90
        6
176
     1
 90
        2
176
     1
 62
     7
176
     1
 90
        3
176
     1
 90
        0
176
     1
 90
        0
176
     1
290
     0
176
     1
 90
        1
176
     1
 40
0.0
176
     1
 90
        0
176
     1
290
     0
176
     1
290
     1
176
     1
290
     1
176
     1
290
     0
176
     1
290
     0
176
     1
290
     0
176
     1
290
     0
176
     1
290
     0
176
     1
290
     0
176
     1
 90
       50
176
     1
 40
0.0
176
     1
 40
1.0
176
     1
 90
        0
176
     1
 62
    18
420
        0
176
     1
 90
       50
176
     1
 90
        3
176
     1
 62
     5
420
      255
176
     1
290
     0
176
     1
 90
       50
176
     1
 90
       50
176
     1
 90
       50
176
     1
290
     0
176
     1
 90
       50
176
     1
 62
   256
176
     0
 40
1.0
176
     0
 90
        2
176
     1
  1
strokes_ogs.tif
176
     1
290
     0
176
     1
 40
1.0
176
     1
 40
1.0
176
     1
  0
VISUALSTYLE
  5
3F
102
{ACAD_REACTORS
330
2A
102
}
330
2A
100
AcDbVisualStyle
  2
Sketchy
 70
    24
177
     3
291
     0
 70
    58
 90
        1
176
     1
 90
        2
176
     1
 90
        2
176
     1
 90
        0
176
     1
 40
0.6
176
     1
 40
30.0
176
     1
 62
     7
420
 16777215
176
     1
 90
        2
176
     1
 90
        2
176
     1
 62
     7
176
     1
 62
     7
176
     1
 90
        1
176
     1
 90
        1
176
     1
 40
40.0
176
     1
 90
       11
176
     1
 62
     7
176
     1
 40
1.0
176
     1
 90
        1
176
     1
 90
        6
176
     1
 90
        2
176
     1
 62
     7
176
     1
 90
        6
176
     1
 90
        0
176
     1
 90
        0
176
     1
290
     0
176
     1
 90
        1
176
     1
 40
0.0
176
     1
 90
        0
176
     1
290
     0
176
     1
290
     1
176
     1
290
     1
176
     1
290
     0
176
     1
290
     0
176
     1
290
     0
176
     1
290
     0
176
     1
290
     0
176
     1
290
     0
176
     1
 90
       50
176
     1
 40
0.0
176
     1
 40
1.0
176
     1
 90
        0
176
     1
 62
    18
420
        0
176
     1
 90
       50
176
     1
 90
        3
176
     1
 62
     5
420
      255
176
     1
290
     0
176
     1
 90
       50
176
     1
 90
       50
176
     1
 90
       50
176
     1
290
     0
176
     1
 90
       50
176
     1
 62
   256
176
     0
 40
1.0
176
     0
 90
        2
176
     1
  1
strokes_ogs.tif
176
     1
290
     0
176
     1
 40
1.0
176
     1
 40
1.0
176
     1
  0
VISUALSTYLE
  5
37
102
{ACAD_REACTORS
330
2A
102
}
330
2A
100
AcDbVisualStyle
  2
Thicken
 70
    13
177
     3
291
     1
 70
    58
 90
        2
176
     1
 90
        2
176
     1
 90
        0
176
     1
 90
        0
176
     1
 40
0.6
176
     1
 40
30.0
176
     1
 62
     7
420
 16777215
176
     1
 90
        1
176
     1
 90
        4
176
     1
 62
     7
176
     1
 62
   257
176
     1
 90
        1
176
     1
 90
        1
176
     1
 40
1.0
176
     1
 90
       12
176
     1
 62
     7
176
     1
 40
1.0
176
     1
 90
        1
176
     1
 90
        6
176
     1
 90
        2
176
     1
 62
     7
176
     1
 90
        5
176
     1
 90
        0
176
     1
 90
        0
176
     1
290
     0
176
     1
 90
        1
176
     1
 40
0.0
176
     1
 90
        0
176
     1
290
     0
176
     1
290
     1
176
     1
290
     1
176
     1
290
     0
176
     1
290
     0
176
     1
290
     0
176
     1
290
     0
176
     1
290
     0
176
     1
290
     0
176
     1
 90
       50
176
     1
 40
0.0
176
     1
 40
1.0
176
     1
 90
        0
176
     1
 62
    18
420
        0
176
     1
 90
       50
176
     1
 90
        3
176
     1
 62
     5
420
      255
176
     1
290
     0
176
     1
 90
       50
176
     1
 90
       50
176
     1
 90
       50
176
     1
290
     0
176
     1
 90
       50
176
     1
 62
   256
176
     0
 40
1.0
176
     0
 90
        2
176
     1
  1
strokes_ogs.tif
176
     1
290
     0
176
     1
 40
1.0
176
     1
 40
1.0
176
     1
  0
VISUALSTYLE
  5
30
102
{ACAD_REACTORS
330
2A
102
}
330
2A
100
AcDbVisualStyle
  2
Wireframe
 70
     5
177
     3
291
     0
 70
    58
 90
        0
176
     1
 90
        2
176
     1
 90
        0
176
     1
 90
        0
176
     1
 40
0.6
176
     1
 40
30.0
176
     1
 62
     7
420
 16777215
176
     1
 90
        1
176
     1
 90
        4
176
     1
 62
     7
176
     1
 62
   257
176
     1
 90
        1
176
     1
 90
        1
176
     1
 40
1.0
176
     1
 90
        0
176
     1
 62
   257
176
     1
 40
1.0
176
     1
 90
        1
176
     1
 90
        6
176
     1
 90
        2
176
     1
 62
     7
176
     1
 90
        3
176
     1
 90
        0
176
     1
 90
        0
176
     1
290
     0
176
     1
 90
        1
176
     1
 40
0.0
176
     1
 90
        0
176
     1
290
     0
176
     1
290
     1
176
     1
290
     1
176
     1
290
     0
176
     1
290
     0
176
     1
290
     0
176
     1
290
     0
176
     1
290
     0
176
     1
290
     0
176
     1
 90
       50
176
     1
 40
0.0
176
     1
 40
1.0
176
     1
 90
        0
176
     1
 62
    18
420
        0
176
     1
 90
       50
176
     1
 90
        3
176
     1
 62
     5
420
      255
176
     1
290
     0
176
     1
 90
       50
176
     1
 90
       50
176
     1
 90
       50
176
     1
290
     0
176
     1
 90
       50
176
     1
 62
   256
176
     0
 40
1.0
176
     0
 90
        2
176
     1
  1
strokes_ogs.tif
176
     1
290
     0
176
     1
 40
1.0
176
     1
 40
1.0
176
     1
  0
VISUALSTYLE
  5
40
102
{ACAD_REACTORS
330
2A
102
}
330
2A
100
AcDbVisualStyle
  2
X-Ray
 70
    25
177
     3
291
     0
 70
    58
 90
        2
176
     1
 90
        2
176
     1
 90
        1
176
     1
 90
        1
176
     1
 40
0.5
176
     1
 40
30.0
176
     1
 62
     7
420
 16777215
176
     1
 90
        1
176
     1
 90
        0
176
     1
 62
     7
176
     1
 62
   257
176
     1
 90
        1
176
     1
 90
        1
176
     1
 40
1.0
176
     1
 90
        8
176
     1
 62
     7
176
     1
 40
1.0
176
     1
 90
        1
176
     1
 90
        6
176
     1
 90
        2
176
     1
 62
     7
176
     1
 90
        3
176
     1
 90
        0
176
     1
 90
        0
176
     1
290
     0
176
     1
 90
       13
176
     1
 40
0.0
176
     1
 90
        0
176
     1
290
     0
176
     1
290
     1
176
     1
290
     1
176
     1
290
     0
176
     1
290
     0
176
     1
290
     0
176
     1
290
     0
176
     1
290
     0
176
     1
290
     0
176
     1
 90
       50
176
     1
 40
0.0
176
     1
 40
1.0
176
     1
 90
        0
176
     1
 62
    18
420
        0
176
     1
 90
       50
176
     1
 90
        3
176
     1
 62
     5
420
      255
176
     1
290
     0
176
     1
 90
       50
176
     1
 90
       50
176
     1
 90
       50
176
     1
290
     0
176
     1
 90
       50
176
     1
 62
   256
176
     0
 40
1.0
176
     0
 90
        2
176
     1
  1
strokes_ogs.tif
176
     1
290
     0
176
     1
 40
1.0
176
     1
 40
1.0
176
     1
  0
DICTIONARYVAR
  5
281
102
{ACAD_REACTORS
330
280
102
}
330
280
100
DictionaryVariables
280
     0
  1
1:1
  0
DICTIONARYVAR
  5
286
102
{ACAD_REACTORS
330
280
102
}
330
280
100
DictionaryVariables
280
     0
  1
Standard
  0
DICTIONARYVAR
  5
285
102
{ACAD_REACTORS
330
280
102
}
330
280
100
DictionaryVariables
280
     0
  1
Standard
  0
DICTIONARY
  5
282
330
6A
100
AcDbDictionary
280
     1
281
     1
  3
ACAD_ROUNDTRIP_2008_TABLESTYLE_CELLSTYLEMAP
360
283
  0
CELLSTYLEMAP
  5
283
102
{ACAD_REACTORS
330
282
102
}
330
282
100
AcDbCellStyleMap
 90
        3
300
CELLSTYLE
  1
TABLEFORMAT_BEGIN
 90
        5
170
     1
 91
        0
 92
    32768
 62
   257
 93
        1
300
CONTENTFORMAT
  1
CONTENTFORMAT_BEGIN
 90
        0
 91
        0
 92
        4
 93
        0
300

 40
0.0
140
1.0
 94
        5
 62
     0
340
11
144
0.25
309
CONTENTFORMAT_END
171
     1
301
MARGIN
  1
CELLMARGIN_BEGIN
 40
0.06
 40
0.06
 40
0.06
 40
0.06
 40
0.06
 40
0.06
309
CELLMARGIN_END
 94
        6
 95
        1
302
GRIDFORMAT
  1
GRIDFORMAT_BEGIN
 90
        0
 91
        1
 62
     0
 92
       -2
340
14
 93
        0
 40
0.045
309
GRIDFORMAT_END
 95
        2
302
GRIDFORMAT
  1
GRIDFORMAT_BEGIN
 90
        0
 91
        1
 62
     0
 92
       -2
340
14
 93
        0
 40
0.045
309
GRIDFORMAT_END
 95
        4
302
GRIDFORMAT
  1
GRIDFORMAT_BEGIN
 90
        0
 91
        1
 62
     0
 92
       -2
340
14
 93
        0
 40
0.045
309
GRIDFORMAT_END
 95
        8
302
GRIDFORMAT
  1
GRIDFORMAT_BEGIN
 90
        0
 91
        1
 62
     0
 92
       -2
340
14
 93
        0
 40
0.045
309
GRIDFORMAT_END
 95
       16
302
GRIDFORMAT
  1
GRIDFORMAT_BEGIN
 90
        0
 91
        1
 62
     0
 92
       -2
340
14
 93
        0
 40
0.045
309
GRIDFORMAT_END
 95
       32
302
GRIDFORMAT
  1
GRIDFORMAT_BEGIN
 90
        0
 91
        1
 62
     0
 92
       -2
340
14
 93
        0
 40
0.045
309
GRIDFORMAT_END
309
TABLEFORMAT_END
  1
CELLSTYLE_BEGIN
 90
        1
 91
        1
300
_TITLE
309
CELLSTYLE_END
300
CELLSTYLE
  1
TABLEFORMAT_BEGIN
 90
        5
170
     1
 91
        0
 92
        0
 62
   257
 93
        1
300
CONTENTFORMAT
  1
CONTENTFORMAT_BEGIN
 90
        0
 91
        0
 92
        4
 93
        0
300

 40
0.0
140
1.0
 94
        5
 62
     0
340
11
144
0.18
309
CONTENTFORMAT_END
171
     1
301
MARGIN
  1
CELLMARGIN_BEGIN
 40
0.06
 40
0.06
 40
0.06
 40
0.06
 40
0.06
 40
0.06
309
CELLMARGIN_END
 94
        6
 95
        1
302
GRIDFORMAT
  1
GRIDFORMAT_BEGIN
 90
        0
 91
        1
 62
     0
 92
       -2
340
14
 93
        0
 40
0.045
309
GRIDFORMAT_END
 95
        2
302
GRIDFORMAT
  1
GRIDFORMAT_BEGIN
 90
        0
 91
        1
 62
     0
 92
       -2
340
14
 93
        0
 40
0.045
309
GRIDFORMAT_END
 95
        4
302
GRIDFORMAT
  1
GRIDFORMAT_BEGIN
 90
        0
 91
        1
 62
     0
 92
       -2
340
14
 93
        0
 40
0.045
309
GRIDFORMAT_END
 95
        8
302
GRIDFORMAT
  1
GRIDFORMAT_BEGIN
 90
        0
 91
        1
 62
     0
 92
       -2
340
14
 93
        0
 40
0.045
309
GRIDFORMAT_END
 95
       16
302
GRIDFORMAT
  1
GRIDFORMAT_BEGIN
 90
        0
 91
        1
 62
     0
 92
       -2
340
14
 93
        0
 40
0.045
309
GRIDFORMAT_END
 95
       32
302
GRIDFORMAT
  1
GRIDFORMAT_BEGIN
 90
        0
 91
        1
 62
     0
 92
       -2
340
14
 93
        0
 40
0.045
309
GRIDFORMAT_END
309
TABLEFORMAT_END
  1
CELLSTYLE_BEGIN
 90
        2
 91
        1
300
_HEADER
309
CELLSTYLE_END
300
CELLSTYLE
  1
TABLEFORMAT_BEGIN
 90
        5
170
     1
 91
        0
 92
        0
 62
   257
 93
        1
300
CONTENTFORMAT
  1
CONTENTFORMAT_BEGIN
 90
        0
 91
        0
 92
        4
 93
        0
300

 40
0.0
140
1.0
 94
        2
 62
     0
340
11
144
0.18
309
CONTENTFORMAT_END
171
     1
301
MARGIN
  1
CELLMARGIN_BEGIN
 40
0.06
 40
0.06
 40
0.06
 40
0.06
 40
0.06
 40
0.06
309
CELLMARGIN_END
 94
        6
 95
        1
302
GRIDFORMAT
  1
GRIDFORMAT_BEGIN
 90
        0
 91
        1
 62
     0
 92
       -2
340
14
 93
        0
 40
0.045
309
GRIDFORMAT_END
 95
        2
302
GRIDFORMAT
  1
GRIDFORMAT_BEGIN
 90
        0
 91
        1
 62
     0
 92
       -2
340
14
 93
        0
 40
0.045
309
GRIDFORMAT_END
 95
        4
302
GRIDFORMAT
  1
GRIDFORMAT_BEGIN
 90
        0
 91
        1
 62
     0
 92
       -2
340
14
 93
        0
 40
0.045
309
GRIDFORMAT_END
 95
        8
302
GRIDFORMAT
  1
GRIDFORMAT_BEGIN
 90
        0
 91
        1
 62
     0
 92
       -2
340
14
 93
        0
 40
0.045
309
GRIDFORMAT_END
 95
       16
302
GRIDFORMAT
  1
GRIDFORMAT_BEGIN
 90
        0
 91
        1
 62
     0
 92
       -2
340
14
 93
        0
 40
0.045
309
GRIDFORMAT_END
 95
       32
302
GRIDFORMAT
  1
GRIDFORMAT_BEGIN
 90
        0
 91
        1
 62
     0
 92
       -2
340
14
 93
        0
 40
0.045
309
GRIDFORMAT_END
309
TABLEFORMAT_END
  1
CELLSTYLE_BEGIN
 90
        3
 91
        2
300
_DATA
309
CELLSTYLE_END
  0
ENDSEC
  0
EOF