0
SECTION
  2
HEADER
  9
$ACADVER
  1
AC1027
  9
$ACADMAINTVER
 70
     8
  9
$DWGCODEPAGE
  3
ANSI_1252
  9
$REQUIREDVERSIONS
160
                 0
  9
$COMMENTS
  1
File was created by Cadenas
  9
$CUSTOMPROPERTYTAG
  1
NN
  9
$CUSTOMPROPERTY
  1
Imperial - IP Pillow Block with Type E Dimensions 1-3/8 thru 2-3/16 inch 2-Bolt Labyrinth Seal Expansion
  9
$CUSTOMPROPERTYTAG
  1
NT
  9
$CUSTOMPROPERTY
  1
Imperial/E 2 Bolt Piliow Block Bearings
  9
$CUSTOMPROPERTYTAG
  1
NB
  9
$CUSTOMPROPERTY
  1
071186
  9
$CUSTOMPROPERTYTAG
  1
NBSYN
  9
$CUSTOMPROPERTY
  1
$PN.
  9
$CUSTOMPROPERTYTAG
  1
LINA
  9
$CUSTOMPROPERTY
  1
071186
  9
$CUSTOMPROPERTYTAG
  1
SS
  9
$CUSTOMPROPERTY
  1
1-5/8
  9
$CUSTOMPROPERTYTAG
  1
TYPE
  9
$CUSTOMPROPERTY
  1
Expansion
  9
$CUSTOMPROPERTYTAG
  1
PN
  9
$CUSTOMPROPERTY
  1
071186
  9
$CUSTOMPROPERTYTAG
  1
DESCRIPTION
  9
$CUSTOMPROPERTY
  1
EP2B-IP-110LE
  9
$CUSTOMPROPERTYTAG
  1
ST
  9
$CUSTOMPROPERTY
  1
Labyrinth Seal
  9
$CUSTOMPROPERTYTAG
  1
A
  9
$CUSTOMPROPERTY
  1
2.81
  9
$CUSTOMPROPERTYTAG
  1
B
  9
$CUSTOMPROPERTY
  1
7.88
  9
$CUSTOMPROPERTYTAG
  1
C
  9
$CUSTOMPROPERTY
  1
2.38
  9
$CUSTOMPROPERTYTAG
  1
DMIN
  9
$CUSTOMPROPERTY
  1
6.13
  9
$CUSTOMPROPERTYTAG
  1
DMAX
  9
$CUSTOMPROPERTY
  1
6.38
  9
$CUSTOMPROPERTYTAG
  1
F
  9
$CUSTOMPROPERTY
  1
1/2
  9
$CUSTOMPROPERTYTAG
  1
G
  9
$CUSTOMPROPERTY
  1
0.75
  9
$CUSTOMPROPERTYTAG
  1
H
  9
$CUSTOMPROPERTY
  1
1.25
  9
$CUSTOMPROPERTYTAG
  1
J
  9
$CUSTOMPROPERTY
  1
4.25
  9
$CUSTOMPROPERTYTAG
  1
L
  9
$CUSTOMPROPERTY
  1
3.00
  9
$CUSTOMPROPERTYTAG
  1
M
  9
$CUSTOMPROPERTY
  1
2.125
  9
$CUSTOMPROPERTYTAG
  1
R
  9
$CUSTOMPROPERTY
  1
0.98
  9
$CUSTOMPROPERTYTAG
  1
S
  9
$CUSTOMPROPERTY
  1
1.83
  9
$CUSTOMPROPERTYTAG
  1
X
  9
$CUSTOMPROPERTY
  1
0.19
  9
$CUSTOMPROPERTYTAG
  1
Y
  9
$CUSTOMPROPERTY
  1
0.020
  9
$CUSTOMPROPERTYTAG
  1
Z
  9
$CUSTOMPROPERTY
  1
2.08
  9
$CUSTOMPROPERTYTAG
  1
COMPANY
  9
$CUSTOMPROPERTY
  1
baldor
  9
$INSBASE
 10
0.0
 20
0.0
 30
0.0
  9
$EXTMIN
 10
1.000000000000000E+20
 20
1.000000000000000E+20
 30
1.000000000000000E+20
  9
$EXTMAX
 10
-1.000000000000000E+20
 20
-1.000000000000000E+20
 30
-1.000000000000000E+20
  9
$LIMMIN
 10
0.0
 20
0.0
  9
$LIMMAX
 10
12.0
 20
9.0
  9
$ORTHOMODE
 70
     0
  9
$REGENMODE
 70
     1
  9
$FILLMODE
 70
     1
  9
$QTEXTMODE
 70
     0
  9
$MIRRTEXT
 70
     1
  9
$LTSCALE
 40
1.0
  9
$ATTMODE
 70
     1
  9
$TEXTSIZE
 40
0.2
  9
$TRACEWID
 40
0.05
  9
$TEXTSTYLE
  7
Standard
  9
$CLAYER
  8
0
  9
$CELTYPE
  6
ByLayer
  9
$CECOLOR
 62
   256
  9
$CELTSCALE
 40
1.0
  9
$DISPSILH
 70
     0
  9
$DIMSCALE
 40
1.0
  9
$DIMASZ
 40
0.18
  9
$DIMEXO
 40
0.0625
  9
$DIMDLI
 40
0.38
  9
$DIMRND
 40
0.0
  9
$DIMDLE
 40
0.0
  9
$DIMEXE
 40
0.18
  9
$DIMTP
 40
0.0
  9
$DIMTM
 40
0.0
  9
$DIMTXT
 40
0.18
  9
$DIMCEN
 40
0.09
  9
$DIMTSZ
 40
0.0
  9
$DIMTOL
 70
     0
  9
$DIMLIM
 70
     0
  9
$DIMTIH
 70
     1
  9
$DIMTOH
 70
     1
  9
$DIMSE1
 70
     0
  9
$DIMSE2
 70
     0
  9
$DIMTAD
 70
     0
  9
$DIMZIN
 70
     0
  9
$DIMBLK
  1

  9
$DIMASO
 70
     1
  9
$DIMSHO
 70
     1
  9
$DIMPOST
  1

  9
$DIMAPOST
  1

  9
$DIMALT
 70
     0
  9
$DIMALTD
 70
     2
  9
$DIMALTF
 40
25.4
  9
$DIMLFAC
 40
1.0
  9
$DIMTOFL
 70
     0
  9
$DIMTVP
 40
0.0
  9
$DIMTIX
 70
     0
  9
$DIMSOXD
 70
     0
  9
$DIMSAH
 70
     0
  9
$DIMBLK1
  1

  9
$DIMBLK2
  1

  9
$DIMSTYLE
  2
Standard
  9
$DIMCLRD
 70
     0
  9
$DIMCLRE
 70
     0
  9
$DIMCLRT
 70
     0
  9
$DIMTFAC
 40
1.0
  9
$DIMGAP
 40
0.09
  9
$DIMJUST
 70
     0
  9
$DIMSD1
 70
     0
  9
$DIMSD2
 70
     0
  9
$DIMTOLJ
 70
     1
  9
$DIMTZIN
 70
     0
  9
$DIMALTZ
 70
     0
  9
$DIMALTTZ
 70
     0
  9
$DIMUPT
 70
     0
  9
$DIMDEC
 70
     4
  9
$DIMTDEC
 70
     4
  9
$DIMALTU
 70
     2
  9
$DIMALTTD
 70
     2
  9
$DIMTXSTY
  7
Standard
  9
$DIMAUNIT
 70
     0
  9
$DIMADEC
 70
     0
  9
$DIMALTRND
 40
0.0
  9
$DIMAZIN
 70
     0
  9
$DIMDSEP
 70
    46
  9
$DIMATFIT
 70
     3
  9
$DIMFRAC
 70
     0
  9
$DIMLDRBLK
  1

  9
$DIMLUNIT
 70
     2
  9
$DIMLWD
 70
    -2
  9
$DIMLWE
 70
    -2
  9
$DIMTMOVE
 70
     0
  9
$DIMFXL
 40
1.0
  9
$DIMFXLON
 70
     0
  9
$DIMJOGANG
 40
0.7853981633974483
  9
$DIMTFILL
 70
     0
  9
$DIMTFILLCLR
 70
     0
  9
$DIMARCSYM
 70
     0
  9
$DIMLTYPE
  6

  9
$DIMLTEX1
  6

  9
$DIMLTEX2
  6

  9
$DIMTXTDIRECTION
 70
     0
  9
$LUNITS
 70
     2
  9
$LUPREC
 70
     4
  9
$SKETCHINC
 40
0.1
  9
$FILLETRAD
 40
0.5
  9
$AUNITS
 70
     0
  9
$AUPREC
 70
     0
  9
$MENU
  1
.
  9
$ELEVATION
 40
0.0
  9
$PELEVATION
 40
0.0
  9
$THICKNESS
 40
0.0
  9
$LIMCHECK
 70
     0
  9
$CHAMFERA
 40
0.0
  9
$CHAMFERB
 40
0.0
  9
$CHAMFERC
 40
0.0
  9
$CHAMFERD
 40
0.0
  9
$SKPOLY
 70
     0
  9
$TDCREATE
 40
2458168.983378496
  9
$TDUCREATE
 40
2458168.941711829
  9
$TDUPDATE
 40
2458168.983378866
  9
$TDUUPDATE
 40
2458168.941712199
  9
$TDINDWG
 40
0.0000000116
  9
$TDUSRTIMER
 40
0.0000000116
  9
$USRTIMER
 70
     1
  9
$ANGBASE
 50
0.0
  9
$ANGDIR
 70
     0
  9
$PDMODE
 70
     0
  9
$PDSIZE
 40
0.0
  9
$PLINEWID
 40
0.0
  9
$SPLFRAME
 70
     0
  9
$SPLINETYPE
 70
     6
  9
$SPLINESEGS
 70
     8
  9
$HANDSEED
  5
288
  9
$SURFTAB1
 70
     6
  9
$SURFTAB2
 70
     6
  9
$SURFTYPE
 70
     6
  9
$SURFU
 70
     6
  9
$SURFV
 70
     6
  9
$UCSBASE
  2

  9
$UCSNAME
  2

  9
$UCSORG
 10
0.0
 20
0.0
 30
0.0
  9
$UCSXDIR
 10
1.0
 20
0.0
 30
0.0
  9
$UCSYDIR
 10
0.0
 20
1.0
 30
0.0
  9
$UCSORTHOREF
  2

  9
$UCSORTHOVIEW
 70
     0
  9
$UCSORGTOP
 10
0.0
 20
0.0
 30
0.0
  9
$UCSORGBOTTOM
 10
0.0
 20
0.0
 30
0.0
  9
$UCSORGLEFT
 10
0.0
 20
0.0
 30
0.0
  9
$UCSORGRIGHT
 10
0.0
 20
0.0
 30
0.0
  9
$UCSORGFRONT
 10
0.0
 20
0.0
 30
0.0
  9
$UCSORGBACK
 10
0.0
 20
0.0
 30
0.0
  9
$PUCSBASE
  2

  9
$PUCSNAME
  2

  9
$PUCSORG
 10
0.0
 20
0.0
 30
0.0
  9
$PUCSXDIR
 10
1.0
 20
0.0
 30
0.0
  9
$PUCSYDIR
 10
0.0
 20
1.0
 30
0.0
  9
$PUCSORTHOREF
  2

  9
$PUCSORTHOVIEW
 70
     0
  9
$PUCSORGTOP
 10
0.0
 20
0.0
 30
0.0
  9
$PUCSORGBOTTOM
 10
0.0
 20
0.0
 30
0.0
  9
$PUCSORGLEFT
 10
0.0
 20
0.0
 30
0.0
  9
$PUCSORGRIGHT
 10
0.0
 20
0.0
 30
0.0
  9
$PUCSORGFRONT
 10
0.0
 20
0.0
 30
0.0
  9
$PUCSORGBACK
 10
0.0
 20
0.0
 30
0.0
  9
$USERI1
 70
     0
  9
$USERI2
 70
     0
  9
$USERI3
 70
     0
  9
$USERI4
 70
     0
  9
$USERI5
 70
     0
  9
$USERR1
 40
0.0
  9
$USERR2
 40
0.0
  9
$USERR3
 40
0.0
  9
$USERR4
 40
0.0
  9
$USERR5
 40
0.0
  9
$WORLDVIEW
 70
     1
  9
$SHADEDGE
 70
     3
  9
$SHADEDIF
 70
    70
  9
$TILEMODE
 70
     1
  9
$MAXACTVP
 70
    64
  9
$PINSBASE
 10
0.0
 20
0.0
 30
0.0
  9
$PLIMCHECK
 70
     0
  9
$PEXTMIN
 10
1.000000000000000E+20
 20
1.000000000000000E+20
 30
1.000000000000000E+20
  9
$PEXTMAX
 10
-1.000000000000000E+20
 20
-1.000000000000000E+20
 30
-1.000000000000000E+20
  9
$PLIMMIN
 10
0.0
 20
0.0
  9
$PLIMMAX
 10
12.0
 20
9.0
  9
$UNITMODE
 70
     0
  9
$VISRETAIN
 70
     1
  9
$PLINEGEN
 70
     0
  9
$PSLTSCALE
 70
     1
  9
$TREEDEPTH
 70
  3020
  9
$CMLSTYLE
  2
Standard
  9
$CMLJUST
 70
     0
  9
$CMLSCALE
 40
1.0
  9
$PROXYGRAPHICS
 70
     1
  9
$MEASUREMENT
 70
     0
  9
$CELWEIGHT
370
    -1
  9
$ENDCAPS
280
     0
  9
$JOINSTYLE
280
     0
  9
$LWDISPLAY
290
     0
  9
$INSUNITS
 70
     1
  9
$HYPERLINKBASE
  1

  9
$STYLESHEET
  1

  9
$XEDIT
290
     1
  9
$CEPSNTYPE
380
     0
  9
$PSTYLEMODE
290
     1
  9
$FINGERPRINTGUID
  2
{26FDD699-D076-4D45-8F47-F5B14BC85B8E}
  9
$VERSIONGUID
  2
{FAEB1C32-E019-11D5-929B-00C0DF256EC4}
  9
$EXTNAMES
290
     1
  9
$PSVPSCALE
 40
0.0
  9
$OLESTARTUP
290
     0
  9
$SORTENTS
280
   127
  9
$INDEXCTL
280
     0
  9
$HIDETEXT
280
     1
  9
$XCLIPFRAME
280
     2
  9
$HALOGAP
280
     0
  9
$OBSCOLOR
 70
   257
  9
$OBSLTYPE
280
     0
  9
$INTERSECTIONDISPLAY
280
     0
  9
$INTERSECTIONCOLOR
 70
   257
  9
$DIMASSOC
280
     2
  9
$PROJECTNAME
  1

  9
$CAMERADISPLAY
290
     0
  9
$LENSLENGTH
 40
50.0
  9
$CAMERAHEIGHT
 40
0.0
  9
$STEPSPERSEC
 40
2.0
  9
$STEPSIZE
 40
6.0
  9
$3DDWFPREC
 40
2.0
  9
$PSOLWIDTH
 40
0.25
  9
$PSOLHEIGHT
 40
4.0
  9
$LOFTANG1
 40
1.570796326794897
  9
$LOFTANG2
 40
1.570796326794897
  9
$LOFTMAG1
 40
0.0
  9
$LOFTMAG2
 40
0.0
  9
$LOFTPARAM
 70
     7
  9
$LOFTNORMALS
280
     1
  9
$LATITUDE
 40
37.795
  9
$LONGITUDE
 40
-122.394
  9
$NORTHDIRECTION
 40
0.0
  9
$TIMEZONE
 70
 -8000
  9
$LIGHTGLYPHDISPLAY
280
     1
  9
$TILEMODELIGHTSYNCH
280
     1
  9
$CMATERIAL
347
44
  9
$SOLIDHIST
280
     0
  9
$SHOWHIST
280
     1
  9
$DWFFRAME
280
     2
  9
$DGNFRAME
280
     2
  9
$REALWORLDSCALE
290
     1
  9
$INTERFERECOLOR
 62
   256
  9
$CSHADOW
280
     0
  9
$SHADOWPLANELOCATION
 40
0.0
  0
ENDSEC
  0
SECTION
  2
CLASSES
  0
CLASS
  1
ACDBDICTIONARYWDFLT
  2
AcDbDictionaryWithDefault
  3
ObjectDBX Classes
 90
        0
 91
        4
280
     0
281
     0
  0
CLASS
  1
VISUALSTYLE
  2
AcDbVisualStyle
  3
ObjectDBX Classes
 90
     4095
 91
        4
280
     0
281
     0
  0
CLASS
  1
MATERIAL
  2
AcDbMaterial
  3
ObjectDBX Classes
 90
     1153
 91
        4
280
     0
281
     0
  0
CLASS
  1
SCALE
  2
AcDbScale
  3
ObjectDBX Classes
 90
     1153
 91
        4
280
     0
281
     0
  0
CLASS
  1
TABLESTYLE
  2
AcDbTableStyle
  3
ObjectDBX Classes
 90
     4095
 91
        4
280
     0
281
     0
  0
CLASS
  1
MLEADERSTYLE
  2
AcDbMLeaderStyle
  3
ACDB_MLEADERSTYLE_CLASS
 90
     4095
 91
        4
280
     0
281
     0
  0
CLASS
  1
SUN
  2
AcDbSun
  3
SCENEOE
 90
     1153
 91
        4
280
     0
281
     0
  0
CLASS
  1
DICTIONARYVAR
  2
AcDbDictionaryVar
  3
ObjectDBX Classes
 90
        0
 91
        4
280
     0
281
     0
  0
CLASS
  1
CELLSTYLEMAP
  2
AcDbCellStyleMap
  3
ObjectDBX Classes
 90
     1152
 91
        4
280
     0
281
     0
  0
ENDSEC
  0
SECTION
  2
TABLES
  0
TABLE
  2
VPORT
  5
8
330
0
100
AcDbSymbolTable
 70
     1
  0
VPORT
  5
29
330
8
100
AcDbSymbolTableRecord
100
AcDbViewportTableRecord
  2
*Active
 70
     0
 10
0.0
 20
0.0
 11
1.0
 21
1.0
 12
-0.24925
 22
0.089002500403061
 13
0.0
 23
0.0
 14
0.5
 24
0.5
 15
0.5
 25
0.5
 16
0.0
 26
0.0
 36
1.0
 17
0.0
 27
0.0
 37
0.0
 40
4.516565100822245
 41
0.7139784167868939
 42
50.0
 43
0.0
 44
0.0
 50
0.0
 51
0.0
 71
     0
 72
   100
 73
     1
 74
     3
 75
     0
 76
     0
 77
     0
 78
     0
281
     0
 65
     1
110
0.0
120
0.0
130
0.0
111
1.0
121
0.0
131
0.0
112
0.0
122
1.0
132
0.0
 79
     0
146
0.0
348
2F
 60
     3
 61
     5
292
     1
282
     1
141
0.0
142
0.0
 63
   250
361
6D
  0
ENDTAB
  0
TABLE
  2
LTYPE
  5
5
330
0
100
AcDbSymbolTable
 70
     3
  0
LTYPE
  5
14
330
5
100
AcDbSymbolTableRecord
100
AcDbLinetypeTableRecord
  2
ByBlock
 70
     0
  3

 72
    65
 73
     0
 40
0.0
  0
LTYPE
  5
15
330
5
100
AcDbSymbolTableRecord
100
AcDbLinetypeTableRecord
  2
ByLayer
 70
     0
  3

 72
    65
 73
     0
 40
0.0
  0
LTYPE
  5
16
330
5
100
AcDbSymbolTableRecord
100
AcDbLinetypeTableRecord
  2
Continuous
 70
     0
  3
Solid line
 72
    65
 73
     0
 40
0.0
  0
LTYPE
  5
9E
330
5
100
AcDbSymbolTableRecord
100
AcDbLinetypeTableRecord
  2
Dashed
 70
     0
  3

 72
    65
 73
     2
 40
2.0
 49
1.0
 74
     0
 49
-1.0
 74
     0
  0
LTYPE
  5
190
330
5
100
AcDbSymbolTableRecord
100
AcDbLinetypeTableRecord
  2
Center
 70
     0
  3

 72
    65
 73
     4
 40
1.5
 49
0.45
 74
     0
 49
-0.5
 74
     0
 49
0.05
 74
     0
 49
-0.5
 74
     0
  0
ENDTAB
  0
TABLE
  2
LAYER
  5
2
330
0
100
AcDbSymbolTable
 70
     7
  0
LAYER
  5
10
330
2
100
AcDbSymbolTableRecord
100
AcDbLayerTableRecord
  2
0
 70
     0
 62
     7
  6
Continuous
370
    -3
390
F
347
46
348
0
  0
LAYER
  5
72
330
2
100
AcDbSymbolTableRecord
100
AcDbLayerTableRecord
  2
AM_6
 70
     0
 62
    -2
  6
Continuous
370
    35
390
F
347
46
348
0
  0
LAYER
  5
9F
330
2
100
AcDbSymbolTableRecord
100
AcDbLayerTableRecord
  2
AM_9
 70
     0
 62
     6
  6
Dashed
370
    25
390
F
347
46
348
0
  0
LAYER
  5
AB
330
2
100
AcDbSymbolTableRecord
100
AcDbLayerTableRecord
  2
AM_5
 70
     0
 62
     3
  6
Continuous
370
    25
390
F
347
46
348
0
  0
LAYER
  5
AF
330
2
100
AcDbSymbolTableRecord
100
AcDbLayerTableRecord
  2
AM_4
 70
     0
 62
     7
  6
Continuous
370
    50
390
F
347
46
348
0
  0
LAYER
  5
191
330
2
100
AcDbSymbolTableRecord
100
AcDbLayerTableRecord
  2
AM_7
 70
     0
 62
     7
  6
Center
370
    25
390
F
347
46
348
0
  0
LAYER
  5
273
330
2
100
AcDbSymbolTableRecord
100
AcDbLayerTableRecord
  2
ConnectionPoints
 70
     0
 62
     7
  6
Continuous
370
    50
390
F
347
46
348
0
  0
ENDTAB
  0
TABLE
  2
STYLE
  5
3
330
0
100
AcDbSymbolTable
 70
     1
  0
STYLE
  5
11
330
3
100
AcDbSymbolTableRecord
100
AcDbTextStyleTableRecord
  2
Standard
 70
     0
 40
0.0
 41
1.0
 50
0.0
 71
     0
 42
0.2
  3
txt
  4

  0
ENDTAB
  0
TABLE
  2
VIEW
  5
6
330
0
100
AcDbSymbolTable
 70
     0
  0
ENDTAB
  0
TABLE
  2
UCS
  5
7
330
0
100
AcDbSymbolTable
 70
     0
  0
ENDTAB
  0
TABLE
  2
APPID
  5
9
330
0
100
AcDbSymbolTable
 70
     1
  0
APPID
  5
12
330
9
100
AcDbSymbolTableRecord
100
AcDbRegAppTableRecord
  2
ACAD
 70
     0
  0
ENDTAB
  0
TABLE
  2
DIMSTYLE
  5
A
330
0
100
AcDbSymbolTable
 70
     1
100
AcDbDimStyleTable
  0
DIMSTYLE
105
27
330
A
100
AcDbSymbolTableRecord
100
AcDbDimStyleTableRecord
  2
Standard
 70
     0
178
     0
340
11
  0
ENDTAB
  0
TABLE
  2
BLOCK_RECORD
  5
1
330
0
100
AcDbSymbolTable
 70
     8
  0
BLOCK_RECORD
  5
1F
330
1
100
AcDbSymbolTableRecord
100
AcDbBlockTableRecord
  2
*Model_Space
340
22
 70
     0
280
     1
281
     0
  0
BLOCK_RECORD
  5
1B
330
1
100
AcDbSymbolTableRecord
100
AcDbBlockTableRecord
  2
*Paper_Space
340
1E
 70
     0
280
     1
281
     0
  0
BLOCK_RECORD
  5
23
330
1
100
AcDbSymbolTableRecord
100
AcDbBlockTableRecord
  2
*Paper_Space0
340
26
 70
     0
280
     1
281
     0
  0
BLOCK_RECORD
  5
6E
330
1
100
AcDbSymbolTableRecord
100
AcDbBlockTableRecord
  2
1_071186_2
340
0
102
{BLKREFS
331
6F
102
}
 70
     0
280
     1
281
     0
  0
BLOCK_RECORD
  5
8E
330
1
100
AcDbSymbolTableRecord
100
AcDbBlockTableRecord
  2
2_ASME_B18_3_10_1_0_in_071186_2
340
0
102
{BLKREFS
331
8F
102
}
 70
     0
280
     1
281
     0
  0
BLOCK_RECORD
  5
B6
330
1
100
AcDbSymbolTableRecord
100
AcDbBlockTableRecord
  2
3_ASME_B18_3_10_2_0_in_071186_2
340
0
102
{BLKREFS
331
B7
102
}
 70
     0
280
     1
281
     0
  0
BLOCK_RECORD
  5
DA
330
1
100
AcDbSymbolTableRecord
100
AcDbBlockTableRecord
  2
4_070886LWE_0_in_071186_2
340
0
102
{BLKREFS
331
DB
102
}
 70
     0
280
     1
281
     0
  0
BLOCK_RECORD
  5
113
330
1
100
AcDbSymbolTableRecord
100
AcDbBlockTableRecord
  2
5_070886EL_0_in_071186_2
340
0
102
{BLKREFS
331
114
102
}
 70
     0
280
     1
281
     0
  0
BLOCK_RECORD
  5
1A5
330
1
100
AcDbSymbolTableRecord
100
AcDbBlockTableRecord
  2
6_405015E_Inch_0_in_071186_2
340
0
102
{BLKREFS
331
1A6
102
}
 70
     0
280
     1
281
     0
  0
BLOCK_RECORD
  5
209
330
1
100
AcDbSymbolTableRecord
100
AcDbBlockTableRecord
  2
7_071186Ho_0_in_071186_2
340
0
102
{BLKREFS
331
20A
102
}
 70
     0
280
     1
281
     0
  0
ENDTAB
  0
ENDSEC
  0
SECTION
  2
BLOCKS
  0
BLOCK
  5
20
330
1F
100
AcDbEntity
  8
0
100
AcDbBlockBegin
  2
*Model_Space
 70
     0
 10
0.0
 20
0.0
 30
0.0
  3
*Model_Space
  1

  0
ENDBLK
  5
21
330
1F
100
AcDbEntity
  8
0
100
AcDbBlockEnd
  0
BLOCK
  5
1C
330
1B
100
AcDbEntity
 67
     1
  8
0
100
AcDbBlockBegin
  2
*Paper_Space
 70
     0
 10
0.0
 20
0.0
 30
0.0
  3
*Paper_Space
  1

  0
ENDBLK
  5
1D
330
1B
100
AcDbEntity
 67
     1
  8
0
100
AcDbBlockEnd
  0
BLOCK
  5
24
330
23
100
AcDbEntity
  8
0
100
AcDbBlockBegin
  2
*Paper_Space0
 70
     0
 10
0.0
 20
0.0
 30
0.0
  3
*Paper_Space0
  1

  0
ENDBLK
  5
25
330
23
100
AcDbEntity
  8
0
100
AcDbBlockEnd
  0
BLOCK
  5
70
330
6E
100
AcDbEntity
  8
0
100
AcDbBlockBegin
  2
1_071186_2
 70
     2
 10
0.0
 20
0.0
 30
0.0
  3
1_071186_2
  1

  0
ATTDEF
  5
73
330
6E
100
AcDbEntity
  8
AM_6
100
AcDbText
 10
6.331500000000001
 20
2.303005000806122
 30
0.0
 40
0.5
  1
Imperial - IP Pillow Block with Type E Dimensions 1-3/8 thru 2-3/16 inch 2-Bolt Labyrinth Seal Expansion
100
AcDbAttributeDefinition
  3

  2
NN
 70
     8
280
     0
  0
ATTDEF
  5
74
330
6E
100
AcDbEntity
  8
AM_6
100
AcDbText
 10
6.331500000000001
 20
1.803005000806122
 30
0.0
 40
0.5
  1
Imperial/E 2 Bolt Piliow Block Bearings
100
AcDbAttributeDefinition
  3

  2
NT
 70
     8
280
     0
  0
ATTDEF
  5
75
330
6E
100
AcDbEntity
  8
AM_6
100
AcDbText
 10
6.331500000000001
 20
1.303005000806122
 30
0.0
 40
0.5
  1
071186
100
AcDbAttributeDefinition
  3

  2
NB
 70
     8
280
     0
  0
ATTDEF
  5
76
330
6E
100
AcDbEntity
  8
AM_6
100
AcDbText
 10
6.331500000000001
 20
0.8030050008061225
 30
0.0
 40
0.5
  1
$PN.
100
AcDbAttributeDefinition
  3

  2
NBSYN
 70
     8
280
     0
  0
ATTDEF
  5
77
330
6E
100
AcDbEntity
  8
AM_6
100
AcDbText
 10
6.331500000000001
 20
0.3030050008061225
 30
0.0
 40
0.5
  1
071186
100
AcDbAttributeDefinition
  3

  2
LINA
 70
     8
280
     0
  0
ATTDEF
  5
78
330
6E
100
AcDbEntity
  8
AM_6
100
AcDbText
 10
6.331500000000001
 20
-0.1969949991938775
 30
0.0
 40
0.5
  1
1-5/8
100
AcDbAttributeDefinition
  3

  2
SS
 70
     8
280
     0
  0
ATTDEF
  5
79
330
6E
100
AcDbEntity
  8
AM_6
100
AcDbText
 10
6.331500000000001
 20
-0.6969949991938775
 30
0.0
 40
0.5
  1
Expansion
100
AcDbAttributeDefinition
  3

  2
TYPE
 70
     8
280
     0
  0
ATTDEF
  5
7A
330
6E
100
AcDbEntity
  8
AM_6
100
AcDbText
 10
6.331500000000001
 20
-1.196994999193878
 30
0.0
 40
0.5
  1
071186
100
AcDbAttributeDefinition
  3

  2
PN
 70
     8
280
     0
  0
ATTDEF
  5
7B
330
6E
100
AcDbEntity
  8
AM_6
100
AcDbText
 10
6.331500000000001
 20
-1.696994999193878
 30
0.0
 40
0.5
  1
EP2B-IP-110LE
100
AcDbAttributeDefinition
  3

  2
DESCRIPTION
 70
     8
280
     0
  0
ATTDEF
  5
7C
330
6E
100
AcDbEntity
  8
AM_6
100
AcDbText
 10
6.331500000000001
 20
-2.196994999193878
 30
0.0
 40
0.5
  1
Labyrinth Seal
100
AcDbAttributeDefinition
  3

  2
ST
 70
     8
280
     0
  0
ATTDEF
  5
7D
330
6E
100
AcDbEntity
  8
AM_6
100
AcDbText
 10
6.331500000000001
 20
-2.696994999193878
 30
0.0
 40
0.5
  1
2.81
100
AcDbAttributeDefinition
  3

  2
A
 70
     8
280
     0
  0
ATTDEF
  5
7E
330
6E
100
AcDbEntity
  8
AM_6
100
AcDbText
 10
6.331500000000001
 20
-3.196994999193878
 30
0.0
 40
0.5
  1
7.88
100
AcDbAttributeDefinition
  3

  2
B
 70
     8
280
     0
  0
ATTDEF
  5
7F
330
6E
100
AcDbEntity
  8
AM_6
100
AcDbText
 10
6.331500000000001
 20
-3.696994999193878
 30
0.0
 40
0.5
  1
2.38
100
AcDbAttributeDefinition
  3

  2
C
 70
     8
280
     0
  0
ATTDEF
  5
80
330
6E
100
AcDbEntity
  8
AM_6
100
AcDbText
 10
6.331500000000001
 20
-4.196994999193878
 30
0.0
 40
0.5
  1
6.13
100
AcDbAttributeDefinition
  3

  2
DMIN
 70
     8
280
     0
  0
ATTDEF
  5
81
330
6E
100
AcDbEntity
  8
AM_6
100
AcDbText
 10
6.331500000000001
 20
-4.696994999193878
 30
0.0
 40
0.5
  1
6.38
100
AcDbAttributeDefinition
  3

  2
DMAX
 70
     8
280
     0
  0
ATTDEF
  5
82
330
6E
100
AcDbEntity
  8
AM_6
100
AcDbText
 10
6.331500000000001
 20
-5.196994999193878
 30
0.0
 40
0.5
  1
1/2
100
AcDbAttributeDefinition
  3

  2
F
 70
     8
280
     0
  0
ATTDEF
  5
83
330
6E
100
AcDbEntity
  8
AM_6
100
AcDbText
 10
6.331500000000001
 20
-5.696994999193878
 30
0.0
 40
0.5
  1
0.75
100
AcDbAttributeDefinition
  3

  2
G
 70
     8
280
     0
  0
ATTDEF
  5
84
330
6E
100
AcDbEntity
  8
AM_6
100
AcDbText
 10
6.331500000000001
 20
-6.196994999193878
 30
0.0
 40
0.5
  1
1.25
100
AcDbAttributeDefinition
  3

  2
H
 70
     8
280
     0
  0
ATTDEF
  5
85
330
6E
100
AcDbEntity
  8
AM_6
100
AcDbText
 10
6.331500000000001
 20
-6.696994999193878
 30
0.0
 40
0.5
  1
4.25
100
AcDbAttributeDefinition
  3

  2
J
 70
     8
280
     0
  0
ATTDEF
  5
86
330
6E
100
AcDbEntity
  8
AM_6
100
AcDbText
 10
6.331500000000001
 20
-7.196994999193878
 30
0.0
 40
0.5
  1
3.00
100
AcDbAttributeDefinition
  3

  2
L
 70
     8
280
     0
  0
ATTDEF
  5
87
330
6E
100
AcDbEntity
  8
AM_6
100
AcDbText
 10
6.331500000000001
 20
-7.696994999193878
 30
0.0
 40
0.5
  1
2.125
100
AcDbAttributeDefinition
  3

  2
M
 70
     8
280
     0
  0
ATTDEF
  5
88
330
6E
100
AcDbEntity
  8
AM_6
100
AcDbText
 10
6.331500000000001
 20
-8.196994999193878
 30
0.0
 40
0.5
  1
0.98
100
AcDbAttributeDefinition
  3

  2
R
 70
     8
280
     0
  0
ATTDEF
  5
89
330
6E
100
AcDbEntity
  8
AM_6
100
AcDbText
 10
6.331500000000001
 20
-8.696994999193878
 30
0.0
 40
0.5
  1
1.83
100
AcDbAttributeDefinition
  3

  2
S
 70
     8
280
     0
  0
ATTDEF
  5
8A
330
6E
100
AcDbEntity
  8
AM_6
100
AcDbText
 10
6.331500000000001
 20
-9.196994999193878
 30
0.0
 40
0.5
  1
0.19
100
AcDbAttributeDefinition
  3

  2
X
 70
     8
280
     0
  0
ATTDEF
  5
8B
330
6E
100
AcDbEntity
  8
AM_6
100
AcDbText
 10
6.331500000000001
 20
-9.696994999193878
 30
0.0
 40
0.5
  1
0.020
100
AcDbAttributeDefinition
  3

  2
Y
 70
     8
280
     0
  0
ATTDEF
  5
8C
330
6E
100
AcDbEntity
  8
AM_6
100
AcDbText
 10
6.331500000000001
 20
-10.19699499919388
 30
0.0
 40
0.5
  1
2.08
100
AcDbAttributeDefinition
  3

  2
Z
 70
     8
280
     0
  0
ATTDEF
  5
8D
330
6E
100
AcDbEntity
  8
AM_6
100
AcDbText
 10
6.331500000000001
 20
-10.69699499919388
 30
0.0
 40
0.5
  1
baldor
100
AcDbAttributeDefinition
  3

  2
COMPANY
 70
     8
280
     0
  0
INSERT
  5
8F
330
6E
100
AcDbEntity
  8
0
100
AcDbBlockReference
  2
2_ASME_B18_3_10_1_0_in_071186_2
 10
0.0
 20
0.0
 30
0.0
  0
INSERT
  5
B7
330
6E
100
AcDbEntity
  8
0
100
AcDbBlockReference
  2
3_ASME_B18_3_10_2_0_in_071186_2
 10
0.0
 20
0.0
 30
0.0
  0
INSERT
  5
DB
330
6E
100
AcDbEntity
  8
0
100
AcDbBlockReference
  2
4_070886LWE_0_in_071186_2
 10
0.0
 20
0.0
 30
0.0
  0
INSERT
  5
114
330
6E
100
AcDbEntity
  8
0
100
AcDbBlockReference
  2
5_070886EL_0_in_071186_2
 10
0.0
 20
0.0
 30
0.0
  0
INSERT
  5
1A6
330
6E
100
AcDbEntity
  8
0
100
AcDbBlockReference
  2
6_405015E_Inch_0_in_071186_2
 10
0.0
 20
0.0
 30
0.0
  0
INSERT
  5
20A
330
6E
100
AcDbEntity
  8
0
100
AcDbBlockReference
  2
7_071186Ho_0_in_071186_2
 10
0.0
 20
0.0
 30
0.0
  0
ENDBLK
  5
71
330
6E
100
AcDbEntity
  8
0
100
AcDbBlockEnd
  0
BLOCK
  5
90
330
8E
100
AcDbEntity
  8
0
100
AcDbBlockBegin
  2
2_ASME_B18_3_10_1_0_in_071186_2
 70
     2
 10
0.0
 20
0.0
 30
0.0
  3
2_ASME_B18_3_10_1_0_in_071186_2
  1

  0
ATTDEF
  5
92
330
8E
100
AcDbEntity
  8
AM_6
100
AcDbText
 10
4.319
 20
-1.020888888888889
 30
0.0
 40
0.5
  1
ANSI/ASME B18.3-1998
100
AcDbAttributeDefinition
  3

  2
NN
 70
     8
280
     0
  0
ATTDEF
  5
93
330
8E
100
AcDbEntity
  8
AM_6
100
AcDbText
 10
4.319
 20
-1.520888888888889
 30
0.0
 40
0.5
  1
Socket Button Head Cap Screws
100
AcDbAttributeDefinition
  3

  2
NT
 70
     8
280
     0
  0
ATTDEF
  5
94
330
8E
100
AcDbEntity
  8
AM_6
100
AcDbText
 10
4.319
 20
-2.020888888888889
 30
0.0
 40
0.5
  1
ASME B18.3-10
100
AcDbAttributeDefinition
  3

  2
NB
 70
     8
280
     0
  0
ATTDEF
  5
95
330
8E
100
AcDbEntity
  8
AM_6
100
AcDbText
 10
4.319
 20
-2.520888888888889
 30
0.0
 40
0.5
  1
ASME B18.3-$NS.
100
AcDbAttributeDefinition
  3

  2
NBSYN
 70
     8
280
     0
  0
ATTDEF
  5
96
330
8E
100
AcDbEntity
  8
AM_6
100
AcDbText
 10
4.319
 20
-3.020888888888889
 30
0.0
 40
0.5
  1
ASME B18.3-10
100
AcDbAttributeDefinition
  3

  2
LINA
 70
     8
280
     0
  0
ATTDEF
  5
97
330
8E
100
AcDbEntity
  8
AM_6
100
AcDbText
 10
4.319
 20
-3.520888888888889
 30
0.0
 40
0.5
  1
10
100
AcDbAttributeDefinition
  3

  2
NS
 70
     8
280
     0
  0
ATTDEF
  5
98
330
8E
100
AcDbEntity
  8
AM_6
100
AcDbText
 10
4.319
 20
-4.020888888888889
 30
0.0
 40
0.5
  1
0.361
100
AcDbAttributeDefinition
  3

  2
A
 70
     8
280
     0
  0
ATTDEF
  5
99
330
8E
100
AcDbEntity
  8
AM_6
100
AcDbText
 10
4.319
 20
-4.520888888888889
 30
0.0
 40
0.5
  1
0.101
100
AcDbAttributeDefinition
  3

  2
H
 70
     8
280
     0
  0
ATTDEF
  5
9A
330
8E
100
AcDbEntity
  8
AM_6
100
AcDbText
 10
4.319
 20
-5.020888888888889
 30
0.0
 40
0.5
  1
0.800
100
AcDbAttributeDefinition
  3

  2
L
 70
     8
280
     0
  0
ATTDEF
  5
9B
330
8E
100
AcDbEntity
  8
AM_6
100
AcDbText
 10
4.319
 20
-5.520888888888889
 30
0.0
 40
0.5
  1
0.020
100
AcDbAttributeDefinition
  3

  2
S
 70
     8
280
     0
  0
ATTDEF
  5
9C
330
8E
100
AcDbEntity
  8
AM_6
100
AcDbText
 10
4.319
 20
-6.020888888888889
 30
0.0
 40
0.5
  1
0.125000
100
AcDbAttributeDefinition
  3

  2
J
 70
     8
280
     0
  0
ATTDEF
  5
9D
330
8E
100
AcDbEntity
  8
AM_6
100
AcDbText
 10
4.319
 20
-6.520888888888889
 30
0.0
 40
0.5
  1
baldor
100
AcDbAttributeDefinition
  3

  2
COMPANY
 70
     8
280
     0
  0
LINE
  5
A0
330
8E
100
AcDbEntity
  8
AM_9
100
AcDbLine
 10
-1.521
 20
-1.129220105240186
 30
0.0
 11
-1.582
 21
-1.129220105240186
 31
0.0
  0
LINE
  5
A1
330
8E
100
AcDbEntity
  8
AM_9
100
AcDbLine
 10
-1.521
 20
-1.273557672537592
 30
0.0
 11
-1.582
 21
-1.273557672537592
 31
0.0
  0
LINE
  5
A2
330
8E
100
AcDbEntity
  8
AM_9
100
AcDbLine
 10
-1.521
 20
-1.129220105240186
 30
0.0
 11
-1.521
 21
-1.273557672537592
 31
0.0
  0
LINE
  5
A3
330
8E
100
AcDbEntity
  8
AM_9
100
AcDbLine
 10
-1.521
 20
-1.165304497064537
 30
0.0
 11
-1.582
 21
-1.165304497064537
 31
0.0
  0
LINE
  5
A4
330
8E
100
AcDbEntity
  8
AM_9
100
AcDbLine
 10
-1.521
 20
-1.23747328071324
 30
0.0
 11
-1.582
 21
-1.23747328071324
 31
0.0
  0
LINE
  5
A5
330
8E
100
AcDbEntity
  8
AM_9
100
AcDbLine
 10
-0.681
 20
-1.124988888888889
 30
0.0
 11
-0.681
 21
-1.277788888888889
 31
0.0
  0
LINE
  5
A6
330
8E
100
AcDbEntity
  8
AM_9
100
AcDbLine
 10
-0.681
 20
-1.124988888888889
 30
0.0
 11
-0.6996000000000001
 21
-1.106388888888889
 31
0.0
  0
LINE
  5
A7
330
8E
100
AcDbEntity
  8
AM_9
100
AcDbLine
 10
-0.6996000000000001
 20
-1.296388888888889
 30
0.0
 11
-0.681
 21
-1.277788888888889
 31
0.0
  0
LINE
  5
A8
330
8E
100
AcDbEntity
  8
AM_9
100
AcDbLine
 10
-0.6996000000000001
 20
-1.106388888888889
 30
0.0
 11
-0.6996000000000001
 21
-1.296388888888889
 31
0.0
  0
LINE
  5
A9
330
8E
100
AcDbEntity
  8
AM_9
100
AcDbLine
 10
-1.481
 20
-1.296388888888889
 30
0.0
 11
-0.6996000000000001
 21
-1.296388888888889
 31
0.0
  0
LINE
  5
AA
330
8E
100
AcDbEntity
  8
AM_9
100
AcDbLine
 10
-0.6996000000000001
 20
-1.106388888888889
 30
0.0
 11
-1.481
 21
-1.106388888888889
 31
0.0
  0
LINE
  5
AC
330
8E
100
AcDbEntity
  8
AM_5
100
AcDbLine
 10
-1.401
 20
-1.277788888888889
 30
0.0
 11
-1.433216145020781
 21
-1.296388888888889
 31
0.0
  0
LINE
  5
AD
330
8E
100
AcDbEntity
  8
AM_5
100
AcDbLine
 10
-1.401
 20
-1.106388888888889
 30
0.0
 11
-1.401
 21
-1.296388888888883
 31
0.0
  0
LINE
  5
AE
330
8E
100
AcDbEntity
  8
AM_5
100
AcDbLine
 10
-1.401
 20
-1.124988888888889
 30
0.0
 11
-1.433216145020781
 21
-1.106388888888889
 31
0.0
  0
LINE
  5
B0
330
8E
100
AcDbEntity
  8
AM_4
100
AcDbLine
 10
-1.582
 20
-1.101888888888889
 30
0.0
 11
-1.582
 21
-1.300888888888889
 31
0.0
  0
ARC
  5
B1
330
8E
100
AcDbEntity
  8
AM_4
100
AcDbCircle
 10
-1.501
 20
-1.300888888888889
 30
0.0
 40
0.0810000000000004
100
AcDbArc
 50
180.0
 51
270.0
  0
ARC
  5
B2
330
8E
100
AcDbEntity
  8
AM_4
100
AcDbCircle
 10
-1.501
 20
-1.101888888888889
 30
0.0
 40
0.0810000000000002
100
AcDbArc
 50
90.0
 51
179.9999991462263
  0
LINE
  5
B3
330
8E
100
AcDbEntity
  8
AM_4
100
AcDbLine
 10
-1.501
 20
-1.020888888888889
 30
0.0
 11
-1.501
 21
-1.381888888888889
 31
0.0
  0
LINE
  5
B4
330
8E
100
AcDbEntity
  8
AM_4
100
AcDbLine
 10
-1.501
 20
-1.381888888888889
 30
0.0
 11
-1.481
 21
-1.381888888888889
 31
0.0
  0
LINE
  5
B5
330
8E
100
AcDbEntity
  8
AM_4
100
AcDbLine
 10
-1.481
 20
-1.020888888888889
 30
0.0
 11
-1.501
 21
-1.020888888888889
 31
0.0
  0
ENDBLK
  5
91
330
8E
100
AcDbEntity
  8
0
100
AcDbBlockEnd
  0
BLOCK
  5
B8
330
B6
100
AcDbEntity
  8
0
100
AcDbBlockBegin
  2
3_ASME_B18_3_10_2_0_in_071186_2
 70
     2
 10
0.0
 20
0.0
 30
0.0
  3
3_ASME_B18_3_10_2_0_in_071186_2
  1

  0
ATTDEF
  5
BA
330
B6
100
AcDbEntity
  8
AM_6
100
AcDbText
 10
4.319
 20
1.381888888888889
 30
0.0
 40
0.5
  1
ANSI/ASME B18.3-1998
100
AcDbAttributeDefinition
  3

  2
NN
 70
     8
280
     0
  0
ATTDEF
  5
BB
330
B6
100
AcDbEntity
  8
AM_6
100
AcDbText
 10
4.319
 20
0.8818888888888889
 30
0.0
 40
0.5
  1
Socket Button Head Cap Screws
100
AcDbAttributeDefinition
  3

  2
NT
 70
     8
280
     0
  0
ATTDEF
  5
BC
330
B6
100
AcDbEntity
  8
AM_6
100
AcDbText
 10
4.319
 20
0.3818888888888889
 30
0.0
 40
0.5
  1
ASME B18.3-10
100
AcDbAttributeDefinition
  3

  2
NB
 70
     8
280
     0
  0
ATTDEF
  5
BD
330
B6
100
AcDbEntity
  8
AM_6
100
AcDbText
 10
4.319
 20
-0.1181111111111111
 30
0.0
 40
0.5
  1
ASME B18.3-$NS.
100
AcDbAttributeDefinition
  3

  2
NBSYN
 70
     8
280
     0
  0
ATTDEF
  5
BE
330
B6
100
AcDbEntity
  8
AM_6
100
AcDbText
 10
4.319
 20
-0.6181111111111111
 30
0.0
 40
0.5
  1
ASME B18.3-10
100
AcDbAttributeDefinition
  3

  2
LINA
 70
     8
280
     0
  0
ATTDEF
  5
BF
330
B6
100
AcDbEntity
  8
AM_6
100
AcDbText
 10
4.319
 20
-1.118111111111111
 30
0.0
 40
0.5
  1
10
100
AcDbAttributeDefinition
  3

  2
NS
 70
     8
280
     0
  0
ATTDEF
  5
C0
330
B6
100
AcDbEntity
  8
AM_6
100
AcDbText
 10
4.319
 20
-1.618111111111111
 30
0.0
 40
0.5
  1
0.361
100
AcDbAttributeDefinition
  3

  2
A
 70
     8
280
     0
  0
ATTDEF
  5
C1
330
B6
100
AcDbEntity
  8
AM_6
100
AcDbText
 10
4.319
 20
-2.118111111111111
 30
0.0
 40
0.5
  1
0.101
100
AcDbAttributeDefinition
  3

  2
H
 70
     8
280
     0
  0
ATTDEF
  5
C2
330
B6
100
AcDbEntity
  8
AM_6
100
AcDbText
 10
4.319
 20
-2.618111111111111
 30
0.0
 40
0.5
  1
0.800
100
AcDbAttributeDefinition
  3

  2
L
 70
     8
280
     0
  0
ATTDEF
  5
C3
330
B6
100
AcDbEntity
  8
AM_6
100
AcDbText
 10
4.319
 20
-3.118111111111111
 30
0.0
 40
0.5
  1
0.020
100
AcDbAttributeDefinition
  3

  2
S
 70
     8
280
     0
  0
ATTDEF
  5
C4
330
B6
100
AcDbEntity
  8
AM_6
100
AcDbText
 10
4.319
 20
-3.618111111111111
 30
0.0
 40
0.5
  1
0.125000
100
AcDbAttributeDefinition
  3

  2
J
 70
     8
280
     0
  0
ATTDEF
  5
C5
330
B6
100
AcDbEntity
  8
AM_6
100
AcDbText
 10
4.319
 20
-4.118111111111111
 30
0.0
 40
0.5
  1
baldor
100
AcDbAttributeDefinition
  3

  2
COMPANY
 70
     8
280
     0
  0
LINE
  5
C6
330
B6
100
AcDbEntity
  8
AM_9
100
AcDbLine
 10
-1.521
 20
1.273557672537592
 30
0.0
 11
-1.582
 21
1.273557672537592
 31
0.0
  0
LINE
  5
C7
330
B6
100
AcDbEntity
  8
AM_9
100
AcDbLine
 10
-1.521
 20
1.129220105240186
 30
0.0
 11
-1.582
 21
1.129220105240186
 31
0.0
  0
LINE
  5
C8
330
B6
100
AcDbEntity
  8
AM_9
100
AcDbLine
 10
-1.521
 20
1.273557672537592
 30
0.0
 11
-1.521
 21
1.129220105240186
 31
0.0
  0
LINE
  5
C9
330
B6
100
AcDbEntity
  8
AM_9
100
AcDbLine
 10
-1.521
 20
1.23747328071324
 30
0.0
 11
-1.582
 21
1.23747328071324
 31
0.0
  0
LINE
  5
CA
330
B6
100
AcDbEntity
  8
AM_9
100
AcDbLine
 10
-1.521
 20
1.165304497064537
 30
0.0
 11
-1.582
 21
1.165304497064537
 31
0.0
  0
LINE
  5
CB
330
B6
100
AcDbEntity
  8
AM_9
100
AcDbLine
 10
-0.681
 20
1.277788888888889
 30
0.0
 11
-0.681
 21
1.124988888888889
 31
0.0
  0
LINE
  5
CC
330
B6
100
AcDbEntity
  8
AM_9
100
AcDbLine
 10
-0.681
 20
1.277788888888889
 30
0.0
 11
-0.6996000000000001
 21
1.296388888888889
 31
0.0
  0
LINE
  5
CD
330
B6
100
AcDbEntity
  8
AM_9
100
AcDbLine
 10
-0.6996000000000001
 20
1.106388888888889
 30
0.0
 11
-0.681
 21
1.124988888888889
 31
0.0
  0
LINE
  5
CE
330
B6
100
AcDbEntity
  8
AM_9
100
AcDbLine
 10
-0.6996000000000001
 20
1.296388888888889
 30
0.0
 11
-0.6996000000000001
 21
1.106388888888889
 31
0.0
  0
LINE
  5
CF
330
B6
100
AcDbEntity
  8
AM_9
100
AcDbLine
 10
-1.481
 20
1.106388888888889
 30
0.0
 11
-0.6996000000000001
 21
1.106388888888889
 31
0.0
  0
LINE
  5
D0
330
B6
100
AcDbEntity
  8
AM_9
100
AcDbLine
 10
-0.6996000000000001
 20
1.296388888888889
 30
0.0
 11
-1.481
 21
1.296388888888889
 31
0.0
  0
LINE
  5
D1
330
B6
100
AcDbEntity
  8
AM_5
100
AcDbLine
 10
-1.401
 20
1.124988888888889
 30
0.0
 11
-1.433216145020782
 21
1.106388888888889
 31
0.0
  0
LINE
  5
D2
330
B6
100
AcDbEntity
  8
AM_5
100
AcDbLine
 10
-1.401
 20
1.296388888888883
 30
0.0
 11
-1.401
 21
1.106388888888889
 31
0.0
  0
LINE
  5
D3
330
B6
100
AcDbEntity
  8
AM_5
100
AcDbLine
 10
-1.401
 20
1.277788888888889
 30
0.0
 11
-1.433216145020781
 21
1.296388888888889
 31
0.0
  0
LINE
  5
D4
330
B6
100
AcDbEntity
  8
AM_4
100
AcDbLine
 10
-1.582
 20
1.300888888888889
 30
0.0
 11
-1.582
 21
1.101888888888889
 31
0.0
  0
ARC
  5
D5
330
B6
100
AcDbEntity
  8
AM_4
100
AcDbCircle
 10
-1.501
 20
1.101888888888889
 30
0.0
 40
0.0810000000000002
100
AcDbArc
 50
179.9999991462263
 51
270.0
  0
ARC
  5
D6
330
B6
100
AcDbEntity
  8
AM_4
100
AcDbCircle
 10
-1.501
 20
1.300888888888888
 30
0.0
 40
0.0810000000000006
100
AcDbArc
 50
90.0
 51
180.0
  0
LINE
  5
D7
330
B6
100
AcDbEntity
  8
AM_4
100
AcDbLine
 10
-1.501
 20
1.381888888888889
 30
0.0
 11
-1.501
 21
1.020888888888889
 31
0.0
  0
LINE
  5
D8
330
B6
100
AcDbEntity
  8
AM_4
100
AcDbLine
 10
-1.501
 20
1.020888888888889
 30
0.0
 11
-1.481
 21
1.020888888888889
 31
0.0
  0
LINE
  5
D9
330
B6
100
AcDbEntity
  8
AM_4
100
AcDbLine
 10
-1.481
 20
1.381888888888889
 30
0.0
 11
-1.501
 21
1.381888888888889
 31
0.0
  0
ENDBLK
  5
B9
330
B6
100
AcDbEntity
  8
0
100
AcDbBlockEnd
  0
BLOCK
  5
DC
330
DA
100
AcDbEntity
  8
0
100
AcDbBlockBegin
  2
4_070886LWE_0_in_071186_2
 70
     2
 10
0.0
 20
0.0
 30
0.0
  3
4_070886LWE_0_in_071186_2
  1

  0
ATTDEF
  5
DE
330
DA
100
AcDbEntity
  8
AM_6
100
AcDbText
 10
3.959
 20
1.5
 30
0.0
 40
0.5
  1
Imperial/E Insert Lockwasher -Inch
100
AcDbAttributeDefinition
  3

  2
NN
 70
     8
280
     0
  0
ATTDEF
  5
DF
330
DA
100
AcDbEntity
  8
AM_6
100
AcDbText
 10
3.959
 20
1.0
 30
0.0
 40
0.5
  1
Imperial/E Bearings
100
AcDbAttributeDefinition
  3

  2
NT
 70
     8
280
     0
  0
ATTDEF
  5
E0
330
DA
100
AcDbEntity
  8
AM_6
100
AcDbText
 10
3.959
 20
0.5000000000000002
 30
0.0
 40
0.5
  1
070886LWE
100
AcDbAttributeDefinition
  3

  2
NB
 70
     8
280
     0
  0
ATTDEF
  5
E1
330
DA
100
AcDbEntity
  8
AM_6
100
AcDbText
 10
3.959
 20
0.0000000000000002
 30
0.0
 40
0.5
  1
$PN.LWE
100
AcDbAttributeDefinition
  3

  2
NBSYN
 70
     8
280
     0
  0
ATTDEF
  5
E2
330
DA
100
AcDbEntity
  8
AM_6
100
AcDbText
 10
3.959
 20
-0.4999999999999998
 30
0.0
 40
0.5
  1
070886
100
AcDbAttributeDefinition
  3

  2
LINA
 70
     8
280
     0
  0
ATTDEF
  5
E3
330
DA
100
AcDbEntity
  8
AM_6
100
AcDbText
 10
3.959
 20
-0.9999999999999998
 30
0.0
 40
0.5
  1
1-5/8
100
AcDbAttributeDefinition
  3

  2
SS
 70
     8
280
     0
  0
ATTDEF
  5
E4
330
DA
100
AcDbEntity
  8
AM_6
100
AcDbText
 10
3.959
 20
-1.5
 30
0.0
 40
0.5
  1
3.000000
100
AcDbAttributeDefinition
  3

  2
E1
 70
     8
280
     0
  0
ATTDEF
  5
E5
330
DA
100
AcDbEntity
  8
AM_6
100
AcDbText
 10
3.959
 20
-2.0
 30
0.0
 40
0.5
  1
1.625000
100
AcDbAttributeDefinition
  3

  2
SS1
 70
     8
280
     0
  0
ATTDEF
  5
E6
330
DA
100
AcDbEntity
  8
AM_6
100
AcDbText
 10
3.959
 20
-2.5
 30
0.0
 40
0.5
  1
070886
100
AcDbAttributeDefinition
  3

  2
PN
 70
     8
280
     0
  0
ATTDEF
  5
E7
330
DA
100
AcDbEntity
  8
AM_6
100
AcDbText
 10
3.959
 20
-3.0
 30
0.0
 40
0.5
  1
INS-IP-110R
100
AcDbAttributeDefinition
  3

  2
DESCRIPTION
 70
     8
280
     0
  0
ATTDEF
  5
E8
330
DA
100
AcDbEntity
  8
AM_6
100
AcDbText
 10
3.959
 20
-3.5
 30
0.0
 40
0.5
  1
3.3465
100
AcDbAttributeDefinition
  3

  2
A
 70
     8
280
     0
  0
ATTDEF
  5
E9
330
DA
100
AcDbEntity
  8
AM_6
100
AcDbText
 10
3.959
 20
-4.0
 30
0.0
 40
0.5
  1
61/64
100
AcDbAttributeDefinition
  3

  2
B
 70
     8
280
     0
  0
ATTDEF
  5
EA
330
DA
100
AcDbEntity
  8
AM_6
100
AcDbText
 10
3.959
 20
-4.5
 30
0.0
 40
0.5
  1
0.953125
100
AcDbAttributeDefinition
  3

  2
B1
 70
     8
280
     0
  0
ATTDEF
  5
EB
330
DA
100
AcDbEntity
  8
AM_6
100
AcDbText
 10
3.959
 20
-5.0
 30
0.0
 40
0.5
  1
2-13/16
100
AcDbAttributeDefinition
  3

  2
C
 70
     8
280
     0
  0
ATTDEF
  5
EC
330
DA
100
AcDbEntity
  8
AM_6
100
AcDbText
 10
3.959
 20
-5.5
 30
0.0
 40
0.5
  1
2.812500
100
AcDbAttributeDefinition
  3

  2
C1
 70
     8
280
     0
  0
ATTDEF
  5
ED
330
DA
100
AcDbEntity
  8
AM_6
100
AcDbText
 10
3.959
 20
-6.0
 30
0.0
 40
0.5
  1
0.954
100
AcDbAttributeDefinition
  3

  2
D
 70
     8
280
     0
  0
ATTDEF
  5
EE
330
DA
100
AcDbEntity
  8
AM_6
100
AcDbText
 10
3.959
 20
-6.5
 30
0.0
 40
0.5
  1
3
100
AcDbAttributeDefinition
  3

  2
E
 70
     8
280
     0
  0
ATTDEF
  5
EF
330
DA
100
AcDbEntity
  8
AM_6
100
AcDbText
 10
3.959
 20
-7.0
 30
0.0
 40
0.5
  1
0.1900
100
AcDbAttributeDefinition
  3

  2
NDM
 70
     8
280
     0
  0
ATTDEF
  5
F0
330
DA
100
AcDbEntity
  8
AM_6
100
AcDbText
 10
3.959
 20
-7.5
 30
0.0
 40
0.5
  1
0.1450
100
AcDbAttributeDefinition
  3

  2
KDM
 70
     8
280
     0
  0
ATTDEF
  5
F1
330
DA
100
AcDbEntity
  8
AM_6
100
AcDbText
 10
3.959
 20
-8.0
 30
0.0
 40
0.5
  1
2.42
100
AcDbAttributeDefinition
  3

  2
AL
 70
     8
280
     0
  0
ATTDEF
  5
F2
330
DA
100
AcDbEntity
  8
AM_6
100
AcDbText
 10
3.959
 20
-8.5
 30
0.0
 40
0.5
  1
0.38
100
AcDbAttributeDefinition
  3

  2
BL
 70
     8
280
     0
  0
ATTDEF
  5
F3
330
DA
100
AcDbEntity
  8
AM_6
100
AcDbText
 10
3.959
 20
-9.0
 30
0.0
 40
0.5
  1
0.07
100
AcDbAttributeDefinition
  3

  2
CL
 70
     8
280
     0
  0
ATTDEF
  5
F4
330
DA
100
AcDbEntity
  8
AM_6
100
AcDbText
 10
3.959
 20
-9.5
 30
0.0
 40
0.5
  1
0.44
100
AcDbAttributeDefinition
  3

  2
DL
 70
     8
280
     0
  0
ATTDEF
  5
F5
330
DA
100
AcDbEntity
  8
AM_6
100
AcDbText
 10
3.959
 20
-10.0
 30
0.0
 40
0.5
  1
baldor
100
AcDbAttributeDefinition
  3

  2
COMPANY
 70
     8
280
     0
  0
LINE
  5
F6
330
DA
100
AcDbEntity
  8
AM_9
100
AcDbLine
 10
-1.411
 20
0.7704006647723407
 30
0.0
 11
-1.481
 21
0.7704006647723407
 31
0.0
  0
LINE
  5
F7
330
DA
100
AcDbEntity
  8
AM_9
100
AcDbLine
 10
-1.041
 20
0.7489155407992825
 30
0.0
 11
-1.411
 21
0.7489155407992825
 31
0.0
  0
LINE
  5
F8
330
DA
100
AcDbEntity
  8
AM_9
100
AcDbLine
 10
-1.041
 20
0.709148451623055
 30
0.0
 11
-1.481
 21
0.709148451623055
 31
0.0
  0
LINE
  5
F9
330
DA
100
AcDbEntity
  8
AM_9
100
AcDbLine
 10
-1.411
 20
0.8216253929486497
 30
0.0
 11
-1.041
 21
0.8216253929486494
 31
0.0
  0
LINE
  5
FA
330
DA
100
AcDbEntity
  8
AM_9
100
AcDbLine
 10
-1.041
 20
0.7818583037724219
 30
0.0
 11
-1.481
 21
0.7818583037724219
 31
0.0
  0
LINE
  5
FB
330
DA
100
AcDbEntity
  8
AM_9
100
AcDbLine
 10
-1.041
 20
0.709148451623055
 30
0.0
 11
-1.041
 21
0.8216253929486494
 31
0.0
  0
LINE
  5
FC
330
DA
100
AcDbEntity
  8
AM_9
100
AcDbLine
 10
-1.411
 20
0.8431105169217077
 30
0.0
 11
-1.481
 21
0.8431105169217077
 31
0.0
  0
LINE
  5
FD
330
DA
100
AcDbEntity
  8
AM_9
100
AcDbLine
 10
-1.411
 20
1.201388888888889
 30
0.0
 11
-1.481
 21
1.201388888888889
 31
0.0
  0
LINE
  5
FE
330
DA
100
AcDbEntity
  8
AM_9
100
AcDbLine
 10
-1.411
 20
1.296463345701357
 30
0.0
 11
-1.481
 21
1.296463345701357
 31
0.0
  0
LINE
  5
FF
330
DA
100
AcDbEntity
  8
AM_9
100
AcDbLine
 10
-1.411
 20
-1.201388888888889
 30
0.0
 11
-1.481
 21
-1.201388888888889
 31
0.0
  0
LINE
  5
100
330
DA
100
AcDbEntity
  8
AM_9
100
AcDbLine
 10
-1.481
 20
-1.296463345701357
 30
0.0
 11
-1.411
 21
-1.296463345701357
 31
0.0
  0
LINE
  5
101
330
DA
100
AcDbEntity
  8
AM_9
100
AcDbLine
 10
-1.411
 20
0.8732259590751009
 30
0.0
 11
-1.481
 21
0.8732259590751009
 31
0.0
  0
LINE
  5
102
330
DA
100
AcDbEntity
  8
AM_9
100
AcDbLine
 10
-1.411
 20
-0.8732259590751007
 30
0.0
 11
-1.481
 21
-0.8732259590751005
 31
0.0
  0
LINE
  5
103
330
DA
100
AcDbEntity
  8
AM_9
100
AcDbLine
 10
-1.411
 20
-0.684639141382852
 30
0.0
 11
-1.481
 21
-0.6846391413828521
 31
0.0
  0
LINE
  5
104
330
DA
100
AcDbEntity
  8
AM_9
100
AcDbLine
 10
-1.411
 20
0.6846391413828522
 30
0.0
 11
-1.481
 21
0.684639141382852
 31
0.0
  0
LINE
  5
105
330
DA
100
AcDbEntity
  8
AM_9
100
AcDbLine
 10
-1.411
 20
0.5502888529574083
 30
0.0
 11
-1.481
 21
0.5502888529574084
 31
0.0
  0
LINE
  5
106
330
DA
100
AcDbEntity
  8
AM_9
100
AcDbLine
 10
-1.411
 20
-0.5502888529574081
 30
0.0
 11
-1.481
 21
-0.5502888529574081
 31
0.0
  0
LINE
  5
107
330
DA
100
AcDbEntity
  8
AM_9
100
AcDbLine
 10
-1.411
 20
0.9166853743882271
 30
0.0
 11
-1.481
 21
0.9166853743882271
 31
0.0
  0
LINE
  5
108
330
DA
100
AcDbEntity
  8
AM_9
100
AcDbLine
 10
-1.411
 20
0.782335085962783
 30
0.0
 11
-1.481
 21
0.782335085962783
 31
0.0
  0
LINE
  5
109
330
DA
100
AcDbEntity
  8
AM_9
100
AcDbLine
 10
-1.411
 20
0.9445628876318473
 30
0.0
 11
-1.481
 21
0.9445628876318473
 31
0.0
  0
LINE
  5
10A
330
DA
100
AcDbEntity
  8
AM_9
100
AcDbLine
 10
-1.411
 20
-0.782335085962783
 30
0.0
 11
-1.481
 21
-0.7823350859627829
 31
0.0
  0
LINE
  5
10B
330
DA
100
AcDbEntity
  8
AM_9
100
AcDbLine
 10
-1.411
 20
-0.9166853743882153
 30
0.0
 11
-1.481
 21
-0.9166853743882153
 31
0.0
  0
LINE
  5
10C
330
DA
100
AcDbEntity
  8
AM_9
100
AcDbLine
 10
-1.481
 20
-0.9445628876318471
 30
0.0
 11
-1.411
 21
-0.9445628876318471
 31
0.0
  0
LINE
  5
10D
330
DA
100
AcDbEntity
  8
AM_9
100
AcDbLine
 10
-1.411
 20
0.0950744568124681
 30
0.0
 11
-1.481
 21
0.0950744568124681
 31
0.0
  0
LINE
  5
10E
330
DA
100
AcDbEntity
  8
AM_9
100
AcDbLine
 10
-1.481
 20
-0.0950744568124679
 30
0.0
 11
-1.411
 21
-0.0950744568124679
 31
0.0
  0
LINE
  5
10F
330
DA
100
AcDbEntity
  8
AM_4
100
AcDbLine
 10
-1.411
 20
1.5
 30
0.0
 11
-1.481
 21
1.5
 31
0.0
  0
LINE
  5
110
330
DA
100
AcDbEntity
  8
AM_4
100
AcDbLine
 10
-1.481
 20
-1.5
 30
0.0
 11
-1.411
 21
-1.5
 31
0.0
  0
LINE
  5
111
330
DA
100
AcDbEntity
  8
AM_4
100
AcDbLine
 10
-1.481
 20
1.5
 30
0.0
 11
-1.481
 21
-1.5
 31
0.0
  0
LINE
  5
112
330
DA
100
AcDbEntity
  8
AM_4
100
AcDbLine
 10
-1.411
 20
1.5
 30
0.0
 11
-1.411
 21
-1.5
 31
0.0
  0
ENDBLK
  5
DD
330
DA
100
AcDbEntity
  8
0
100
AcDbBlockEnd
  0
BLOCK
  5
115
330
113
100
AcDbEntity
  8
0
100
AcDbBlockBegin
  2
5_070886EL_0_in_071186_2
 70
     2
 10
0.0
 20
0.0
 30
0.0
  3
5_070886EL_0_in_071186_2
  1

  0
ATTDEF
  5
117
330
113
100
AcDbEntity
  8
AM_6
100
AcDbText
 10
6.331500000000001
 20
1.67325
 30
0.0
 40
0.5
  1
Imperial/E Insert -Inch
100
AcDbAttributeDefinition
  3

  2
NN
 70
     8
280
     0
  0
ATTDEF
  5
118
330
113
100
AcDbEntity
  8
AM_6
100
AcDbText
 10
6.331500000000001
 20
1.17325
 30
0.0
 40
0.5
  1
Imperial Bearings
100
AcDbAttributeDefinition
  3

  2
NT
 70
     8
280
     0
  0
ATTDEF
  5
119
330
113
100
AcDbEntity
  8
AM_6
100
AcDbText
 10
6.331500000000001
 20
0.6732499999999999
 30
0.0
 40
0.5
  1
070886EL
100
AcDbAttributeDefinition
  3

  2
NB
 70
     8
280
     0
  0
ATTDEF
  5
11A
330
113
100
AcDbEntity
  8
AM_6
100
AcDbText
 10
6.331500000000001
 20
0.1732499999999999
 30
0.0
 40
0.5
  1
$PN.
100
AcDbAttributeDefinition
  3

  2
NBSYN
 70
     8
280
     0
  0
ATTDEF
  5
11B
330
113
100
AcDbEntity
  8
AM_6
100
AcDbText
 10
6.331500000000001
 20
-0.3267500000000001
 30
0.0
 40
0.5
  1
070886EL
100
AcDbAttributeDefinition
  3

  2
LINA
 70
     8
280
     0
  0
ATTDEF
  5
11C
330
113
100
AcDbEntity
  8
AM_6
100
AcDbText
 10
6.331500000000001
 20
-0.8267500000000001
 30
0.0
 40
0.5
  1
1-5/8
100
AcDbAttributeDefinition
  3

  2
SS
 70
     8
280
     0
  0
ATTDEF
  5
11D
330
113
100
AcDbEntity
  8
AM_6
100
AcDbText
 10
6.331500000000001
 20
-1.32675
 30
0.0
 40
0.5
  1
1.625000
100
AcDbAttributeDefinition
  3

  2
SS1
 70
     8
280
     0
  0
ATTDEF
  5
11E
330
113
100
AcDbEntity
  8
AM_6
100
AcDbText
 10
6.331500000000001
 20
-1.82675
 30
0.0
 40
0.5
  1
070886EL
100
AcDbAttributeDefinition
  3

  2
PN
 70
     8
280
     0
  0
ATTDEF
  5
11F
330
113
100
AcDbEntity
  8
AM_6
100
AcDbText
 10
6.331500000000001
 20
-2.32675
 30
0.0
 40
0.5
  1
INS-IP-110R
100
AcDbAttributeDefinition
  3

  2
DESCRIPTION
 70
     8
280
     0
  0
ATTDEF
  5
120
330
113
100
AcDbEntity
  8
AM_6
100
AcDbText
 10
6.331500000000001
 20
-2.82675
 30
0.0
 40
0.5
  1
Labyrinth Seal
100
AcDbAttributeDefinition
  3

  2
ST
 70
     8
280
     0
  0
ATTDEF
  5
121
330
113
100
AcDbEntity
  8
AM_6
100
AcDbText
 10
6.331500000000001
 20
-3.32675
 30
0.0
 40
0.5
  1
1
100
AcDbAttributeDefinition
  3

  2
ST1
 70
     8
280
     0
  0
ATTDEF
  5
122
330
113
100
AcDbEntity
  8
AM_6
100
AcDbText
 10
6.331500000000001
 20
-3.82675
 30
0.0
 40
0.5
  1
3.3465
100
AcDbAttributeDefinition
  3

  2
A
 70
     8
280
     0
  0
ATTDEF
  5
123
330
113
100
AcDbEntity
  8
AM_6
100
AcDbText
 10
6.331500000000001
 20
-4.326750000000001
 30
0.0
 40
0.5
  1
61/64
100
AcDbAttributeDefinition
  3

  2
B
 70
     8
280
     0
  0
ATTDEF
  5
124
330
113
100
AcDbEntity
  8
AM_6
100
AcDbText
 10
6.331500000000001
 20
-4.826750000000001
 30
0.0
 40
0.5
  1
0.953125
100
AcDbAttributeDefinition
  3

  2
B1
 70
     8
280
     0
  0
ATTDEF
  5
125
330
113
100
AcDbEntity
  8
AM_6
100
AcDbText
 10
6.331500000000001
 20
-5.326750000000001
 30
0.0
 40
0.5
  1
2-13/16
100
AcDbAttributeDefinition
  3

  2
C
 70
     8
280
     0
  0
ATTDEF
  5
126
330
113
100
AcDbEntity
  8
AM_6
100
AcDbText
 10
6.331500000000001
 20
-5.826750000000001
 30
0.0
 40
0.5
  1
2.810000
100
AcDbAttributeDefinition
  3

  2
C1
 70
     8
280
     0
  0
ATTDEF
  5
127
330
113
100
AcDbEntity
  8
AM_6
100
AcDbText
 10
6.331500000000001
 20
-6.326750000000001
 30
0.0
 40
0.5
  1
3.64000
100
AcDbAttributeDefinition
  3

  2
CR
 70
     8
280
     0
  0
ATTDEF
  5
128
330
113
100
AcDbEntity
  8
AM_6
100
AcDbText
 10
6.331500000000001
 20
-6.826750000000001
 30
0.0
 40
0.5
  1
0.954
100
AcDbAttributeDefinition
  3

  2
D
 70
     8
280
     0
  0
ATTDEF
  5
129
330
113
100
AcDbEntity
  8
AM_6
100
AcDbText
 10
6.331500000000001
 20
-7.326750000000001
 30
0.0
 40
0.5
  1
3
100
AcDbAttributeDefinition
  3

  2
E
 70
     8
280
     0
  0
ATTDEF
  5
12A
330
113
100
AcDbEntity
  8
AM_6
100
AcDbText
 10
6.331500000000001
 20
-7.826750000000001
 30
0.0
 40
0.5
  1
3.000000
100
AcDbAttributeDefinition
  3

  2
E1
 70
     8
280
     0
  0
ATTDEF
  5
12B
330
113
100
AcDbEntity
  8
AM_6
100
AcDbText
 10
6.331500000000001
 20
-8.32675
 30
0.0
 40
0.5
  1
0.1900
100
AcDbAttributeDefinition
  3

  2
NDM
 70
     8
280
     0
  0
ATTDEF
  5
12C
330
113
100
AcDbEntity
  8
AM_6
100
AcDbText
 10
6.331500000000001
 20
-8.82675
 30
0.0
 40
0.5
  1
0.1450
100
AcDbAttributeDefinition
  3

  2
KDM
 70
     8
280
     0
  0
ATTDEF
  5
12D
330
113
100
AcDbEntity
  8
AM_6
100
AcDbText
 10
6.331500000000001
 20
-9.32675
 30
0.0
 40
0.5
  1
2.42
100
AcDbAttributeDefinition
  3

  2
AL
 70
     8
280
     0
  0
ATTDEF
  5
12E
330
113
100
AcDbEntity
  8
AM_6
100
AcDbText
 10
6.331500000000001
 20
-9.82675
 30
0.0
 40
0.5
  1
0.38
100
AcDbAttributeDefinition
  3

  2
BL
 70
     8
280
     0
  0
ATTDEF
  5
12F
330
113
100
AcDbEntity
  8
AM_6
100
AcDbText
 10
6.331500000000001
 20
-10.32675
 30
0.0
 40
0.5
  1
0.07
100
AcDbAttributeDefinition
  3

  2
CL
 70
     8
280
     0
  0
ATTDEF
  5
130
330
113
100
AcDbEntity
  8
AM_6
100
AcDbText
 10
6.331500000000001
 20
-10.82675
 30
0.0
 40
0.5
  1
0.44
100
AcDbAttributeDefinition
  3

  2
DL
 70
     8
280
     0
  0
ATTDEF
  5
131
330
113
100
AcDbEntity
  8
AM_6
100
AcDbText
 10
6.331500000000001
 20
-11.32675
 30
0.0
 40
0.5
  1
0.8000
100
AcDbAttributeDefinition
  3

  2
LL
 70
     8
280
     0
  0
ATTDEF
  5
132
330
113
100
AcDbEntity
  8
AM_6
100
AcDbText
 10
6.331500000000001
 20
-11.82675
 30
0.0
 40
0.5
  1
0.020
100
AcDbAttributeDefinition
  3

  2
Y
 70
     8
280
     0
  0
ATTDEF
  5
133
330
113
100
AcDbEntity
  8
AM_6
100
AcDbText
 10
6.331500000000001
 20
-12.32675
 30
0.0
 40
0.5
  1
0.020000
100
AcDbAttributeDefinition
  3

  2
Y1
 70
     8
280
     0
  0
ATTDEF
  5
134
330
113
100
AcDbEntity
  8
AM_6
100
AcDbText
 10
6.331500000000001
 20
-12.82675
 30
0.0
 40
0.5
  1
2-5/64
100
AcDbAttributeDefinition
  3

  2
Z
 70
     8
280
     0
  0
ATTDEF
  5
135
330
113
100
AcDbEntity
  8
AM_6
100
AcDbText
 10
6.331500000000001
 20
-13.32675
 30
0.0
 40
0.5
  1
2.078125
100
AcDbAttributeDefinition
  3

  2
Z1
 70
     8
280
     0
  0
ATTDEF
  5
136
330
113
100
AcDbEntity
  8
AM_6
100
AcDbText
 10
6.331500000000001
 20
-13.82675
 30
0.0
 40
0.5
  1
0.83000
100
AcDbAttributeDefinition
  3

  2
P1
 70
     8
280
     0
  0
ATTDEF
  5
137
330
113
100
AcDbEntity
  8
AM_6
100
AcDbText
 10
6.331500000000001
 20
-14.32675
 30
0.0
 40
0.5
  1
1.19000
100
AcDbAttributeDefinition
  3

  2
H1
 70
     8
280
     0
  0
ATTDEF
  5
138
330
113
100
AcDbEntity
  8
AM_6
100
AcDbText
 10
6.331500000000001
 20
-14.82675
 30
0.0
 40
0.5
  1
0.67000
100
AcDbAttributeDefinition
  3

  2
G1
 70
     8
280
     0
  0
ATTDEF
  5
139
330
113
100
AcDbEntity
  8
AM_6
100
AcDbText
 10
6.331500000000001
 20
-15.32675
 30
0.0
 40
0.5
  1
0.10100
100
AcDbAttributeDefinition
  3

  2
CW
 70
     8
280
     0
  0
ATTDEF
  5
13A
330
113
100
AcDbEntity
  8
AM_6
100
AcDbText
 10
6.331500000000001
 20
-15.82675
 30
0.0
 40
0.5
  1
3.00000
100
AcDbAttributeDefinition
  3

  2
L1
 70
     8
280
     0
  0
ATTDEF
  5
13B
330
113
100
AcDbEntity
  8
AM_6
100
AcDbText
 10
6.331500000000001
 20
-16.32675
 30
0.0
 40
0.5
  1
baldor
100
AcDbAttributeDefinition
  3

  2
COMPANY
 70
     8
280
     0
  0
LINE
  5
13C
330
113
100
AcDbEntity
  8
AM_9
100
AcDbLine
 10
0.6925624999999999
 20
0.8237231954928378
 30
0.0
 11
-1.411
 21
0.8237231954928378
 31
0.0
  0
LINE
  5
13D
330
113
100
AcDbEntity
  8
AM_9
100
AcDbLine
 10
0.6925624999999999
 20
0.7510133433434709
 30
0.0
 11
-1.411
 21
0.7510133433434709
 31
0.0
  0
LINE
  5
13E
330
113
100
AcDbEntity
  8
AM_9
100
AcDbLine
 10
-0.571
 20
1.201388888888889
 30
0.0
 11
-0.6128290270027884
 21
1.273838888888889
 31
0.0
  0
LINE
  5
13F
330
113
100
AcDbEntity
  8
AM_9
100
AcDbLine
 10
-0.6128290270027884
 20
1.128938888888889
 30
0.0
 11
-0.571
 21
1.201388888888889
 31
0.0
  0
LINE
  5
140
330
113
100
AcDbEntity
  8
AM_9
100
AcDbLine
 10
-0.5709999999999982
 20
-1.201388888888889
 30
0.0
 11
-0.612829027002806
 21
-1.128938888888889
 31
0.0
  0
LINE
  5
141
330
113
100
AcDbEntity
  8
AM_9
100
AcDbLine
 10
-0.612829027002806
 20
-1.273838888888889
 30
0.0
 11
-0.5709999999999982
 21
-1.201388888888889
 31
0.0
  0
LINE
  5
142
330
113
100
AcDbEntity
  8
AM_9
100
AcDbLine
 10
-0.6128290270027884
 20
1.128938888888889
 30
0.0
 11
-0.6128290270027884
 21
1.273838888888889
 31
0.0
  0
LINE
  5
143
330
113
100
AcDbEntity
  8
AM_9
100
AcDbLine
 10
-0.6128290270027884
 20
1.273838888888889
 30
0.0
 11
-1.38845
 21
1.273838888888889
 31
0.0
  0
LINE
  5
144
330
113
100
AcDbEntity
  8
AM_9
100
AcDbLine
 10
-1.38845
 20
1.128938888888889
 30
0.0
 11
-0.6128290270027884
 21
1.128938888888889
 31
0.0
  0
LINE
  5
145
330
113
100
AcDbEntity
  8
AM_9
100
AcDbLine
 10
-1.38845
 20
-1.273838888888889
 30
0.0
 11
-0.612829027002806
 21
-1.273838888888889
 31
0.0
  0
LINE
  5
146
330
113
100
AcDbEntity
  8
AM_9
100
AcDbLine
 10
-0.612829027002806
 20
-1.128938888888889
 30
0.0
 11
-1.38845
 21
-1.128938888888889
 31
0.0
  0
LINE
  5
147
330
113
100
AcDbEntity
  8
AM_9
100
AcDbLine
 10
-0.612829027002806
 20
-1.128938888888889
 30
0.0
 11
-0.612829027002806
 21
-1.273838888888889
 31
0.0
  0
LINE
  5
148
330
113
100
AcDbEntity
  8
AM_9
100
AcDbLine
 10
-1.38845
 20
1.128938888888889
 30
0.0
 11
-1.38845
 21
1.273838888888889
 31
0.0
  0
LINE
  5
149
330
113
100
AcDbEntity
  8
AM_9
100
AcDbLine
 10
-1.38845
 20
1.273838888888889
 30
0.0
 11
-1.411
 21
1.296388888888889
 31
0.0
  0
LINE
  5
14A
330
113
100
AcDbEntity
  8
AM_9
100
AcDbLine
 10
-1.411
 20
1.106388888888889
 30
0.0
 11
-1.38845
 21
1.128938888888889
 31
0.0
  0
LINE
  5
14B
330
113
100
AcDbEntity
  8
AM_9
100
AcDbLine
 10
-1.38845
 20
-1.128938888888889
 30
0.0
 11
-1.411000000000005
 21
-1.106388888888889
 31
0.0
  0
LINE
  5
14C
330
113
100
AcDbEntity
  8
AM_9
100
AcDbLine
 10
-1.411000000000005
 20
-1.296388888888889
 30
0.0
 11
-1.38845
 21
-1.273838888888889
 31
0.0
  0
LINE
  5
14D
330
113
100
AcDbEntity
  8
AM_9
100
AcDbLine
 10
-1.38845
 20
-1.128938888888889
 30
0.0
 11
-1.38845
 21
-1.273838888888889
 31
0.0
  0
LINE
  5
14E
330
113
100
AcDbEntity
  8
AM_9
100
AcDbLine
 10
0.6925624999999999
 20
0.7818583037724217
 30
0.0
 11
-1.64
 21
0.7818583037724217
 31
0.0
  0
LINE
  5
14F
330
113
100
AcDbEntity
  8
AM_9
100
AcDbLine
 10
-1.64
 20
0.7091484516230548
 30
0.0
 11
0.6925624999999999
 21
0.7091484516230547
 31
0.0
  0
LINE
  5
150
330
113
100
AcDbEntity
  8
AM_9
100
AcDbLine
 10
0.6925625000000001
 20
0.8125
 30
0.0
 11
-1.639999999999999
 21
0.8125
 31
0.0
  0
LINE
  5
151
330
113
100
AcDbEntity
  8
AM_9
100
AcDbLine
 10
-1.639999999999999
 20
-0.8125
 30
0.0
 11
-0.8499999999999999
 21
-0.8125
 31
0.0
  0
LINE
  5
152
330
113
100
AcDbEntity
  8
AM_9
100
AcDbLine
 10
1.17
 20
0.8552631578947368
 30
0.0
 11
0.6925625000000001
 21
0.8552631578947368
 31
0.0
  0
LINE
  5
153
330
113
100
AcDbEntity
  8
AM_9
100
AcDbLine
 10
0.6925625000000001
 20
-0.8552631578947368
 30
0.0
 11
1.17
 21
-0.8552631578947368
 31
0.0
  0
LINE
  5
154
330
113
100
AcDbEntity
  8
AM_9
100
AcDbLine
 10
-1.64
 20
0.8216253929486493
 30
0.0
 11
-1.411
 21
0.8216253929486494
 31
0.0
  0
LINE
  5
155
330
113
100
AcDbEntity
  8
AM_9
100
AcDbLine
 10
-1.411
 20
0.7489155407992825
 30
0.0
 11
-1.64
 21
0.7489155407992824
 31
0.0
  0
LINE
  5
156
330
113
100
AcDbEntity
  8
AM_9
100
AcDbLine
 10
-1.411
 20
0.8552631578947368
 30
0.0
 11
-1.481
 21
0.8552631578947368
 31
0.0
  0
LINE
  5
157
330
113
100
AcDbEntity
  8
AM_9
100
AcDbLine
 10
-1.481
 20
-0.8552631578947368
 30
0.0
 11
-1.411
 21
-0.8552631578947368
 31
0.0
  0
LINE
  5
158
330
113
100
AcDbEntity
  8
AM_9
100
AcDbLine
 10
-0.971
 20
-0.7212489168102785
 30
0.0
 11
-1.411
 21
-0.7212489168102785
 31
0.0
  0
LINE
  5
159
330
113
100
AcDbEntity
  8
AM_9
100
AcDbLine
 10
-0.971
 20
-0.9899494936611661
 30
0.0
 11
-1.19
 21
-0.9899494936611661
 31
0.0
  0
LINE
  5
15A
330
113
100
AcDbEntity
  8
AM_9
100
AcDbLine
 10
-0.971
 20
0.7212489168102781
 30
0.0
 11
-1.411
 21
0.7212489168102781
 31
0.0
  0
LINE
  5
15B
330
113
100
AcDbEntity
  8
AM_9
100
AcDbLine
 10
-0.971
 20
0.9899494936611664
 30
0.0
 11
-1.071
 21
0.9899494936611664
 31
0.0
  0
LINE
  5
15C
330
113
100
AcDbEntity
  8
AM_9
100
AcDbLine
 10
1.17
 20
-1.0390625
 30
0.0
 11
1.17
 21
1.0390625
 31
0.0
  0
LINE
  5
15D
330
113
100
AcDbEntity
  8
AM_9
100
AcDbLine
 10
1.19
 20
1.0390625
 30
0.0
 11
1.17
 21
1.0390625
 31
0.0
  0
LINE
  5
15E
330
113
100
AcDbEntity
  8
AM_9
100
AcDbLine
 10
1.17
 20
-1.0390625
 30
0.0
 11
1.19
 21
-1.0390625
 31
0.0
  0
LINE
  5
15F
330
113
100
AcDbEntity
  8
AM_9
100
AcDbLine
 10
-0.971
 20
1.191941814397573
 30
0.0
 11
-0.971
 21
0.7212489168102781
 31
0.0
  0
LINE
  5
160
330
113
100
AcDbEntity
  8
AM_9
100
AcDbLine
 10
1.071
 20
1.385416666666667
 30
0.0
 11
0.8831874999999999
 21
1.385416666666667
 31
0.0
  0
LINE
  5
161
330
113
100
AcDbEntity
  8
AM_9
100
AcDbLine
 10
0.8831874999999999
 20
-1.385416666666667
 30
0.0
 11
1.190000000000001
 21
-1.385416666666667
 31
0.0
  0
LINE
  5
162
330
113
100
AcDbEntity
  8
AM_9
100
AcDbLine
 10
0.8831874999999999
 20
-1.385416666666667
 30
0.0
 11
0.8831874999999999
 21
1.385416666666667
 31
0.0
  0
ARC
  5
163
330
113
100
AcDbEntity
  8
AM_9
100
AcDbCircle
 10
0.7831874999999978
 20
1.305457578016763
 30
0.0
 40
0.1000000000000025
100
AcDbArc
 50
0.0
 51
59.99999999999954
  0
ARC
  5
164
330
113
100
AcDbEntity
  8
AM_9
100
AcDbCircle
 10
0.7831874999999984
 20
-1.305457578016763
 30
0.0
 40
0.1000000000000019
100
AcDbArc
 50
300.0000000000002
 51
0.0
  0
LINE
  5
165
330
113
100
AcDbEntity
  8
AM_9
100
AcDbLine
 10
0.8331874999999996
 20
1.392060118395209
 30
0.0
 11
0.6925625000000001
 21
1.47325
 31
0.0
  0
LINE
  5
166
330
113
100
AcDbEntity
  8
AM_9
100
AcDbLine
 10
0.6925625000000001
 20
-1.47325
 30
0.0
 11
0.8331874999999996
 21
-1.392060118395209
 31
0.0
  0
LINE
  5
167
330
113
100
AcDbEntity
  8
AM_9
100
AcDbLine
 10
0.8331874999999996
 20
-1.392060118395209
 30
0.0
 11
0.8331874999999996
 21
1.392060118395209
 31
0.0
  0
LINE
  5
168
330
113
100
AcDbEntity
  8
AM_9
100
AcDbLine
 10
-1.190000001410305
 20
-0.9205164303629182
 30
0.0
 11
-0.9709999999999999
 21
-0.9232412375466847
 31
0.0
  0
LINE
  5
169
330
113
100
AcDbEntity
  8
AM_9
100
AcDbLine
 10
-0.971
 20
-0.7212489168102785
 30
0.0
 11
-0.971
 21
-1.191941814397572
 31
0.0
  0
LINE
  5
16A
330
113
100
AcDbEntity
  8
AM_9
100
AcDbLine
 10
-0.971
 20
-1.191941814397572
 30
0.0
 11
-1.190000001410305
 21
-1.189217007213806
 31
0.0
  0
LINE
  5
16B
330
113
100
AcDbEntity
  8
AM_9
100
AcDbLine
 10
-1.07100000098932
 20
1.190697624082823
 30
0.0
 11
-0.971
 21
1.191941814397573
 31
0.0
  0
LINE
  5
16C
330
113
100
AcDbEntity
  8
AM_9
100
AcDbLine
 10
-0.9709999999999999
 20
0.9232412375466842
 30
0.0
 11
-1.07100000098932
 21
0.9219970472319345
 31
0.0
  0
LINE
  5
16D
330
113
100
AcDbEntity
  8
AM_9
100
AcDbLine
 10
-1.19
 20
-1.503857569349136
 30
0.0
 11
-0.3096898796781358
 21
-1.519223439656322
 31
0.0
  0
LINE
  5
16E
330
113
100
AcDbEntity
  8
AM_9
100
AcDbLine
 10
-0.3096898796781358
 20
1.519223439656322
 30
0.0
 11
-1.071
 21
1.505934722075594
 31
0.0
  0
ARC
  5
16F
330
113
100
AcDbEntity
  8
AM_9
100
AcDbCircle
 10
-0.3105625000000006
 20
1.569215824414142
 30
0.0
 40
0.0500000000000008
100
AcDbArc
 50
271.0000000000006
 51
0.0
  0
ARC
  5
170
330
113
100
AcDbEntity
  8
AM_9
100
AcDbCircle
 10
-0.3105625000000006
 20
-1.569215824414142
 30
0.0
 40
0.0500000000000007
100
AcDbArc
 50
0.0
 51
88.99999999999936
  0
LINE
  5
171
330
113
100
AcDbEntity
  8
AM_9
100
AcDbLine
 10
-0.3096898796781358
 20
-1.519223439656322
 30
0.0
 11
-0.3096898796781358
 21
1.519223439656322
 31
0.0
  0
LINE
  5
172
330
113
100
AcDbEntity
  8
AM_9
100
AcDbLine
 10
0.2235143487660681
 20
1.62559375
 30
0.0
 11
0.1684856512339317
 21
1.62559375
 31
0.0
  0
LINE
  5
173
330
113
100
AcDbEntity
  8
AM_9
100
AcDbLine
 10
0.1684856512339317
 20
-1.62559375
 30
0.0
 11
0.2235143487660681
 21
-1.62559375
 31
0.0
  0
LINE
  5
174
330
113
100
AcDbEntity
  8
AM_9
100
AcDbLine
 10
0.6925625000000001
 20
-1.623250000000001
 30
0.0
 11
0.6925625000000001
 21
1.623250000000001
 31
0.0
  0
ARC
  5
175
330
113
100
AcDbEntity
  8
AM_9
100
AcDbCircle
 10
0.6425625000000003
 20
1.62325
 30
0.0
 40
0.0499999999999997
100
AcDbArc
 50
0.0
 51
90.0
  0
ARC
  5
176
330
113
100
AcDbEntity
  8
AM_9
100
AcDbCircle
 10
0.6425625000000003
 20
-1.62325
 30
0.0
 40
0.0499999999999998
100
AcDbArc
 50
270.0
 51
0.0
  0
LINE
  5
177
330
113
100
AcDbEntity
  8
AM_9
100
AcDbLine
 10
0.1409713024678637
 20
1.67325
 30
0.0
 11
-0.2505624999999995
 21
1.67325
 31
0.0
  0
LINE
  5
178
330
113
100
AcDbEntity
  8
AM_9
100
AcDbLine
 10
-0.2505624999999995
 20
-1.67325
 30
0.0
 11
0.1409713024678637
 21
-1.67325
 31
0.0
  0
LINE
  5
179
330
113
100
AcDbEntity
  8
AM_9
100
AcDbLine
 10
0.6425624999999998
 20
1.67325
 30
0.0
 11
0.2510286975321361
 21
1.67325
 31
0.0
  0
LINE
  5
17A
330
113
100
AcDbEntity
  8
AM_9
100
AcDbLine
 10
0.2510286975321361
 20
-1.67325
 30
0.0
 11
0.6425624999999998
 21
-1.67325
 31
0.0
  0
LINE
  5
17B
330
113
100
AcDbEntity
  8
AM_9
100
AcDbLine
 10
0.6425624999999998
 20
-1.67325
 30
0.0
 11
0.6425624999999998
 21
1.67325
 31
0.0
  0
LINE
  5
17C
330
113
100
AcDbEntity
  8
AM_9
100
AcDbLine
 10
-0.2605625000000001
 20
-1.663249999999999
 30
0.0
 11
-0.2605625000000001
 21
1.663249999999999
 31
0.0
  0
ARC
  5
17D
330
113
100
AcDbEntity
  8
AM_9
100
AcDbCircle
 10
-0.2505624999999998
 20
1.663249999999999
 30
0.0
 40
0.0100000000000005
100
AcDbArc
 50
90.0
 51
179.9999991462263
  0
ARC
  5
17E
330
113
100
AcDbEntity
  8
AM_9
100
AcDbCircle
 10
-0.2505624999999998
 20
-1.663249999999999
 30
0.0
 40
0.0100000000000003
100
AcDbArc
 50
179.9999991462263
 51
270.0
  0
LINE
  5
17F
330
113
100
AcDbEntity
  8
AM_9
100
AcDbLine
 10
-0.2505624999999995
 20
-1.67325
 30
0.0
 11
-0.2505624999999995
 21
1.67325
 31
0.0
  0
LINE
  5
180
330
113
100
AcDbEntity
  8
AM_9
100
AcDbLine
 10
0.1684856512339317
 20
1.62559375
 30
0.0
 11
0.1409713024678637
 21
1.67325
 31
0.0
  0
LINE
  5
181
330
113
100
AcDbEntity
  8
AM_9
100
AcDbLine
 10
0.1409713024678637
 20
-1.67325
 30
0.0
 11
0.1684856512339317
 21
-1.62559375
 31
0.0
  0
LINE
  5
182
330
113
100
AcDbEntity
  8
AM_9
100
AcDbLine
 10
0.1684856512339317
 20
-1.62559375
 30
0.0
 11
0.1684856512339317
 21
1.62559375
 31
0.0
  0
LINE
  5
183
330
113
100
AcDbEntity
  8
AM_9
100
AcDbLine
 10
0.1409713024678637
 20
-1.67325
 30
0.0
 11
0.1409713024678637
 21
1.67325
 31
0.0
  0
LINE
  5
184
330
113
100
AcDbEntity
  8
AM_9
100
AcDbLine
 10
0.2235143487660681
 20
-1.62559375
 30
0.0
 11
0.2510286975321361
 21
-1.67325
 31
0.0
  0
LINE
  5
185
330
113
100
AcDbEntity
  8
AM_9
100
AcDbLine
 10
0.2510286975321361
 20
1.67325
 30
0.0
 11
0.2235143487660681
 21
1.62559375
 31
0.0
  0
LINE
  5
186
330
113
100
AcDbEntity
  8
AM_9
100
AcDbLine
 10
0.2510286975321361
 20
-1.67325
 30
0.0
 11
0.2510286975321361
 21
1.67325
 31
0.0
  0
LINE
  5
187
330
113
100
AcDbEntity
  8
AM_9
100
AcDbLine
 10
0.2235143487660681
 20
-1.62559375
 30
0.0
 11
0.2235143487660681
 21
1.62559375
 31
0.0
  0
LINE
  5
188
330
113
100
AcDbEntity
  8
AM_5
100
AcDbLine
 10
-1.411
 20
1.296388888888889
 30
0.0
 11
-0.711
 21
1.296388888888889
 31
0.0
  0
LINE
  5
189
330
113
100
AcDbEntity
  8
AM_5
100
AcDbLine
 10
-0.7110000000000003
 20
1.296388888888889
 30
0.0
 11
-0.6840273103968568
 21
1.280816199285746
 31
0.0
  0
LINE
  5
18A
330
113
100
AcDbEntity
  8
AM_5
100
AcDbLine
 10
-1.411
 20
1.106388888888889
 30
0.0
 11
-0.711
 21
1.106388888888889
 31
0.0
  0
LINE
  5
18B
330
113
100
AcDbEntity
  8
AM_5
100
AcDbLine
 10
-0.7110000000000004
 20
1.106388888888889
 30
0.0
 11
-0.6840273103968569
 21
1.121961578492032
 31
0.0
  0
LINE
  5
18C
330
113
100
AcDbEntity
  8
AM_5
100
AcDbLine
 10
-1.411
 20
-1.296388888888889
 30
0.0
 11
-0.7109999999999992
 21
-1.296388888888889
 31
0.0
  0
LINE
  5
18D
330
113
100
AcDbEntity
  8
AM_5
100
AcDbLine
 10
-0.7109999999999994
 20
-1.296388888888889
 30
0.0
 11
-0.6840273103968593
 21
-1.280816199285748
 31
0.0
  0
LINE
  5
18E
330
113
100
AcDbEntity
  8
AM_5
100
AcDbLine
 10
-1.411
 20
-1.106388888888889
 30
0.0
 11
-0.7109999999999992
 21
-1.106388888888889
 31
0.0
  0
LINE
  5
18F
330
113
100
AcDbEntity
  8
AM_5
100
AcDbLine
 10
-0.7109999999999996
 20
-1.106388888888889
 30
0.0
 11
-0.6840273103968594
 21
-1.121961578492029
 31
0.0
  0
LINE
  5
192
330
113
100
AcDbEntity
  8
AM_7
100
AcDbLine
 10
1.331500000000001
 20
0.0
 30
0.0
 11
-1.7815
 21
0.0
 31
0.0
  0
LINE
  5
193
330
113
100
AcDbEntity
  8
AM_7
100
AcDbLine
 10
-0.5289999999999999
 20
1.201388888888889
 30
0.0
 11
-1.62705
 21
1.201388888888889
 31
0.0
  0
LINE
  5
194
330
113
100
AcDbEntity
  8
AM_7
100
AcDbLine
 10
-0.5289999999999978
 20
-1.201388888888889
 30
0.0
 11
-1.62705
 21
-1.201388888888889
 31
0.0
  0
LINE
  5
195
330
113
100
AcDbEntity
  8
AM_4
100
AcDbLine
 10
-1.481
 20
0.8552631578947368
 30
0.0
 11
-1.64
 21
0.8552631578947368
 31
0.0
  0
LINE
  5
196
330
113
100
AcDbEntity
  8
AM_4
100
AcDbLine
 10
-1.64
 20
-0.8552631578947368
 30
0.0
 11
-1.481
 21
-0.8552631578947368
 31
0.0
  0
LINE
  5
197
330
113
100
AcDbEntity
  8
AM_4
100
AcDbLine
 10
-1.64
 20
-0.8552631578947368
 30
0.0
 11
-1.64
 21
0.8552631578947368
 31
0.0
  0
LINE
  5
198
330
113
100
AcDbEntity
  8
AM_4
100
AcDbLine
 10
-1.19
 20
-0.9899494936611661
 30
0.0
 11
-1.411
 21
-0.9899494936611661
 31
0.0
  0
LINE
  5
199
330
113
100
AcDbEntity
  8
AM_4
100
AcDbLine
 10
-1.071
 20
0.9899494936611664
 30
0.0
 11
-1.411
 21
0.9899494936611664
 31
0.0
  0
LINE
  5
19A
330
113
100
AcDbEntity
  8
AM_4
100
AcDbLine
 10
1.190000000000001
 20
-0.8750000000000001
 30
0.0
 11
1.190000000000001
 21
1.385416666666667
 31
0.0
  0
LINE
  5
19B
330
113
100
AcDbEntity
  8
AM_4
100
AcDbLine
 10
1.190000000000001
 20
1.385416666666667
 30
0.0
 11
1.071
 21
1.385416666666667
 31
0.0
  0
LINE
  5
19C
330
113
100
AcDbEntity
  8
AM_4
100
AcDbLine
 10
-1.411
 20
-0.917766625230068
 30
0.0
 11
-1.411
 21
0.9177666252300677
 31
0.0
  0
LINE
  5
19D
330
113
100
AcDbEntity
  8
AM_4
100
AcDbLine
 10
-1.411
 20
-0.917766625230068
 30
0.0
 11
-1.190000001410305
 21
-0.9205164303629182
 31
0.0
  0
LINE
  5
19E
330
113
100
AcDbEntity
  8
AM_4
100
AcDbLine
 10
-1.190000001410305
 20
-1.189217007213806
 30
0.0
 11
-1.411
 21
-1.186467202080956
 31
0.0
  0
LINE
  5
19F
330
113
100
AcDbEntity
  8
AM_4
100
AcDbLine
 10
-1.411
 20
1.186467202080956
 30
0.0
 11
-1.411
 21
1.5
 31
0.0
  0
LINE
  5
1A0
330
113
100
AcDbEntity
  8
AM_4
100
AcDbLine
 10
-1.411
 20
1.186467202080956
 30
0.0
 11
-1.07100000098932
 21
1.190697624082823
 31
0.0
  0
LINE
  5
1A1
330
113
100
AcDbEntity
  8
AM_4
100
AcDbLine
 10
-1.07100000098932
 20
0.9219970472319345
 30
0.0
 11
-1.411
 21
0.9177666252300677
 31
0.0
  0
LINE
  5
1A2
330
113
100
AcDbEntity
  8
AM_4
100
AcDbLine
 10
-1.411
 20
-1.5
 30
0.0
 11
-1.19
 21
-1.503857569349136
 31
0.0
  0
LINE
  5
1A3
330
113
100
AcDbEntity
  8
AM_4
100
AcDbLine
 10
-1.071
 20
1.505934722075594
 30
0.0
 11
-1.411
 21
1.5
 31
0.0
  0
LINE
  5
1A4
330
113
100
AcDbEntity
  8
AM_4
100
AcDbLine
 10
-1.411
 20
-1.5
 30
0.0
 11
-1.411
 21
-1.186467202080956
 31
0.0
  0
ENDBLK
  5
116
330
113
100
AcDbEntity
  8
0
100
AcDbBlockEnd
  0
BLOCK
  5
1A7
330
1A5
100
AcDbEntity
  8
0
100
AcDbBlockBegin
  2
6_405015E_Inch_0_in_071186_2
 70
     2
 10
0.0
 20
0.0
 30
0.0
  3
6_405015E_Inch_0_in_071186_2
  1

  0
ATTDEF
  5
1A9
330
1A5
100
AcDbEntity
  8
AM_6
100
AcDbText
 10
5.252590742770462
 20
2.303005000806122
 30
0.0
 40
0.5
  1
405015E -Inch
100
AcDbAttributeDefinition
  3

  2
NN
 70
     8
280
     0
  0
ATTDEF
  5
1AA
330
1A5
100
AcDbEntity
  8
AM_6
100
AcDbText
 10
5.252590742770462
 20
1.803005000806122
 30
0.0
 40
0.5
  1
Grease Fitting
100
AcDbAttributeDefinition
  3

  2
NT
 70
     8
280
     0
  0
ATTDEF
  5
1AB
330
1A5
100
AcDbEntity
  8
AM_6
100
AcDbText
 10
5.252590742770462
 20
1.303005000806122
 30
0.0
 40
0.5
  1
405015E-Inch
100
AcDbAttributeDefinition
  3

  2
NB
 70
     8
280
     0
  0
ATTDEF
  5
1AC
330
1A5
100
AcDbEntity
  8
AM_6
100
AcDbText
 10
5.252590742770462
 20
0.8030050008061225
 30
0.0
 40
0.5
  1
$MN.-Inch
100
AcDbAttributeDefinition
  3

  2
NBSYN
 70
     8
280
     0
  0
ATTDEF
  5
1AD
330
1A5
100
AcDbEntity
  8
AM_6
100
AcDbText
 10
5.252590742770462
 20
0.3030050008061225
 30
0.0
 40
0.5
  1
405015E
100
AcDbAttributeDefinition
  3

  2
LINA
 70
     8
280
     0
  0
ATTDEF
  5
1AE
330
1A5
100
AcDbEntity
  8
AM_6
100
AcDbText
 10
5.252590742770462
 20
-0.1969949991938775
 30
0.0
 40
0.5
  1
405015E
100
AcDbAttributeDefinition
  3

  2
MN
 70
     8
280
     0
  0
ATTDEF
  5
1AF
330
1A5
100
AcDbEntity
  8
AM_6
100
AcDbText
 10
5.252590742770462
 20
-0.6969949991938775
 30
0.0
 40
0.5
  1
1/8 x 27PTF
100
AcDbAttributeDefinition
  3

  2
T
 70
     8
280
     0
  0
ATTDEF
  5
1B0
330
1A5
100
AcDbEntity
  8
AM_6
100
AcDbText
 10
5.252590742770462
 20
-1.196994999193878
 30
0.0
 40
0.5
  1
baldor
100
AcDbAttributeDefinition
  3

  2
COMPANY
 70
     8
280
     0
  0
LINE
  5
1B1
330
1A5
100
AcDbEntity
  8
AM_9
100
AcDbLine
 10
-0.1262953713852306
 20
2.115031292110204
 30
0.0
 11
-0.1262953713852306
 21
2.044134295108992
 31
0.0
  0
LINE
  5
1B2
330
1A5
100
AcDbEntity
  8
AM_9
100
AcDbLine
 10
0.1262953713852307
 20
2.115031292110204
 30
0.0
 11
0.1262953713852307
 21
2.044134295108992
 31
0.0
  0
LWPOLYLINE
  5
1B3
330
1A5
100
AcDbEntity
  8
AM_9
100
AcDbPolyline
 90
        4
 70
     0
 43
0.0
 10
-0.1262953713852306
 20
2.044134295108992
 10
-0.0967996321117977
 20
2.041029431934855
 10
-0.0485424412477543
 20
2.03751632690031
 10
0.0000000000000001
 20
2.036281523420376
  0
LWPOLYLINE
  5
1B4
330
1A5
100
AcDbEntity
  8
AM_9
100
AcDbPolyline
 90
        3
 70
     0
 43
0.0
 10
0.0000000000000001
 20
2.036281523420376
 10
0.0631476856926154
 20
2.038354251981146
 10
0.1262953713852307
 20
2.044134295108992
  0
LWPOLYLINE
  5
1B5
330
1A5
100
AcDbEntity
  8
AM_9
100
AcDbPolyline
 90
        3
 70
     0
 43
0.0
 10
0.1262953713852307
 20
2.044134295108992
 10
0.1577272497321277
 20
2.011151758227744
 10
0.189443057077846
 20
1.981594023420376
  0
ELLIPSE
  5
1B6
330
1A5
100
AcDbEntity
  8
AM_9
100
AcDbEllipse
 10
-0.0000000000000003
 20
1.926906523420376
 30
0.0
 11
0.2187499999999994
 21
0.0
 31
0.0
210
0.0
220
0.0
230
1.0
 40
0.5000000000000034
 41
1.570796326794897
 42
2.617993877991493
  0
LWPOLYLINE
  5
1B7
330
1A5
100
AcDbEntity
  8
AM_9
100
AcDbPolyline
 90
        3
 70
     0
 43
0.0
 10
-0.1894430570778459
 20
1.981594023420376
 10
-0.1578692142315382
 20
2.011010501981146
 10
-0.1262953713852306
 20
2.044134295108992
  0
LWPOLYLINE
  5
1B8
330
1A5
100
AcDbEntity
  8
AM_9
100
AcDbPolyline
 90
        3
 70
     0
 43
0.0
 10
0.1018642058435939
 20
2.117650265583586
 10
0.0634316146914368
 20
2.120793023854378
 10
0.0000000000000001
 20
2.12288406379882
  0
LINE
  5
1B9
330
1A5
100
AcDbEntity
  8
AM_9
100
AcDbLine
 10
0.1050470645306124
 20
2.117334498909039
 30
0.0
 11
0.1018642058435939
 21
2.117650265583586
 31
0.0
  0
LINE
  5
1BA
330
1A5
100
AcDbEntity
  8
AM_9
100
AcDbLine
 10
-0.1018591253727358
 20
2.117650763245341
 30
0.0
 11
-0.1050087569988762
 21
2.117338346413549
 31
0.0
  0
LWPOLYLINE
  5
1BB
330
1A5
100
AcDbEntity
  8
AM_9
100
AcDbPolyline
 90
        4
 70
     0
 43
0.0
 10
0.0000000000000001
 20
2.12288406379882
 10
-0.0483998160558988
 20
2.121656420206372
 10
-0.0967996321117978
 20
2.118136155284341
 10
-0.1018591253727358
 20
2.117650763245341
  0
LWPOLYLINE
  5
1BC
330
1A5
100
AcDbEntity
  8
AM_9
100
AcDbPolyline
 90
        3
 70
     0
 43
0.0
 10
0.189443057077846
 20
1.981594023420376
 10
0.2210168999241537
 20
1.956323001981146
 10
0.2525907427704613
 20
1.934759295108992
  0
LWPOLYLINE
  5
1BD
330
1A5
100
AcDbEntity
  8
AM_9
100
AcDbPolyline
 90
        3
 70
     0
 43
0.0
 10
-0.2525907427704611
 20
1.934759295108992
 10
-0.2211588644235642
 20
1.956218368501893
 10
-0.1894430570778459
 20
1.981594023420376
  0
LINE
  5
1BE
330
1A5
100
AcDbEntity
  8
AM_9
100
AcDbLine
 10
0.1321931418159854
 20
1.65067245791528
 30
0.0
 11
0.1621706131788416
 21
1.671869731198782
 31
0.0
  0
LINE
  5
1BF
330
1A5
100
AcDbEntity
  8
AM_9
100
AcDbLine
 10
-0.1621706131788415
 20
1.671869731198782
 30
0.0
 11
-0.1321931418159852
 21
1.65067245791528
 31
0.0
  0
ELLIPSE
  5
1C0
330
1A5
100
AcDbEntity
  8
AM_9
100
AcDbEllipse
 10
0.0
 20
1.926906523420377
 30
0.0
 11
0.2187499999999999
 21
0.0
 31
0.0
210
0.0
220
0.0
230
1.0
 40
0.5000000000000001
 41
2.617993877991498
 42
4.71238898038469
  0
ELLIPSE
  5
1C1
330
1A5
100
AcDbEntity
  8
AM_9
100
AcDbEllipse
 10
0.0000000000000001
 20
1.729205701342752
 30
0.0
 11
0.1986176267812155
 21
0.0
 31
0.0
210
0.0
220
0.0
230
1.0
 40
0.5000000000000021
 41
3.757072362260175
 42
9.442822037473821
  0
LINE
  5
1C2
330
1A5
100
AcDbEntity
  8
AM_9
100
AcDbLine
 10
0.1985852938306409
 20
1.727413862733932
 30
0.0
 11
0.2057184028850728
 21
1.925050322642746
 31
0.0
  0
LINE
  5
1C3
330
1A5
100
AcDbEntity
  8
AM_9
100
AcDbLine
 10
-0.2057184028850727
 20
1.925050322642746
 30
0.0
 11
-0.1985852938306407
 21
1.727413862733932
 31
0.0
  0
ELLIPSE
  5
1C4
330
1A5
100
AcDbEntity
  8
AM_9
100
AcDbEllipse
 10
0.0000000000000007
 20
1.729205701342754
 30
0.0
 11
0.1986176267812161
 21
0.0
 31
0.0
210
0.0
220
0.0
230
1.0
 40
0.5000000000000039
 41
3.159636730294267
 42
3.757072362260189
  0
ELLIPSE
  5
1C5
330
1A5
100
AcDbEntity
  8
AM_9
100
AcDbEllipse
 10
0.0
 20
1.926906523420376
 30
0.0
 11
0.2187500000000001
 21
3.259629011154176E-9
 31
0.0
210
0.0
220
0.0
230
1.0
 40
0.4999999999999997
 41
4.71238898038469
 42
7.853981633974483
  0
LINE
  5
1C6
330
1A5
100
AcDbEntity
  8
AM_9
100
AcDbLine
 10
-0.10178102724221
 20
2.117341897584663
 30
0.0
 11
-0.1049999999999999
 21
2.111039502945136
 31
0.0
  0
LINE
  5
1C7
330
1A5
100
AcDbEntity
  8
AM_9
100
AcDbLine
 10
0.1050000000000001
 20
2.111039502945136
 30
0.0
 11
0.1017810272422102
 21
2.117341897584663
 31
0.0
  0
ELLIPSE
  5
1C8
330
1A5
100
AcDbEntity
  8
AM_9
100
AcDbEllipse
 10
0.0000000000000001
 20
2.104441731196186
 30
0.0
 11
0.1049999999999999
 21
0.0
 31
0.0
210
0.0
220
0.0
230
1.0
 40
0.4999999999999984
 41
0.2500328930988012
 42
3.141592653589793
  0
ELLIPSE
  5
1C9
330
1A5
100
AcDbEntity
  8
AM_9
100
AcDbEllipse
 10
0.0000000000000037
 20
2.076515115325111
 30
0.0
 11
0.1188200907348936
 21
1.770557325108254E-9
 31
0.0
210
0.0
220
0.0
230
1.0
 40
0.500000000000038
 41
0.2500328646651262
 42
2.535447490846816
  0
ELLIPSE
  5
1CA
330
1A5
100
AcDbEntity
  8
AM_9
100
AcDbEllipse
 10
0.0000000000000011
 20
2.104441731196158
 30
0.0
 11
0.104999999999999
 21
0.0
 31
0.0
210
0.0
220
0.0
230
1.0
 40
0.5000000000000409
 41
0.0
 42
0.250032893099308
  0
LINE
  5
1CB
330
1A5
100
AcDbEntity
  8
AM_9
100
AcDbLine
 10
0.1050000000000001
 20
2.122679960008645
 30
0.0
 11
0.1050000000000001
 21
2.130422493309719
 31
0.0
  0
LINE
  5
1CC
330
1A5
100
AcDbEntity
  8
AM_9
100
AcDbLine
 10
-0.1049999999999999
 20
2.130422493309719
 30
0.0
 11
-0.1049999999999999
 21
2.122679960008645
 31
0.0
  0
ELLIPSE
  5
1CD
330
1A5
100
AcDbEntity
  8
AM_9
100
AcDbEllipse
 10
-0.0000000000000042
 20
2.130422493309725
 30
0.0
 11
0.1049999999999957
 21
0.0
 31
0.0
210
0.0
220
0.0
230
1.0
 40
0.5000000000000139
 41
3.141592653589793
 42
3.434435425318489
  0
LINE
  5
1CE
330
1A5
100
AcDbEntity
  8
AM_9
100
AcDbLine
 10
-0.0976523208201057
 20
2.110361231057568
 30
0.0
 11
-0.1098343496897826
 21
2.101574377930718
 31
0.0
  0
LINE
  5
1CF
330
1A5
100
AcDbEntity
  8
AM_9
100
AcDbLine
 10
0.1098343496897827
 20
2.101574377930718
 30
0.0
 11
0.0976523208201058
 21
2.110361231057568
 31
0.0
  0
ELLIPSE
  5
1D0
330
1A5
100
AcDbEntity
  8
AM_9
100
AcDbEllipse
 10
-0.0000000000000036
 20
2.076515115325111
 30
0.0
 11
0.1188200907348937
 21
0.0
 31
0.0
210
0.0
220
0.0
230
1.0
 40
0.5000000000000377
 41
2.535447513394567
 42
2.891559760490811
  0
ELLIPSE
  5
1D1
330
1A5
100
AcDbEntity
  8
AM_9
100
AcDbEllipse
 10
0.0000000000000001
 20
2.029373089086791
 30
0.0
 11
0.1725340532830152
 21
2.570957739398110E-9
 31
0.0
210
0.0
220
0.0
230
1.0
 40
0.4999999999999997
 41
0.6061451176472872
 42
2.535447490846922
  0
ELLIPSE
  5
1D2
330
1A5
100
AcDbEntity
  8
AM_9
100
AcDbEllipse
 10
-0.0000000000000002
 20
2.013509063798824
 30
0.0
 11
0.2187500000000017
 21
0.0
 31
0.0
210
0.0
220
0.0
230
1.0
 40
0.4999999999999799
 41
1.065244638251234
 42
1.570796326794897
  0
ELLIPSE
  5
1D3
330
1A5
100
AcDbEntity
  8
AM_9
100
AcDbEllipse
 10
0.0000000000000003
 20
2.013509063798824
 30
0.0
 11
0.2187500000000015
 21
0.0
 31
0.0
210
0.0
220
0.0
230
1.0
 40
0.4999999999999803
 41
1.570796326794897
 42
2.076348015338559
  0
ELLIPSE
  5
1D4
330
1A5
100
AcDbEntity
  8
AM_9
100
AcDbEllipse
 10
-0.0000000000012852
 20
2.013509063791248
 30
0.0
 11
0.2137499999974418
 21
3.185123205146817E-9
 31
0.0
210
0.0
220
0.0
230
1.0
 40
0.5000000000351914
 41
-4.198889895807547
 42
-4.184564790888023
  0
ELLIPSE
  5
1D5
330
1A5
100
AcDbEntity
  8
AM_9
100
AcDbEllipse
 10
-0.0000000000018833
 20
2.013509063795219
 30
0.0
 11
0.2137499999960966
 21
0.0
 31
0.0
210
0.0
220
0.0
230
1.0
 40
0.500000000021742
 41
-4.217356306601366
 42
-4.198889882959072
  0
ELLIPSE
  5
1D6
330
1A5
100
AcDbEntity
  8
AM_9
100
AcDbEllipse
 10
-0.0000000000000001
 20
2.01350906379882
 30
0.0
 11
0.2137499999999986
 21
0.0
 31
0.0
210
0.0
220
0.0
230
1.0
 40
0.5000000000000058
 41
1.075763653005987
 42
2.065829000583804
  0
ELLIPSE
  5
1D7
330
1A5
100
AcDbEntity
  8
AM_9
100
AcDbEllipse
 10
0.0000000000029279
 20
2.013509063797286
 30
0.0
 11
0.2137499999939476
 21
0.0
 31
0.0
210
0.0
220
0.0
230
1.0
 40
0.5000000000171331
 41
1.057297229367978
 42
1.075763653010538
  0
ELLIPSE
  5
1D8
330
1A5
100
AcDbEntity
  8
AM_9
100
AcDbEllipse
 10
0.0000000000012217
 20
2.013509063791194
 30
0.0
 11
0.2137499999975707
 21
0.0
 31
0.0
210
0.0
220
0.0
230
1.0
 40
0.5000000000351807
 41
1.042972124177727
 42
1.05729722937358
  0
ELLIPSE
  5
1D9
330
1A5
100
AcDbEntity
  8
AM_9
100
AcDbEllipse
 10
0.0000000000000001
 20
2.130422493309719
 30
0.0
 11
0.1050000000000001
 21
0.0
 31
0.0
210
0.0
220
0.0
230
1.0
 40
0.4999999999999973
 41
5.990342535451015
 42
9.42477796076938
  0
ELLIPSE
  5
1DA
330
1A5
100
AcDbEntity
  8
AM_9
100
AcDbEllipse
 10
0.0000000000000001
 20
2.182384017536785
 30
0.0
 11
0.1350000000000001
 21
0.0
 31
0.0
210
0.0
220
0.0
230
1.0
 40
0.5000000000000023
 41
0.2354336045415577
 42
2.906159049048235
  0
ELLIPSE
  5
1DB
330
1A5
100
AcDbEntity
  8
AM_9
100
AcDbEllipse
 10
0.0000000000000007
 20
1.697409791417498
 30
0.0
 11
0.1619028724722683
 21
0.0
 31
0.0
210
0.0
220
0.0
230
1.0
 40
0.4999999999999996
 41
0.0
 42
6.283185307179586
  0
ELLIPSE
  5
1DC
330
1A5
100
AcDbEntity
  8
AM_9
100
AcDbEllipse
 10
-0.0000000000010423
 20
1.926906523419168
 30
0.0
 11
0.2057518972241119
 21
0.0
 31
0.0
210
0.0
220
0.0
230
1.0
 40
0.4999999999999174
 41
0.0
 42
6.283185307179586
  0
LWPOLYLINE
  5
1DD
330
1A5
100
AcDbEntity
  8
AM_4
100
AcDbPolyline
 90
        3
 70
     0
 43
0.0
 10
0.189443057077846
 20
2.06819656379882
 10
0.1578692142315384
 20
2.09346758523805
 10
0.1262953713852307
 20
2.115031292110204
  0
LINE
  5
1DE
330
1A5
100
AcDbEntity
  8
AM_4
100
AcDbLine
 10
0.1262953713852307
 20
2.115031292110204
 30
0.0
 11
0.1050470645306124
 21
2.117334498909039
 31
0.0
  0
LWPOLYLINE
  5
1DF
330
1A5
100
AcDbEntity
  8
AM_4
100
AcDbPolyline
 90
        3
 70
     0
 43
0.0
 10
-0.1262953713852306
 20
2.115031292110204
 10
-0.1577272497321275
 20
2.093572218717303
 10
-0.1894430570778459
 20
2.06819656379882
  0
LINE
  5
1E0
330
1A5
100
AcDbEntity
  8
AM_4
100
AcDbLine
 10
-0.1050087569988762
 20
2.117338346413549
 30
0.0
 11
-0.1262953713852306
 21
2.115031292110204
 31
0.0
  0
LWPOLYLINE
  5
1E1
330
1A5
100
AcDbEntity
  8
AM_4
100
AcDbPolyline
 90
        3
 70
     0
 43
0.0
 10
0.2525907427704613
 20
2.005656292110204
 10
0.2211588644235644
 20
2.038638828991453
 10
0.189443057077846
 20
2.06819656379882
  0
LWPOLYLINE
  5
1E2
330
1A5
100
AcDbEntity
  8
AM_4
100
AcDbPolyline
 90
        3
 70
     0
 43
0.0
 10
-0.1894430570778459
 20
2.06819656379882
 10
-0.2210168999241535
 20
2.03878008523805
 10
-0.2525907427704611
 20
2.005656292110204
  0
LINE
  5
1E3
330
1A5
100
AcDbEntity
  8
AM_4
100
AcDbLine
 10
-0.1049999999999999
 20
2.111039502945136
 30
0.0
 11
-0.1151252948555657
 21
2.091215289190322
 31
0.0
  0
LINE
  5
1E4
330
1A5
100
AcDbEntity
  8
AM_4
100
AcDbLine
 10
0.1151252948555658
 20
2.091215289190322
 30
0.0
 11
0.1050000000000001
 21
2.111039502945136
 31
0.0
  0
ELLIPSE
  5
1E5
330
1A5
100
AcDbEntity
  8
AM_4
100
AcDbEllipse
 10
0.0000000000000001
 20
2.076515115325122
 30
0.0
 11
0.1188200907348976
 21
0.0
 31
0.0
210
0.0
220
0.0
230
1.0
 40
0.5000000000000024
 41
2.89155976049099
 42
6.283185307179586
  0
LINE
  5
1E6
330
1A5
100
AcDbEntity
  8
AM_4
100
AcDbLine
 10
0.1050000000000001
 20
2.104441731196186
 30
0.0
 11
0.1050000000000001
 21
2.122679960008645
 31
0.0
  0
LINE
  5
1E7
330
1A5
100
AcDbEntity
  8
AM_4
100
AcDbLine
 10
-0.1049999999999999
 20
2.122679960008645
 30
0.0
 11
-0.1049999999999999
 21
2.104441731196186
 31
0.0
  0
ELLIPSE
  5
1E8
330
1A5
100
AcDbEntity
  8
AM_4
100
AcDbEllipse
 10
0.0000000000000001
 20
2.104441731196186
 30
0.0
 11
0.1049999999999999
 21
0.0
 31
0.0
210
0.0
220
0.0
230
1.0
 40
0.4999999999999984
 41
3.141592653589793
 42
6.283185307179586
  0
ELLIPSE
  5
1E9
330
1A5
100
AcDbEntity
  8
AM_4
100
AcDbEllipse
 10
0.0000000000000011
 20
2.076515115325115
 30
0.0
 11
0.1188200907348965
 21
1.770557325108297E-9
 31
0.0
210
0.0
220
0.0
230
1.0
 40
0.500000000000011
 41
0.0000017195196831
 42
0.2500328646650756
  0
LINE
  5
1EA
330
1A5
100
AcDbEntity
  8
AM_4
100
AcDbLine
 10
-0.1098343496897826
 20
2.101574377930718
 30
0.0
 11
-0.1417971541629017
 21
2.078519723288862
 31
0.0
  0
LINE
  5
1EB
330
1A5
100
AcDbEntity
  8
AM_4
100
AcDbLine
 10
0.1417971541629018
 20
2.078519723288862
 30
0.0
 11
0.1098343496897827
 21
2.101574377930718
 31
0.0
  0
ELLIPSE
  5
1EC
330
1A5
100
AcDbEntity
  8
AM_4
100
AcDbEllipse
 10
0.0000000000000001
 20
2.029373089086791
 30
0.0
 11
0.1725340532830155
 21
0.0
 31
0.0
210
0.0
220
0.0
230
1.0
 40
0.4999999999999989
 41
2.535447513394708
 42
6.889330447374672
  0
LWPOLYLINE
  5
1ED
330
1A5
100
AcDbEntity
  8
AM_4
100
AcDbPolyline
 90
        3
 70
     0
 43
0.0
 10
0.0000000000000001
 20
1.90413406379882
 10
0.0631476856926154
 20
1.90206133523805
 10
0.1262953713852307
 20
1.896281292110204
  0
LWPOLYLINE
  5
1EE
330
1A5
100
AcDbEntity
  8
AM_4
100
AcDbPolyline
 90
        4
 70
     0
 43
0.0
 10
-0.1262953713852306
 20
1.896281292110204
 10
-0.0967996321117977
 20
1.899386155284341
 10
-0.0485424412477543
 20
1.902899260318886
 10
0.0000000000000001
 20
1.90413406379882
  0
LWPOLYLINE
  5
1EF
330
1A5
100
AcDbEntity
  8
AM_4
100
AcDbPolyline
 90
        4
 70
     0
 43
0.0
 10
0.0000000000000001
 20
1.817531523420376
 10
-0.0483998160558988
 20
1.818759167012824
 10
-0.0967996321117977
 20
1.822279431934855
 10
-0.1262953713852306
 20
1.825384295108992
  0
LWPOLYLINE
  5
1F0
330
1A5
100
AcDbEntity
  8
AM_4
100
AcDbPolyline
 90
        3
 70
     0
 43
0.0
 10
0.1262953713852307
 20
1.825384295108992
 10
0.0634316146914368
 20
1.819622563364818
 10
0.0000000000000001
 20
1.817531523420376
  0
LINE
  5
1F1
330
1A5
100
AcDbEntity
  8
AM_4
100
AcDbLine
 10
-0.1262953713852306
 20
1.896281292110204
 30
0.0
 11
-0.1262953713852306
 21
1.825384295108992
 31
0.0
  0
LWPOLYLINE
  5
1F2
330
1A5
100
AcDbEntity
  8
AM_4
100
AcDbPolyline
 90
        3
 70
     0
 43
0.0
 10
-0.1894430570778459
 20
1.95882156379882
 10
-0.1578692142315383
 20
1.92940508523805
 10
-0.1262953713852306
 20
1.896281292110204
  0
LWPOLYLINE
  5
1F3
330
1A5
100
AcDbEntity
  8
AM_4
100
AcDbPolyline
 90
        3
 70
     0
 43
0.0
 10
-0.2525907427704611
 20
2.005656292110204
 10
-0.2211588644235642
 20
1.984197218717303
 10
-0.1894430570778459
 20
1.95882156379882
  0
LINE
  5
1F4
330
1A5
100
AcDbEntity
  8
AM_4
100
AcDbLine
 10
-0.2525907427704611
 20
2.005656292110204
 30
0.0
 11
-0.2525907427704611
 21
1.934759295108992
 31
0.0
  0
LWPOLYLINE
  5
1F5
330
1A5
100
AcDbEntity
  8
AM_4
100
AcDbPolyline
 90
        3
 70
     0
 43
0.0
 10
-0.1894430570778459
 20
1.872219023420376
 10
-0.2210168999241535
 20
1.901635501981146
 10
-0.2525907427704611
 20
1.934759295108992
  0
LWPOLYLINE
  5
1F6
330
1A5
100
AcDbEntity
  8
AM_4
100
AcDbPolyline
 90
        3
 70
     0
 43
0.0
 10
-0.1262953713852306
 20
1.825384295108992
 10
-0.1577272497321275
 20
1.846843368501893
 10
-0.1894430570778459
 20
1.872219023420376
  0
ELLIPSE
  5
1F7
330
1A5
100
AcDbEntity
  8
AM_4
100
AcDbEllipse
 10
0.0
 20
2.01350906379882
 30
0.0
 11
0.2187499999999998
 21
0.0
 31
0.0
210
0.0
220
0.0
230
1.0
 40
0.5000000000000004
 41
2.617993877991498
 42
4.71238898038469
  0
ELLIPSE
  5
1F8
330
1A5
100
AcDbEntity
  8
AM_4
100
AcDbEllipse
 10
0.0000000000000001
 20
2.01350906379882
 30
0.0
 11
0.2187499999999998
 21
0.0
 31
0.0
210
0.0
220
0.0
230
1.0
 40
0.5000000000000004
 41
4.71238898038469
 42
7.348429945430821
  0
ELLIPSE
  5
1F9
330
1A5
100
AcDbEntity
  8
AM_4
100
AcDbEllipse
 10
-0.0000000000000017
 20
2.013509063798816
 30
0.0
 11
0.2187499999999971
 21
0.0
 31
0.0
210
0.0
220
0.0
230
1.0
 40
0.5000000000000209
 41
2.07634801533855
 42
2.617993877991477
  0
LINE
  5
1FA
330
1A5
100
AcDbEntity
  8
AM_4
100
AcDbLine
 10
0.2525907427704613
 20
2.005656292110204
 30
0.0
 11
0.2525907427704613
 21
1.934759295108992
 31
0.0
  0
LWPOLYLINE
  5
1FB
330
1A5
100
AcDbEntity
  8
AM_4
100
AcDbPolyline
 90
        3
 70
     0
 43
0.0
 10
0.189443057077846
 20
1.95882156379882
 10
0.2210168999241536
 20
1.98409258523805
 10
0.2525907427704613
 20
2.005656292110204
  0
LWPOLYLINE
  5
1FC
330
1A5
100
AcDbEntity
  8
AM_4
100
AcDbPolyline
 90
        3
 70
     0
 43
0.0
 10
0.1262953713852307
 20
1.896281292110204
 10
0.1577272497321276
 20
1.929263828991452
 10
0.189443057077846
 20
1.95882156379882
  0
LINE
  5
1FD
330
1A5
100
AcDbEntity
  8
AM_4
100
AcDbLine
 10
0.1262953713852307
 20
1.896281292110204
 30
0.0
 11
0.1262953713852307
 21
1.825384295108992
 31
0.0
  0
LWPOLYLINE
  5
1FE
330
1A5
100
AcDbEntity
  8
AM_4
100
AcDbPolyline
 90
        3
 70
     0
 43
0.0
 10
0.189443057077846
 20
1.872219023420376
 10
0.1578692142315384
 20
1.846948001981146
 10
0.1262953713852307
 20
1.825384295108992
  0
LWPOLYLINE
  5
1FF
330
1A5
100
AcDbEntity
  8
AM_4
100
AcDbPolyline
 90
        3
 70
     0
 43
0.0
 10
0.2525907427704613
 20
1.934759295108992
 10
0.2211588644235643
 20
1.901776758227743
 10
0.189443057077846
 20
1.872219023420376
  0
ELLIPSE
  5
200
330
1A5
100
AcDbEntity
  8
AM_4
100
AcDbEllipse
 10
0.0
 20
2.01350906379882
 30
0.0
 11
0.2137500000000001
 21
0.0
 31
0.0
210
0.0
220
0.0
230
1.0
 40
0.5
 41
2.098620529422324
 42
7.326157431347055
  0
LINE
  5
201
330
1A5
100
AcDbEntity
  8
AM_4
100
AcDbLine
 10
0.1005298463144156
 20
2.115267048743491
 30
0.0
 11
0.1292526595471057
 21
2.162898445951635
 31
0.0
  0
LINE
  5
202
330
1A5
100
AcDbEntity
  8
AM_4
100
AcDbLine
 10
-0.1292526595471056
 20
2.162898445951635
 30
0.0
 11
-0.1005298463144154
 21
2.115267048743491
 31
0.0
  0
ELLIPSE
  5
203
330
1A5
100
AcDbEntity
  8
AM_4
100
AcDbEllipse
 10
0.0000000000000001
 20
2.182384017536785
 30
0.0
 11
0.1349999999999998
 21
0.0
 31
0.0
210
0.0
220
0.0
230
1.0
 40
0.4999999999999934
 41
2.906159049048223
 42
5.990342535451012
  0
ELLIPSE
  5
204
330
1A5
100
AcDbEntity
  8
AM_4
100
AcDbEllipse
 10
-0.0000000000000017
 20
2.182384017536765
 30
0.0
 11
0.1350000000000018
 21
0.0
 31
0.0
210
0.0
220
0.0
230
1.0
 40
0.4999999999999795
 41
5.990342535451287
 42
6.518618911721441
  0
ELLIPSE
  5
205
330
1A5
100
AcDbEntity
  8
AM_4
100
AcDbEllipse
 10
0.0000000000000002
 20
2.130422493309719
 30
0.0
 11
0.1049999999999999
 21
0.0
 31
0.0
210
0.0
220
0.0
230
1.0
 40
0.5000000000000027
 41
3.434435425318362
 42
5.990342535451017
  0
LINE
  5
206
330
1A5
100
AcDbEntity
  8
AM_4
100
AcDbLine
 10
-0.0998453562378796
 20
2.263641612280739
 30
0.0
 11
-0.1312757938985218
 21
2.198129381428363
 31
0.0
  0
LINE
  5
207
330
1A5
100
AcDbEntity
  8
AM_4
100
AcDbLine
 10
0.131275793898522
 20
2.198129381428363
 30
0.0
 11
0.0998453562378798
 21
2.263641612280739
 31
0.0
  0
ELLIPSE
  5
208
330
1A5
100
AcDbEntity
  8
AM_4
100
AcDbEllipse
 10
-0.0000000000000005
 20
2.251666049839526
 30
0.0
 11
0.1026779019331881
 21
0.0
 31
0.0
210
0.0
220
0.0
230
1.0
 40
0.5000000000000278
 41
0.0
 42
6.283185307179586
  0
ENDBLK
  5
1A8
330
1A5
100
AcDbEntity
  8
0
100
AcDbBlockEnd
  0
BLOCK
  5
20B
330
209
100
AcDbEntity
  8
0
100
AcDbBlockBegin
  2
7_071186Ho_0_in_071186_2
 70
     2
 10
0.0
 20
0.0
 30
0.0
  3
7_071186Ho_0_in_071186_2
  1

  0
ATTDEF
  5
20D
330
209
100
AcDbEntity
  8
AM_6
100
AcDbText
 10
6.19
 20
2.140303983041932
 30
0.0
 40
0.5
  1
EP2B-IP -(Labyrinth Seal)-Housing -Inch
100
AcDbAttributeDefinition
  3

  2
NN
 70
     8
280
     0
  0
ATTDEF
  5
20E
330
209
100
AcDbEntity
  8
AM_6
100
AcDbText
 10
6.19
 20
1.640303983041932
 30
0.0
 40
0.5
  1
Imperial/E 2 Bolt Piliow Block Bearings
100
AcDbAttributeDefinition
  3

  2
NT
 70
     8
280
     0
  0
ATTDEF
  5
20F
330
209
100
AcDbEntity
  8
AM_6
100
AcDbText
 10
6.19
 20
1.140303983041932
 30
0.0
 40
0.5
  1
071186Ho
100
AcDbAttributeDefinition
  3

  2
NB
 70
     8
280
     0
  0
ATTDEF
  5
210
330
209
100
AcDbEntity
  8
AM_6
100
AcDbText
 10
6.19
 20
0.6403039830419321
 30
0.0
 40
0.5
  1
$PN.Ho
100
AcDbAttributeDefinition
  3

  2
NBSYN
 70
     8
280
     0
  0
ATTDEF
  5
211
330
209
100
AcDbEntity
  8
AM_6
100
AcDbText
 10
6.19
 20
0.1403039830419321
 30
0.0
 40
0.5
  1
071186
100
AcDbAttributeDefinition
  3

  2
LINA
 70
     8
280
     0
  0
ATTDEF
  5
212
330
209
100
AcDbEntity
  8
AM_6
100
AcDbText
 10
6.19
 20
-0.3596960169580679
 30
0.0
 40
0.5
  1
1-5/8
100
AcDbAttributeDefinition
  3

  2
SS
 70
     8
280
     0
  0
ATTDEF
  5
213
330
209
100
AcDbEntity
  8
AM_6
100
AcDbText
 10
6.19
 20
-0.8596960169580679
 30
0.0
 40
0.5
  1
1.625000
100
AcDbAttributeDefinition
  3

  2
SS1
 70
     8
280
     0
  0
ATTDEF
  5
214
330
209
100
AcDbEntity
  8
AM_6
100
AcDbText
 10
6.19
 20
-1.359696016958068
 30
0.0
 40
0.5
  1
Expansion
100
AcDbAttributeDefinition
  3

  2
TYPE
 70
     8
280
     0
  0
ATTDEF
  5
215
330
209
100
AcDbEntity
  8
AM_6
100
AcDbText
 10
6.19
 20
-1.859696016958068
 30
0.0
 40
0.5
  1
071165
100
AcDbAttributeDefinition
  3

  2
PN1
 70
     8
280
     0
  0
ATTDEF
  5
216
330
209
100
AcDbEntity
  8
AM_6
100
AcDbText
 10
6.19
 20
-2.359696016958068
 30
0.0
 40
0.5
  1
071186
100
AcDbAttributeDefinition
  3

  2
PN2
 70
     8
280
     0
  0
ATTDEF
  5
217
330
209
100
AcDbEntity
  8
AM_6
100
AcDbText
 10
6.19
 20
-2.859696016958068
 30
0.0
 40
0.5
  1
EP2B-IP-110L
100
AcDbAttributeDefinition
  3

  2
DES1
 70
     8
280
     0
  0
ATTDEF
  5
218
330
209
100
AcDbEntity
  8
AM_6
100
AcDbText
 10
6.19
 20
-3.359696016958068
 30
0.0
 40
0.5
  1
Non-Expansion Type
100
AcDbAttributeDefinition
  3

  2
EF
 70
     8
280
     0
  0
ATTDEF
  5
219
330
209
100
AcDbEntity
  8
AM_6
100
AcDbText
 10
6.19
 20
-3.859696016958068
 30
0.0
 40
0.5
  1
1
100
AcDbAttributeDefinition
  3

  2
EF1
 70
     8
280
     0
  0
ATTDEF
  5
21A
330
209
100
AcDbEntity
  8
AM_6
100
AcDbText
 10
6.19
 20
-4.359696016958068
 30
0.0
 40
0.5
  1
Labyrinth Seal
100
AcDbAttributeDefinition
  3

  2
ST
 70
     8
280
     0
  0
ATTDEF
  5
21B
330
209
100
AcDbEntity
  8
AM_6
100
AcDbText
 10
6.19
 20
-4.859696016958068
 30
0.0
 40
0.5
  1
1
100
AcDbAttributeDefinition
  3

  2
ST1
 70
     8
280
     0
  0
ATTDEF
  5
21C
330
209
100
AcDbEntity
  8
AM_6
100
AcDbText
 10
6.19
 20
-5.359696016958068
 30
0.0
 40
0.5
  1
2.81
100
AcDbAttributeDefinition
  3

  2
A
 70
     8
280
     0
  0
ATTDEF
  5
21D
330
209
100
AcDbEntity
  8
AM_6
100
AcDbText
 10
6.19
 20
-5.859696016958068
 30
0.0
 40
0.5
  1
2.8100000
100
AcDbAttributeDefinition
  3

  2
A1
 70
     8
280
     0
  0
ATTDEF
  5
21E
330
209
100
AcDbEntity
  8
AM_6
100
AcDbText
 10
6.19
 20
-6.359696016958068
 30
0.0
 40
0.5
  1
7.88
100
AcDbAttributeDefinition
  3

  2
B
 70
     8
280
     0
  0
ATTDEF
  5
21F
330
209
100
AcDbEntity
  8
AM_6
100
AcDbText
 10
6.19
 20
-6.859696016958068
 30
0.0
 40
0.5
  1
7.8800000
100
AcDbAttributeDefinition
  3

  2
B1
 70
     8
280
     0
  0
ATTDEF
  5
220
330
209
100
AcDbEntity
  8
AM_6
100
AcDbText
 10
6.19
 20
-7.359696016958068
 30
0.0
 40
0.5
  1
2.38
100
AcDbAttributeDefinition
  3

  2
C
 70
     8
280
     0
  0
ATTDEF
  5
221
330
209
100
AcDbEntity
  8
AM_6
100
AcDbText
 10
6.19
 20
-7.859696016958068
 30
0.0
 40
0.5
  1
2.3800000
100
AcDbAttributeDefinition
  3

  2
C1
 70
     8
280
     0
  0
ATTDEF
  5
222
330
209
100
AcDbEntity
  8
AM_6
100
AcDbText
 10
6.19
 20
-8.359696016958068
 30
0.0
 40
0.5
  1
6.13
100
AcDbAttributeDefinition
  3

  2
DMIN
 70
     8
280
     0
  0
ATTDEF
  5
223
330
209
100
AcDbEntity
  8
AM_6
100
AcDbText
 10
6.19
 20
-8.859696016958068
 30
0.0
 40
0.5
  1
6.1300000
100
AcDbAttributeDefinition
  3

  2
DMIN1
 70
     8
280
     0
  0
ATTDEF
  5
224
330
209
100
AcDbEntity
  8
AM_6
100
AcDbText
 10
6.19
 20
-9.359696016958068
 30
0.0
 40
0.5
  1
6.38
100
AcDbAttributeDefinition
  3

  2
DMAX
 70
     8
280
     0
  0
ATTDEF
  5
225
330
209
100
AcDbEntity
  8
AM_6
100
AcDbText
 10
6.19
 20
-9.859696016958068
 30
0.0
 40
0.5
  1
6.3800000
100
AcDbAttributeDefinition
  3

  2
DMAX1
 70
     8
280
     0
  0
ATTDEF
  5
226
330
209
100
AcDbEntity
  8
AM_6
100
AcDbText
 10
6.19
 20
-10.35969601695807
 30
0.0
 40
0.5
  1
1/2
100
AcDbAttributeDefinition
  3

  2
F
 70
     8
280
     0
  0
ATTDEF
  5
227
330
209
100
AcDbEntity
  8
AM_6
100
AcDbText
 10
6.19
 20
-10.85969601695807
 30
0.0
 40
0.5
  1
0.5000000
100
AcDbAttributeDefinition
  3

  2
F1
 70
     8
280
     0
  0
ATTDEF
  5
228
330
209
100
AcDbEntity
  8
AM_6
100
AcDbText
 10
6.19
 20
-11.35969601695807
 30
0.0
 40
0.5
  1
0.75
100
AcDbAttributeDefinition
  3

  2
G
 70
     8
280
     0
  0
ATTDEF
  5
229
330
209
100
AcDbEntity
  8
AM_6
100
AcDbText
 10
6.19
 20
-11.85969601695807
 30
0.0
 40
0.5
  1
0.750000
100
AcDbAttributeDefinition
  3

  2
G1
 70
     8
280
     0
  0
ATTDEF
  5
22A
330
209
100
AcDbEntity
  8
AM_6
100
AcDbText
 10
6.19
 20
-12.35969601695807
 30
0.0
 40
0.5
  1
1.25
100
AcDbAttributeDefinition
  3

  2
H
 70
     8
280
     0
  0
ATTDEF
  5
22B
330
209
100
AcDbEntity
  8
AM_6
100
AcDbText
 10
6.19
 20
-12.85969601695807
 30
0.0
 40
0.5
  1
1.2500000
100
AcDbAttributeDefinition
  3

  2
H1
 70
     8
280
     0
  0
ATTDEF
  5
22C
330
209
100
AcDbEntity
  8
AM_6
100
AcDbText
 10
6.19
 20
-13.35969601695807
 30
0.0
 40
0.5
  1
4.25
100
AcDbAttributeDefinition
  3

  2
J
 70
     8
280
     0
  0
ATTDEF
  5
22D
330
209
100
AcDbEntity
  8
AM_6
100
AcDbText
 10
6.19
 20
-13.85969601695807
 30
0.0
 40
0.5
  1
4.250000
100
AcDbAttributeDefinition
  3

  2
J1
 70
     8
280
     0
  0
ATTDEF
  5
22E
330
209
100
AcDbEntity
  8
AM_6
100
AcDbText
 10
6.19
 20
-14.35969601695807
 30
0.0
 40
0.5
  1
3.00
100
AcDbAttributeDefinition
  3

  2
L
 70
     8
280
     0
  0
ATTDEF
  5
22F
330
209
100
AcDbEntity
  8
AM_6
100
AcDbText
 10
6.19
 20
-14.85969601695807
 30
0.0
 40
0.5
  1
3.0000000
100
AcDbAttributeDefinition
  3

  2
L1
 70
     8
280
     0
  0
ATTDEF
  5
230
330
209
100
AcDbEntity
  8
AM_6
100
AcDbText
 10
6.19
 20
-15.35969601695807
 30
0.0
 40
0.5
  1
2.125
100
AcDbAttributeDefinition
  3

  2
M
 70
     8
280
     0
  0
ATTDEF
  5
231
330
209
100
AcDbEntity
  8
AM_6
100
AcDbText
 10
6.19
 20
-15.85969601695807
 30
0.0
 40
0.5
  1
2.125000
100
AcDbAttributeDefinition
  3

  2
M1
 70
     8
280
     0
  0
ATTDEF
  5
232
330
209
100
AcDbEntity
  8
AM_6
100
AcDbText
 10
6.19
 20
-16.35969601695807
 30
0.0
 40
0.5
  1
0.98
100
AcDbAttributeDefinition
  3

  2
R
 70
     8
280
     0
  0
ATTDEF
  5
233
330
209
100
AcDbEntity
  8
AM_6
100
AcDbText
 10
6.19
 20
-16.85969601695807
 30
0.0
 40
0.5
  1
0.980000
100
AcDbAttributeDefinition
  3

  2
R1
 70
     8
280
     0
  0
ATTDEF
  5
234
330
209
100
AcDbEntity
  8
AM_6
100
AcDbText
 10
6.19
 20
-17.35969601695807
 30
0.0
 40
0.5
  1
1.83
100
AcDbAttributeDefinition
  3

  2
S
 70
     8
280
     0
  0
ATTDEF
  5
235
330
209
100
AcDbEntity
  8
AM_6
100
AcDbText
 10
6.19
 20
-17.85969601695807
 30
0.0
 40
0.5
  1
1.830000
100
AcDbAttributeDefinition
  3

  2
S1
 70
     8
280
     0
  0
ATTDEF
  5
236
330
209
100
AcDbEntity
  8
AM_6
100
AcDbText
 10
6.19
 20
-18.35969601695807
 30
0.0
 40
0.5
  1
0.19
100
AcDbAttributeDefinition
  3

  2
X
 70
     8
280
     0
  0
ATTDEF
  5
237
330
209
100
AcDbEntity
  8
AM_6
100
AcDbText
 10
6.19
 20
-18.85969601695807
 30
0.0
 40
0.5
  1
0.190000
100
AcDbAttributeDefinition
  3

  2
X1
 70
     8
280
     0
  0
ATTDEF
  5
238
330
209
100
AcDbEntity
  8
AM_6
100
AcDbText
 10
6.19
 20
-19.35969601695807
 30
0.0
 40
0.5
  1
0.020
100
AcDbAttributeDefinition
  3

  2
Y
 70
     8
280
     0
  0
ATTDEF
  5
239
330
209
100
AcDbEntity
  8
AM_6
100
AcDbText
 10
6.19
 20
-19.85969601695807
 30
0.0
 40
0.5
  1
2.08
100
AcDbAttributeDefinition
  3

  2
Z
 70
     8
280
     0
  0
ATTDEF
  5
23A
330
209
100
AcDbEntity
  8
AM_6
100
AcDbText
 10
6.19
 20
-20.35969601695807
 30
0.0
 40
0.5
  1
2.080000
100
AcDbAttributeDefinition
  3

  2
Z1
 70
     8
280
     0
  0
ATTDEF
  5
23B
330
209
100
AcDbEntity
  8
AM_6
100
AcDbText
 10
6.19
 20
-20.85969601695807
 30
0.0
 40
0.5
  1
3.3465
100
AcDbAttributeDefinition
  3

  2
BORE
 70
     8
280
     0
  0
ATTDEF
  5
23C
330
209
100
AcDbEntity
  8
AM_6
100
AcDbText
 10
6.19
 20
-21.35969601695807
 30
0.0
 40
0.5
  1
baldor
100
AcDbAttributeDefinition
  3

  2
COMPANY
 70
     8
280
     0
  0
LINE
  5
23D
330
209
100
AcDbEntity
  8
AM_9
100
AcDbLine
 10
-0.1627056357625383
 20
2.125
 30
0.0
 11
0.1630485509526028
 21
2.125
 31
0.0
  0
LINE
  5
23E
330
209
100
AcDbEntity
  8
AM_9
100
AcDbLine
 10
-0.3437641869366362
 20
2.0625
 30
0.0
 11
0.3437274825586951
 21
2.0625
 31
0.0
  0
ELLIPSE
  5
23F
330
209
100
AcDbEntity
  8
AM_9
100
AcDbEllipse
 10
0.0000000000001983
 20
1.84030398304096
 30
0.0
 11
0.5000000000001983
 21
0.0
 31
0.0
210
0.0
220
0.0
230
1.0
 40
0.5000000000000806
 41
3.128498723082354
 42
3.141592653589793
  0
ELLIPSE
  5
240
330
209
100
AcDbEntity
  8
AM_9
100
AcDbEllipse
 10
0.0000000000000001
 20
1.840303983041932
 30
0.0
 11
0.5
 21
0.0
 31
0.0
210
0.0
220
0.0
230
1.0
 40
0.5000000000000049
 41
0.0065867965452577
 42
3.095762141240268
  0
ELLIPSE
  5
241
330
209
100
AcDbEntity
  8
AM_9
100
AcDbEllipse
 10
0.0000000000000339
 20
1.840303983032908
 30
0.0
 11
0.4999999999999662
 21
0.0
 31
0.0
210
0.0
220
0.0
230
1.0
 40
0.5000000000001461
 41
0.0
 42
0.0065867965813624
  0
ELLIPSE
  5
242
330
209
100
AcDbEntity
  8
AM_9
100
AcDbEllipse
 10
-0.0000000000000024
 20
1.926906523420372
 30
0.0
 11
0.4000000000000239
 21
0.0
 31
0.0
210
0.0
220
0.0
230
1.0
 40
0.4999999999999806
 41
1.309208643565825
 42
1.570796326794897
  0
ELLIPSE
  5
243
330
209
100
AcDbEntity
  8
AM_9
100
AcDbEllipse
 10
0.0000000000000025
 20
1.926906523420372
 30
0.0
 11
0.4000000000000234
 21
0.0
 31
0.0
210
0.0
220
0.0
230
1.0
 40
0.4999999999999806
 41
1.570796326794897
 42
1.832384010023969
  0
LWPOLYLINE
  5
244
330
209
100
AcDbEntity
  8
AM_9
100
AcDbPolyline
 90
        6
 70
     0
 43
0.0
 10
0.0
 20
2.140303983041932
 10
-0.0169124532316496
 20
2.140145025420856
 10
-0.0484955221998074
 20
2.138993923941511
 10
-0.0799044094671807
 20
2.136730938440725
 10
-0.1110286090830456
 20
2.133357342031111
 10
-0.1114082459254061
 20
2.133309060797497
  0
LWPOLYLINE
  5
245
330
209
100
AcDbEntity
  8
AM_9
100
AcDbPolyline
 90
        6
 70
     0
 43
0.0
 10
0.1113806227086843
 20
2.133312579734705
 10
0.0980562120185523
 20
2.13490297007161
 10
0.0667602110433614
 20
2.137815305245416
 10
0.0352413822871005
 20
2.139613035710821
 10
0.0052788726080688
 20
2.140288501167007
 10
0.0
 20
2.140303983041932
  0
LINE
  5
246
330
209
100
AcDbEntity
  8
AM_9
100
AcDbLine
 10
-1.071
 20
-1.67325
 30
0.0
 11
1.071
 21
-1.67325
 31
0.0
  0
LINE
  5
247
330
209
100
AcDbEntity
  8
AM_9
100
AcDbLine
 10
1.071
 20
1.67325
 30
0.0
 11
-1.071
 21
1.67325
 31
0.0
  0
LINE
  5
248
330
209
100
AcDbEntity
  8
AM_9
100
AcDbLine
 10
-0.3644350393226138
 20
2.05049748536788
 30
0.0
 11
0.3642260958598968
 21
2.05049748536788
 31
0.0
  0
LINE
  5
249
330
209
100
AcDbEntity
  8
AM_9
100
AcDbLine
 10
-0.4999900388621394
 20
1.841880008930944
 30
0.0
 11
-0.5
 21
1.840303983041932
 31
0.0
  0
LWPOLYLINE
  5
24A
330
209
100
AcDbEntity
  8
AM_9
100
AcDbPolyline
 90
       15
 70
     0
 43
0.0
 10
-0.0523157698172825
 20
2.037837493185471
 10
-0.0551725593489716
 20
2.037742896852254
 10
-0.1098134666692065
 20
2.035053338991397
 10
-0.162886851071981
 20
2.03055196840326
 10
-0.2138292352277889
 20
2.024171508140704
 10
-0.2622718139150132
 20
2.015833973834042
 10
-0.3073646798193645
 20
2.005518993111543
 10
-0.3493737559176702
 20
1.992866000738302
 10
-0.3871625368038923
 20
1.977961732896603
 10
-0.4200514194161414
 20
1.960860510195069
 10
-0.4479727425611739
 20
1.94121608736969
 10
-0.4702821295971529
 20
1.919256872544916
 10
-0.4865239140723967
 20
1.895243808561959
 10
-0.4966047477598847
 20
1.868643149525855
 10
-0.4999900388621394
 20
1.841880008930944
  0
LWPOLYLINE
  5
24B
330
209
100
AcDbEntity
  8
AM_9
100
AcDbPolyline
 90
        4
 70
     0
 43
0.0
 10
0.0489333827057833
 20
2.037937832249527
 10
0.0448845963126218
 20
2.038047108252235
 10
0.0
 20
2.038636002656773
 10
-0.0523157698172825
 20
2.037837493185471
  0
LWPOLYLINE
  5
24C
330
209
100
AcDbEntity
  8
AM_9
100
AcDbPolyline
 90
       15
 70
     0
 43
0.0
 10
0.499981600314698
 20
1.842444956777086
 10
0.4975063693398795
 20
1.864596427149601
 10
0.490108400430899
 20
1.887717570457411
 10
0.4779304778801309
 20
1.909355690462945
 10
0.4590061852123812
 20
1.93136614097292
 10
0.4345854433447023
 20
1.951393526732213
 10
0.4051221053753221
 20
1.969244061608573
 10
0.3700263857932484
 20
1.985229338182224
 10
0.3302596475394562
 20
1.999041413005658
 10
0.2865273566681865
 20
2.010645650998586
 10
0.2383810138758049
 20
2.020256900975465
 10
0.1869590594470466
 20
2.027804812602291
 10
0.133231182921813
 20
2.033314996047333
 10
0.089482676595147
 20
2.036275767934489
 10
0.0489333827057833
 20
2.037937832249527
  0
LINE
  5
24D
330
209
100
AcDbEntity
  8
AM_9
100
AcDbLine
 10
0.5000000000000001
 20
1.840303983041932
 30
0.0
 11
0.499981600314698
 21
1.842444956777086
 31
0.0
  0
LINE
  5
24E
330
209
100
AcDbEntity
  8
AM_9
100
AcDbLine
 10
-1.071
 20
-0.8085574638133597
 30
0.0
 11
-1.071
 21
-2.125
 31
0.0
  0
LINE
  5
24F
330
209
100
AcDbEntity
  8
AM_9
100
AcDbLine
 10
1.071
 20
-0.8085574638133615
 30
0.0
 11
1.071
 21
-2.125
 31
0.0
  0
LINE
  5
250
330
209
100
AcDbEntity
  8
AM_9
100
AcDbLine
 10
-0.2499999999999998
 20
-0.875
 30
0.0
 11
-0.2499999999999998
 21
-2.125
 31
0.0
  0
LINE
  5
251
330
209
100
AcDbEntity
  8
AM_9
100
AcDbLine
 10
0.2500000000000002
 20
-0.8749999999999998
 30
0.0
 11
0.2500000000000002
 21
-2.125
 31
0.0
  0
LINE
  5
252
330
209
100
AcDbEntity
  8
AM_4
100
AcDbLine
 10
0.1630485509526028
 20
2.125
 30
0.0
 11
1.071
 21
2.125
 31
0.0
  0
LINE
  5
253
330
209
100
AcDbEntity
  8
AM_4
100
AcDbLine
 10
-1.071
 20
2.125
 30
0.0
 11
-0.1627056357625383
 21
2.125
 31
0.0
  0
LINE
  5
254
330
209
100
AcDbEntity
  8
AM_4
100
AcDbLine
 10
0.3437274825586951
 20
2.0625
 30
0.0
 11
1.071
 21
2.0625
 31
0.0
  0
LINE
  5
255
330
209
100
AcDbEntity
  8
AM_4
100
AcDbLine
 10
-1.071
 20
2.0625
 30
0.0
 11
-0.3437641869366362
 21
2.0625
 31
0.0
  0
ELLIPSE
  5
256
330
209
100
AcDbEntity
  8
AM_4
100
AcDbEllipse
 10
0.0000000000000001
 20
1.840303983041932
 30
0.0
 11
0.5
 21
0.0
 31
0.0
210
0.0
220
0.0
230
1.0
 40
0.4999999999999991
 41
3.141592653589793
 42
6.283185307179586
  0
ELLIPSE
  5
257
330
209
100
AcDbEntity
  8
AM_4
100
AcDbEllipse
 10
-0.0000000000000682
 20
1.926906523420473
 30
0.0
 11
0.4000000000002327
 21
0.0
 31
0.0
210
0.0
220
0.0
230
1.0
 40
0.4999999999995064
 41
1.243731183042483
 42
1.305184177224654
  0
ELLIPSE
  5
258
330
209
100
AcDbEntity
  8
AM_4
100
AcDbEllipse
 10
0.0
 20
1.926906523420376
 30
0.0
 11
0.4000000000000001
 21
0.0
 31
0.0
210
0.0
220
0.0
230
1.0
 40
0.4999999999999997
 41
1.882432149689757
 42
7.526916490222087
  0
ELLIPSE
  5
259
330
209
100
AcDbEntity
  8
AM_4
100
AcDbEllipse
 10
0.0000000000001055
 20
1.926906523420507
 30
0.0
 11
0.4000000000003727
 21
5.960464477544617E-9
 31
0.0
210
0.0
220
0.0
230
1.0
 40
0.4999999999992597
 41
-4.446776839805191
 42
-4.400753167041752
  0
LWPOLYLINE
  5
25A
330
209
100
AcDbEntity
  8
AM_4
100
AcDbPolyline
 90
       22
 70
     0
 43
0.0
 10
-0.1114082459254061
 20
2.133309060797497
 10
-0.1417637133107873
 20
2.128873709851297
 10
-0.1720075320566804
 20
2.123279391617776
 10
-0.2016602776988012
 20
2.116571707453421
 10
-0.2306243405180664
 20
2.108744990664538
 10
-0.2588034117802192
 20
2.099789591382807
 10
-0.2861006107066923
 20
2.089691094885255
 10
-0.3124151694411894
 20
2.078430262618025
 10
-0.3376372190454648
 20
2.065984615258206
 10
-0.3616405401325704
 20
2.052333109261534
 10
-0.3842742652770723
 20
2.037465684420021
 10
-0.4053225434961918
 20
2.021426939168841
 10
-0.424574247241212
 20
2.00429505560899
 10
-0.4418236346677488
 20
1.986200394304356
 10
-0.4569048072306742
 20
1.967313125910802
 10
-0.4697176886234519
 20
1.947815756032162
 10
-0.480229664160932
 20
1.927877859330431
 10
-0.4884571921479421
 20
1.907645807900401
 10
-0.4944432194809393
 20
1.887245794679144
 10
-0.4982412709811543
 20
1.866791002926421
 10
-0.4999075017872243
 20
1.846386247276336
 10
-0.4999999843650678
 20
1.840224900978618
  0
LWPOLYLINE
  5
25B
330
209
100
AcDbEntity
  8
AM_4
100
AcDbPolyline
 90
       23
 70
     0
 43
0.0
 10
0.499999967539342
 20
1.840417931550348
 10
0.4998544298580095
 20
1.847933846395788
 10
0.498070634272906
 20
1.868042490579281
 10
0.4943026089686637
 20
1.887830798476065
 10
0.4886002092489919
 20
1.907234738956103
 10
0.4809973459220208
 20
1.92621160539548
 10
0.4715083363267436
 20
1.944731730771704
 10
0.46012680993405
 20
1.962772446144685
 10
0.4468299031041738
 20
1.980308856847124
 10
0.4315900729940291
 20
1.997302723782183
 10
0.4143949178437293
 20
2.013692560190218
 10
0.395270717348391
 20
2.029389908811028
 10
0.3742996261626758
 20
2.044286314667612
 10
0.3516196630453857
 20
2.058270401493499
 10
0.3274058212448492
 20
2.071247148450681
 10
0.3018575781459024
 20
2.083143342173746
 10
0.2751594837310747
 20
2.093919221199364
 10
0.2474567974646613
 20
2.103564562824765
 10
0.2188779309400835
 20
2.11207900809968
 10
0.1895396850479336
 20
2.119466176566559
 10
0.1595521561597403
 20
2.125730373843856
 10
0.1290223097607726
 20
2.130875156477261
 10
0.1113806227086843
 20
2.133312579734705
  0
LINE
  5
25C
330
209
100
AcDbEntity
  8
AM_4
100
AcDbLine
 10
0.3642260958598968
 20
2.05049748536788
 30
0.0
 11
1.071
 21
2.05049748536788
 31
0.0
  0
LINE
  5
25D
330
209
100
AcDbEntity
  8
AM_4
100
AcDbLine
 10
-1.071
 20
2.05049748536788
 30
0.0
 11
-0.3644350393226138
 21
2.05049748536788
 31
0.0
  0
LINE
  5
25E
330
209
100
AcDbEntity
  8
AM_4
100
AcDbLine
 10
0.8500000000000001
 20
0.3249999999999985
 30
0.0
 11
-0.8499999999999999
 21
0.3249999999999985
 31
0.0
  0
LWPOLYLINE
  5
25F
330
209
100
AcDbEntity
  8
AM_4
100
AcDbPolyline
 90
       30
 70
     0
 43
0.0
 10
-0.5
 20
1.840303983041932
 10
-0.4973587842580189
 20
1.814104701372341
 10
-0.4887371603269587
 20
1.785353880346987
 10
-0.4742653867883007
 20
1.75607105170755
 10
-0.4542301163192969
 20
1.72688984965328
 10
-0.4285292176740035
 20
1.697958780027745
 10
-0.3976238084702482
 20
1.669938763666146
 10
-0.3620699850951397
 20
1.643499668387505
 10
-0.3211054585653188
 20
1.618522958208886
 10
-0.2759472275102283
 20
1.596080666929677
 10
-0.2274090057031172
 20
1.576799617548136
 10
-0.1756740416096338
 20
1.561071292518217
 10
-0.1214436822678607
 20
1.54924925373222
 10
-0.0657706716555929
 20
1.541715031670035
 10
-0.0105319675141199
 20
1.538752674567727
 10
0.0450216410518351
 20
1.540114443612344
 10
0.0998169746069618
 20
1.545756050054562
 10
0.1525663383790757
 20
1.555462730898779
 10
0.2035935992032218
 20
1.569000418681457
 10
0.2519947109817701
 20
1.585972860188819
 10
0.2980930947730062
 20
1.606484989665259
 10
0.3406604620120183
 20
1.629835335580596
 10
0.3789562496095718
 20
1.655406099056834
 10
0.4132757346143981
 20
1.683411245493201
 10
0.4424708074848395
 20
1.712836851097411
 10
0.465975078835199
 20
1.74294777248059
 10
0.4833555639869991
 20
1.773076617133006
 10
0.4946904184727993
 20
1.803033922894294
 10
0.4997373471196651
 20
1.832148255085579
 10
0.5000000000000001
 20
1.840303983041932
  0
LINE
  5
260
330
209
100
AcDbEntity
  8
AM_4
100
AcDbLine
 10
-0.8499999999999999
 20
-0.8125
 30
0.0
 11
0.8500000000000001
 21
-0.8125
 31
0.0
  0
LINE
  5
261
330
209
100
AcDbEntity
  8
AM_4
100
AcDbLine
 10
0.8500000000000001
 20
0.2619089562040808
 30
0.0
 11
1.071
 21
0.2619089562040808
 31
0.0
  0
LINE
  5
262
330
209
100
AcDbEntity
  8
AM_4
100
AcDbLine
 10
-1.071
 20
0.2619089562040808
 30
0.0
 11
-0.8499999999999999
 21
0.2619089562040808
 31
0.0
  0
LWPOLYLINE
  5
263
330
209
100
AcDbEntity
  8
AM_4
100
AcDbPolyline
 90
       14
 70
     0
 43
0.0
 10
1.071
 20
-0.8085574638133617
 10
1.076523860080512
 20
-0.8179597323930122
 10
1.08284616190729
 20
-0.8268447863739434
 10
1.089918788945924
 20
-0.8351450051304184
 10
1.09768791423408
 20
-0.8427972189858912
 10
1.106094410037189
 20
-0.8497431899723884
 10
1.115074297846208
 20
-0.8559300550566111
 10
1.124559235292707
 20
-0.861310728459537
 10
1.134477036275556
 20
-0.8658442600076303
 10
1.144752220340743
 20
-0.8694961467883888
 10
1.155306587133206
 20
-0.8722385957383416
 10
1.166059811548754
 20
-0.8740507351650434
 10
1.176930055056611
 20
-0.8749187735932575
 10
1.181435607626105
 20
-0.875
  0
LINE
  5
264
330
209
100
AcDbEntity
  8
AM_4
100
AcDbLine
 10
1.071
 20
2.125
 30
0.0
 11
1.071
 21
-0.8085574638133615
 31
0.0
  0
LINE
  5
265
330
209
100
AcDbEntity
  8
AM_4
100
AcDbLine
 10
0.8500000000000001
 20
-0.7654064091884752
 30
0.0
 11
1.071
 21
-0.7654064091884752
 31
0.0
  0
LINE
  5
266
330
209
100
AcDbEntity
  8
AM_4
100
AcDbLine
 10
0.8500000000000001
 20
0.3249999999999985
 30
0.0
 11
0.8500000000000001
 21
-0.875
 31
0.0
  0
LWPOLYLINE
  5
267
330
209
100
AcDbEntity
  8
AM_4
100
AcDbPolyline
 90
       14
 70
     0
 43
0.0
 10
-1.181435607626104
 20
-0.875
 10
-1.170541139782647
 20
-0.8745243372614682
 10
-1.159729585417738
 20
-0.873100969126526
 10
-1.14908322698829
 20
-0.8707407282861336
 10
-1.138683089710396
 20
-0.8674615775982386
 10
-1.128608324908517
 20
-0.8632884733795815
 10
-1.118935607626105
 20
-0.8582531754730551
 10
-1.109738553082224
 20
-0.8523940055361242
 10
-1.101087156415288
 20
-0.8457555553898726
 10
-1.093047259977787
 20
-0.8383883476483188
 10
-1.085680052236233
 20
-0.8303484512108179
 10
-1.079041602089982
 20
-0.8216970545438813
 10
-1.073182432153051
 20
-0.8125000000000007
 10
-1.071
 20
-0.8085574638133594
  0
LINE
  5
268
330
209
100
AcDbEntity
  8
AM_4
100
AcDbLine
 10
-0.8499999999999999
 20
0.3249999999999985
 30
0.0
 11
-0.8499999999999999
 21
-0.875
 31
0.0
  0
LINE
  5
269
330
209
100
AcDbEntity
  8
AM_4
100
AcDbLine
 10
-1.071
 20
-0.7654064091884752
 30
0.0
 11
-0.8499999999999999
 21
-0.7654064091884752
 31
0.0
  0
LINE
  5
26A
330
209
100
AcDbEntity
  8
AM_4
100
AcDbLine
 10
-1.071
 20
-0.8085574638133597
 30
0.0
 11
-1.071
 21
2.125
 31
0.0
  0
LWPOLYLINE
  5
26B
330
209
100
AcDbEntity
  8
AM_4
100
AcDbPolyline
 90
        9
 70
     0
 43
0.0
 10
0.2559690102887258
 20
-0.8749999999999996
 10
0.1942931285518132
 20
-0.8754469606708595
 10
0.1321860059258646
 20
-0.8763585838050296
 10
0.06921417570875
 20
-0.8771602583862016
 10
0.0060812278479497
 20
-0.8775226605631463
 10
-0.0594908657291017
 20
-0.8772489557411098
 10
-0.124913375913797
 20
-0.8764662205918448
 10
-0.1906783386411892
 20
-0.875491568276016
 10
-0.2559690102887248
 20
-0.8749999999999996
  0
LINE
  5
26C
330
209
100
AcDbEntity
  8
AM_4
100
AcDbLine
 10
-1.19
 20
-2.125
 30
0.0
 11
-1.19
 21
-0.875
 31
0.0
  0
LINE
  5
26D
330
209
100
AcDbEntity
  8
AM_4
100
AcDbLine
 10
1.19
 20
-2.125
 30
0.0
 11
1.19
 21
-0.875
 31
0.0
  0
LINE
  5
26E
330
209
100
AcDbEntity
  8
AM_4
100
AcDbLine
 10
-1.19
 20
-0.875
 30
0.0
 11
1.19
 21
-0.875
 31
0.0
  0
LINE
  5
26F
330
209
100
AcDbEntity
  8
AM_4
100
AcDbLine
 10
0.952
 20
-1.5
 30
0.0
 11
0.9520000000000003
 21
-2.125
 31
0.0
  0
LINE
  5
270
330
209
100
AcDbEntity
  8
AM_4
100
AcDbLine
 10
-1.19
 20
-1.5
 30
0.0
 11
1.19
 21
-1.5
 31
0.0
  0
LINE
  5
271
330
209
100
AcDbEntity
  8
AM_4
100
AcDbLine
 10
-1.19
 20
-2.125
 30
0.0
 11
1.19
 21
-2.125
 31
0.0
  0
LINE
  5
272
330
209
100
AcDbEntity
  8
AM_4
100
AcDbLine
 10
-0.9519999999999997
 20
-1.5
 30
0.0
 11
-0.9519999999999997
 21
-2.125
 31
0.0
  0
ENDBLK
  5
20C
330
209
100
AcDbEntity
  8
0
100
AcDbBlockEnd
  0
ENDSEC
  0
SECTION
  2
ENTITIES
  0
INSERT
  5
6F
330
1F
100
AcDbEntity
  8
0
100
AcDbBlockReference
  2
1_071186_2
 10
0.0
 20
0.0
 30
0.0
  0
POINT
  5
274
330
1F
100
AcDbEntity
  8
ConnectionPoints
100
AcDbPoint
 10
-1.481
 20
1.201388888888889
 30
0.0000000000000001
  0
POINT
  5
275
330
1F
100
AcDbEntity
  8
ConnectionPoints
100
AcDbPoint
 10
-1.411
 20
0.0
 30
0.0000000000000001
  0
POINT
  5
276
330
1F
100
AcDbEntity
  8
ConnectionPoints
100
AcDbPoint
 10
-1.64
 20
0.0
 30
0.0000000000000001
  0
POINT
  5
277
330
1F
100
AcDbEntity
  8
ConnectionPoints
100
AcDbPoint
 10
-1.61
 20
0.0
 30
0.0000000000000001
  0
POINT
  5
278
330
1F
100
AcDbEntity
  8
ConnectionPoints
100
AcDbPoint
 10
-1.411
 20
1.201388888888889
 30
0.0000000000000001
  0
POINT
  5
279
330
1F
100
AcDbEntity
  8
ConnectionPoints
100
AcDbPoint
 10
-1.411
 20
-1.201388888888889
 30
0.0000000000000001
  0
POINT
  5
27A
330
1F
100
AcDbEntity
  8
ConnectionPoints
100
AcDbPoint
 10
-1.411
 20
0.0
 30
0.0000000000000001
  0
POINT
  5
27B
330
1F
100
AcDbEntity
  8
ConnectionPoints
100
AcDbPoint
 10
0.0000000000000001
 20
1.926906523420376
 30
1.1125
  0
POINT
  5
27C
330
1F
100
AcDbEntity
  8
ConnectionPoints
100
AcDbPoint
 10
0.0000000000000001
 20
1.926906523420376
 30
1.1125
  0
POINT
  5
27D
330
1F
100
AcDbEntity
  8
ConnectionPoints
100
AcDbPoint
 10
-1.64
 20
0.0
 30
0.0000000000000001
  0
POINT
  5
27E
330
1F
100
AcDbEntity
  8
ConnectionPoints
100
AcDbPoint
 10
-1.83
 20
0.0
 30
0.0000000000000001
  0
ENDSEC
  0
SECTION
  2
OBJECTS
  0
DICTIONARY
  5
C
330
0
100
AcDbDictionary
281
     1
  3
ACAD_DETAILVIEWSTYLE
350
286
  3
ACAD_GROUP
350
D
  3
ACAD_LAYOUT
350
1A
  3
ACAD_MATERIAL
350
43
  3
ACAD_MLEADERSTYLE
350
6B
  3
ACAD_MLINESTYLE
350
17
  3
ACAD_PLOTSETTINGS
350
19
  3
ACAD_PLOTSTYLENAME
350
E
  3
ACAD_SCALELIST
350
47
  3
ACAD_SECTIONVIEWSTYLE
350
287
  3
ACAD_TABLESTYLE
350
69
  3
ACAD_VISUALSTYLE
350
2A
  3
ACDB_RECOMPOSE_DATA
350
283
  3
AcDbVariableDictionary
350
27F
  0
SUN
  5
6D
330
29
100
AcDbSun
 90
        1
290
     0
 63
     7
421
 16777215
 40
1.0
291
     1
 91
  2455826
 92
 54000000
292
     0
 70
     2
 71
   256
280
     1
  0
DICTIONARY
  5
286
102
{ACAD_REACTORS
330
C
102
}
330
C
100
AcDbDictionary
281
     1
  0
DICTIONARY
  5
D
102
{ACAD_REACTORS
330
C
102
}
330
C
100
AcDbDictionary
281
     1
  0
DICTIONARY
  5
1A
102
{ACAD_REACTORS
330
C
102
}
330
C
100
AcDbDictionary
281
     1
  3
Layout1
350
1E
  3
Layout2
350
26
  3
Model
350
22
  0
DICTIONARY
  5
43
102
{ACAD_REACTORS
330
C
102
}
330
C
100
AcDbDictionary
281
     1
  3
ByBlock
350
45
  3
ByLayer
350
44
  3
Global
350
46
  0
DICTIONARY
  5
6B
102
{ACAD_REACTORS
330
C
102
}
330
C
100
AcDbDictionary
281
     1
  3
Standard
350
6C
  0
DICTIONARY
  5
17
102
{ACAD_REACTORS
330
C
102
}
330
C
100
AcDbDictionary
281
     1
  3
Standard
350
18
  0
DICTIONARY
  5
19
102
{ACAD_REACTORS
330
C
102
}
330
C
100
AcDbDictionary
281
     1
  0
ACDBDICTIONARYWDFLT
  5
E
102
{ACAD_REACTORS
330
C
102
}
330
C
100
AcDbDictionary
281
     1
  3
Normal
350
F
100
AcDbDictionaryWithDefault
340
F
  0
DICTIONARY
  5
47
102
{ACAD_REACTORS
330
C
102
}
330
C
100
AcDbDictionary
281
     1
  3
A0
350
48
  3
A1
350
49
  3
A2
350
4A
  3
A3
350
4B
  3
A4
350
4C
  3
A5
350
4D
  3
A6
350
4E
  3
A7
350
4F
  3
A8
350
50
  3
A9
350
51
  3
B0
350
52
  3
B1
350
53
  3
B2
350
54
  3
B3
350
55
  3
B4
350
56
  3
B5
350
57
  3
B6
350
58
  3
B7
350
59
  3
B8
350
5A
  3
B9
350
5B
  3
C0
350
5C
  3
C1
350
5D
  3
C2
350
5E
  3
C3
350
5F
  3
C4
350
60
  3
C5
350
61
  3
C6
350
62
  3
C7
350
63
  3
C8
350
64
  3
C9
350
65
  3
D0
350
66
  3
D1
350
67
  3
D2
350
68
  0
DICTIONARY
  5
287
102
{ACAD_REACTORS
330
C
102
}
330
C
100
AcDbDictionary
281
     1
  0
DICTIONARY
  5
69
102
{ACAD_REACTORS
330
C
102
}
330
C
100
AcDbDictionary
281
     1
  3
Standard
350
6A
  0
DICTIONARY
  5
2A
102
{ACAD_REACTORS
330
C
102
}
330
C
100
AcDbDictionary
281
     1
  3
2dWireframe
350
2F
  3
Basic
350
32
  3
Brighten
350
36
  3
ColorChange
350
3A
  3
Conceptual
350
34
  3
Dim
350
35
  3
EdgeColorOff
350
3D
  3
Facepattern
350
39
  3
Flat
350
2B
  3
FlatWithEdges
350
2C
  3
Gouraud
350
2D
  3
GouraudWithEdges
350
2E
  3
Hidden
350
31
  3
JitterOff
350
3B
  3
Linepattern
350
38
  3
OverhangOff
350
3C
  3
Realistic
350
33
  3
Shaded
350
42
  3
Shaded with edges
350
41
  3
Shades of Gray
350
3E
  3
Sketchy
350
3F
  3
Thicken
350
37
  3
Wireframe
350
30
  3
X-Ray
350
40
  0
XRECORD
  5
283
102
{ACAD_REACTORS
330
C
102
}
330
C
100
AcDbXrecord
280
     1
 90
        1
330
6A
  0
DICTIONARY
  5
27F
102
{ACAD_REACTORS
330
C
102
}
330
C
100
AcDbDictionary
281
     1
  3
CANNOSCALE
350
280
  3
CMLEADERSTYLE
350
285
  3
CTABLESTYLE
350
284
  0
LAYOUT
  5
1E
102
{ACAD_REACTORS
330
1A
102
}
330
1A
100
AcDbPlotSettings
  1

  2
none_device
  4

  6

 40
0.0
 41
0.0
 42
0.0
 43
0.0
 44
0.0
 45
0.0
 46
0.0
 47
0.0
 48
0.0
 49
0.0
140
0.0
141
0.0
142
1.0
143
1.0
 70
   688
 72
     0
 73
     0
 74
     5
  7

 75
    16
 76
     0
 77
     2
 78
   300
147
1.0
148
0.0
149
0.0
100
AcDbLayout
  1
Layout1
 70
     1
 71
     1
 10
0.0
 20
0.0
 11
12.0
 21
9.0
 12
0.0
 22
0.0
 32
0.0
 14
1.000000000000000E+20
 24
1.000000000000000E+20
 34
1.000000000000000E+20
 15
-1.000000000000000E+20
 25
-1.000000000000000E+20
 35
-1.000000000000000E+20
146
0.0
 13
0.0
 23
0.0
 33
0.0
 16
1.0
 26
0.0
 36
0.0
 17
0.0
 27
1.0
 37
0.0
 76
     0
330
1B
  0
LAYOUT
  5
26
102
{ACAD_REACTORS
330
1A
102
}
330
1A
100
AcDbPlotSettings
  1

  2
none_device
  4

  6

 40
0.0
 41
0.0
 42
0.0
 43
0.0
 44
0.0
 45
0.0
 46
0.0
 47
0.0
 48
0.0
 49
0.0
140
0.0
141
0.0
142
1.0
143
1.0
 70
   688
 72
     0
 73
     0
 74
     5
  7

 75
    16
 76
     0
 77
     2
 78
   300
147
1.0
148
0.0
149
0.0
100
AcDbLayout
  1
Layout2
 70
     1
 71
     2
 10
0.0
 20
0.0
 11
0.0
 21
0.0
 12
0.0
 22
0.0
 32
0.0
 14
0.0
 24
0.0
 34
0.0
 15
0.0
 25
0.0
 35
0.0
146
0.0
 13
0.0
 23
0.0
 33
0.0
 16
1.0
 26
0.0
 36
0.0
 17
0.0
 27
1.0
 37
0.0
 76
     0
330
23
  0
LAYOUT
  5
22
102
{ACAD_REACTORS
330
1A
102
}
330
1A
100
AcDbPlotSettings
  1

  2
none_device
  4
Letter_(8.50_x_11.00_Inches)
  6

 40
6.35
 41
6.35
 42
6.35000508
 43
6.35000508
 44
215.9
 45
279.4
 46
0.0
 47
0.0
 48
0.0
 49
0.0
140
0.0
141
0.0
142
1.0
143
1.0
 70
  1712
 72
     0
 73
     0
 74
     0
  7

 75
     0
 76
     0
 77
     2
 78
   300
147
1.0
148
0.0
149
0.0
100
AcDbLayout
  1
Model
 70
     1
 71
     0
 10
0.0
 20
0.0
 11
12.0
 21
9.0
 12
0.0
 22
0.0
 32
0.0
 14
1.000000000000000E+20
 24
1.000000000000000E+20
 34
1.000000000000000E+20
 15
-1.000000000000000E+20
 25
-1.000000000000000E+20
 35
-1.000000000000000E+20
146
0.0
 13
0.0
 23
0.0
 33
0.0
 16
1.0
 26
0.0
 36
0.0
 17
0.0
 27
1.0
 37
0.0
 76
     0
330
1F
331
29
  0
MATERIAL
  5
45
102
{ACAD_REACTORS
330
43
102
}
330
43
100
AcDbMaterial
  1
ByBlock
 72
     1
 94
      127
  0
MATERIAL
  5
44
102
{ACAD_REACTORS
330
43
102
}
330
43
100
AcDbMaterial
  1
ByLayer
 72
     1
 94
      127
  0
MATERIAL
  5
46
102
{ACAD_REACTORS
330
43
102
}
330
43
100
AcDbMaterial
  1
Global
 72
     1
 94
      127
  0
MLEADERSTYLE
  5
6C
102
{ACAD_REACTORS
330
6B
102
}
330
6B
100
AcDbMLeaderStyle
179
     2
170
     2
171
     1
172
     0
 90
        2
 40
0.0
 41
0.0
173
     1
 91
-1056964608
340
14
 92
       -2
290
     1
 42
0.09
291
     1
 43
0.36
  3
Standard
341
0
 44
0.18
300

342
11
174
     1
178
     6
175
     1
176
     0
 93
-1056964608
 45
0.18
292
     0
297
     0
 46
0.18
343
0
 94
-1056964608
 47
1.0
 49
1.0
140
1.0
293
     1
141
0.0
294
     1
177
     0
142
1.0
295
     0
296
     0
143
0.125
271
     0
272
     9
273
     9
298
     0
  0
MLINESTYLE
  5
18
102
{ACAD_REACTORS
330
17
102
}
330
17
100
AcDbMlineStyle
  2
Standard
 70
     0
  3

 62
   256
 51
90.0
 52
90.0
 71
     2
 49
0.5
 62
   256
  6
BYLAYER
 49
-0.5
 62
   256
  6
BYLAYER
  0
ACDBPLACEHOLDER
  5
F
102
{ACAD_REACTORS
330
E
102
}
330
E
  0
SCALE
  5
48
102
{ACAD_REACTORS
330
47
102
}
330
47
100
AcDbScale
 70
     0
300
1:1
140
1.0
141
1.0
290
     1
  0
SCALE
  5
49
102
{ACAD_REACTORS
330
47
102
}
330
47
100
AcDbScale
 70
     0
300
1:2
140
1.0
141
2.0
290
     0
  0
SCALE
  5
4A
102
{ACAD_REACTORS
330
47
102
}
330
47
100
AcDbScale
 70
     0
300
1:4
140
1.0
141
4.0
290
     0
  0
SCALE
  5
4B
102
{ACAD_REACTORS
330
47
102
}
330
47
100
AcDbScale
 70
     0
300
1:5
140
1.0
141
5.0
290
     0
  0
SCALE
  5
4C
102
{ACAD_REACTORS
330
47
102
}
330
47
100
AcDbScale
 70
     0
300
1:8
140
1.0
141
8.0
290
     0
  0
SCALE
  5
4D
102
{ACAD_REACTORS
330
47
102
}
330
47
100
AcDbScale
 70
     0
300
1:10
140
1.0
141
10.0
290
     0
  0
SCALE
  5
4E
102
{ACAD_REACTORS
330
47
102
}
330
47
100
AcDbScale
 70
     0
300
1:16
140
1.0
141
16.0
290
     0
  0
SCALE
  5
4F
102
{ACAD_REACTORS
330
47
102
}
330
47
100
AcDbScale
 70
     0
300
1:20
140
1.0
141
20.0
290
     0
  0
SCALE
  5
50
102
{ACAD_REACTORS
330
47
102
}
330
47
100
AcDbScale
 70
     0
300
1:30
140
1.0
141
30.0
290
     0
  0
SCALE
  5
51
102
{ACAD_REACTORS
330
47
102
}
330
47
100
AcDbScale
 70
     0
300
1:40
140
1.0
141
40.0
290
     0
  0
SCALE
  5
52
102
{ACAD_REACTORS
330
47
102
}
330
47
100
AcDbScale
 70
     0
300
1:50
140
1.0
141
50.0
290
     0
  0
SCALE
  5
53
102
{ACAD_REACTORS
330
47
102
}
330
47
100
AcDbScale
 70
     0
300
1:100
140
1.0
141
100.0
290
     0
  0
SCALE
  5
54
102
{ACAD_REACTORS
330
47
102
}
330
47
100
AcDbScale
 70
     0
300
2:1
140
2.0
141
1.0
290
     0
  0
SCALE
  5
55
102
{ACAD_REACTORS
330
47
102
}
330
47
100
AcDbScale
 70
     0
300
4:1
140
4.0
141
1.0
290
     0
  0
SCALE
  5
56
102
{ACAD_REACTORS
330
47
102
}
330
47
100
AcDbScale
 70
     0
300
8:1
140
8.0
141
1.0
290
     0
  0
SCALE
  5
57
102
{ACAD_REACTORS
330
47
102
}
330
47
100
AcDbScale
 70
     0
300
10:1
140
10.0
141
1.0
290
     0
  0
SCALE
  5
58
102
{ACAD_REACTORS
330
47
102
}
330
47
100
AcDbScale
 70
     0
300
100:1
140
100.0
141
1.0
290
     0
  0
SCALE
  5
59
102
{ACAD_REACTORS
330
47
102
}
330
47
100
AcDbScale
 70
     0
300
1/128" = 1'-0"
140
0.0078125
141
12.0
290
     0
  0
SCALE
  5
5A
102
{ACAD_REACTORS
330
47
102
}
330
47
100
AcDbScale
 70
     0
300
1/64" = 1'-0"
140
0.015625
141
12.0
290
     0
  0
SCALE
  5
5B
102
{ACAD_REACTORS
330
47
102
}
330
47
100
AcDbScale
 70
     0
300
1/32" = 1'-0"
140
0.03125
141
12.0
290
     0
  0
SCALE
  5
5C
102
{ACAD_REACTORS
330
47
102
}
330
47
100
AcDbScale
 70
     0
300
1/16" = 1'-0"
140
0.0625
141
12.0
290
     0
  0
SCALE
  5
5D
102
{ACAD_REACTORS
330
47
102
}
330
47
100
AcDbScale
 70
     0
300
3/32" = 1'-0"
140
0.09375
141
12.0
290
     0
  0
SCALE
  5
5E
102
{ACAD_REACTORS
330
47
102
}
330
47
100
AcDbScale
 70
     0
300
1/8" = 1'-0"
140
0.125
141
12.0
290
     0
  0
SCALE
  5
5F
102
{ACAD_REACTORS
330
47
102
}
330
47
100
AcDbScale
 70
     0
300
3/16" = 1'-0"
140
0.1875
141
12.0
290
     0
  0
SCALE
  5
60
102
{ACAD_REACTORS
330
47
102
}
330
47
100
AcDbScale
 70
     0
300
1/4" = 1'-0"
140
0.25
141
12.0
290
     0
  0
SCALE
  5
61
102
{ACAD_REACTORS
330
47
102
}
330
47
100
AcDbScale
 70
     0
300
3/8" = 1'-0"
140
0.375
141
12.0
290
     0
  0
SCALE
  5
62
102
{ACAD_REACTORS
330
47
102
}
330
47
100
AcDbScale
 70
     0
300
1/2" = 1'-0"
140
0.5
141
12.0
290
     0
  0
SCALE
  5
63
102
{ACAD_REACTORS
330
47
102
}
330
47
100
AcDbScale
 70
     0
300
3/4" = 1'-0"
140
0.75
141
12.0
290
     0
  0
SCALE
  5
64
102
{ACAD_REACTORS
330
47
102
}
330
47
100
AcDbScale
 70
     0
300
1" = 1'-0"
140
1.0
141
12.0
290
     0
  0
SCALE
  5
65
102
{ACAD_REACTORS
330
47
102
}
330
47
100
AcDbScale
 70
     0
300
1-1/2" = 1'-0"
140
1.5
141
12.0
290
     0
  0
SCALE
  5
66
102
{ACAD_REACTORS
330
47
102
}
330
47
100
AcDbScale
 70
     0
300
3" = 1'-0"
140
3.0
141
12.0
290
     0
  0
SCALE
  5
67
102
{ACAD_REACTORS
330
47
102
}
330
47
100
AcDbScale
 70
     0
300
6" = 1'-0"
140
6.0
141
12.0
290
     0
  0
SCALE
  5
68
102
{ACAD_REACTORS
330
47
102
}
330
47
100
AcDbScale
 70
     0
300
1'-0" = 1'-0"
140
12.0
141
12.0
290
     0
  0
TABLESTYLE
  5
6A
102
{ACAD_REACTORS
330
69
102
}
102
{ACAD_XDICTIONARY
360
281
102
}
330
69
100
AcDbTableStyle
  3
Standard
 70
     0
 71
     0
 40
0.06
 41
0.06
280
     0
281
     0
  7
Standard
140
0.18
170
     2
 62
     0
 63
   257
283
     0
 90
        4
 91
        0
  1

274
    -2
284
     1
 64
     0
275
    -2
285
     1
 65
     0
276
    -2
286
     1
 66
     0
277
    -2
287
     1
 67
     0
278
    -2
288
     1
 68
     0
279
    -2
289
     1
 69
     0
  7
Standard
140
0.25
170
     5
 62
     0
 63
   257
283
     0
 90
        4
 91
        0
  1

274
    -2
284
     1
 64
     0
275
    -2
285
     1
 65
     0
276
    -2
286
     1
 66
     0
277
    -2
287
     1
 67
     0
278
    -2
288
     1
 68
     0
279
    -2
289
     1
 69
     0
  7
Standard
140
0.18
170
     5
 62
     0
 63
   257
283
     0
 90
        4
 91
        0
  1

274
    -2
284
     1
 64
     0
275
    -2
285
     1
 65
     0
276
    -2
286
     1
 66
     0
277
    -2
287
     1
 67
     0
278
    -2
288
     1
 68
     0
279
    -2
289
     1
 69
     0
  0
VISUALSTYLE
  5
2F
102
{ACAD_REACTORS
330
2A
102
}
330
2A
100
AcDbVisualStyle
  2
2dWireframe
 70
     4
177
     3
291
     0
 70
    58
 90
        0
176
     1
 90
        2
176
     1
 90
        0
176
     1
 90
        0
176
     1
 40
0.6
176
     1
 40
30.0
176
     1
 62
     7
420
 16777215
176
     1
 90
        1
176
     1
 90
        4
176
     1
 62
     7
176
     1
 62
   257
176
     1
 90
        1
176
     1
 90
        1
176
     1
 40
1.0
176
     1
 90
        0
176
     1
 62
   257
176
     1
 40
1.0
176
     1
 90
        1
176
     1
 90
        6
176
     1
 90
        2
176
     1
 62
     7
176
     1
 90
        5
176
     1
 90
        0
176
     1
 90
        0
176
     1
290
     0
176
     1
 90
        1
176
     1
 40
0.0
176
     1
 90
        0
176
     1
290
     1
176
     1
290
     1
176
     1
290
     0
176
     1
290
     0
176
     1
290
     0
176
     1
290
     0
176
     1
290
     0
176
     1
290
     0
176
     1
290
     0
176
     1
 90
       50
176
     1
 40
0.0
176
     1
 40
1.0
176
     1
 90
        0
176
     1
 62
    18
420
        0
176
     1
 90
       50
176
     1
 90
        3
176
     1
 62
     5
420
      255
176
     1
290
     0
176
     1
 90
       50
176
     1
 90
       50
176
     1
 90
       50
176
     1
290
     0
176
     1
 90
       50
176
     1
 62
   256
176
     0
 40
1.0
176
     0
 90
        2
176
     1
  1
strokes_ogs.tif
176
     1
290
     0
176
     1
 40
1.0
176
     1
 40
1.0
176
     1
  0
VISUALSTYLE
  5
32
102
{ACAD_REACTORS
330
2A
102
}
330
2A
100
AcDbVisualStyle
  2
Basic
 70
     7
177
     3
291
     1
 70
    58
 90
        1
176
     1
 90
        0
176
     1
 90
        1
176
     1
 90
        0
176
     1
 40
0.6
176
     1
 40
30.0
176
     1
 62
     7
420
 16777215
176
     1
 90
        0
176
     1
 90
        4
176
     1
 62
     7
176
     1
 62
   257
176
     1
 90
        1
176
     1
 90
        1
176
     1
 40
1.0
176
     1
 90
        8
176
     1
 62
     7
176
     1
 40
1.0
176
     1
 90
        1
176
     1
 90
        6
176
     1
 90
        2
176
     1
 62
     7
176
     1
 90
        5
176
     1
 90
        0
176
     1
 90
        0
176
     1
290
     0
176
     1
 90
        1
176
     1
 40
0.0
176
     1
 90
        0
176
     1
290
     0
176
     1
290
     1
176
     1
290
     1
176
     1
290
     0
176
     1
290
     0
176
     1
290
     0
176
     1
290
     0
176
     1
290
     0
176
     1
290
     0
176
     1
 90
       50
176
     1
 40
0.0
176
     1
 40
1.0
176
     1
 90
        0
176
     1
 62
    18
420
        0
176
     1
 90
       50
176
     1
 90
        3
176
     1
 62
     5
420
      255
176
     1
290
     0
176
     1
 90
       50
176
     1
 90
       50
176
     1
 90
       50
176
     1
290
     0
176
     1
 90
       50
176
     1
 62
   256
176
     0
 40
1.0
176
     0
 90
        2
176
     1
  1
strokes_ogs.tif
176
     1
290
     0
176
     1
 40
1.0
176
     1
 40
1.0
176
     1
  0
VISUALSTYLE
  5
36
102
{ACAD_REACTORS
330
2A
102
}
330
2A
100
AcDbVisualStyle
  2
Brighten
 70
    12
177
     3
291
     1
 70
    58
 90
        2
176
     1
 90
        2
176
     1
 90
        0
176
     1
 90
        0
176
     1
 40
0.6
176
     1
 40
30.0
176
     1
 62
     7
420
 16777215
176
     1
 90
        1
176
     1
 90
        4
176
     1
 62
     7
176
     1
 62
   257
176
     1
 90
        1
176
     1
 90
        1
176
     1
 40
1.0
176
     1
 90
        8
176
     1
 62
     7
176
     1
 40
1.0
176
     1
 90
        1
176
     1
 90
        6
176
     1
 90
        2
176
     1
 62
     7
176
     1
 90
        5
176
     1
 90
        0
176
     1
 90
        0
176
     1
290
     0
176
     1
 90
        1
176
     1
 40
50.0
176
     1
 90
        0
176
     1
290
     0
176
     1
290
     1
176
     1
290
     1
176
     1
290
     0
176
     1
290
     0
176
     1
290
     0
176
     1
290
     0
176
     1
290
     0
176
     1
290
     0
176
     1
 90
       50
176
     1
 40
0.0
176
     1
 40
1.0
176
     1
 90
        0
176
     1
 62
    18
420
        0
176
     1
 90
       50
176
     1
 90
        3
176
     1
 62
     5
420
      255
176
     1
290
     0
176
     1
 90
       50
176
     1
 90
       50
176
     1
 90
       50
176
     1
290
     0
176
     1
 90
       50
176
     1
 62
   256
176
     0
 40
1.0
176
     0
 90
        2
176
     1
  1
strokes_ogs.tif
176
     1
290
     0
176
     1
 40
1.0
176
     1
 40
1.0
176
     1
  0
VISUALSTYLE
  5
3A
102
{ACAD_REACTORS
330
2A
102
}
330
2A
100
AcDbVisualStyle
  2
ColorChange
 70
    16
177
     3
291
     1
 70
    58
 90
        2
176
     1
 90
        2
176
     1
 90
        3
176
     1
 90
        0
176
     1
 40
0.6
176
     1
 40
30.0
176
     1
 62
     8
420
  8421504
176
     1
 90
        1
176
     1
 90
        4
176
     1
 62
     7
176
     1
 62
   257
176
     1
 90
        1
176
     1
 90
        1
176
     1
 40
1.0
176
     1
 90
        8
176
     1
 62
     8
420
  8421504
176
     1
 40
1.0
176
     1
 90
        1
176
     1
 90
        6
176
     1
 90
        2
176
     1
 62
     7
176
     1
 90
        5
176
     1
 90
        0
176
     1
 90
        0
176
     1
290
     0
176
     1
 90
        1
176
     1
 40
0.0
176
     1
 90
        0
176
     1
290
     0
176
     1
290
     1
176
     1
290
     1
176
     1
290
     0
176
     1
290
     0
176
     1
290
     0
176
     1
290
     0
176
     1
290
     0
176
     1
290
     0
176
     1
 90
       50
176
     1
 40
0.0
176
     1
 40
1.0
176
     1
 90
        0
176
     1
 62
    18
420
        0
176
     1
 90
       50
176
     1
 90
        3
176
     1
 62
     5
420
      255
176
     1
290
     0
176
     1
 90
       50
176
     1
 90
       50
176
     1
 90
       50
176
     1
290
     0
176
     1
 90
       50
176
     1
 62
   256
176
     0
 40
1.0
176
     0
 90
        2
176
     1
  1
strokes_ogs.tif
176
     1
290
     0
176
     1
 40
1.0
176
     1
 40
1.0
176
     1
  0
VISUALSTYLE
  5
34
102
{ACAD_REACTORS
330
2A
102
}
330
2A
100
AcDbVisualStyle
  2
Conceptual
 70
     9
177
     3
291
     0
 70
    58
 90
        3
176
     1
 90
        2
176
     1
 90
        0
176
     1
 90
        0
176
     1
 40
0.6
176
     1
 40
30.0
176
     1
 62
     7
420
 16777215
176
     1
 90
        2
176
     1
 90
        2
176
     1
 62
     7
176
     1
 62
   257
176
     1
 90
        1
176
     1
 90
        1
176
     1
 40
179.0
176
     1
 90
        8
176
     1
 62
     7
176
     1
 40
1.0
176
     1
 90
        1
176
     1
 90
        6
176
     1
 90
        2
176
     1
 62
     7
176
     1
 90
        3
176
     1
 90
        0
176
     1
 90
        0
176
     1
290
     0
176
     1
 90
        1
176
     1
 40
0.0
176
     1
 90
        0
176
     1
290
     0
176
     1
290
     1
176
     1
290
     1
176
     1
290
     0
176
     1
290
     0
176
     1
290
     0
176
     1
290
     0
176
     1
290
     0
176
     1
290
     0
176
     1
 90
       50
176
     1
 40
0.0
176
     1
 40
1.0
176
     1
 90
        0
176
     1
 62
    18
420
        0
176
     1
 90
       50
176
     1
 90
        3
176
     1
 62
     5
420
      255
176
     1
290
     0
176
     1
 90
       50
176
     1
 90
       50
176
     1
 90
       50
176
     1
290
     0
176
     1
 90
       50
176
     1
 62
   256
176
     0
 40
1.0
176
     0
 90
        2
176
     1
  1
strokes_ogs.tif
176
     1
290
     0
176
     1
 40
1.0
176
     1
 40
1.0
176
     1
  0
VISUALSTYLE
  5
35
102
{ACAD_REACTORS
330
2A
102
}
330
2A
100
AcDbVisualStyle
  2
Dim
 70
    11
177
     3
291
     1
 70
    58
 90
        2
176
     1
 90
        2
176
     1
 90
        0
176
     1
 90
        0
176
     1
 40
0.6
176
     1
 40
30.0
176
     1
 62
     7
420
 16777215
176
     1
 90
        1
176
     1
 90
        4
176
     1
 62
     7
176
     1
 62
   257
176
     1
 90
        1
176
     1
 90
        1
176
     1
 40
1.0
176
     1
 90
        8
176
     1
 62
     7
176
     1
 40
1.0
176
     1
 90
        1
176
     1
 90
        6
176
     1
 90
        2
176
     1
 62
     7
176
     1
 90
        5
176
     1
 90
        0
176
     1
 90
        0
176
     1
290
     0
176
     1
 90
        1
176
     1
 40
-50.0
176
     1
 90
        0
176
     1
290
     0
176
     1
290
     1
176
     1
290
     1
176
     1
290
     0
176
     1
290
     0
176
     1
290
     0
176
     1
290
     0
176
     1
290
     0
176
     1
290
     0
176
     1
 90
       50
176
     1
 40
0.0
176
     1
 40
1.0
176
     1
 90
        0
176
     1
 62
    18
420
        0
176
     1
 90
       50
176
     1
 90
        3
176
     1
 62
     5
420
      255
176
     1
290
     0
176
     1
 90
       50
176
     1
 90
       50
176
     1
 90
       50
176
     1
290
     0
176
     1
 90
       50
176
     1
 62
   256
176
     0
 40
1.0
176
     0
 90
        2
176
     1
  1
strokes_ogs.tif
176
     1
290
     0
176
     1
 40
1.0
176
     1
 40
1.0
176
     1
  0
VISUALSTYLE
  5
3D
102
{ACAD_REACTORS
330
2A
102
}
330
2A
100
AcDbVisualStyle
  2
EdgeColorOff
 70
    22
177
     3
291
     1
 70
    58
 90
        2
176
     0
 90
        2
176
     0
 90
        0
176
     0
 90
        0
176
     0
 40
0.6
176
     0
 40
30.0
176
     0
 62
     7
420
 16777215
176
     0
 90
        1
176
     0
 90
        4
176
     0
 62
     7
176
     0
 62
   257
176
     0
 90
        1
176
     0
 90
        1
176
     0
 40
1.0
176
     0
 90
        8
176
     2
 62
     7
176
     0
 40
1.0
176
     0
 90
        1
176
     0
 90
        6
176
     0
 90
        2
176
     0
 62
     7
176
     0
 90
        5
176
     0
 90
        0
176
     0
 90
        0
176
     0
290
     0
176
     0
 90
        1
176
     0
 40
0.0
176
     0
 90
        0
176
     0
290
     0
176
     0
290
     1
176
     0
290
     1
176
     0
290
     0
176
     0
290
     0
176
     0
290
     0
176
     0
290
     0
176
     0
290
     0
176
     0
290
     0
176
     0
 90
       50
176
     0
 40
0.0
176
     0
 40
1.0
176
     0
 90
        0
176
     0
 62
    18
420
        0
176
     0
 90
       50
176
     0
 90
        3
176
     0
 62
     5
420
      255
176
     0
290
     0
176
     0
 90
       50
176
     0
 90
       50
176
     0
 90
       50
176
     0
290
     0
176
     0
 90
       50
176
     0
 62
   256
176
     0
 40
1.0
176
     0
 90
        2
176
     0
  1
strokes_ogs.tif
176
     0
290
     0
176
     0
 40
1.0
176
     0
 40
1.0
176
     0
  0
VISUALSTYLE
  5
39
102
{ACAD_REACTORS
330
2A
102
}
330
2A
100
AcDbVisualStyle
  2
Facepattern
 70
    15
177
     3
291
     1
 70
    58
 90
        2
176
     1
 90
        2
176
     1
 90
        0
176
     1
 90
        0
176
     1
 40
0.6
176
     1
 40
30.0
176
     1
 62
     7
420
 16777215
176
     1
 90
        1
176
     1
 90
        4
176
     1
 62
     7
176
     1
 62
   257
176
     1
 90
        1
176
     1
 90
        1
176
     1
 40
1.0
176
     1
 90
        8
176
     1
 62
     7
176
     1
 40
1.0
176
     1
 90
        1
176
     1
 90
        6
176
     1
 90
        2
176
     1
 62
     7
176
     1
 90
        5
176
     1
 90
        0
176
     1
 90
        0
176
     1
290
     0
176
     1
 90
        1
176
     1
 40
0.0
176
     1
 90
        0
176
     1
290
     0
176
     1
290
     1
176
     1
290
     1
176
     1
290
     0
176
     1
290
     0
176
     1
290
     0
176
     1
290
     0
176
     1
290
     0
176
     1
290
     0
176
     1
 90
       50
176
     1
 40
0.0
176
     1
 40
1.0
176
     1
 90
        0
176
     1
 62
    18
420
        0
176
     1
 90
       50
176
     1
 90
        3
176
     1
 62
     5
420
      255
176
     1
290
     0
176
     1
 90
       50
176
     1
 90
       50
176
     1
 90
       50
176
     1
290
     0
176
     1
 90
       50
176
     1
 62
   256
176
     0
 40
1.0
176
     0
 90
        2
176
     1
  1
strokes_ogs.tif
176
     1
290
     0
176
     1
 40
1.0
176
     1
 40
1.0
176
     1
  0
VISUALSTYLE
  5
2B
102
{ACAD_REACTORS
330
2A
102
}
330
2A
100
AcDbVisualStyle
  2
Flat
 70
     0
177
     3
291
     1
 70
    58
 90
        2
176
     1
 90
        1
176
     1
 90
        1
176
     1
 90
        2
176
     1
 40
0.6
176
     1
 40
30.0
176
     1
 62
     7
420
 16777215
176
     1
 90
        0
176
     1
 90
        0
176
     1
 62
     7
176
     1
 62
   257
176
     1
 90
        1
176
     1
 90
        1
176
     1
 40
1.0
176
     1
 90
        8
176
     1
 62
     7
176
     1
 40
1.0
176
     1
 90
        1
176
     1
 90
        6
176
     1
 90
        2
176
     1
 62
     7
176
     1
 90
        5
176
     1
 90
        0
176
     1
 90
        0
176
     1
290
     0
176
     1
 90
       13
176
     1
 40
0.0
176
     1
 90
        0
176
     1
290
     0
176
     1
290
     1
176
     1
290
     1
176
     1
290
     0
176
     1
290
     0
176
     1
290
     0
176
     1
290
     0
176
     1
290
     0
176
     1
290
     0
176
     1
 90
       50
176
     1
 40
0.0
176
     1
 40
1.0
176
     1
 90
        0
176
     1
 62
    18
420
        0
176
     1
 90
       50
176
     1
 90
        3
176
     1
 62
     5
420
      255
176
     1
290
     0
176
     1
 90
       50
176
     1
 90
       50
176
     1
 90
       50
176
     1
290
     0
176
     1
 90
       50
176
     1
 62
   256
176
     0
 40
1.0
176
     0
 90
        2
176
     1
  1
strokes_ogs.tif
176
     1
290
     0
176
     1
 40
1.0
176
     1
 40
1.0
176
     1
  0
VISUALSTYLE
  5
2C
102
{ACAD_REACTORS
330
2A
102
}
330
2A
100
AcDbVisualStyle
  2
FlatWithEdges
 70
     1
177
     3
291
     1
 70
    58
 90
        2
176
     1
 90
        1
176
     1
 90
        1
176
     1
 90
        2
176
     1
 40
0.6
176
     1
 40
30.0
176
     1
 62
     7
420
 16777215
176
     1
 90
        1
176
     1
 90
        0
176
     1
 62
     7
176
     1
 62
   257
176
     1
 90
        1
176
     1
 90
        1
176
     1
 40
1.0
176
     1
 90
        0
176
     1
 62
   257
176
     1
 40
1.0
176
     1
 90
        1
176
     1
 90
        6
176
     1
 90
        2
176
     1
 62
     7
176
     1
 90
        5
176
     1
 90
        0
176
     1
 90
        0
176
     1
290
     0
176
     1
 90
       13
176
     1
 40
0.0
176
     1
 90
        0
176
     1
290
     0
176
     1
290
     1
176
     1
290
     1
176
     1
290
     0
176
     1
290
     0
176
     1
290
     0
176
     1
290
     0
176
     1
290
     0
176
     1
290
     0
176
     1
 90
       50
176
     1
 40
0.0
176
     1
 40
1.0
176
     1
 90
        0
176
     1
 62
    18
420
        0
176
     1
 90
       50
176
     1
 90
        3
176
     1
 62
     5
420
      255
176
     1
290
     0
176
     1
 90
       50
176
     1
 90
       50
176
     1
 90
       50
176
     1
290
     0
176
     1
 90
       50
176
     1
 62
   256
176
     0
 40
1.0
176
     0
 90
        2
176
     1
  1
strokes_ogs.tif
176
     1
290
     0
176
     1
 40
1.0
176
     1
 40
1.0
176
     1
  0
VISUALSTYLE
  5
2D
102
{ACAD_REACTORS
330
2A
102
}
330
2A
100
AcDbVisualStyle
  2
Gouraud
 70
     2
177
     3
291
     1
 70
    58
 90
        2
176
     1
 90
        2
176
     1
 90
        1
176
     1
 90
        2
176
     1
 40
0.6
176
     1
 40
30.0
176
     1
 62
     7
420
 16777215
176
     1
 90
        0
176
     1
 90
        0
176
     1
 62
     7
176
     1
 62
   257
176
     1
 90
        1
176
     1
 90
        1
176
     1
 40
1.0
176
     1
 90
        0
176
     1
 62
     7
176
     1
 40
1.0
176
     1
 90
        1
176
     1
 90
        6
176
     1
 90
        2
176
     1
 62
     7
176
     1
 90
        5
176
     1
 90
        0
176
     1
 90
        0
176
     1
290
     0
176
     1
 90
       13
176
     1
 40
0.0
176
     1
 90
        0
176
     1
290
     0
176
     1
290
     1
176
     1
290
     1
176
     1
290
     0
176
     1
290
     0
176
     1
290
     0
176
     1
290
     0
176
     1
290
     0
176
     1
290
     0
176
     1
 90
       50
176
     1
 40
0.0
176
     1
 40
1.0
176
     1
 90
        0
176
     1
 62
    18
420
        0
176
     1
 90
       50
176
     1
 90
        3
176
     1
 62
     5
420
      255
176
     1
290
     0
176
     1
 90
       50
176
     1
 90
       50
176
     1
 90
       50
176
     1
290
     0
176
     1
 90
       50
176
     1
 62
   256
176
     0
 40
1.0
176
     0
 90
        2
176
     1
  1
strokes_ogs.tif
176
     1
290
     0
176
     1
 40
1.0
176
     1
 40
1.0
176
     1
  0
VISUALSTYLE
  5
2E
102
{ACAD_REACTORS
330
2A
102
}
330
2A
100
AcDbVisualStyle
  2
GouraudWithEdges
 70
     3
177
     3
291
     1
 70
    58
 90
        2
176
     1
 90
        2
176
     1
 90
        1
176
     1
 90
        2
176
     1
 40
0.6
176
     1
 40
30.0
176
     1
 62
     7
420
 16777215
176
     1
 90
        1
176
     1
 90
        0
176
     1
 62
     7
176
     1
 62
   257
176
     1
 90
        1
176
     1
 90
        1
176
     1
 40
1.0
176
     1
 90
        0
176
     1
 62
   257
176
     1
 40
1.0
176
     1
 90
        1
176
     1
 90
        6
176
     1
 90
        2
176
     1
 62
     7
176
     1
 90
        5
176
     1
 90
        0
176
     1
 90
        0
176
     1
290
     0
176
     1
 90
       13
176
     1
 40
0.0
176
     1
 90
        0
176
     1
290
     0
176
     1
290
     1
176
     1
290
     1
176
     1
290
     0
176
     1
290
     0
176
     1
290
     0
176
     1
290
     0
176
     1
290
     0
176
     1
290
     0
176
     1
 90
       50
176
     1
 40
0.0
176
     1
 40
1.0
176
     1
 90
        0
176
     1
 62
    18
420
        0
176
     1
 90
       50
176
     1
 90
        3
176
     1
 62
     5
420
      255
176
     1
290
     0
176
     1
 90
       50
176
     1
 90
       50
176
     1
 90
       50
176
     1
290
     0
176
     1
 90
       50
176
     1
 62
   256
176
     0
 40
1.0
176
     0
 90
        2
176
     1
  1
strokes_ogs.tif
176
     1
290
     0
176
     1
 40
1.0
176
     1
 40
1.0
176
     1
  0
VISUALSTYLE
  5
31
102
{ACAD_REACTORS
330
2A
102
}
330
2A
100
AcDbVisualStyle
  2
Hidden
 70
     6
177
     3
291
     0
 70
    58
 90
        1
176
     1
 90
        2
176
     1
 90
        2
176
     1
 90
        0
176
     1
 40
0.6
176
     1
 40
30.0
176
     1
 62
     7
420
 16777215
176
     1
 90
        2
176
     1
 90
        2
176
     1
 62
     7
176
     1
 62
   257
176
     1
 90
        2
176
     1
 90
        1
176
     1
 40
40.0
176
     1
 90
        0
176
     1
 62
   257
176
     1
 40
1.0
176
     1
 90
        1
176
     1
 90
        6
176
     1
 90
        2
176
     1
 62
     7
176
     1
 90
        3
176
     1
 90
        0
176
     1
 90
        0
176
     1
290
     0
176
     1
 90
        1
176
     1
 40
0.0
176
     1
 90
        0
176
     1
290
     0
176
     1
290
     1
176
     1
290
     1
176
     1
290
     0
176
     1
290
     0
176
     1
290
     0
176
     1
290
     0
176
     1
290
     0
176
     1
290
     0
176
     1
 90
       50
176
     1
 40
0.0
176
     1
 40
1.0
176
     1
 90
        0
176
     1
 62
    18
420
        0
176
     1
 90
       50
176
     1
 90
        3
176
     1
 62
     5
420
      255
176
     1
290
     0
176
     1
 90
       50
176
     1
 90
       50
176
     1
 90
       50
176
     1
290
     0
176
     1
 90
       50
176
     1
 62
   256
176
     0
 40
1.0
176
     0
 90
        2
176
     1
  1
strokes_ogs.tif
176
     1
290
     0
176
     1
 40
1.0
176
     1
 40
1.0
176
     1
  0
VISUALSTYLE
  5
3B
102
{ACAD_REACTORS
330
2A
102
}
330
2A
100
AcDbVisualStyle
  2
JitterOff
 70
    20
177
     3
291
     1
 70
    58
 90
        2
176
     0
 90
        2
176
     0
 90
        0
176
     0
 90
        0
176
     0
 40
0.6
176
     0
 40
30.0
176
     0
 62
     7
420
 16777215
176
     0
 90
        1
176
     0
 90
        4
176
     0
 62
     7
176
     0
 62
   257
176
     0
 90
        1
176
     0
 90
        1
176
     0
 40
1.0
176
     0
 90
       10
176
     2
 62
     7
176
     0
 40
1.0
176
     0
 90
        1
176
     0
 90
        6
176
     0
 90
        2
176
     0
 62
     7
176
     0
 90
        5
176
     0
 90
        0
176
     0
 90
        0
176
     0
290
     0
176
     0
 90
        1
176
     0
 40
0.0
176
     0
 90
        0
176
     0
290
     0
176
     0
290
     1
176
     0
290
     1
176
     0
290
     0
176
     0
290
     0
176
     0
290
     0
176
     0
290
     0
176
     0
290
     0
176
     0
290
     0
176
     0
 90
       50
176
     0
 40
0.0
176
     0
 40
1.0
176
     0
 90
        0
176
     0
 62
    18
420
        0
176
     0
 90
       50
176
     0
 90
        3
176
     0
 62
     5
420
      255
176
     0
290
     0
176
     0
 90
       50
176
     0
 90
       50
176
     0
 90
       50
176
     0
290
     0
176
     0
 90
       50
176
     0
 62
   256
176
     0
 40
1.0
176
     0
 90
        2
176
     0
  1
strokes_ogs.tif
176
     0
290
     0
176
     0
 40
1.0
176
     0
 40
1.0
176
     0
  0
VISUALSTYLE
  5
38
102
{ACAD_REACTORS
330
2A
102
}
330
2A
100
AcDbVisualStyle
  2
Linepattern
 70
    14
177
     3
291
     1
 70
    58
 90
        2
176
     1
 90
        2
176
     1
 90
        0
176
     1
 90
        0
176
     1
 40
0.6
176
     1
 40
30.0
176
     1
 62
     7
420
 16777215
176
     1
 90
        1
176
     1
 90
        4
176
     1
 62
     7
176
     1
 62
   257
176
     1
 90
        7
176
     1
 90
        7
176
     1
 40
1.0
176
     1
 90
        8
176
     1
 62
     7
176
     1
 40
1.0
176
     1
 90
        1
176
     1
 90
        6
176
     1
 90
        2
176
     1
 62
     7
176
     1
 90
        5
176
     1
 90
        0
176
     1
 90
        0
176
     1
290
     0
176
     1
 90
        1
176
     1
 40
0.0
176
     1
 90
        0
176
     1
290
     0
176
     1
290
     1
176
     1
290
     1
176
     1
290
     0
176
     1
290
     0
176
     1
290
     0
176
     1
290
     0
176
     1
290
     0
176
     1
290
     0
176
     1
 90
       50
176
     1
 40
0.0
176
     1
 40
1.0
176
     1
 90
        0
176
     1
 62
    18
420
        0
176
     1
 90
       50
176
     1
 90
        3
176
     1
 62
     5
420
      255
176
     1
290
     0
176
     1
 90
       50
176
     1
 90
       50
176
     1
 90
       50
176
     1
290
     0
176
     1
 90
       50
176
     1
 62
   256
176
     0
 40
1.0
176
     0
 90
        2
176
     1
  1
strokes_ogs.tif
176
     1
290
     0
176
     1
 40
1.0
176
     1
 40
1.0
176
     1
  0
VISUALSTYLE
  5
3C
102
{ACAD_REACTORS
330
2A
102
}
330
2A
100
AcDbVisualStyle
  2
OverhangOff
 70
    21
177
     3
291
     1
 70
    58
 90
        2
176
     0
 90
        2
176
     0
 90
        0
176
     0
 90
        0
176
     0
 40
0.6
176
     0
 40
30.0
176
     0
 62
     7
420
 16777215
176
     0
 90
        1
176
     0
 90
        4
176
     0
 62
     7
176
     0
 62
   257
176
     0
 90
        1
176
     0
 90
        1
176
     0
 40
1.0
176
     0
 90
        9
176
     2
 62
     7
176
     0
 40
1.0
176
     0
 90
        1
176
     0
 90
        6
176
     0
 90
        2
176
     0
 62
     7
176
     0
 90
        5
176
     0
 90
        0
176
     0
 90
        0
176
     0
290
     0
176
     0
 90
        1
176
     0
 40
0.0
176
     0
 90
        0
176
     0
290
     0
176
     0
290
     1
176
     0
290
     1
176
     0
290
     0
176
     0
290
     0
176
     0
290
     0
176
     0
290
     0
176
     0
290
     0
176
     0
290
     0
176
     0
 90
       50
176
     0
 40
0.0
176
     0
 40
1.0
176
     0
 90
        0
176
     0
 62
    18
420
        0
176
     0
 90
       50
176
     0
 90
        3
176
     0
 62
     5
420
      255
176
     0
290
     0
176
     0
 90
       50
176
     0
 90
       50
176
     0
 90
       50
176
     0
290
     0
176
     0
 90
       50
176
     0
 62
   256
176
     0
 40
1.0
176
     0
 90
        2
176
     0
  1
strokes_ogs.tif
176
     0
290
     0
176
     0
 40
1.0
176
     0
 40
1.0
176
     0
  0
VISUALSTYLE
  5
33
102
{ACAD_REACTORS
330
2A
102
}
330
2A
100
AcDbVisualStyle
  2
Realistic
 70
     8
177
     3
291
     0
 70
    58
 90
        2
176
     1
 90
        3
176
     1
 90
        0
176
     1
 90
        2
176
     1
 40
0.6
176
     1
 40
30.0
176
     1
 62
     7
420
 16777215
176
     1
 90
        0
176
     1
 90
        0
176
     1
 62
     7
176
     1
 62
   257
176
     1
 90
        1
176
     1
 90
        1
176
     1
 40
1.0
176
     1
 90
        8
176
     1
 62
   257
176
     1
 40
1.0
176
     1
 90
        1
176
     1
 90
        6
176
     1
 90
        2
176
     1
 62
     7
176
     1
 90
        3
176
     1
 90
        0
176
     1
 90
        0
176
     1
290
     0
176
     1
 90
       13
176
     1
 40
0.0
176
     1
 90
        0
176
     1
290
     0
176
     1
290
     1
176
     1
290
     1
176
     1
290
     0
176
     1
290
     0
176
     1
290
     0
176
     1
290
     0
176
     1
290
     0
176
     1
290
     0
176
     1
 90
       50
176
     1
 40
0.0
176
     1
 40
1.0
176
     1
 90
        0
176
     1
 62
    18
420
        0
176
     1
 90
       50
176
     1
 90
        3
176
     1
 62
     5
420
      255
176
     1
290
     0
176
     1
 90
       50
176
     1
 90
       50
176
     1
 90
       50
176
     1
290
     0
176
     1
 90
       50
176
     1
 62
   256
176
     0
 40
1.0
176
     0
 90
        2
176
     1
  1
strokes_ogs.tif
176
     1
290
     0
176
     1
 40
1.0
176
     1
 40
1.0
176
     1
  0
VISUALSTYLE
  5
42
102
{ACAD_REACTORS
330
2A
102
}
330
2A
100
AcDbVisualStyle
  2
Shaded
 70
    27
177
     3
291
     0
 70
    58
 90
        2
176
     1
 90
        2
176
     1
 90
        1
176
     1
 90
        2
176
     1
 40
0.6
176
     1
 40
30.0
176
     1
 62
     7
420
 16777215
176
     1
 90
        0
176
     1
 90
        4
176
     1
 62
     7
176
     1
 62
   257
176
     1
 90
        1
176
     1
 90
        1
176
     1
 40
1.0
176
     1
 90
        8
176
     1
 62
   257
176
     1
 40
1.0
176
     1
 90
        1
176
     1
 90
        6
176
     1
 90
        2
176
     1
 62
     8
420
  7895160
176
     1
 90
        3
176
     1
 90
        0
176
     1
 90
        0
176
     1
290
     0
176
     1
 90
        5
176
     1
 40
0.0
176
     1
 90
        0
176
     1
290
     0
176
     1
290
     1
176
     1
290
     1
176
     1
290
     0
176
     1
290
     0
176
     1
290
     0
176
     1
290
     0
176
     1
290
     0
176
     1
290
     0
176
     1
 90
       50
176
     1
 40
0.0
176
     1
 40
1.0
176
     1
 90
        0
176
     1
 62
    18
420
        0
176
     1
 90
       50
176
     1
 90
        3
176
     1
 62
     5
420
      255
176
     1
290
     0
176
     1
 90
       50
176
     1
 90
       50
176
     1
 90
       50
176
     1
290
     0
176
     1
 90
       50
176
     1
 62
   256
176
     0
 40
1.0
176
     0
 90
        2
176
     1
  1
strokes_ogs.tif
176
     1
290
     0
176
     1
 40
1.0
176
     1
 40
1.0
176
     1
  0
VISUALSTYLE
  5
41
102
{ACAD_REACTORS
330
2A
102
}
330
2A
100
AcDbVisualStyle
  2
Shaded with edges
 70
    26
177
     3
291
     0
 70
    58
 90
        2
176
     1
 90
        2
176
     1
 90
        1
176
     1
 90
        2
176
     1
 40
0.6
176
     1
 40
30.0
176
     1
 62
     7
420
 16777215
176
     1
 90
        1
176
     1
 90
       10
176
     1
 62
     7
176
     1
 62
   257
176
     1
 90
        2
176
     1
 90
        1
176
     1
 40
1.0
176
     1
 90
        8
176
     1
 62
   257
176
     1
 40
1.0
176
     1
 90
        1
176
     1
 90
        6
176
     1
 90
        2
176
     1
 62
     7
176
     1
 90
        3
176
     1
 90
        0
176
     1
 90
        0
176
     1
290
     0
176
     1
 90
        5
176
     1
 40
0.0
176
     1
 90
        0
176
     1
290
     0
176
     1
290
     1
176
     1
290
     1
176
     1
290
     0
176
     1
290
     0
176
     1
290
     0
176
     1
290
     0
176
     1
290
     0
176
     1
290
     0
176
     1
 90
       50
176
     1
 40
0.0
176
     1
 40
1.0
176
     1
 90
        0
176
     1
 62
    18
420
        0
176
     1
 90
       50
176
     1
 90
        3
176
     1
 62
     5
420
      255
176
     1
290
     0
176
     1
 90
       50
176
     1
 90
       50
176
     1
 90
       50
176
     1
290
     0
176
     1
 90
       50
176
     1
 62
   256
176
     0
 40
1.0
176
     0
 90
        2
176
     1
  1
strokes_ogs.tif
176
     1
290
     0
176
     1
 40
1.0
176
     1
 40
1.0
176
     1
  0
VISUALSTYLE
  5
3E
102
{ACAD_REACTORS
330
2A
102
}
330
2A
100
AcDbVisualStyle
  2
Shades of Gray
 70
    23
177
     3
291
     0
 70
    58
 90
        2
176
     1
 90
        2
176
     1
 90
        3
176
     1
 90
        0
176
     1
 40
0.6
176
     1
 40
30.0
176
     1
 62
     7
420
 16777215
176
     1
 90
        2
176
     1
 90
        2
176
     1
 62
     7
176
     1
 62
     7
176
     1
 90
        1
176
     1
 90
        1
176
     1
 40
40.0
176
     1
 90
        8
176
     1
 62
     7
176
     1
 40
1.0
176
     1
 90
        1
176
     1
 90
        6
176
     1
 90
        2
176
     1
 62
     7
176
     1
 90
        3
176
     1
 90
        0
176
     1
 90
        0
176
     1
290
     0
176
     1
 90
        1
176
     1
 40
0.0
176
     1
 90
        0
176
     1
290
     0
176
     1
290
     1
176
     1
290
     1
176
     1
290
     0
176
     1
290
     0
176
     1
290
     0
176
     1
290
     0
176
     1
290
     0
176
     1
290
     0
176
     1
 90
       50
176
     1
 40
0.0
176
     1
 40
1.0
176
     1
 90
        0
176
     1
 62
    18
420
        0
176
     1
 90
       50
176
     1
 90
        3
176
     1
 62
     5
420
      255
176
     1
290
     0
176
     1
 90
       50
176
     1
 90
       50
176
     1
 90
       50
176
     1
290
     0
176
     1
 90
       50
176
     1
 62
   256
176
     0
 40
1.0
176
     0
 90
        2
176
     1
  1
strokes_ogs.tif
176
     1
290
     0
176
     1
 40
1.0
176
     1
 40
1.0
176
     1
  0
VISUALSTYLE
  5
3F
102
{ACAD_REACTORS
330
2A
102
}
330
2A
100
AcDbVisualStyle
  2
Sketchy
 70
    24
177
     3
291
     0
 70
    58
 90
        1
176
     1
 90
        2
176
     1
 90
        2
176
     1
 90
        0
176
     1
 40
0.6
176
     1
 40
30.0
176
     1
 62
     7
420
 16777215
176
     1
 90
        2
176
     1
 90
        2
176
     1
 62
     7
176
     1
 62
     7
176
     1
 90
        1
176
     1
 90
        1
176
     1
 40
40.0
176
     1
 90
       11
176
     1
 62
     7
176
     1
 40
1.0
176
     1
 90
        1
176
     1
 90
        6
176
     1
 90
        2
176
     1
 62
     7
176
     1
 90
        6
176
     1
 90
        0
176
     1
 90
        0
176
     1
290
     0
176
     1
 90
        1
176
     1
 40
0.0
176
     1
 90
        0
176
     1
290
     0
176
     1
290
     1
176
     1
290
     1
176
     1
290
     0
176
     1
290
     0
176
     1
290
     0
176
     1
290
     0
176
     1
290
     0
176
     1
290
     0
176
     1
 90
       50
176
     1
 40
0.0
176
     1
 40
1.0
176
     1
 90
        0
176
     1
 62
    18
420
        0
176
     1
 90
       50
176
     1
 90
        3
176
     1
 62
     5
420
      255
176
     1
290
     0
176
     1
 90
       50
176
     1
 90
       50
176
     1
 90
       50
176
     1
290
     0
176
     1
 90
       50
176
     1
 62
   256
176
     0
 40
1.0
176
     0
 90
        2
176
     1
  1
strokes_ogs.tif
176
     1
290
     0
176
     1
 40
1.0
176
     1
 40
1.0
176
     1
  0
VISUALSTYLE
  5
37
102
{ACAD_REACTORS
330
2A
102
}
330
2A
100
AcDbVisualStyle
  2
Thicken
 70
    13
177
     3
291
     1
 70
    58
 90
        2
176
     1
 90
        2
176
     1
 90
        0
176
     1
 90
        0
176
     1
 40
0.6
176
     1
 40
30.0
176
     1
 62
     7
420
 16777215
176
     1
 90
        1
176
     1
 90
        4
176
     1
 62
     7
176
     1
 62
   257
176
     1
 90
        1
176
     1
 90
        1
176
     1
 40
1.0
176
     1
 90
       12
176
     1
 62
     7
176
     1
 40
1.0
176
     1
 90
        1
176
     1
 90
        6
176
     1
 90
        2
176
     1
 62
     7
176
     1
 90
        5
176
     1
 90
        0
176
     1
 90
        0
176
     1
290
     0
176
     1
 90
        1
176
     1
 40
0.0
176
     1
 90
        0
176
     1
290
     0
176
     1
290
     1
176
     1
290
     1
176
     1
290
     0
176
     1
290
     0
176
     1
290
     0
176
     1
290
     0
176
     1
290
     0
176
     1
290
     0
176
     1
 90
       50
176
     1
 40
0.0
176
     1
 40
1.0
176
     1
 90
        0
176
     1
 62
    18
420
        0
176
     1
 90
       50
176
     1
 90
        3
176
     1
 62
     5
420
      255
176
     1
290
     0
176
     1
 90
       50
176
     1
 90
       50
176
     1
 90
       50
176
     1
290
     0
176
     1
 90
       50
176
     1
 62
   256
176
     0
 40
1.0
176
     0
 90
        2
176
     1
  1
strokes_ogs.tif
176
     1
290
     0
176
     1
 40
1.0
176
     1
 40
1.0
176
     1
  0
VISUALSTYLE
  5
30
102
{ACAD_REACTORS
330
2A
102
}
330
2A
100
AcDbVisualStyle
  2
Wireframe
 70
     5
177
     3
291
     0
 70
    58
 90
        0
176
     1
 90
        2
176
     1
 90
        0
176
     1
 90
        0
176
     1
 40
0.6
176
     1
 40
30.0
176
     1
 62
     7
420
 16777215
176
     1
 90
        1
176
     1
 90
        4
176
     1
 62
     7
176
     1
 62
   257
176
     1
 90
        1
176
     1
 90
        1
176
     1
 40
1.0
176
     1
 90
        0
176
     1
 62
   257
176
     1
 40
1.0
176
     1
 90
        1
176
     1
 90
        6
176
     1
 90
        2
176
     1
 62
     7
176
     1
 90
        3
176
     1
 90
        0
176
     1
 90
        0
176
     1
290
     0
176
     1
 90
        1
176
     1
 40
0.0
176
     1
 90
        0
176
     1
290
     0
176
     1
290
     1
176
     1
290
     1
176
     1
290
     0
176
     1
290
     0
176
     1
290
     0
176
     1
290
     0
176
     1
290
     0
176
     1
290
     0
176
     1
 90
       50
176
     1
 40
0.0
176
     1
 40
1.0
176
     1
 90
        0
176
     1
 62
    18
420
        0
176
     1
 90
       50
176
     1
 90
        3
176
     1
 62
     5
420
      255
176
     1
290
     0
176
     1
 90
       50
176
     1
 90
       50
176
     1
 90
       50
176
     1
290
     0
176
     1
 90
       50
176
     1
 62
   256
176
     0
 40
1.0
176
     0
 90
        2
176
     1
  1
strokes_ogs.tif
176
     1
290
     0
176
     1
 40
1.0
176
     1
 40
1.0
176
     1
  0
VISUALSTYLE
  5
40
102
{ACAD_REACTORS
330
2A
102
}
330
2A
100
AcDbVisualStyle
  2
X-Ray
 70
    25
177
     3
291
     0
 70
    58
 90
        2
176
     1
 90
        2
176
     1
 90
        1
176
     1
 90
        1
176
     1
 40
0.5
176
     1
 40
30.0
176
     1
 62
     7
420
 16777215
176
     1
 90
        1
176
     1
 90
        0
176
     1
 62
     7
176
     1
 62
   257
176
     1
 90
        1
176
     1
 90
        1
176
     1
 40
1.0
176
     1
 90
        8
176
     1
 62
     7
176
     1
 40
1.0
176
     1
 90
        1
176
     1
 90
        6
176
     1
 90
        2
176
     1
 62
     7
176
     1
 90
        3
176
     1
 90
        0
176
     1
 90
        0
176
     1
290
     0
176
     1
 90
       13
176
     1
 40
0.0
176
     1
 90
        0
176
     1
290
     0
176
     1
290
     1
176
     1
290
     1
176
     1
290
     0
176
     1
290
     0
176
     1
290
     0
176
     1
290
     0
176
     1
290
     0
176
     1
290
     0
176
     1
 90
       50
176
     1
 40
0.0
176
     1
 40
1.0
176
     1
 90
        0
176
     1
 62
    18
420
        0
176
     1
 90
       50
176
     1
 90
        3
176
     1
 62
     5
420
      255
176
     1
290
     0
176
     1
 90
       50
176
     1
 90
       50
176
     1
 90
       50
176
     1
290
     0
176
     1
 90
       50
176
     1
 62
   256
176
     0
 40
1.0
176
     0
 90
        2
176
     1
  1
strokes_ogs.tif
176
     1
290
     0
176
     1
 40
1.0
176
     1
 40
1.0
176
     1
  0
DICTIONARYVAR
  5
280
102
{ACAD_REACTORS
330
27F
102
}
330
27F
100
DictionaryVariables
280
     0
  1
1:1
  0
DICTIONARYVAR
  5
285
102
{ACAD_REACTORS
330
27F
102
}
330
27F
100
DictionaryVariables
280
     0
  1
Standard
  0
DICTIONARYVAR
  5
284
102
{ACAD_REACTORS
330
27F
102
}
330
27F
100
DictionaryVariables
280
     0
  1
Standard
  0
DICTIONARY
  5
281
330
6A
100
AcDbDictionary
280
     1
281
     1
  3
ACAD_ROUNDTRIP_2008_TABLESTYLE_CELLSTYLEMAP
360
282
  0
CELLSTYLEMAP
  5
282
102
{ACAD_REACTORS
330
281
102
}
330
281
100
AcDbCellStyleMap
 90
        3
300
CELLSTYLE
  1
TABLEFORMAT_BEGIN
 90
        5
170
     1
 91
        0
 92
    32768
 62
   257
 93
        1
300
CONTENTFORMAT
  1
CONTENTFORMAT_BEGIN
 90
        0
 91
        0
 92
        4
 93
        0
300

 40
0.0
140
1.0
 94
        5
 62
     0
340
11
144
0.25
309
CONTENTFORMAT_END
171
     1
301
MARGIN
  1
CELLMARGIN_BEGIN
 40
0.06
 40
0.06
 40
0.06
 40
0.06
 40
0.06
 40
0.06
309
CELLMARGIN_END
 94
        6
 95
        1
302
GRIDFORMAT
  1
GRIDFORMAT_BEGIN
 90
        0
 91
        1
 62
     0
 92
       -2
340
14
 93
        0
 40
0.045
309
GRIDFORMAT_END
 95
        2
302
GRIDFORMAT
  1
GRIDFORMAT_BEGIN
 90
        0
 91
        1
 62
     0
 92
       -2
340
14
 93
        0
 40
0.045
309
GRIDFORMAT_END
 95
        4
302
GRIDFORMAT
  1
GRIDFORMAT_BEGIN
 90
        0
 91
        1
 62
     0
 92
       -2
340
14
 93
        0
 40
0.045
309
GRIDFORMAT_END
 95
        8
302
GRIDFORMAT
  1
GRIDFORMAT_BEGIN
 90
        0
 91
        1
 62
     0
 92
       -2
340
14
 93
        0
 40
0.045
309
GRIDFORMAT_END
 95
       16
302
GRIDFORMAT
  1
GRIDFORMAT_BEGIN
 90
        0
 91
        1
 62
     0
 92
       -2
340
14
 93
        0
 40
0.045
309
GRIDFORMAT_END
 95
       32
302
GRIDFORMAT
  1
GRIDFORMAT_BEGIN
 90
        0
 91
        1
 62
     0
 92
       -2
340
14
 93
        0
 40
0.045
309
GRIDFORMAT_END
309
TABLEFORMAT_END
  1
CELLSTYLE_BEGIN
 90
        1
 91
        1
300
_TITLE
309
CELLSTYLE_END
300
CELLSTYLE
  1
TABLEFORMAT_BEGIN
 90
        5
170
     1
 91
        0
 92
        0
 62
   257
 93
        1
300
CONTENTFORMAT
  1
CONTENTFORMAT_BEGIN
 90
        0
 91
        0
 92
        4
 93
        0
300

 40
0.0
140
1.0
 94
        5
 62
     0
340
11
144
0.18
309
CONTENTFORMAT_END
171
     1
301
MARGIN
  1
CELLMARGIN_BEGIN
 40
0.06
 40
0.06
 40
0.06
 40
0.06
 40
0.06
 40
0.06
309
CELLMARGIN_END
 94
        6
 95
        1
302
GRIDFORMAT
  1
GRIDFORMAT_BEGIN
 90
        0
 91
        1
 62
     0
 92
       -2
340
14
 93
        0
 40
0.045
309
GRIDFORMAT_END
 95
        2
302
GRIDFORMAT
  1
GRIDFORMAT_BEGIN
 90
        0
 91
        1
 62
     0
 92
       -2
340
14
 93
        0
 40
0.045
309
GRIDFORMAT_END
 95
        4
302
GRIDFORMAT
  1
GRIDFORMAT_BEGIN
 90
        0
 91
        1
 62
     0
 92
       -2
340
14
 93
        0
 40
0.045
309
GRIDFORMAT_END
 95
        8
302
GRIDFORMAT
  1
GRIDFORMAT_BEGIN
 90
        0
 91
        1
 62
     0
 92
       -2
340
14
 93
        0
 40
0.045
309
GRIDFORMAT_END
 95
       16
302
GRIDFORMAT
  1
GRIDFORMAT_BEGIN
 90
        0
 91
        1
 62
     0
 92
       -2
340
14
 93
        0
 40
0.045
309
GRIDFORMAT_END
 95
       32
302
GRIDFORMAT
  1
GRIDFORMAT_BEGIN
 90
        0
 91
        1
 62
     0
 92
       -2
340
14
 93
        0
 40
0.045
309
GRIDFORMAT_END
309
TABLEFORMAT_END
  1
CELLSTYLE_BEGIN
 90
        2
 91
        1
300
_HEADER
309
CELLSTYLE_END
300
CELLSTYLE
  1
TABLEFORMAT_BEGIN
 90
        5
170
     1
 91
        0
 92
        0
 62
   257
 93
        1
300
CONTENTFORMAT
  1
CONTENTFORMAT_BEGIN
 90
        0
 91
        0
 92
        4
 93
        0
300

 40
0.0
140
1.0
 94
        2
 62
     0
340
11
144
0.18
309
CONTENTFORMAT_END
171
     1
301
MARGIN
  1
CELLMARGIN_BEGIN
 40
0.06
 40
0.06
 40
0.06
 40
0.06
 40
0.06
 40
0.06
309
CELLMARGIN_END
 94
        6
 95
        1
302
GRIDFORMAT
  1
GRIDFORMAT_BEGIN
 90
        0
 91
        1
 62
     0
 92
       -2
340
14
 93
        0
 40
0.045
309
GRIDFORMAT_END
 95
        2
302
GRIDFORMAT
  1
GRIDFORMAT_BEGIN
 90
        0
 91
        1
 62
     0
 92
       -2
340
14
 93
        0
 40
0.045
309
GRIDFORMAT_END
 95
        4
302
GRIDFORMAT
  1
GRIDFORMAT_BEGIN
 90
        0
 91
        1
 62
     0
 92
       -2
340
14
 93
        0
 40
0.045
309
GRIDFORMAT_END
 95
        8
302
GRIDFORMAT
  1
GRIDFORMAT_BEGIN
 90
        0
 91
        1
 62
     0
 92
       -2
340
14
 93
        0
 40
0.045
309
GRIDFORMAT_END
 95
       16
302
GRIDFORMAT
  1
GRIDFORMAT_BEGIN
 90
        0
 91
        1
 62
     0
 92
       -2
340
14
 93
        0
 40
0.045
309
GRIDFORMAT_END
 95
       32
302
GRIDFORMAT
  1
GRIDFORMAT_BEGIN
 90
        0
 91
        1
 62
     0
 92
       -2
340
14
 93
        0
 40
0.045
309
GRIDFORMAT_END
309
TABLEFORMAT_END
  1
CELLSTYLE_BEGIN
 90
        3
 91
        2
300
_DATA
309
CELLSTYLE_END
  0
ENDSEC
  0
EOF