0
SECTION
  2
HEADER
  9
$ACADVER
  1
AC1027
  9
$ACADMAINTVER
 70
     8
  9
$DWGCODEPAGE
  3
ANSI_1252
  9
$REQUIREDVERSIONS
160
                 0
  9
$COMMENTS
  1
File was created by Cadenas
  9
$CUSTOMPROPERTYTAG
  1
NN
  9
$CUSTOMPROPERTY
  1
Imperial - IP Pillow Block with Type E Dimensions 1-3/8 thru 2-3/16 inch 2-Bolt Labyrinth Seal Expansion
  9
$CUSTOMPROPERTYTAG
  1
NT
  9
$CUSTOMPROPERTY
  1
Imperial/E 2 Bolt Piliow Block Bearings
  9
$CUSTOMPROPERTYTAG
  1
NB
  9
$CUSTOMPROPERTY
  1
071182
  9
$CUSTOMPROPERTYTAG
  1
NBSYN
  9
$CUSTOMPROPERTY
  1
$PN.
  9
$CUSTOMPROPERTYTAG
  1
LINA
  9
$CUSTOMPROPERTY
  1
071182
  9
$CUSTOMPROPERTYTAG
  1
SS
  9
$CUSTOMPROPERTY
  1
3-1/2
  9
$CUSTOMPROPERTYTAG
  1
TYPE
  9
$CUSTOMPROPERTY
  1
Non-Expansion
  9
$CUSTOMPROPERTYTAG
  1
PN
  9
$CUSTOMPROPERTY
  1
071182
  9
$CUSTOMPROPERTYTAG
  1
DESCRIPTION
  9
$CUSTOMPROPERTY
  1
EP2B-IP-308L
  9
$CUSTOMPROPERTYTAG
  1
ST
  9
$CUSTOMPROPERTY
  1
Labyrinth Seal
  9
$CUSTOMPROPERTYTAG
  1
A
  9
$CUSTOMPROPERTY
  1
4.17
  9
$CUSTOMPROPERTYTAG
  1
B
  9
$CUSTOMPROPERTY
  1
14
  9
$CUSTOMPROPERTYTAG
  1
C
  9
$CUSTOMPROPERTY
  1
3.49
  9
$CUSTOMPROPERTYTAG
  1
DMIN
  9
$CUSTOMPROPERTY
  1
10.81
  9
$CUSTOMPROPERTYTAG
  1
DMAX
  9
$CUSTOMPROPERTY
  1
11.19
  9
$CUSTOMPROPERTYTAG
  1
F
  9
$CUSTOMPROPERTY
  1
7/8
  9
$CUSTOMPROPERTYTAG
  1
G
  9
$CUSTOMPROPERTY
  1
1.19
  9
$CUSTOMPROPERTYTAG
  1
H
  9
$CUSTOMPROPERTY
  1
2.25
  9
$CUSTOMPROPERTYTAG
  1
J
  9
$CUSTOMPROPERTY
  1
7.69
  9
$CUSTOMPROPERTYTAG
  1
L
  9
$CUSTOMPROPERTY
  1
5.00
  9
$CUSTOMPROPERTYTAG
  1
M
  9
$CUSTOMPROPERTY
  1
3.75
  9
$CUSTOMPROPERTYTAG
  1
R
  9
$CUSTOMPROPERTY
  1
1.51
  9
$CUSTOMPROPERTYTAG
  1
S
  9
$CUSTOMPROPERTY
  1
2.66
  9
$CUSTOMPROPERTYTAG
  1
X
  9
$CUSTOMPROPERTY
  1
0.25
  9
$CUSTOMPROPERTYTAG
  1
Y
  9
$CUSTOMPROPERTY
  1
0.025
  9
$CUSTOMPROPERTYTAG
  1
Z
  9
$CUSTOMPROPERTY
  1
4.05
  9
$CUSTOMPROPERTYTAG
  1
COMPANY
  9
$CUSTOMPROPERTY
  1
baldor
  9
$INSBASE
 10
0.0
 20
0.0
 30
0.0
  9
$EXTMIN
 10
1.000000000000000E+20
 20
1.000000000000000E+20
 30
1.000000000000000E+20
  9
$EXTMAX
 10
-1.000000000000000E+20
 20
-1.000000000000000E+20
 30
-1.000000000000000E+20
  9
$LIMMIN
 10
0.0
 20
0.0
  9
$LIMMAX
 10
12.0
 20
9.0
  9
$ORTHOMODE
 70
     0
  9
$REGENMODE
 70
     1
  9
$FILLMODE
 70
     1
  9
$QTEXTMODE
 70
     0
  9
$MIRRTEXT
 70
     1
  9
$LTSCALE
 40
1.0
  9
$ATTMODE
 70
     1
  9
$TEXTSIZE
 40
0.2
  9
$TRACEWID
 40
0.05
  9
$TEXTSTYLE
  7
Standard
  9
$CLAYER
  8
0
  9
$CELTYPE
  6
ByLayer
  9
$CECOLOR
 62
   256
  9
$CELTSCALE
 40
1.0
  9
$DISPSILH
 70
     0
  9
$DIMSCALE
 40
1.0
  9
$DIMASZ
 40
0.18
  9
$DIMEXO
 40
0.0625
  9
$DIMDLI
 40
0.38
  9
$DIMRND
 40
0.0
  9
$DIMDLE
 40
0.0
  9
$DIMEXE
 40
0.18
  9
$DIMTP
 40
0.0
  9
$DIMTM
 40
0.0
  9
$DIMTXT
 40
0.18
  9
$DIMCEN
 40
0.09
  9
$DIMTSZ
 40
0.0
  9
$DIMTOL
 70
     0
  9
$DIMLIM
 70
     0
  9
$DIMTIH
 70
     1
  9
$DIMTOH
 70
     1
  9
$DIMSE1
 70
     0
  9
$DIMSE2
 70
     0
  9
$DIMTAD
 70
     0
  9
$DIMZIN
 70
     0
  9
$DIMBLK
  1

  9
$DIMASO
 70
     1
  9
$DIMSHO
 70
     1
  9
$DIMPOST
  1

  9
$DIMAPOST
  1

  9
$DIMALT
 70
     0
  9
$DIMALTD
 70
     2
  9
$DIMALTF
 40
25.4
  9
$DIMLFAC
 40
1.0
  9
$DIMTOFL
 70
     0
  9
$DIMTVP
 40
0.0
  9
$DIMTIX
 70
     0
  9
$DIMSOXD
 70
     0
  9
$DIMSAH
 70
     0
  9
$DIMBLK1
  1

  9
$DIMBLK2
  1

  9
$DIMSTYLE
  2
Standard
  9
$DIMCLRD
 70
     0
  9
$DIMCLRE
 70
     0
  9
$DIMCLRT
 70
     0
  9
$DIMTFAC
 40
1.0
  9
$DIMGAP
 40
0.09
  9
$DIMJUST
 70
     0
  9
$DIMSD1
 70
     0
  9
$DIMSD2
 70
     0
  9
$DIMTOLJ
 70
     1
  9
$DIMTZIN
 70
     0
  9
$DIMALTZ
 70
     0
  9
$DIMALTTZ
 70
     0
  9
$DIMUPT
 70
     0
  9
$DIMDEC
 70
     4
  9
$DIMTDEC
 70
     4
  9
$DIMALTU
 70
     2
  9
$DIMALTTD
 70
     2
  9
$DIMTXSTY
  7
Standard
  9
$DIMAUNIT
 70
     0
  9
$DIMADEC
 70
     0
  9
$DIMALTRND
 40
0.0
  9
$DIMAZIN
 70
     0
  9
$DIMDSEP
 70
    46
  9
$DIMATFIT
 70
     3
  9
$DIMFRAC
 70
     0
  9
$DIMLDRBLK
  1

  9
$DIMLUNIT
 70
     2
  9
$DIMLWD
 70
    -2
  9
$DIMLWE
 70
    -2
  9
$DIMTMOVE
 70
     0
  9
$DIMFXL
 40
1.0
  9
$DIMFXLON
 70
     0
  9
$DIMJOGANG
 40
0.7853981633974483
  9
$DIMTFILL
 70
     0
  9
$DIMTFILLCLR
 70
     0
  9
$DIMARCSYM
 70
     0
  9
$DIMLTYPE
  6

  9
$DIMLTEX1
  6

  9
$DIMLTEX2
  6

  9
$DIMTXTDIRECTION
 70
     0
  9
$LUNITS
 70
     2
  9
$LUPREC
 70
     4
  9
$SKETCHINC
 40
0.1
  9
$FILLETRAD
 40
0.5
  9
$AUNITS
 70
     0
  9
$AUPREC
 70
     0
  9
$MENU
  1
.
  9
$ELEVATION
 40
0.0
  9
$PELEVATION
 40
0.0
  9
$THICKNESS
 40
0.0
  9
$LIMCHECK
 70
     0
  9
$CHAMFERA
 40
0.0
  9
$CHAMFERB
 40
0.0
  9
$CHAMFERC
 40
0.0
  9
$CHAMFERD
 40
0.0
  9
$SKPOLY
 70
     0
  9
$TDCREATE
 40
2458168.982657118
  9
$TDUCREATE
 40
2458168.940990451
  9
$TDUPDATE
 40
2458168.982657303
  9
$TDUUPDATE
 40
2458168.940990637
  9
$TDINDWG
 40
0.0000000116
  9
$TDUSRTIMER
 40
0.0000000116
  9
$USRTIMER
 70
     1
  9
$ANGBASE
 50
0.0
  9
$ANGDIR
 70
     0
  9
$PDMODE
 70
     0
  9
$PDSIZE
 40
0.0
  9
$PLINEWID
 40
0.0
  9
$SPLFRAME
 70
     0
  9
$SPLINETYPE
 70
     6
  9
$SPLINESEGS
 70
     8
  9
$HANDSEED
  5
25C
  9
$SURFTAB1
 70
     6
  9
$SURFTAB2
 70
     6
  9
$SURFTYPE
 70
     6
  9
$SURFU
 70
     6
  9
$SURFV
 70
     6
  9
$UCSBASE
  2

  9
$UCSNAME
  2

  9
$UCSORG
 10
0.0
 20
0.0
 30
0.0
  9
$UCSXDIR
 10
1.0
 20
0.0
 30
0.0
  9
$UCSYDIR
 10
0.0
 20
1.0
 30
0.0
  9
$UCSORTHOREF
  2

  9
$UCSORTHOVIEW
 70
     0
  9
$UCSORGTOP
 10
0.0
 20
0.0
 30
0.0
  9
$UCSORGBOTTOM
 10
0.0
 20
0.0
 30
0.0
  9
$UCSORGLEFT
 10
0.0
 20
0.0
 30
0.0
  9
$UCSORGRIGHT
 10
0.0
 20
0.0
 30
0.0
  9
$UCSORGFRONT
 10
0.0
 20
0.0
 30
0.0
  9
$UCSORGBACK
 10
0.0
 20
0.0
 30
0.0
  9
$PUCSBASE
  2

  9
$PUCSNAME
  2

  9
$PUCSORG
 10
0.0
 20
0.0
 30
0.0
  9
$PUCSXDIR
 10
1.0
 20
0.0
 30
0.0
  9
$PUCSYDIR
 10
0.0
 20
1.0
 30
0.0
  9
$PUCSORTHOREF
  2

  9
$PUCSORTHOVIEW
 70
     0
  9
$PUCSORGTOP
 10
0.0
 20
0.0
 30
0.0
  9
$PUCSORGBOTTOM
 10
0.0
 20
0.0
 30
0.0
  9
$PUCSORGLEFT
 10
0.0
 20
0.0
 30
0.0
  9
$PUCSORGRIGHT
 10
0.0
 20
0.0
 30
0.0
  9
$PUCSORGFRONT
 10
0.0
 20
0.0
 30
0.0
  9
$PUCSORGBACK
 10
0.0
 20
0.0
 30
0.0
  9
$USERI1
 70
     0
  9
$USERI2
 70
     0
  9
$USERI3
 70
     0
  9
$USERI4
 70
     0
  9
$USERI5
 70
     0
  9
$USERR1
 40
0.0
  9
$USERR2
 40
0.0
  9
$USERR3
 40
0.0
  9
$USERR4
 40
0.0
  9
$USERR5
 40
0.0
  9
$WORLDVIEW
 70
     1
  9
$SHADEDGE
 70
     3
  9
$SHADEDIF
 70
    70
  9
$TILEMODE
 70
     1
  9
$MAXACTVP
 70
    64
  9
$PINSBASE
 10
0.0
 20
0.0
 30
0.0
  9
$PLIMCHECK
 70
     0
  9
$PEXTMIN
 10
1.000000000000000E+20
 20
1.000000000000000E+20
 30
1.000000000000000E+20
  9
$PEXTMAX
 10
-1.000000000000000E+20
 20
-1.000000000000000E+20
 30
-1.000000000000000E+20
  9
$PLIMMIN
 10
0.0
 20
0.0
  9
$PLIMMAX
 10
12.0
 20
9.0
  9
$UNITMODE
 70
     0
  9
$VISRETAIN
 70
     1
  9
$PLINEGEN
 70
     0
  9
$PSLTSCALE
 70
     1
  9
$TREEDEPTH
 70
  3020
  9
$CMLSTYLE
  2
Standard
  9
$CMLJUST
 70
     0
  9
$CMLSCALE
 40
1.0
  9
$PROXYGRAPHICS
 70
     1
  9
$MEASUREMENT
 70
     0
  9
$CELWEIGHT
370
    -1
  9
$ENDCAPS
280
     0
  9
$JOINSTYLE
280
     0
  9
$LWDISPLAY
290
     0
  9
$INSUNITS
 70
     1
  9
$HYPERLINKBASE
  1

  9
$STYLESHEET
  1

  9
$XEDIT
290
     1
  9
$CEPSNTYPE
380
     0
  9
$PSTYLEMODE
290
     1
  9
$FINGERPRINTGUID
  2
{69CB078A-A1DA-46E8-836C-840718F75A88}
  9
$VERSIONGUID
  2
{FAEB1C32-E019-11D5-929B-00C0DF256EC4}
  9
$EXTNAMES
290
     1
  9
$PSVPSCALE
 40
0.0
  9
$OLESTARTUP
290
     0
  9
$SORTENTS
280
   127
  9
$INDEXCTL
280
     0
  9
$HIDETEXT
280
     1
  9
$XCLIPFRAME
280
     2
  9
$HALOGAP
280
     0
  9
$OBSCOLOR
 70
   257
  9
$OBSLTYPE
280
     0
  9
$INTERSECTIONDISPLAY
280
     0
  9
$INTERSECTIONCOLOR
 70
   257
  9
$DIMASSOC
280
     2
  9
$PROJECTNAME
  1

  9
$CAMERADISPLAY
290
     0
  9
$LENSLENGTH
 40
50.0
  9
$CAMERAHEIGHT
 40
0.0
  9
$STEPSPERSEC
 40
2.0
  9
$STEPSIZE
 40
6.0
  9
$3DDWFPREC
 40
2.0
  9
$PSOLWIDTH
 40
0.25
  9
$PSOLHEIGHT
 40
4.0
  9
$LOFTANG1
 40
1.570796326794897
  9
$LOFTANG2
 40
1.570796326794897
  9
$LOFTMAG1
 40
0.0
  9
$LOFTMAG2
 40
0.0
  9
$LOFTPARAM
 70
     7
  9
$LOFTNORMALS
280
     1
  9
$LATITUDE
 40
37.795
  9
$LONGITUDE
 40
-122.394
  9
$NORTHDIRECTION
 40
0.0
  9
$TIMEZONE
 70
 -8000
  9
$LIGHTGLYPHDISPLAY
280
     1
  9
$TILEMODELIGHTSYNCH
280
     1
  9
$CMATERIAL
347
44
  9
$SOLIDHIST
280
     0
  9
$SHOWHIST
280
     1
  9
$DWFFRAME
280
     2
  9
$DGNFRAME
280
     2
  9
$REALWORLDSCALE
290
     1
  9
$INTERFERECOLOR
 62
   256
  9
$CSHADOW
280
     0
  9
$SHADOWPLANELOCATION
 40
0.0
  0
ENDSEC
  0
SECTION
  2
CLASSES
  0
CLASS
  1
ACDBDICTIONARYWDFLT
  2
AcDbDictionaryWithDefault
  3
ObjectDBX Classes
 90
        0
 91
        4
280
     0
281
     0
  0
CLASS
  1
VISUALSTYLE
  2
AcDbVisualStyle
  3
ObjectDBX Classes
 90
     4095
 91
        4
280
     0
281
     0
  0
CLASS
  1
MATERIAL
  2
AcDbMaterial
  3
ObjectDBX Classes
 90
     1153
 91
        4
280
     0
281
     0
  0
CLASS
  1
SCALE
  2
AcDbScale
  3
ObjectDBX Classes
 90
     1153
 91
        4
280
     0
281
     0
  0
CLASS
  1
TABLESTYLE
  2
AcDbTableStyle
  3
ObjectDBX Classes
 90
     4095
 91
        4
280
     0
281
     0
  0
CLASS
  1
MLEADERSTYLE
  2
AcDbMLeaderStyle
  3
ACDB_MLEADERSTYLE_CLASS
 90
     4095
 91
        4
280
     0
281
     0
  0
CLASS
  1
SUN
  2
AcDbSun
  3
SCENEOE
 90
     1153
 91
        4
280
     0
281
     0
  0
CLASS
  1
DICTIONARYVAR
  2
AcDbDictionaryVar
  3
ObjectDBX Classes
 90
        0
 91
        4
280
     0
281
     0
  0
CLASS
  1
CELLSTYLEMAP
  2
AcDbCellStyleMap
  3
ObjectDBX Classes
 90
     1152
 91
        4
280
     0
281
     0
  0
ENDSEC
  0
SECTION
  2
TABLES
  0
TABLE
  2
VPORT
  5
8
330
0
100
AcDbSymbolTable
 70
     1
  0
VPORT
  5
29
330
8
100
AcDbSymbolTableRecord
100
AcDbViewportTableRecord
  2
*Active
 70
     0
 10
0.0
 20
0.0
 11
1.0
 21
1.0
 12
0.0
 22
-0.475171875
 13
0.0
 23
0.0
 14
0.5
 24
0.5
 15
0.5
 25
0.5
 16
0.0
 26
0.0
 36
1.0
 17
0.0
 27
0.0
 37
0.0
 40
4.885130625
 41
2.92315622573552
 42
50.0
 43
0.0
 44
0.0
 50
0.0
 51
0.0
 71
     0
 72
   100
 73
     1
 74
     3
 75
     0
 76
     0
 77
     0
 78
     0
281
     0
 65
     1
110
0.0
120
0.0
130
0.0
111
1.0
121
0.0
131
0.0
112
0.0
122
1.0
132
0.0
 79
     0
146
0.0
348
2F
 60
     3
 61
     5
292
     1
282
     1
141
0.0
142
0.0
 63
   250
361
6D
  0
ENDTAB
  0
TABLE
  2
LTYPE
  5
5
330
0
100
AcDbSymbolTable
 70
     3
  0
LTYPE
  5
14
330
5
100
AcDbSymbolTableRecord
100
AcDbLinetypeTableRecord
  2
ByBlock
 70
     0
  3

 72
    65
 73
     0
 40
0.0
  0
LTYPE
  5
15
330
5
100
AcDbSymbolTableRecord
100
AcDbLinetypeTableRecord
  2
ByLayer
 70
     0
  3

 72
    65
 73
     0
 40
0.0
  0
LTYPE
  5
16
330
5
100
AcDbSymbolTableRecord
100
AcDbLinetypeTableRecord
  2
Continuous
 70
     0
  3
Solid line
 72
    65
 73
     0
 40
0.0
  0
LTYPE
  5
B1
330
5
100
AcDbSymbolTableRecord
100
AcDbLinetypeTableRecord
  2
Dashed
 70
     0
  3

 72
    65
 73
     2
 40
2.0
 49
1.0
 74
     0
 49
-1.0
 74
     0
  0
LTYPE
  5
202
330
5
100
AcDbSymbolTableRecord
100
AcDbLinetypeTableRecord
  2
Center
 70
     0
  3

 72
    65
 73
     4
 40
1.5
 49
0.45
 74
     0
 49
-0.5
 74
     0
 49
0.05
 74
     0
 49
-0.5
 74
     0
  0
ENDTAB
  0
TABLE
  2
LAYER
  5
2
330
0
100
AcDbSymbolTable
 70
     7
  0
LAYER
  5
10
330
2
100
AcDbSymbolTableRecord
100
AcDbLayerTableRecord
  2
0
 70
     0
 62
     7
  6
Continuous
370
    -3
390
F
347
46
348
0
  0
LAYER
  5
72
330
2
100
AcDbSymbolTableRecord
100
AcDbLayerTableRecord
  2
AM_6
 70
     0
 62
    -2
  6
Continuous
370
    35
390
F
347
46
348
0
  0
LAYER
  5
9E
330
2
100
AcDbSymbolTableRecord
100
AcDbLayerTableRecord
  2
AM_5
 70
     0
 62
     3
  6
Continuous
370
    25
390
F
347
46
348
0
  0
LAYER
  5
B2
330
2
100
AcDbSymbolTableRecord
100
AcDbLayerTableRecord
  2
AM_9
 70
     0
 62
     6
  6
Dashed
370
    25
390
F
347
46
348
0
  0
LAYER
  5
BF
330
2
100
AcDbSymbolTableRecord
100
AcDbLayerTableRecord
  2
AM_4
 70
     0
 62
     7
  6
Continuous
370
    50
390
F
347
46
348
0
  0
LAYER
  5
203
330
2
100
AcDbSymbolTableRecord
100
AcDbLayerTableRecord
  2
AM_7
 70
     0
 62
     7
  6
Center
370
    25
390
F
347
46
348
0
  0
LAYER
  5
247
330
2
100
AcDbSymbolTableRecord
100
AcDbLayerTableRecord
  2
ConnectionPoints
 70
     0
 62
     7
  6
Continuous
370
    50
390
F
347
46
348
0
  0
ENDTAB
  0
TABLE
  2
STYLE
  5
3
330
0
100
AcDbSymbolTable
 70
     1
  0
STYLE
  5
11
330
3
100
AcDbSymbolTableRecord
100
AcDbTextStyleTableRecord
  2
Standard
 70
     0
 40
0.0
 41
1.0
 50
0.0
 71
     0
 42
0.2
  3
txt
  4

  0
ENDTAB
  0
TABLE
  2
VIEW
  5
6
330
0
100
AcDbSymbolTable
 70
     0
  0
ENDTAB
  0
TABLE
  2
UCS
  5
7
330
0
100
AcDbSymbolTable
 70
     0
  0
ENDTAB
  0
TABLE
  2
APPID
  5
9
330
0
100
AcDbSymbolTable
 70
     1
  0
APPID
  5
12
330
9
100
AcDbSymbolTableRecord
100
AcDbRegAppTableRecord
  2
ACAD
 70
     0
  0
ENDTAB
  0
TABLE
  2
DIMSTYLE
  5
A
330
0
100
AcDbSymbolTable
 70
     1
100
AcDbDimStyleTable
  0
DIMSTYLE
105
27
330
A
100
AcDbSymbolTableRecord
100
AcDbDimStyleTableRecord
  2
Standard
 70
     0
178
     0
340
11
  0
ENDTAB
  0
TABLE
  2
BLOCK_RECORD
  5
1
330
0
100
AcDbSymbolTable
 70
     8
  0
BLOCK_RECORD
  5
1F
330
1
100
AcDbSymbolTableRecord
100
AcDbBlockTableRecord
  2
*Model_Space
340
22
 70
     0
280
     1
281
     0
  0
BLOCK_RECORD
  5
1B
330
1
100
AcDbSymbolTableRecord
100
AcDbBlockTableRecord
  2
*Paper_Space
340
1E
 70
     0
280
     1
281
     0
  0
BLOCK_RECORD
  5
23
330
1
100
AcDbSymbolTableRecord
100
AcDbBlockTableRecord
  2
*Paper_Space0
340
26
 70
     0
280
     1
281
     0
  0
BLOCK_RECORD
  5
6E
330
1
100
AcDbSymbolTableRecord
100
AcDbBlockTableRecord
  2
1_071182_4
340
0
102
{BLKREFS
331
6F
102
}
 70
     0
280
     1
281
     0
  0
BLOCK_RECORD
  5
8E
330
1
100
AcDbSymbolTableRecord
100
AcDbBlockTableRecord
  2
2_ASME_B18_3_1_4_1_0_in_071182_4
340
0
102
{BLKREFS
331
8F
102
}
 70
     0
280
     1
281
     0
  0
BLOCK_RECORD
  5
A1
330
1
100
AcDbSymbolTableRecord
100
AcDbBlockTableRecord
  2
3_ASME_B18_3_1_4_2_0_in_071182_4
340
0
102
{BLKREFS
331
A2
102
}
 70
     0
280
     1
281
     0
  0
BLOCK_RECORD
  5
C6
330
1
100
AcDbSymbolTableRecord
100
AcDbBlockTableRecord
  2
4_070904LWE_0_in_071182_4
340
0
102
{BLKREFS
331
C7
102
}
 70
     0
280
     1
281
     0
  0
BLOCK_RECORD
  5
FF
330
1
100
AcDbSymbolTableRecord
100
AcDbBlockTableRecord
  2
5_070936EL_0_in_071182_4
340
0
102
{BLKREFS
331
100
102
}
 70
     0
280
     1
281
     0
  0
BLOCK_RECORD
  5
17E
330
1
100
AcDbSymbolTableRecord
100
AcDbBlockTableRecord
  2
6_405015E_Inch_0_in_071182_4
340
0
102
{BLKREFS
331
17F
102
}
 70
     0
280
     1
281
     0
  0
BLOCK_RECORD
  5
1C9
330
1
100
AcDbSymbolTableRecord
100
AcDbBlockTableRecord
  2
7_071140Ho_0_in_071182_4
340
0
102
{BLKREFS
331
1CA
102
}
 70
     0
280
     1
281
     0
  0
ENDTAB
  0
ENDSEC
  0
SECTION
  2
BLOCKS
  0
BLOCK
  5
20
330
1F
100
AcDbEntity
  8
0
100
AcDbBlockBegin
  2
*Model_Space
 70
     0
 10
0.0
 20
0.0
 30
0.0
  3
*Model_Space
  1

  0
ENDBLK
  5
21
330
1F
100
AcDbEntity
  8
0
100
AcDbBlockEnd
  0
BLOCK
  5
1C
330
1B
100
AcDbEntity
 67
     1
  8
0
100
AcDbBlockBegin
  2
*Paper_Space
 70
     0
 10
0.0
 20
0.0
 30
0.0
  3
*Paper_Space
  1

  0
ENDBLK
  5
1D
330
1B
100
AcDbEntity
 67
     1
  8
0
100
AcDbBlockEnd
  0
BLOCK
  5
24
330
23
100
AcDbEntity
  8
0
100
AcDbBlockBegin
  2
*Paper_Space0
 70
     0
 10
0.0
 20
0.0
 30
0.0
  3
*Paper_Space0
  1

  0
ENDBLK
  5
25
330
23
100
AcDbEntity
  8
0
100
AcDbBlockEnd
  0
BLOCK
  5
70
330
6E
100
AcDbEntity
  8
0
100
AcDbBlockBegin
  2
1_071182_4
 70
     2
 10
0.0
 20
0.0
 30
0.0
  3
1_071182_4
  1

  0
ATTDEF
  5
73
330
6E
100
AcDbEntity
  8
AM_6
100
AcDbText
 10
12.0
 20
1.9195
 30
0.0
 40
0.5
  1
Imperial - IP Pillow Block with Type E Dimensions 1-3/8 thru 2-3/16 inch 2-Bolt Labyrinth Seal Expansion
100
AcDbAttributeDefinition
  3

  2
NN
 70
     8
280
     0
  0
ATTDEF
  5
74
330
6E
100
AcDbEntity
  8
AM_6
100
AcDbText
 10
12.0
 20
1.4195
 30
0.0
 40
0.5
  1
Imperial/E 2 Bolt Piliow Block Bearings
100
AcDbAttributeDefinition
  3

  2
NT
 70
     8
280
     0
  0
ATTDEF
  5
75
330
6E
100
AcDbEntity
  8
AM_6
100
AcDbText
 10
12.0
 20
0.9195000000000002
 30
0.0
 40
0.5
  1
071182
100
AcDbAttributeDefinition
  3

  2
NB
 70
     8
280
     0
  0
ATTDEF
  5
76
330
6E
100
AcDbEntity
  8
AM_6
100
AcDbText
 10
12.0
 20
0.4195000000000002
 30
0.0
 40
0.5
  1
$PN.
100
AcDbAttributeDefinition
  3

  2
NBSYN
 70
     8
280
     0
  0
ATTDEF
  5
77
330
6E
100
AcDbEntity
  8
AM_6
100
AcDbText
 10
12.0
 20
-0.0804999999999998
 30
0.0
 40
0.5
  1
071182
100
AcDbAttributeDefinition
  3

  2
LINA
 70
     8
280
     0
  0
ATTDEF
  5
78
330
6E
100
AcDbEntity
  8
AM_6
100
AcDbText
 10
12.0
 20
-0.5804999999999998
 30
0.0
 40
0.5
  1
3-1/2
100
AcDbAttributeDefinition
  3

  2
SS
 70
     8
280
     0
  0
ATTDEF
  5
79
330
6E
100
AcDbEntity
  8
AM_6
100
AcDbText
 10
12.0
 20
-1.0805
 30
0.0
 40
0.5
  1
Non-Expansion
100
AcDbAttributeDefinition
  3

  2
TYPE
 70
     8
280
     0
  0
ATTDEF
  5
7A
330
6E
100
AcDbEntity
  8
AM_6
100
AcDbText
 10
12.0
 20
-1.5805
 30
0.0
 40
0.5
  1
071182
100
AcDbAttributeDefinition
  3

  2
PN
 70
     8
280
     0
  0
ATTDEF
  5
7B
330
6E
100
AcDbEntity
  8
AM_6
100
AcDbText
 10
12.0
 20
-2.0805
 30
0.0
 40
0.5
  1
EP2B-IP-308L
100
AcDbAttributeDefinition
  3

  2
DESCRIPTION
 70
     8
280
     0
  0
ATTDEF
  5
7C
330
6E
100
AcDbEntity
  8
AM_6
100
AcDbText
 10
12.0
 20
-2.5805
 30
0.0
 40
0.5
  1
Labyrinth Seal
100
AcDbAttributeDefinition
  3

  2
ST
 70
     8
280
     0
  0
ATTDEF
  5
7D
330
6E
100
AcDbEntity
  8
AM_6
100
AcDbText
 10
12.0
 20
-3.0805
 30
0.0
 40
0.5
  1
4.17
100
AcDbAttributeDefinition
  3

  2
A
 70
     8
280
     0
  0
ATTDEF
  5
7E
330
6E
100
AcDbEntity
  8
AM_6
100
AcDbText
 10
12.0
 20
-3.5805
 30
0.0
 40
0.5
  1
14
100
AcDbAttributeDefinition
  3

  2
B
 70
     8
280
     0
  0
ATTDEF
  5
7F
330
6E
100
AcDbEntity
  8
AM_6
100
AcDbText
 10
12.0
 20
-4.0805
 30
0.0
 40
0.5
  1
3.49
100
AcDbAttributeDefinition
  3

  2
C
 70
     8
280
     0
  0
ATTDEF
  5
80
330
6E
100
AcDbEntity
  8
AM_6
100
AcDbText
 10
12.0
 20
-4.5805
 30
0.0
 40
0.5
  1
10.81
100
AcDbAttributeDefinition
  3

  2
DMIN
 70
     8
280
     0
  0
ATTDEF
  5
81
330
6E
100
AcDbEntity
  8
AM_6
100
AcDbText
 10
12.0
 20
-5.0805
 30
0.0
 40
0.5
  1
11.19
100
AcDbAttributeDefinition
  3

  2
DMAX
 70
     8
280
     0
  0
ATTDEF
  5
82
330
6E
100
AcDbEntity
  8
AM_6
100
AcDbText
 10
12.0
 20
-5.5805
 30
0.0
 40
0.5
  1
7/8
100
AcDbAttributeDefinition
  3

  2
F
 70
     8
280
     0
  0
ATTDEF
  5
83
330
6E
100
AcDbEntity
  8
AM_6
100
AcDbText
 10
12.0
 20
-6.0805
 30
0.0
 40
0.5
  1
1.19
100
AcDbAttributeDefinition
  3

  2
G
 70
     8
280
     0
  0
ATTDEF
  5
84
330
6E
100
AcDbEntity
  8
AM_6
100
AcDbText
 10
12.0
 20
-6.5805
 30
0.0
 40
0.5
  1
2.25
100
AcDbAttributeDefinition
  3

  2
H
 70
     8
280
     0
  0
ATTDEF
  5
85
330
6E
100
AcDbEntity
  8
AM_6
100
AcDbText
 10
12.0
 20
-7.0805
 30
0.0
 40
0.5
  1
7.69
100
AcDbAttributeDefinition
  3

  2
J
 70
     8
280
     0
  0
ATTDEF
  5
86
330
6E
100
AcDbEntity
  8
AM_6
100
AcDbText
 10
12.0
 20
-7.5805
 30
0.0
 40
0.5
  1
5.00
100
AcDbAttributeDefinition
  3

  2
L
 70
     8
280
     0
  0
ATTDEF
  5
87
330
6E
100
AcDbEntity
  8
AM_6
100
AcDbText
 10
12.0
 20
-8.0805
 30
0.0
 40
0.5
  1
3.75
100
AcDbAttributeDefinition
  3

  2
M
 70
     8
280
     0
  0
ATTDEF
  5
88
330
6E
100
AcDbEntity
  8
AM_6
100
AcDbText
 10
12.0
 20
-8.5805
 30
0.0
 40
0.5
  1
1.51
100
AcDbAttributeDefinition
  3

  2
R
 70
     8
280
     0
  0
ATTDEF
  5
89
330
6E
100
AcDbEntity
  8
AM_6
100
AcDbText
 10
12.0
 20
-9.0805
 30
0.0
 40
0.5
  1
2.66
100
AcDbAttributeDefinition
  3

  2
S
 70
     8
280
     0
  0
ATTDEF
  5
8A
330
6E
100
AcDbEntity
  8
AM_6
100
AcDbText
 10
12.0
 20
-9.5805
 30
0.0
 40
0.5
  1
0.25
100
AcDbAttributeDefinition
  3

  2
X
 70
     8
280
     0
  0
ATTDEF
  5
8B
330
6E
100
AcDbEntity
  8
AM_6
100
AcDbText
 10
12.0
 20
-10.0805
 30
0.0
 40
0.5
  1
0.025
100
AcDbAttributeDefinition
  3

  2
Y
 70
     8
280
     0
  0
ATTDEF
  5
8C
330
6E
100
AcDbEntity
  8
AM_6
100
AcDbText
 10
12.0
 20
-10.5805
 30
0.0
 40
0.5
  1
4.05
100
AcDbAttributeDefinition
  3

  2
Z
 70
     8
280
     0
  0
ATTDEF
  5
8D
330
6E
100
AcDbEntity
  8
AM_6
100
AcDbText
 10
12.0
 20
-11.0805
 30
0.0
 40
0.5
  1
baldor
100
AcDbAttributeDefinition
  3

  2
COMPANY
 70
     8
280
     0
  0
INSERT
  5
8F
330
6E
100
AcDbEntity
  8
0
100
AcDbBlockReference
  2
2_ASME_B18_3_1_4_1_0_in_071182_4
 10
0.0
 20
0.0
 30
0.0
  0
INSERT
  5
A2
330
6E
100
AcDbEntity
  8
0
100
AcDbBlockReference
  2
3_ASME_B18_3_1_4_2_0_in_071182_4
 10
0.0
 20
0.0
 30
0.0
  0
INSERT
  5
C7
330
6E
100
AcDbEntity
  8
0
100
AcDbBlockReference
  2
4_070904LWE_0_in_071182_4
 10
0.0
 20
0.0
 30
0.0
  0
INSERT
  5
100
330
6E
100
AcDbEntity
  8
0
100
AcDbBlockReference
  2
5_070936EL_0_in_071182_4
 10
0.0
 20
0.0
 30
0.0
  0
INSERT
  5
17F
330
6E
100
AcDbEntity
  8
0
100
AcDbBlockReference
  2
6_405015E_Inch_0_in_071182_4
 10
0.0
 20
0.0
 30
0.0
  0
INSERT
  5
1CA
330
6E
100
AcDbEntity
  8
0
100
AcDbBlockReference
  2
7_071140Ho_0_in_071182_4
 10
0.0
 20
0.0
 30
0.0
  0
ENDBLK
  5
71
330
6E
100
AcDbEntity
  8
0
100
AcDbBlockEnd
  0
BLOCK
  5
90
330
8E
100
AcDbEntity
  8
0
100
AcDbBlockBegin
  2
2_ASME_B18_3_1_4_1_0_in_071182_4
 70
     2
 10
0.0
 20
0.0
 30
0.0
  3
2_ASME_B18_3_1_4_1_0_in_071182_4
  1

  0
ATTDEF
  5
92
330
8E
100
AcDbEntity
  8
AM_6
100
AcDbText
 10
5.125
 20
-2.332833333333333
 30
0.0
 40
0.5
  1
ANSI/ASME B18.3-1998
100
AcDbAttributeDefinition
  3

  2
NN
 70
     8
280
     0
  0
ATTDEF
  5
93
330
8E
100
AcDbEntity
  8
AM_6
100
AcDbText
 10
5.125
 20
-2.832833333333333
 30
0.0
 40
0.5
  1
Socket Button Head Cap Screws
100
AcDbAttributeDefinition
  3

  2
NT
 70
     8
280
     0
  0
ATTDEF
  5
94
330
8E
100
AcDbEntity
  8
AM_6
100
AcDbText
 10
5.125
 20
-3.332833333333333
 30
0.0
 40
0.5
  1
ASME B18.3-1/4
100
AcDbAttributeDefinition
  3

  2
NB
 70
     8
280
     0
  0
ATTDEF
  5
95
330
8E
100
AcDbEntity
  8
AM_6
100
AcDbText
 10
5.125
 20
-3.832833333333333
 30
0.0
 40
0.5
  1
ASME B18.3-$NS.
100
AcDbAttributeDefinition
  3

  2
NBSYN
 70
     8
280
     0
  0
ATTDEF
  5
96
330
8E
100
AcDbEntity
  8
AM_6
100
AcDbText
 10
5.125
 20
-4.332833333333333
 30
0.0
 40
0.5
  1
ASME B18.3-1/4
100
AcDbAttributeDefinition
  3

  2
LINA
 70
     8
280
     0
  0
ATTDEF
  5
97
330
8E
100
AcDbEntity
  8
AM_6
100
AcDbText
 10
5.125
 20
-4.832833333333333
 30
0.0
 40
0.5
  1
1/4
100
AcDbAttributeDefinition
  3

  2
NS
 70
     8
280
     0
  0
ATTDEF
  5
98
330
8E
100
AcDbEntity
  8
AM_6
100
AcDbText
 10
5.125
 20
-5.332833333333333
 30
0.0
 40
0.5
  1
0.437
100
AcDbAttributeDefinition
  3

  2
A
 70
     8
280
     0
  0
ATTDEF
  5
99
330
8E
100
AcDbEntity
  8
AM_6
100
AcDbText
 10
5.125
 20
-5.832833333333333
 30
0.0
 40
0.5
  1
0.132
100
AcDbAttributeDefinition
  3

  2
H
 70
     8
280
     0
  0
ATTDEF
  5
9A
330
8E
100
AcDbEntity
  8
AM_6
100
AcDbText
 10
5.125
 20
-6.332833333333333
 30
0.0
 40
0.5
  1
0.800
100
AcDbAttributeDefinition
  3

  2
L
 70
     8
280
     0
  0
ATTDEF
  5
9B
330
8E
100
AcDbEntity
  8
AM_6
100
AcDbText
 10
5.125
 20
-6.832833333333333
 30
0.0
 40
0.5
  1
0.031
100
AcDbAttributeDefinition
  3

  2
S
 70
     8
280
     0
  0
ATTDEF
  5
9C
330
8E
100
AcDbEntity
  8
AM_6
100
AcDbText
 10
5.125
 20
-7.332833333333333
 30
0.0
 40
0.5
  1
0.156250
100
AcDbAttributeDefinition
  3

  2
J
 70
     8
280
     0
  0
ATTDEF
  5
9D
330
8E
100
AcDbEntity
  8
AM_6
100
AcDbText
 10
5.125
 20
-7.832833333333333
 30
0.0
 40
0.5
  1
baldor
100
AcDbAttributeDefinition
  3

  2
COMPANY
 70
     8
280
     0
  0
LINE
  5
9F
330
8E
100
AcDbEntity
  8
AM_5
100
AcDbLine
 10
0.125
 20
-2.332833333333333
 30
0.0
 11
-0.125
 21
-2.332833333333333
 31
0.0
  0
LINE
  5
A0
330
8E
100
AcDbEntity
  8
AM_5
100
AcDbLine
 10
0.1064
 20
-2.332833333333333
 30
0.0
 11
0.1250000000000001
 21
-2.365049478354114
 31
0.0
  0
ENDBLK
  5
91
330
8E
100
AcDbEntity
  8
0
100
AcDbBlockEnd
  0
BLOCK
  5
A3
330
A1
100
AcDbEntity
  8
0
100
AcDbBlockBegin
  2
3_ASME_B18_3_1_4_2_0_in_071182_4
 70
     2
 10
0.0
 20
0.0
 30
0.0
  3
3_ASME_B18_3_1_4_2_0_in_071182_4
  1

  0
ATTDEF
  5
A5
330
A1
100
AcDbEntity
  8
AM_6
100
AcDbText
 10
5.2185
 20
-1.612833333333333
 30
0.0
 40
0.5
  1
ANSI/ASME B18.3-1998
100
AcDbAttributeDefinition
  3

  2
NN
 70
     8
280
     0
  0
ATTDEF
  5
A6
330
A1
100
AcDbEntity
  8
AM_6
100
AcDbText
 10
5.2185
 20
-2.112833333333333
 30
0.0
 40
0.5
  1
Socket Button Head Cap Screws
100
AcDbAttributeDefinition
  3

  2
NT
 70
     8
280
     0
  0
ATTDEF
  5
A7
330
A1
100
AcDbEntity
  8
AM_6
100
AcDbText
 10
5.2185
 20
-2.612833333333333
 30
0.0
 40
0.5
  1
ASME B18.3-1/4
100
AcDbAttributeDefinition
  3

  2
NB
 70
     8
280
     0
  0
ATTDEF
  5
A8
330
A1
100
AcDbEntity
  8
AM_6
100
AcDbText
 10
5.2185
 20
-3.112833333333333
 30
0.0
 40
0.5
  1
ASME B18.3-$NS.
100
AcDbAttributeDefinition
  3

  2
NBSYN
 70
     8
280
     0
  0
ATTDEF
  5
A9
330
A1
100
AcDbEntity
  8
AM_6
100
AcDbText
 10
5.2185
 20
-3.612833333333333
 30
0.0
 40
0.5
  1
ASME B18.3-1/4
100
AcDbAttributeDefinition
  3

  2
LINA
 70
     8
280
     0
  0
ATTDEF
  5
AA
330
A1
100
AcDbEntity
  8
AM_6
100
AcDbText
 10
5.2185
 20
-4.112833333333333
 30
0.0
 40
0.5
  1
1/4
100
AcDbAttributeDefinition
  3

  2
NS
 70
     8
280
     0
  0
ATTDEF
  5
AB
330
A1
100
AcDbEntity
  8
AM_6
100
AcDbText
 10
5.2185
 20
-4.612833333333333
 30
0.0
 40
0.5
  1
0.437
100
AcDbAttributeDefinition
  3

  2
A
 70
     8
280
     0
  0
ATTDEF
  5
AC
330
A1
100
AcDbEntity
  8
AM_6
100
AcDbText
 10
5.2185
 20
-5.112833333333333
 30
0.0
 40
0.5
  1
0.132
100
AcDbAttributeDefinition
  3

  2
H
 70
     8
280
     0
  0
ATTDEF
  5
AD
330
A1
100
AcDbEntity
  8
AM_6
100
AcDbText
 10
5.2185
 20
-5.612833333333333
 30
0.0
 40
0.5
  1
0.800
100
AcDbAttributeDefinition
  3

  2
L
 70
     8
280
     0
  0
ATTDEF
  5
AE
330
A1
100
AcDbEntity
  8
AM_6
100
AcDbText
 10
5.2185
 20
-6.112833333333333
 30
0.0
 40
0.5
  1
0.031
100
AcDbAttributeDefinition
  3

  2
S
 70
     8
280
     0
  0
ATTDEF
  5
AF
330
A1
100
AcDbEntity
  8
AM_6
100
AcDbText
 10
5.2185
 20
-6.612833333333333
 30
0.0
 40
0.5
  1
0.156250
100
AcDbAttributeDefinition
  3

  2
J
 70
     8
280
     0
  0
ATTDEF
  5
B0
330
A1
100
AcDbEntity
  8
AM_6
100
AcDbText
 10
5.2185
 20
-7.112833333333333
 30
0.0
 40
0.5
  1
baldor
100
AcDbAttributeDefinition
  3

  2
COMPANY
 70
     8
280
     0
  0
LINE
  5
B3
330
A1
100
AcDbEntity
  8
AM_9
100
AcDbLine
 10
0.078125
 20
-2.474833333333333
 30
0.0
 11
0.078125
 21
-2.544833333333334
 31
0.0
  0
LINE
  5
B4
330
A1
100
AcDbEntity
  8
AM_9
100
AcDbLine
 10
-0.078125
 20
-2.474833333333333
 30
0.0
 11
-0.078125
 21
-2.544833333333334
 31
0.0
  0
LINE
  5
B5
330
A1
100
AcDbEntity
  8
AM_9
100
AcDbLine
 10
-0.078125
 20
-2.474833333333333
 30
0.0
 11
0.078125
 21
-2.474833333333333
 31
0.0
  0
LINE
  5
B6
330
A1
100
AcDbEntity
  8
AM_9
100
AcDbLine
 10
0.0
 20
-2.474833333333333
 30
0.0
 11
0.0
 21
-2.544833333333334
 31
0.0
  0
LINE
  5
B7
330
A1
100
AcDbEntity
  8
AM_9
100
AcDbLine
 10
-0.1064
 20
-1.612833333333333
 30
0.0
 11
-0.125
 21
-1.631433333333333
 31
0.0
  0
LINE
  5
B8
330
A1
100
AcDbEntity
  8
AM_9
100
AcDbLine
 10
0.125
 20
-1.631433333333333
 30
0.0
 11
0.1064
 21
-1.612833333333333
 31
0.0
  0
LINE
  5
B9
330
A1
100
AcDbEntity
  8
AM_9
100
AcDbLine
 10
-0.1064
 20
-1.612833333333333
 30
0.0
 11
0.1064
 21
-1.612833333333333
 31
0.0
  0
LINE
  5
BA
330
A1
100
AcDbEntity
  8
AM_9
100
AcDbLine
 10
0.125
 20
-2.412833333333333
 30
0.0
 11
0.125
 21
-1.631433333333333
 31
0.0
  0
LINE
  5
BB
330
A1
100
AcDbEntity
  8
AM_9
100
AcDbLine
 10
-0.125
 20
-1.631433333333333
 30
0.0
 11
-0.125
 21
-2.412833333333333
 31
0.0
  0
LINE
  5
BC
330
A1
100
AcDbEntity
  8
AM_9
100
AcDbLine
 10
-0.125
 20
-1.631433333333333
 30
0.0
 11
0.125
 21
-1.631433333333333
 31
0.0
  0
LINE
  5
BD
330
A1
100
AcDbEntity
  8
AM_5
100
AcDbLine
 10
0.1064
 20
-2.332833333333333
 30
0.0
 11
0.1250000097999073
 21
-2.365049495328052
 31
0.0
  0
LINE
  5
BE
330
A1
100
AcDbEntity
  8
AM_5
100
AcDbLine
 10
-0.1250000000000002
 20
-2.332833333333333
 30
0.0
 11
0.1249999999999999
 21
-2.332833333333333
 31
0.0
  0
LINE
  5
C0
330
A1
100
AcDbEntity
  8
AM_4
100
AcDbLine
 10
-0.1174999982937679
 20
-2.544833333333334
 30
0.0
 11
0.1175
 21
-2.544833333333334
 31
0.0
  0
ARC
  5
C1
330
A1
100
AcDbEntity
  8
AM_4
100
AcDbCircle
 10
0.1174999999999988
 20
-2.443833333333332
 30
0.0
 40
0.1010000000000013
100
AcDbArc
 50
270.0
 51
0.0
  0
ARC
  5
C2
330
A1
100
AcDbEntity
  8
AM_4
100
AcDbCircle
 10
-0.1174999999999988
 20
-2.443833333333332
 30
0.0
 40
0.1010000000000012
100
AcDbArc
 50
180.0
 51
270.0
  0
LINE
  5
C3
330
A1
100
AcDbEntity
  8
AM_4
100
AcDbLine
 10
0.2185
 20
-2.443833333333334
 30
0.0
 11
0.2185
 21
-2.412833333333333
 31
0.0
  0
LINE
  5
C4
330
A1
100
AcDbEntity
  8
AM_4
100
AcDbLine
 10
-0.2185
 20
-2.412833333333333
 30
0.0
 11
-0.2185
 21
-2.443833333333334
 31
0.0
  0
LINE
  5
C5
330
A1
100
AcDbEntity
  8
AM_4
100
AcDbLine
 10
-0.2185
 20
-2.443833333333334
 30
0.0
 11
0.2185
 21
-2.443833333333334
 31
0.0
  0
ENDBLK
  5
A4
330
A1
100
AcDbEntity
  8
0
100
AcDbBlockEnd
  0
BLOCK
  5
C8
330
C6
100
AcDbEntity
  8
0
100
AcDbBlockBegin
  2
4_070904LWE_0_in_071182_4
 70
     2
 10
0.0
 20
0.0
 30
0.0
  3
4_070904LWE_0_in_071182_4
  1

  0
ATTDEF
  5
CA
330
C6
100
AcDbEntity
  8
AM_6
100
AcDbText
 10
7.5
 20
-1.972833333333333
 30
0.0
 40
0.5
  1
Imperial/E Insert Lockwasher -Inch
100
AcDbAttributeDefinition
  3

  2
NN
 70
     8
280
     0
  0
ATTDEF
  5
CB
330
C6
100
AcDbEntity
  8
AM_6
100
AcDbText
 10
7.5
 20
-2.472833333333333
 30
0.0
 40
0.5
  1
Imperial/E Bearings
100
AcDbAttributeDefinition
  3

  2
NT
 70
     8
280
     0
  0
ATTDEF
  5
CC
330
C6
100
AcDbEntity
  8
AM_6
100
AcDbText
 10
7.5
 20
-2.972833333333333
 30
0.0
 40
0.5
  1
070904LWE
100
AcDbAttributeDefinition
  3

  2
NB
 70
     8
280
     0
  0
ATTDEF
  5
CD
330
C6
100
AcDbEntity
  8
AM_6
100
AcDbText
 10
7.5
 20
-3.472833333333333
 30
0.0
 40
0.5
  1
$PN.LWE
100
AcDbAttributeDefinition
  3

  2
NBSYN
 70
     8
280
     0
  0
ATTDEF
  5
CE
330
C6
100
AcDbEntity
  8
AM_6
100
AcDbText
 10
7.5
 20
-3.972833333333333
 30
0.0
 40
0.5
  1
070904
100
AcDbAttributeDefinition
  3

  2
LINA
 70
     8
280
     0
  0
ATTDEF
  5
CF
330
C6
100
AcDbEntity
  8
AM_6
100
AcDbText
 10
7.5
 20
-4.472833333333333
 30
0.0
 40
0.5
  1
3-1/2
100
AcDbAttributeDefinition
  3

  2
SS
 70
     8
280
     0
  0
ATTDEF
  5
D0
330
C6
100
AcDbEntity
  8
AM_6
100
AcDbText
 10
7.5
 20
-4.972833333333333
 30
0.0
 40
0.5
  1
5.000000
100
AcDbAttributeDefinition
  3

  2
E1
 70
     8
280
     0
  0
ATTDEF
  5
D1
330
C6
100
AcDbEntity
  8
AM_6
100
AcDbText
 10
7.5
 20
-5.472833333333333
 30
0.0
 40
0.5
  1
3.500000
100
AcDbAttributeDefinition
  3

  2
SS1
 70
     8
280
     0
  0
ATTDEF
  5
D2
330
C6
100
AcDbEntity
  8
AM_6
100
AcDbText
 10
7.5
 20
-5.972833333333333
 30
0.0
 40
0.5
  1
070904
100
AcDbAttributeDefinition
  3

  2
PN
 70
     8
280
     0
  0
ATTDEF
  5
D3
330
C6
100
AcDbEntity
  8
AM_6
100
AcDbText
 10
7.5
 20
-6.472833333333333
 30
0.0
 40
0.5
  1
INS-IP-308R
100
AcDbAttributeDefinition
  3

  2
DESCRIPTION
 70
     8
280
     0
  0
ATTDEF
  5
D4
330
C6
100
AcDbEntity
  8
AM_6
100
AcDbText
 10
7.5
 20
-6.972833333333333
 30
0.0
 40
0.5
  1
6.2992
100
AcDbAttributeDefinition
  3

  2
A
 70
     8
280
     0
  0
ATTDEF
  5
D5
330
C6
100
AcDbEntity
  8
AM_6
100
AcDbText
 10
7.5
 20
-7.472833333333333
 30
0.0
 40
0.5
  1
1-5/8
100
AcDbAttributeDefinition
  3

  2
B
 70
     8
280
     0
  0
ATTDEF
  5
D6
330
C6
100
AcDbEntity
  8
AM_6
100
AcDbText
 10
7.5
 20
-7.972833333333333
 30
0.0
 40
0.5
  1
1.625000
100
AcDbAttributeDefinition
  3

  2
B1
 70
     8
280
     0
  0
ATTDEF
  5
D7
330
C6
100
AcDbEntity
  8
AM_6
100
AcDbText
 10
7.5
 20
-8.472833333333334
 30
0.0
 40
0.5
  1
4-11/64
100
AcDbAttributeDefinition
  3

  2
C
 70
     8
280
     0
  0
ATTDEF
  5
D8
330
C6
100
AcDbEntity
  8
AM_6
100
AcDbText
 10
7.5
 20
-8.972833333333334
 30
0.0
 40
0.5
  1
4.171875
100
AcDbAttributeDefinition
  3

  2
C1
 70
     8
280
     0
  0
ATTDEF
  5
D9
330
C6
100
AcDbEntity
  8
AM_6
100
AcDbText
 10
7.5
 20
-9.472833333333334
 30
0.0
 40
0.5
  1
1.483
100
AcDbAttributeDefinition
  3

  2
D
 70
     8
280
     0
  0
ATTDEF
  5
DA
330
C6
100
AcDbEntity
  8
AM_6
100
AcDbText
 10
7.5
 20
-9.972833333333334
 30
0.0
 40
0.5
  1
5
100
AcDbAttributeDefinition
  3

  2
E
 70
     8
280
     0
  0
ATTDEF
  5
DB
330
C6
100
AcDbEntity
  8
AM_6
100
AcDbText
 10
7.5
 20
-10.47283333333333
 30
0.0
 40
0.5
  1
0.2500
100
AcDbAttributeDefinition
  3

  2
NDM
 70
     8
280
     0
  0
ATTDEF
  5
DC
330
C6
100
AcDbEntity
  8
AM_6
100
AcDbText
 10
7.5
 20
-10.97283333333333
 30
0.0
 40
0.5
  1
0.1960
100
AcDbAttributeDefinition
  3

  2
KDM
 70
     8
280
     0
  0
ATTDEF
  5
DD
330
C6
100
AcDbEntity
  8
AM_6
100
AcDbText
 10
7.5
 20
-11.47283333333333
 30
0.0
 40
0.5
  1
4.28
100
AcDbAttributeDefinition
  3

  2
AL
 70
     8
280
     0
  0
ATTDEF
  5
DE
330
C6
100
AcDbEntity
  8
AM_6
100
AcDbText
 10
7.5
 20
-11.97283333333333
 30
0.0
 40
0.5
  1
0.50
100
AcDbAttributeDefinition
  3

  2
BL
 70
     8
280
     0
  0
ATTDEF
  5
DF
330
C6
100
AcDbEntity
  8
AM_6
100
AcDbText
 10
7.5
 20
-12.47283333333333
 30
0.0
 40
0.5
  1
0.07
100
AcDbAttributeDefinition
  3

  2
CL
 70
     8
280
     0
  0
ATTDEF
  5
E0
330
C6
100
AcDbEntity
  8
AM_6
100
AcDbText
 10
7.5
 20
-12.97283333333333
 30
0.0
 40
0.5
  1
0.44
100
AcDbAttributeDefinition
  3

  2
DL
 70
     8
280
     0
  0
ATTDEF
  5
E1
330
C6
100
AcDbEntity
  8
AM_6
100
AcDbText
 10
7.5
 20
-13.47283333333333
 30
0.0
 40
0.5
  1
baldor
100
AcDbAttributeDefinition
  3

  2
COMPANY
 70
     8
280
     0
  0
LINE
  5
E2
330
C6
100
AcDbEntity
  8
AM_9
100
AcDbLine
 10
2.222222222222222
 20
-2.342833333333333
 30
0.0
 11
2.222222222222222
 21
-2.412833333333333
 31
0.0
  0
LINE
  5
E3
330
C6
100
AcDbEntity
  8
AM_9
100
AcDbLine
 10
2.343753318940702
 20
-2.412833333333333
 30
0.0
 11
2.343753318940702
 21
-2.342833333333333
 31
0.0
  0
LINE
  5
E4
330
C6
100
AcDbEntity
  8
AM_9
100
AcDbLine
 10
-2.222222222222222
 20
-2.342833333333333
 30
0.0
 11
-2.222222222222222
 21
-2.412833333333333
 31
0.0
  0
LINE
  5
E5
330
C6
100
AcDbEntity
  8
AM_9
100
AcDbLine
 10
-2.347271729263225
 20
-2.342833333333333
 30
0.0
 11
-2.347271729263225
 21
-2.412833333333333
 31
0.0
  0
LINE
  5
E6
330
C6
100
AcDbEntity
  8
AM_9
100
AcDbLine
 10
-1.887757911016739
 20
-2.342833333333333
 30
0.0
 11
-1.887757911016739
 21
-2.412833333333333
 31
0.0
  0
LINE
  5
E7
330
C6
100
AcDbEntity
  8
AM_9
100
AcDbLine
 10
1.887757911016739
 20
-2.342833333333333
 30
0.0
 11
1.887757911016739
 21
-2.412833333333333
 31
0.0
  0
LINE
  5
E8
330
C6
100
AcDbEntity
  8
AM_9
100
AcDbLine
 10
1.423234767766806
 20
-2.342833333333333
 30
0.0
 11
1.423234767766806
 21
-2.412833333333333
 31
0.0
  0
LINE
  5
E9
330
C6
100
AcDbEntity
  8
AM_9
100
AcDbLine
 10
-1.423234767766806
 20
-2.342833333333333
 30
0.0
 11
-1.423234767766806
 21
-2.412833333333333
 31
0.0
  0
LINE
  5
EA
330
C6
100
AcDbEntity
  8
AM_9
100
AcDbLine
 10
-1.246458072470169
 20
-2.342833333333333
 30
0.0
 11
-1.246458072470169
 21
-2.412833333333333
 31
0.0
  0
LINE
  5
EB
330
C6
100
AcDbEntity
  8
AM_9
100
AcDbLine
 10
1.246458072470169
 20
-2.342833333333333
 30
0.0
 11
1.246458072470167
 21
-2.412833333333333
 31
0.0
  0
LINE
  5
EC
330
C6
100
AcDbEntity
  8
AM_9
100
AcDbLine
 10
-0.8378986184261484
 20
-2.342833333333333
 30
0.0
 11
-0.8378986184261484
 21
-2.412833333333333
 31
0.0
  0
LINE
  5
ED
330
C6
100
AcDbEntity
  8
AM_9
100
AcDbLine
 10
-0.783470355353852
 20
-1.972833333333333
 30
0.0
 11
-0.783470355353852
 21
-2.412833333333333
 31
0.0
  0
LINE
  5
EE
330
C6
100
AcDbEntity
  8
AM_9
100
AcDbLine
 10
-1.65973675028509
 20
-2.342833333333333
 30
0.0
 11
-1.65973675028509
 21
-2.412833333333333
 31
0.0
  0
LINE
  5
EF
330
C6
100
AcDbEntity
  8
AM_9
100
AcDbLine
 10
-1.482960054988441
 20
-2.342833333333333
 30
0.0
 11
-1.482960054988441
 21
-2.412833333333333
 31
0.0
  0
LINE
  5
F0
330
C6
100
AcDbEntity
  8
AM_9
100
AcDbLine
 10
-1.696383412271507
 20
-2.342833333333333
 30
0.0
 11
-1.696383412271507
 21
-2.412833333333333
 31
0.0
  0
LINE
  5
F1
330
C6
100
AcDbEntity
  8
AM_9
100
AcDbLine
 10
1.482960054988454
 20
-2.342833333333333
 30
0.0
 11
1.482960054988454
 21
-2.412833333333333
 31
0.0
  0
LINE
  5
F2
330
C6
100
AcDbEntity
  8
AM_9
100
AcDbLine
 10
1.659736750285091
 20
-2.342833333333333
 30
0.0
 11
1.659736750285091
 21
-2.412833333333333
 31
0.0
  0
LINE
  5
F3
330
C6
100
AcDbEntity
  8
AM_9
100
AcDbLine
 10
1.696383412271507
 20
-2.412833333333333
 30
0.0
 11
1.696383412271507
 21
-2.342833333333333
 31
0.0
  0
LINE
  5
F4
330
C6
100
AcDbEntity
  8
AM_9
100
AcDbLine
 10
-0.6069287352983265
 20
-2.342833333333333
 30
0.0
 11
-0.6069287352983265
 21
-2.412833333333333
 31
0.0
  0
LINE
  5
F5
330
C6
100
AcDbEntity
  8
AM_9
100
AcDbLine
 10
-0.5525004722260305
 20
-1.972833333333333
 30
0.0
 11
-0.8188032460629231
 21
-1.972833333333333
 31
0.0
  0
LINE
  5
F6
330
C6
100
AcDbEntity
  8
AM_9
100
AcDbLine
 10
-0.5525004722260305
 20
-1.972833333333333
 30
0.0
 11
-0.5525004722260305
 21
-2.412833333333333
 31
0.0
  0
LINE
  5
F7
330
C6
100
AcDbEntity
  8
AM_9
100
AcDbLine
 10
-0.5878333629351014
 20
-2.342833333333333
 30
0.0
 11
-0.5878333629351014
 21
-1.972833333333333
 31
0.0
  0
LINE
  5
F8
330
C6
100
AcDbEntity
  8
AM_9
100
AcDbLine
 10
-0.8188032460629231
 20
-1.972833333333333
 30
0.0
 11
-0.8188032460629231
 21
-2.342833333333333
 31
0.0
  0
LINE
  5
F9
330
C6
100
AcDbEntity
  8
AM_9
100
AcDbLine
 10
-0.125
 20
-2.342833333333333
 30
0.0
 11
-0.125
 21
-2.412833333333333
 31
0.0
  0
LINE
  5
FA
330
C6
100
AcDbEntity
  8
AM_9
100
AcDbLine
 10
0.1250000000000003
 20
-2.342833333333333
 30
0.0
 11
0.1250000000000003
 21
-2.412833333333333
 31
0.0
  0
LINE
  5
FB
330
C6
100
AcDbEntity
  8
AM_4
100
AcDbLine
 10
-2.5
 20
-2.342833333333333
 30
0.0
 11
-2.5
 21
-2.412833333333333
 31
0.0
  0
LINE
  5
FC
330
C6
100
AcDbEntity
  8
AM_4
100
AcDbLine
 10
2.5
 20
-2.412833333333333
 30
0.0
 11
2.5
 21
-2.342833333333333
 31
0.0
  0
LINE
  5
FD
330
C6
100
AcDbEntity
  8
AM_4
100
AcDbLine
 10
-2.5
 20
-2.412833333333333
 30
0.0
 11
2.5
 21
-2.412833333333333
 31
0.0
  0
LINE
  5
FE
330
C6
100
AcDbEntity
  8
AM_4
100
AcDbLine
 10
-2.5
 20
-2.342833333333333
 30
0.0
 11
2.5
 21
-2.342833333333333
 31
0.0
  0
ENDBLK
  5
C9
330
C6
100
AcDbEntity
  8
0
100
AcDbBlockEnd
  0
BLOCK
  5
101
330
FF
100
AcDbEntity
  8
0
100
AcDbBlockBegin
  2
5_070936EL_0_in_071182_4
 70
     2
 10
0.0
 20
0.0
 30
0.0
  3
5_070936EL_0_in_071182_4
  1

  0
ATTDEF
  5
103
330
FF
100
AcDbEntity
  8
AM_6
100
AcDbText
 10
8.1496
 20
1.536874999999999
 30
0.0
 40
0.5
  1
Imperial/E Insert -Inch
100
AcDbAttributeDefinition
  3

  2
NN
 70
     8
280
     0
  0
ATTDEF
  5
104
330
FF
100
AcDbEntity
  8
AM_6
100
AcDbText
 10
8.1496
 20
1.036874999999999
 30
0.0
 40
0.5
  1
Imperial Bearings
100
AcDbAttributeDefinition
  3

  2
NT
 70
     8
280
     0
  0
ATTDEF
  5
105
330
FF
100
AcDbEntity
  8
AM_6
100
AcDbText
 10
8.1496
 20
0.5368749999999991
 30
0.0
 40
0.5
  1
070936EL
100
AcDbAttributeDefinition
  3

  2
NB
 70
     8
280
     0
  0
ATTDEF
  5
106
330
FF
100
AcDbEntity
  8
AM_6
100
AcDbText
 10
8.1496
 20
0.0368749999999991
 30
0.0
 40
0.5
  1
$PN.
100
AcDbAttributeDefinition
  3

  2
NBSYN
 70
     8
280
     0
  0
ATTDEF
  5
107
330
FF
100
AcDbEntity
  8
AM_6
100
AcDbText
 10
8.1496
 20
-0.4631250000000009
 30
0.0
 40
0.5
  1
070936EL
100
AcDbAttributeDefinition
  3

  2
LINA
 70
     8
280
     0
  0
ATTDEF
  5
108
330
FF
100
AcDbEntity
  8
AM_6
100
AcDbText
 10
8.1496
 20
-0.9631250000000009
 30
0.0
 40
0.5
  1
3-1/2
100
AcDbAttributeDefinition
  3

  2
SS
 70
     8
280
     0
  0
ATTDEF
  5
109
330
FF
100
AcDbEntity
  8
AM_6
100
AcDbText
 10
8.1496
 20
-1.463125000000001
 30
0.0
 40
0.5
  1
3.500000
100
AcDbAttributeDefinition
  3

  2
SS1
 70
     8
280
     0
  0
ATTDEF
  5
10A
330
FF
100
AcDbEntity
  8
AM_6
100
AcDbText
 10
8.1496
 20
-1.963125000000001
 30
0.0
 40
0.5
  1
070936EL
100
AcDbAttributeDefinition
  3

  2
PN
 70
     8
280
     0
  0
ATTDEF
  5
10B
330
FF
100
AcDbEntity
  8
AM_6
100
AcDbText
 10
8.1496
 20
-2.463125000000001
 30
0.0
 40
0.5
  1
INS-IP-308L
100
AcDbAttributeDefinition
  3

  2
DESCRIPTION
 70
     8
280
     0
  0
ATTDEF
  5
10C
330
FF
100
AcDbEntity
  8
AM_6
100
AcDbText
 10
8.1496
 20
-2.963125000000001
 30
0.0
 40
0.5
  1
Labyrinth Seal
100
AcDbAttributeDefinition
  3

  2
ST
 70
     8
280
     0
  0
ATTDEF
  5
10D
330
FF
100
AcDbEntity
  8
AM_6
100
AcDbText
 10
8.1496
 20
-3.463125000000001
 30
0.0
 40
0.5
  1
2
100
AcDbAttributeDefinition
  3

  2
ST1
 70
     8
280
     0
  0
ATTDEF
  5
10E
330
FF
100
AcDbEntity
  8
AM_6
100
AcDbText
 10
8.1496
 20
-3.963125000000001
 30
0.0
 40
0.5
  1
6.2992
100
AcDbAttributeDefinition
  3

  2
A
 70
     8
280
     0
  0
ATTDEF
  5
10F
330
FF
100
AcDbEntity
  8
AM_6
100
AcDbText
 10
8.1496
 20
-4.463125000000001
 30
0.0
 40
0.5
  1
1-5/8
100
AcDbAttributeDefinition
  3

  2
B
 70
     8
280
     0
  0
ATTDEF
  5
110
330
FF
100
AcDbEntity
  8
AM_6
100
AcDbText
 10
8.1496
 20
-4.963125000000001
 30
0.0
 40
0.5
  1
1.625000
100
AcDbAttributeDefinition
  3

  2
B1
 70
     8
280
     0
  0
ATTDEF
  5
111
330
FF
100
AcDbEntity
  8
AM_6
100
AcDbText
 10
8.1496
 20
-5.463125000000001
 30
0.0
 40
0.5
  1
4-11/64
100
AcDbAttributeDefinition
  3

  2
C
 70
     8
280
     0
  0
ATTDEF
  5
112
330
FF
100
AcDbEntity
  8
AM_6
100
AcDbText
 10
8.1496
 20
-5.963125000000001
 30
0.0
 40
0.5
  1
4.171875
100
AcDbAttributeDefinition
  3

  2
C1
 70
     8
280
     0
  0
ATTDEF
  5
113
330
FF
100
AcDbEntity
  8
AM_6
100
AcDbText
 10
8.1496
 20
-6.463125000000001
 30
0.0
 40
0.5
  1
5.40000
100
AcDbAttributeDefinition
  3

  2
CR
 70
     8
280
     0
  0
ATTDEF
  5
114
330
FF
100
AcDbEntity
  8
AM_6
100
AcDbText
 10
8.1496
 20
-6.963125000000001
 30
0.0
 40
0.5
  1
1.483
100
AcDbAttributeDefinition
  3

  2
D
 70
     8
280
     0
  0
ATTDEF
  5
115
330
FF
100
AcDbEntity
  8
AM_6
100
AcDbText
 10
8.1496
 20
-7.463125000000001
 30
0.0
 40
0.5
  1
5
100
AcDbAttributeDefinition
  3

  2
E
 70
     8
280
     0
  0
ATTDEF
  5
116
330
FF
100
AcDbEntity
  8
AM_6
100
AcDbText
 10
8.1496
 20
-7.963125000000001
 30
0.0
 40
0.5
  1
5.000000
100
AcDbAttributeDefinition
  3

  2
E1
 70
     8
280
     0
  0
ATTDEF
  5
117
330
FF
100
AcDbEntity
  8
AM_6
100
AcDbText
 10
8.1496
 20
-8.463125000000002
 30
0.0
 40
0.5
  1
0.2500
100
AcDbAttributeDefinition
  3

  2
NDM
 70
     8
280
     0
  0
ATTDEF
  5
118
330
FF
100
AcDbEntity
  8
AM_6
100
AcDbText
 10
8.1496
 20
-8.963125000000002
 30
0.0
 40
0.5
  1
0.1960
100
AcDbAttributeDefinition
  3

  2
KDM
 70
     8
280
     0
  0
ATTDEF
  5
119
330
FF
100
AcDbEntity
  8
AM_6
100
AcDbText
 10
8.1496
 20
-9.463125000000002
 30
0.0
 40
0.5
  1
4.28
100
AcDbAttributeDefinition
  3

  2
AL
 70
     8
280
     0
  0
ATTDEF
  5
11A
330
FF
100
AcDbEntity
  8
AM_6
100
AcDbText
 10
8.1496
 20
-9.963125000000002
 30
0.0
 40
0.5
  1
0.50
100
AcDbAttributeDefinition
  3

  2
BL
 70
     8
280
     0
  0
ATTDEF
  5
11B
330
FF
100
AcDbEntity
  8
AM_6
100
AcDbText
 10
8.1496
 20
-10.463125
 30
0.0
 40
0.5
  1
0.07
100
AcDbAttributeDefinition
  3

  2
CL
 70
     8
280
     0
  0
ATTDEF
  5
11C
330
FF
100
AcDbEntity
  8
AM_6
100
AcDbText
 10
8.1496
 20
-10.963125
 30
0.0
 40
0.5
  1
0.44
100
AcDbAttributeDefinition
  3

  2
DL
 70
     8
280
     0
  0
ATTDEF
  5
11D
330
FF
100
AcDbEntity
  8
AM_6
100
AcDbText
 10
8.1496
 20
-11.463125
 30
0.0
 40
0.5
  1
0.8000
100
AcDbAttributeDefinition
  3

  2
LL
 70
     8
280
     0
  0
ATTDEF
  5
11E
330
FF
100
AcDbEntity
  8
AM_6
100
AcDbText
 10
8.1496
 20
-11.963125
 30
0.0
 40
0.5
  1
0.025
100
AcDbAttributeDefinition
  3

  2
Y
 70
     8
280
     0
  0
ATTDEF
  5
11F
330
FF
100
AcDbEntity
  8
AM_6
100
AcDbText
 10
8.1496
 20
-12.463125
 30
0.0
 40
0.5
  1
0.025000
100
AcDbAttributeDefinition
  3

  2
Y1
 70
     8
280
     0
  0
ATTDEF
  5
120
330
FF
100
AcDbEntity
  8
AM_6
100
AcDbText
 10
8.1496
 20
-12.963125
 30
0.0
 40
0.5
  1
4-3/64
100
AcDbAttributeDefinition
  3

  2
Z
 70
     8
280
     0
  0
ATTDEF
  5
121
330
FF
100
AcDbEntity
  8
AM_6
100
AcDbText
 10
8.1496
 20
-13.463125
 30
0.0
 40
0.5
  1
4.046875
100
AcDbAttributeDefinition
  3

  2
Z1
 70
     8
280
     0
  0
ATTDEF
  5
122
330
FF
100
AcDbEntity
  8
AM_6
100
AcDbText
 10
8.1496
 20
-13.963125
 30
0.0
 40
0.5
  1
1.24000
100
AcDbAttributeDefinition
  3

  2
P1
 70
     8
280
     0
  0
ATTDEF
  5
123
330
FF
100
AcDbEntity
  8
AM_6
100
AcDbText
 10
8.1496
 20
-14.463125
 30
0.0
 40
0.5
  1
1.88000
100
AcDbAttributeDefinition
  3

  2
H1
 70
     8
280
     0
  0
ATTDEF
  5
124
330
FF
100
AcDbEntity
  8
AM_6
100
AcDbText
 10
8.1496
 20
-14.963125
 30
0.0
 40
0.5
  1
1.12000
100
AcDbAttributeDefinition
  3

  2
G1
 70
     8
280
     0
  0
ATTDEF
  5
125
330
FF
100
AcDbEntity
  8
AM_6
100
AcDbText
 10
8.1496
 20
-15.463125
 30
0.0
 40
0.5
  1
0.13200
100
AcDbAttributeDefinition
  3

  2
CW
 70
     8
280
     0
  0
ATTDEF
  5
126
330
FF
100
AcDbEntity
  8
AM_6
100
AcDbText
 10
8.1496
 20
-15.963125
 30
0.0
 40
0.5
  1
5.00000
100
AcDbAttributeDefinition
  3

  2
L1
 70
     8
280
     0
  0
ATTDEF
  5
127
330
FF
100
AcDbEntity
  8
AM_6
100
AcDbText
 10
8.1496
 20
-16.463125
 30
0.0
 40
0.5
  1
baldor
100
AcDbAttributeDefinition
  3

  2
COMPANY
 70
     8
280
     0
  0
LINE
  5
128
330
FF
100
AcDbEntity
  8
AM_9
100
AcDbLine
 10
-0.8206675402014639
 20
0.841375
 30
0.0
 11
-0.8206675402014639
 21
-2.342833333333333
 31
0.0
  0
LINE
  5
129
330
FF
100
AcDbEntity
  8
AM_9
100
AcDbLine
 10
1.336431816442575
 20
-1.902833333333334
 30
0.0
 11
1.336431816442575
 21
-2.342833333333334
 31
0.0
  0
LINE
  5
12A
330
FF
100
AcDbEntity
  8
AM_9
100
AcDbLine
 10
-1.336431816442575
 20
-1.902833333333334
 30
0.0
 11
-1.336431816442575
 21
-2.342833333333334
 31
0.0
  0
LINE
  5
12B
330
FF
100
AcDbEntity
  8
AM_9
100
AcDbLine
 10
-0.5525004722260307
 20
0.841375
 30
0.0
 11
-0.5525004722260303
 21
-2.66
 31
0.0
  0
LINE
  5
12C
330
FF
100
AcDbEntity
  8
AM_9
100
AcDbLine
 10
-0.7834703553538521
 20
-2.412833333333333
 30
0.0
 11
-0.7834703553538522
 21
0.841375
 31
0.0
  0
LINE
  5
12D
330
FF
100
AcDbEntity
  8
AM_9
100
AcDbLine
 10
-1.75
 20
0.8413749999999999
 30
0.0
 11
-1.75
 21
-2.66
 31
0.0
  0
LINE
  5
12E
330
FF
100
AcDbEntity
  8
AM_9
100
AcDbLine
 10
1.75
 20
-2.66
 30
0.0
 11
1.75
 21
0.8413749999999999
 31
0.0
  0
LINE
  5
12F
330
FF
100
AcDbEntity
  8
AM_9
100
AcDbLine
 10
-0.5896976570736423
 20
0.841375
 30
0.0
 11
-0.5896976570736423
 21
-2.342833333333333
 31
0.0
  0
LINE
  5
130
330
FF
100
AcDbEntity
  8
AM_9
100
AcDbLine
 10
-1.842105263157895
 20
1.511875
 30
0.0
 11
-1.842105263157895
 21
0.8413749999999999
 31
0.0
  0
LINE
  5
131
330
FF
100
AcDbEntity
  8
AM_9
100
AcDbLine
 10
1.842105263157895
 20
0.8413749999999999
 30
0.0
 11
1.842105263157895
 21
1.511875
 31
0.0
  0
LINE
  5
132
330
FF
100
AcDbEntity
  8
AM_9
100
AcDbLine
 10
-0.5878333629351015
 20
-2.412833333333333
 30
0.0
 11
-0.5878333629351016
 21
-2.342833333333334
 31
0.0
  0
LINE
  5
133
330
FF
100
AcDbEntity
  8
AM_9
100
AcDbLine
 10
-0.818803246062923
 20
-2.342833333333334
 30
0.0
 11
-0.818803246062923
 21
-2.412833333333333
 31
0.0
  0
LINE
  5
134
330
FF
100
AcDbEntity
  8
AM_9
100
AcDbLine
 10
-1.842105263157895
 20
-2.342833333333334
 30
0.0
 11
-1.842105263157895
 21
-2.412833333333333
 31
0.0
  0
LINE
  5
135
330
FF
100
AcDbEntity
  8
AM_9
100
AcDbLine
 10
1.842105263157895
 20
-2.412833333333333
 30
0.0
 11
1.842105263157895
 21
-2.342833333333334
 31
0.0
  0
LINE
  5
136
330
FF
100
AcDbEntity
  8
AM_9
100
AcDbLine
 10
1.336431816442575
 20
-1.902833333333334
 30
0.0
 11
1.587587230988547
 21
-1.902833333333334
 31
0.0
  0
LINE
  5
137
330
FF
100
AcDbEntity
  8
AM_9
100
AcDbLine
 10
-1.587587230988546
 20
-1.902833333333334
 30
0.0
 11
-1.336431816442575
 21
-1.902833333333334
 31
0.0
  0
LINE
  5
138
330
FF
100
AcDbEntity
  8
AM_9
100
AcDbLine
 10
2.0234375
 20
1.511875
 30
0.0
 11
-2.0234375
 21
1.511875
 31
0.0
  0
LINE
  5
139
330
FF
100
AcDbEntity
  8
AM_9
100
AcDbLine
 10
-2.0234375
 20
1.536874999999999
 30
0.0
 11
-2.0234375
 21
1.511875
 31
0.0
  0
LINE
  5
13A
330
FF
100
AcDbEntity
  8
AM_9
100
AcDbLine
 10
2.0234375
 20
1.511875
 30
0.0
 11
2.0234375
 21
1.536874999999999
 31
0.0
  0
LINE
  5
13B
330
FF
100
AcDbEntity
  8
AM_9
100
AcDbLine
 10
0.0
 20
-1.502833333333333
 30
0.0
 11
-0.09795
 21
-1.559384792200457
 31
0.0
  0
LINE
  5
13C
330
FF
100
AcDbEntity
  8
AM_9
100
AcDbLine
 10
0.09795
 20
-1.559384792200457
 30
0.0
 11
0.0
 21
-1.502833333333333
 31
0.0
  0
LINE
  5
13D
330
FF
100
AcDbEntity
  8
AM_9
100
AcDbLine
 10
0.09795
 20
-1.559384792200457
 30
0.0
 11
-0.09795
 21
-1.559384792200457
 31
0.0
  0
LINE
  5
13E
330
FF
100
AcDbEntity
  8
AM_9
100
AcDbLine
 10
-0.09795
 20
-1.559384792200457
 30
0.0
 11
-0.09795
 21
-2.315783333333333
 31
0.0
  0
LINE
  5
13F
330
FF
100
AcDbEntity
  8
AM_9
100
AcDbLine
 10
0.09795
 20
-2.315783333333333
 30
0.0
 11
0.09795
 21
-1.559384792200457
 31
0.0
  0
LINE
  5
140
330
FF
100
AcDbEntity
  8
AM_9
100
AcDbLine
 10
0.09795
 20
-2.315783333333333
 30
0.0
 11
-0.09795
 21
-2.315783333333333
 31
0.0
  0
LINE
  5
141
330
FF
100
AcDbEntity
  8
AM_9
100
AcDbLine
 10
-0.09795
 20
-2.315783333333333
 30
0.0
 11
-0.1250000000000002
 21
-2.342833333333334
 31
0.0
  0
LINE
  5
142
330
FF
100
AcDbEntity
  8
AM_9
100
AcDbLine
 10
0.1250000000000002
 20
-2.342833333333334
 30
0.0
 11
0.09795
 21
-2.315783333333333
 31
0.0
  0
LINE
  5
143
330
FF
100
AcDbEntity
  8
AM_9
100
AcDbLine
 10
2.51348112847956
 20
-1.5705
 30
0.0
 11
2.526358561092915
 21
-0.8327523796781364
 31
0.0
  0
LINE
  5
144
330
FF
100
AcDbEntity
  8
AM_9
100
AcDbLine
 10
-2.526358561092915
 20
-0.8327523796781364
 30
0.0
 11
-2.51348112847956
 21
-1.5705
 31
0.0
  0
LINE
  5
145
330
FF
100
AcDbEntity
  8
AM_9
100
AcDbLine
 10
2.526358561092915
 20
-0.8327523796781364
 30
0.0
 11
-2.526358561092915
 21
-0.8327523796781364
 31
0.0
  0
ARC
  5
146
330
FF
100
AcDbEntity
  8
AM_9
100
AcDbCircle
 10
-2.576350945850736
 20
-0.8336250000000017
 30
0.0
 40
0.0500000000000012
100
AcDbArc
 50
1.000000000001358
 51
90.0
  0
ARC
  5
147
330
FF
100
AcDbEntity
  8
AM_9
100
AcDbCircle
 10
2.576350945850736
 20
-0.8336250000000017
 30
0.0
 40
0.0500000000000013
100
AcDbArc
 50
90.0
 51
178.9999999999986
  0
LINE
  5
148
330
FF
100
AcDbEntity
  8
AM_9
100
AcDbLine
 10
2.697916666666666
 20
1.536874999999999
 30
0.0
 11
-2.697916666666666
 21
1.536874999999999
 31
0.0
  0
LINE
  5
149
330
FF
100
AcDbEntity
  8
AM_9
100
AcDbLine
 10
-2.697916666666666
 20
1.536874999999999
 30
0.0
 11
-2.697916666666666
 21
1.166375
 31
0.0
  0
LINE
  5
14A
330
FF
100
AcDbEntity
  8
AM_9
100
AcDbLine
 10
2.697916666666666
 20
1.166375
 30
0.0
 11
2.697916666666666
 21
1.536874999999999
 31
0.0
  0
LINE
  5
14B
330
FF
100
AcDbEntity
  8
AM_9
100
AcDbLine
 10
2.70422613559441
 20
1.166374999999999
 30
0.0
 11
-2.704226135594369
 21
1.166374999999999
 31
0.0
  0
ARC
  5
14C
330
FF
100
AcDbEntity
  8
AM_9
100
AcDbCircle
 10
-2.70422613559441
 20
1.066375000000001
 30
0.0
 40
0.0999999999999983
100
AcDbArc
 50
90.0
 51
150.0000000000006
  0
ARC
  5
14D
330
FF
100
AcDbEntity
  8
AM_9
100
AcDbCircle
 10
2.70422613559441
 20
1.066375000000001
 30
0.0
 40
0.0999999999999988
100
AcDbArc
 50
29.99999999999939
 51
90.0
  0
LINE
  5
14E
330
FF
100
AcDbEntity
  8
AM_9
100
AcDbLine
 10
2.790828675972853
 20
1.116374999999999
 30
0.0
 11
-2.790828675972853
 21
1.116374999999999
 31
0.0
  0
LINE
  5
14F
330
FF
100
AcDbEntity
  8
AM_9
100
AcDbLine
 10
-2.790828675972853
 20
1.116374999999999
 30
0.0
 11
-2.9496
 21
0.8413749999999999
 31
0.0
  0
LINE
  5
150
330
FF
100
AcDbEntity
  8
AM_9
100
AcDbLine
 10
2.9496
 20
0.8413749999999999
 30
0.0
 11
2.790828675972853
 21
1.116374999999999
 31
0.0
  0
LINE
  5
151
330
FF
100
AcDbEntity
  8
AM_9
100
AcDbLine
 10
-3.06835
 20
0.0557847093716569
 30
0.0
 11
-3.06835
 21
-0.0380347093716575
 31
0.0
  0
LINE
  5
152
330
FF
100
AcDbEntity
  8
AM_9
100
AcDbLine
 10
3.06835
 20
-0.0380347093716575
 30
0.0
 11
3.06835
 21
0.0557847093716569
 31
0.0
  0
LINE
  5
153
330
FF
100
AcDbEntity
  8
AM_9
100
AcDbLine
 10
3.0996
 20
0.8413749999999999
 30
0.0
 11
-3.099599999998323
 21
0.8413749999999999
 31
0.0
  0
ARC
  5
154
330
FF
100
AcDbEntity
  8
AM_9
100
AcDbCircle
 10
-3.0996
 20
0.7913750000000008
 30
0.0
 40
0.049999999999999
100
AcDbArc
 50
90.0
 51
180.0
  0
ARC
  5
155
330
FF
100
AcDbEntity
  8
AM_9
100
AcDbCircle
 10
3.0996
 20
0.7913750000000007
 30
0.0
 40
0.0499999999999994
100
AcDbArc
 50
0.0
 51
90.0
  0
LINE
  5
156
330
FF
100
AcDbEntity
  8
AM_9
100
AcDbLine
 10
3.139599999999999
 20
-0.7836250000000005
 30
0.0
 11
-3.139599999993838
 21
-0.7836250000000005
 31
0.0
  0
ARC
  5
157
330
FF
100
AcDbEntity
  8
AM_9
100
AcDbCircle
 10
-3.139600000000001
 20
-0.7736250000000012
 30
0.0
 40
0.0099999999999989
100
AcDbArc
 50
180.0
 51
270.0
  0
ARC
  5
158
330
FF
100
AcDbEntity
  8
AM_9
100
AcDbCircle
 10
3.139600000000001
 20
-0.7736250000000012
 30
0.0
 40
0.0099999999999992
100
AcDbArc
 50
270.0
 51
0.0
  0
LINE
  5
159
330
FF
100
AcDbEntity
  8
AM_9
100
AcDbLine
 10
3.1496
 20
-0.7736250000000019
 30
0.0
 11
-3.1496
 21
-0.7736250000000019
 31
0.0
  0
LINE
  5
15A
330
FF
100
AcDbEntity
  8
AM_9
100
AcDbLine
 10
-3.1496
 20
-0.0849444187433144
 30
0.0
 11
-3.1496
 21
-0.7736250000000019
 31
0.0
  0
LINE
  5
15B
330
FF
100
AcDbEntity
  8
AM_9
100
AcDbLine
 10
3.1496
 20
-0.7736250000000019
 30
0.0
 11
3.1496
 21
-0.0849444187433144
 31
0.0
  0
LINE
  5
15C
330
FF
100
AcDbEntity
  8
AM_9
100
AcDbLine
 10
3.1496
 20
0.7913749999999996
 30
0.0
 11
-3.1496
 21
0.7913749999999996
 31
0.0
  0
LINE
  5
15D
330
FF
100
AcDbEntity
  8
AM_9
100
AcDbLine
 10
-3.1496
 20
0.7913749999999996
 30
0.0
 11
-3.1496
 21
0.1026944187433139
 31
0.0
  0
LINE
  5
15E
330
FF
100
AcDbEntity
  8
AM_9
100
AcDbLine
 10
3.1496
 20
0.1026944187433139
 30
0.0
 11
3.1496
 21
0.7913749999999996
 31
0.0
  0
LINE
  5
15F
330
FF
100
AcDbEntity
  8
AM_9
100
AcDbLine
 10
3.1496
 20
0.1026944187433139
 30
0.0
 11
-3.1496
 21
0.1026944187433139
 31
0.0
  0
LINE
  5
160
330
FF
100
AcDbEntity
  8
AM_9
100
AcDbLine
 10
3.06835
 20
0.0557847093716569
 30
0.0
 11
-3.06835
 21
0.0557847093716569
 31
0.0
  0
LINE
  5
161
330
FF
100
AcDbEntity
  8
AM_9
100
AcDbLine
 10
3.06835
 20
0.0557847093716569
 30
0.0
 11
3.1496
 21
0.1026944187433139
 31
0.0
  0
LINE
  5
162
330
FF
100
AcDbEntity
  8
AM_9
100
AcDbLine
 10
-3.1496
 20
0.1026944187433139
 30
0.0
 11
-3.06835
 21
0.0557847093716569
 31
0.0
  0
LINE
  5
163
330
FF
100
AcDbEntity
  8
AM_9
100
AcDbLine
 10
3.06835
 20
-0.0380347093716575
 30
0.0
 11
-3.06835
 21
-0.0380347093716575
 31
0.0
  0
LINE
  5
164
330
FF
100
AcDbEntity
  8
AM_9
100
AcDbLine
 10
3.1496
 20
-0.0849444187433144
 30
0.0
 11
-3.1496
 21
-0.0849444187433144
 31
0.0
  0
LINE
  5
165
330
FF
100
AcDbEntity
  8
AM_9
100
AcDbLine
 10
-3.06835
 20
-0.0380347093716575
 30
0.0
 11
-3.1496
 21
-0.0849444187433144
 31
0.0
  0
LINE
  5
166
330
FF
100
AcDbEntity
  8
AM_9
100
AcDbLine
 10
3.1496
 20
-0.0849444187433144
 30
0.0
 11
3.06835
 21
-0.0380347093716575
 31
0.0
  0
LINE
  5
167
330
FF
100
AcDbEntity
  8
AM_5
100
AcDbLine
 10
0.125
 20
-1.642833333333334
 30
0.0
 11
0.1094273103968569
 21
-1.61586064373019
 31
0.0
  0
LINE
  5
168
330
FF
100
AcDbEntity
  8
AM_5
100
AcDbLine
 10
0.1250000000000002
 20
-2.342833333333334
 30
0.0
 11
0.1250000000000002
 21
-1.642833333333337
 31
0.0
  0
LINE
  5
169
330
FF
100
AcDbEntity
  8
AM_5
100
AcDbLine
 10
-0.1249999999999999
 20
-2.342833333333334
 30
0.0
 11
-0.1249999999999999
 21
-1.642833333333337
 31
0.0
  0
LINE
  5
16A
330
FF
100
AcDbEntity
  8
AM_5
100
AcDbLine
 10
-0.1250000000000001
 20
-1.642833333333337
 30
0.0
 11
-0.1094273103968666
 21
-1.6158606437302
 31
0.0
  0
LINE
  5
16B
330
FF
100
AcDbEntity
  8
AM_4
100
AcDbLine
 10
1.689985207035849
 20
-1.902833333333334
 30
0.0
 11
1.689985207035849
 21
-2.342833333333334
 31
0.0
  0
LINE
  5
16C
330
FF
100
AcDbEntity
  8
AM_4
100
AcDbLine
 10
-1.689985207035848
 20
-1.902833333333334
 30
0.0
 11
-1.689985207035848
 21
-2.342833333333334
 31
0.0
  0
LINE
  5
16D
330
FF
100
AcDbEntity
  8
AM_4
100
AcDbLine
 10
-0.7834703553538521
 20
-2.66
 30
0.0
 11
-0.7834703553538521
 21
-2.412833333333333
 31
0.0
  0
LINE
  5
16E
330
FF
100
AcDbEntity
  8
AM_4
100
AcDbLine
 10
-0.5878333629351014
 20
-2.66
 30
0.0
 11
-0.5878333629351015
 21
-2.412833333333333
 31
0.0
  0
LINE
  5
16F
330
FF
100
AcDbEntity
  8
AM_4
100
AcDbLine
 10
-0.818803246062923
 20
-2.412833333333333
 30
0.0
 11
-0.8188032460629231
 21
-2.66
 31
0.0
  0
LINE
  5
170
330
FF
100
AcDbEntity
  8
AM_4
100
AcDbLine
 10
-1.842105263157895
 20
-2.412833333333333
 30
0.0
 11
-1.842105263157895
 21
-2.66
 31
0.0
  0
LINE
  5
171
330
FF
100
AcDbEntity
  8
AM_4
100
AcDbLine
 10
1.842105263157895
 20
-2.66
 30
0.0
 11
1.842105263157895
 21
-2.412833333333333
 31
0.0
  0
LINE
  5
172
330
FF
100
AcDbEntity
  8
AM_4
100
AcDbLine
 10
1.842105263157895
 20
-2.66
 30
0.0
 11
-1.842105263157895
 21
-2.66
 31
0.0
  0
LINE
  5
173
330
FF
100
AcDbEntity
  8
AM_4
100
AcDbLine
 10
-1.935682605230422
 20
-2.342833333333334
 30
0.0
 11
-2.499999999999999
 21
-2.342833333333334
 31
0.0
  0
LINE
  5
174
330
FF
100
AcDbEntity
  8
AM_4
100
AcDbLine
 10
-1.935682605230422
 20
-2.342833333333334
 30
0.0
 11
-1.94114062158182
 21
-1.902833333333334
 31
0.0
  0
LINE
  5
175
330
FF
100
AcDbEntity
  8
AM_4
100
AcDbLine
 10
-1.94114062158182
 20
-1.902833333333334
 30
0.0
 11
-1.587587230988546
 21
-1.902833333333334
 31
0.0
  0
LINE
  5
176
330
FF
100
AcDbEntity
  8
AM_4
100
AcDbLine
 10
-1.587587230988546
 20
-1.902833333333334
 30
0.0
 11
-1.582129214637148
 21
-2.342833333333334
 31
0.0
  0
LINE
  5
177
330
FF
100
AcDbEntity
  8
AM_4
100
AcDbLine
 10
1.582129214637148
 20
-2.342833333333334
 30
0.0
 11
-1.582129214637148
 21
-2.342833333333334
 31
0.0
  0
LINE
  5
178
330
FF
100
AcDbEntity
  8
AM_4
100
AcDbLine
 10
1.582129214637148
 20
-2.342833333333334
 30
0.0
 11
1.587587230988547
 21
-1.902833333333334
 31
0.0
  0
LINE
  5
179
330
FF
100
AcDbEntity
  8
AM_4
100
AcDbLine
 10
1.587587230988547
 20
-1.902833333333334
 30
0.0
 11
1.941140621581821
 21
-1.902833333333334
 31
0.0
  0
LINE
  5
17A
330
FF
100
AcDbEntity
  8
AM_4
100
AcDbLine
 10
1.941140621581821
 20
-1.902833333333334
 30
0.0
 11
1.935682605230423
 21
-2.342833333333334
 31
0.0
  0
LINE
  5
17B
330
FF
100
AcDbEntity
  8
AM_4
100
AcDbLine
 10
2.499999999999999
 20
-2.342833333333334
 30
0.0
 11
2.51348112847956
 21
-1.5705
 31
0.0
  0
LINE
  5
17C
330
FF
100
AcDbEntity
  8
AM_4
100
AcDbLine
 10
-2.51348112847956
 20
-1.5705
 30
0.0
 11
-2.499999999999999
 21
-2.342833333333334
 31
0.0
  0
LINE
  5
17D
330
FF
100
AcDbEntity
  8
AM_4
100
AcDbLine
 10
2.499999999999999
 20
-2.342833333333334
 30
0.0
 11
1.935682605230423
 21
-2.342833333333334
 31
0.0
  0
ENDBLK
  5
102
330
FF
100
AcDbEntity
  8
0
100
AcDbBlockEnd
  0
BLOCK
  5
180
330
17E
100
AcDbEntity
  8
0
100
AcDbBlockBegin
  2
6_405015E_Inch_0_in_071182_4
 70
     2
 10
0.0
 20
0.0
 30
0.0
  3
6_405015E_Inch_0_in_071182_4
  1

  0
ATTDEF
  5
182
330
17E
100
AcDbEntity
  8
AM_6
100
AcDbText
 10
7.296421671481427
 20
0.2525907427704614
 30
0.0
 40
0.5
  1
405015E -Inch
100
AcDbAttributeDefinition
  3

  2
NN
 70
     8
280
     0
  0
ATTDEF
  5
183
330
17E
100
AcDbEntity
  8
AM_6
100
AcDbText
 10
7.296421671481427
 20
-0.2474092572295386
 30
0.0
 40
0.5
  1
Grease Fitting
100
AcDbAttributeDefinition
  3

  2
NT
 70
     8
280
     0
  0
ATTDEF
  5
184
330
17E
100
AcDbEntity
  8
AM_6
100
AcDbText
 10
7.296421671481427
 20
-0.7474092572295385
 30
0.0
 40
0.5
  1
405015E-Inch
100
AcDbAttributeDefinition
  3

  2
NB
 70
     8
280
     0
  0
ATTDEF
  5
185
330
17E
100
AcDbEntity
  8
AM_6
100
AcDbText
 10
7.296421671481427
 20
-1.247409257229539
 30
0.0
 40
0.5
  1
$MN.-Inch
100
AcDbAttributeDefinition
  3

  2
NBSYN
 70
     8
280
     0
  0
ATTDEF
  5
186
330
17E
100
AcDbEntity
  8
AM_6
100
AcDbText
 10
7.296421671481427
 20
-1.747409257229539
 30
0.0
 40
0.5
  1
405015E
100
AcDbAttributeDefinition
  3

  2
LINA
 70
     8
280
     0
  0
ATTDEF
  5
187
330
17E
100
AcDbEntity
  8
AM_6
100
AcDbText
 10
7.296421671481427
 20
-2.247409257229538
 30
0.0
 40
0.5
  1
405015E
100
AcDbAttributeDefinition
  3

  2
MN
 70
     8
280
     0
  0
ATTDEF
  5
188
330
17E
100
AcDbEntity
  8
AM_6
100
AcDbText
 10
7.296421671481427
 20
-2.747409257229538
 30
0.0
 40
0.5
  1
1/8 x 27PTF
100
AcDbAttributeDefinition
  3

  2
T
 70
     8
280
     0
  0
ATTDEF
  5
189
330
17E
100
AcDbEntity
  8
AM_6
100
AcDbText
 10
7.296421671481427
 20
-3.247409257229538
 30
0.0
 40
0.5
  1
baldor
100
AcDbAttributeDefinition
  3

  2
COMPANY
 70
     8
280
     0
  0
ELLIPSE
  5
18A
330
17E
100
AcDbEntity
  8
AM_9
100
AcDbEllipse
 10
1.8875
 20
0.0000000000000002
 30
0.0
 11
9.913691727296317E-18
 21
0.161902872472269
 31
0.0
210
0.0
220
0.0
230
1.0
 40
0.8660254037844383
 41
0.0
 42
6.283185307179586
  0
LWPOLYLINE
  5
18B
330
17E
100
AcDbEntity
  8
AM_9
100
AcDbPolyline
 90
        3
 70
     0
 43
0.0
 10
2.114721528538922
 20
0.1894430570778462
 10
2.163278983200901
 20
0.1578692142315385
 10
2.213976856926152
 20
0.1262953713852309
  0
LINE
  5
18C
330
17E
100
AcDbEntity
  8
AM_9
100
AcDbLine
 10
2.20959242149431
 20
0.0221133235845855
 30
0.0
 11
2.209443057077845
 21
0.0000000000000002
 31
0.0
  0
LWPOLYLINE
  5
18D
330
17E
100
AcDbEntity
  8
AM_9
100
AcDbPolyline
 90
        3
 70
     0
 43
0.0
 10
2.213976856926152
 20
0.1262953713852309
 10
2.210650319552655
 20
0.0634316146914369
 10
2.20959242149431
 20
0.0221133235845855
  0
LWPOLYLINE
  5
18E
330
17E
100
AcDbEntity
  8
AM_9
100
AcDbPolyline
 90
        3
 70
     0
 43
0.0
 10
2.213976856926152
 20
-0.1262953713852304
 10
2.16350250203231
 20
-0.1577272497321274
 10
2.114721528538922
 20
-0.1894430570778458
  0
LWPOLYLINE
  5
18F
330
17E
100
AcDbEntity
  8
AM_9
100
AcDbPolyline
 90
        4
 70
     0
 43
0.0
 10
2.209642617501606
 20
-0.0255713152349099
 10
2.210151837436414
 20
-0.0483998160558987
 10
2.212184263336767
 20
-0.0967996321117976
 10
2.213976856926152
 20
-0.1262953713852304
  0
LINE
  5
190
330
17E
100
AcDbEntity
  8
AM_9
100
AcDbLine
 10
2.209443057077845
 20
0.0000000000000002
 30
0.0
 11
2.209642617501606
 21
-0.0255713152349099
 31
0.0
  0
LINE
  5
191
330
17E
100
AcDbEntity
  8
AM_9
100
AcDbLine
 10
2.254909257229538
 20
-0.1262953713852304
 30
0.0
 11
2.213976856926152
 21
-0.1262953713852304
 31
0.0
  0
LINE
  5
192
330
17E
100
AcDbEntity
  8
AM_9
100
AcDbLine
 10
2.254909257229538
 20
0.1262953713852309
 30
0.0
 11
2.213976856926152
 21
0.1262953713852309
 31
0.0
  0
LWPOLYLINE
  5
193
330
17E
100
AcDbEntity
  8
AM_9
100
AcDbPolyline
 90
        3
 70
     0
 43
0.0
 10
2.257177294546633
 20
-0.0876639037391229
 10
2.258730142956309
 20
-0.0485424412477542
 10
2.259443057077845
 20
0.0000000000000002
  0
LWPOLYLINE
  5
194
330
17E
100
AcDbEntity
  8
AM_9
100
AcDbPolyline
 90
        3
 70
     0
 43
0.0
 10
2.259443057077845
 20
0.0000000000000002
 10
2.258246366685328
 20
0.0631476856926155
 10
2.257167864371098
 20
0.0878529476487882
  0
LWPOLYLINE
  5
195
330
17E
100
AcDbEntity
  8
AM_9
100
AcDbPolyline
 90
        3
 70
     0
 43
0.0
 10
2.114721528538922
 20
-0.1894430570778458
 10
2.068557454661978
 20
-0.2210168999241534
 10
2.024533799848307
 20
-0.252590742770461
  0
LWPOLYLINE
  5
196
330
17E
100
AcDbEntity
  8
AM_9
100
AcDbPolyline
 90
        3
 70
     0
 43
0.0
 10
2.024533799848307
 20
0.2525907427704614
 10
2.068355079995155
 20
0.2211588644235645
 10
2.114721528538922
 20
0.1894430570778462
  0
LINE
  5
197
330
17E
100
AcDbEntity
  8
AM_9
100
AcDbLine
 10
1.896546710626154
 20
-0.1983264404626877
 30
0.0
 11
2.01035489783229
 21
-0.2054502516015133
 31
0.0
  0
LINE
  5
198
330
17E
100
AcDbEntity
  8
AM_9
100
AcDbLine
 10
2.01035489783229
 20
0.2054502516015137
 30
0.0
 11
1.896546710626154
 21
0.1983264404626882
 31
0.0
  0
ELLIPSE
  5
199
330
17E
100
AcDbEntity
  8
AM_9
100
AcDbEllipse
 10
2.070000000000004
 20
-0.000000000000001
 30
0.0
 11
-4.018372309702209E-17
 21
-0.2187499999999976
 31
0.0
210
0.0
220
0.0
230
1.0
 40
0.866025403784425
 41
1.032970329614925
 42
2.108622323974879
  0
ELLIPSE
  5
19A
330
17E
100
AcDbEntity
  8
AM_9
100
AcDbEllipse
 10
2.07
 20
0.0000000000000002
 30
0.0
 11
-3.926523799766183E-17
 21
-0.213749999999999
 31
0.0
210
0.0
220
0.0
230
1.0
 40
0.8660254037844408
 41
0.9862868522352546
 42
2.155305801354539
  0
ELLIPSE
  5
19B
330
17E
100
AcDbEntity
  8
AM_9
100
AcDbEllipse
 10
2.079159099270441
 20
0.0000000000000002
 30
0.0
 11
-3.169399141454448E-17
 21
-0.172534053283015
 31
0.0
210
0.0
220
0.0
230
1.0
 40
0.8660254037844372
 41
0.6732704101475315
 42
2.468322243442262
  0
LINE
  5
19C
330
17E
100
AcDbEntity
  8
AM_9
100
AcDbLine
 10
2.19
 20
0.0703562363973518
 30
0.0
 11
2.182760904853148
 21
0.0796165180238023
 31
0.0
  0
LINE
  5
19D
330
17E
100
AcDbEntity
  8
AM_9
100
AcDbLine
 10
2.182760904853148
 20
-0.0796165180238018
 30
0.0
 11
2.19
 21
-0.0703562363973514
 31
0.0
  0
ELLIPSE
  5
19E
330
17E
100
AcDbEntity
  8
AM_9
100
AcDbEllipse
 10
2.106376560809287
 20
0.0000000000000005
 30
0.0
 11
-2.182689656893348E-17
 21
-0.1188200907348972
 31
0.0
210
0.0
220
0.0
230
1.0
 40
0.8660254037844352
 41
0.0521714424104518
 42
3.089421211179344
  0
ELLIPSE
  5
19F
330
17E
100
AcDbEntity
  8
AM_9
100
AcDbEllipse
 10
2.122500000000004
 20
-0.0000000000000021
 30
0.0
 11
-1.928818708657038E-17
 21
-0.1049999999999976
 31
0.0
210
0.0
220
0.0
230
1.0
 40
0.8660254037844431
 41
5.858105981271434
 42
9.84985728667751
  0
LINE
  5
1A0
330
17E
100
AcDbEntity
  8
AM_9
100
AcDbLine
 10
2.1225
 20
-0.1049999999999998
 30
0.0
 11
2.1375
 21
-0.1049999999999998
 31
0.0
  0
LINE
  5
1A1
330
17E
100
AcDbEntity
  8
AM_9
100
AcDbLine
 10
2.1375
 20
0.1050000000000002
 30
0.0
 11
2.1225
 21
0.1050000000000002
 31
0.0
  0
ELLIPSE
  5
1A2
330
17E
100
AcDbEntity
  8
AM_9
100
AcDbEllipse
 10
2.137499999999999
 20
0.0000000000000002
 30
0.0
 11
-1.928818708657087E-17
 21
-0.1050000000000003
 31
0.0
210
0.0
220
0.0
230
1.0
 40
0.8660254037844383
 41
5.23598775598299
 42
10.47197551196597
  0
ELLIPSE
  5
1A3
330
17E
100
AcDbEntity
  8
AM_9
100
AcDbEllipse
 10
2.1675
 20
0.0000000000000003
 30
0.0
 11
-2.479909768273396E-17
 21
-0.1350000000000003
 31
0.0
210
0.0
220
0.0
230
1.0
 40
0.8660254037844358
 41
0.7751090107151235
 42
2.366483642874671
  0
ELLIPSE
  5
1A4
330
17E
100
AcDbEntity
  8
AM_9
100
AcDbEllipse
 10
2.02
 20
-0.0000000000000002
 30
0.0
 11
-4.018372309702254E-17
 21
-0.2187500000000001
 31
0.0
210
0.0
220
0.0
230
1.0
 40
0.8660254037844395
 41
0.0
 42
6.283185307179586
  0
ELLIPSE
  5
1A5
330
17E
100
AcDbEntity
  8
AM_9
100
AcDbEllipse
 10
2.019999999999872
 20
0.0000000000000024
 30
0.0
 11
-3.779601035290870E-17
 21
-0.2057518972230674
 31
0.0
210
0.0
220
0.0
230
1.0
 40
0.8660254037844036
 41
0.0
 42
6.283185307179586
  0
ELLIPSE
  5
1A6
330
17E
100
AcDbEntity
  8
AM_9
100
AcDbEllipse
 10
1.905857377153947
 20
0.0000000000000685
 30
0.0
 11
-3.648546613376631E-17
 21
-0.1986176267811471
 31
0.0
210
0.0
220
0.0
230
1.0
 40
0.8660254037843832
 41
0.0
 42
6.283185307179586
  0
LWPOLYLINE
  5
1A7
330
17E
100
AcDbEntity
  8
AM_4
100
AcDbPolyline
 90
        3
 70
     0
 43
0.0
 10
2.164721528538923
 20
-0.1894430570778458
 10
2.210885602415867
 20
-0.1578692142315381
 10
2.254909257229538
 20
-0.1262953713852304
  0
LINE
  5
1A8
330
17E
100
AcDbEntity
  8
AM_4
100
AcDbLine
 10
2.254909257229538
 20
-0.1262953713852304
 30
0.0
 11
2.257177294546633
 21
-0.0876639037391229
 31
0.0
  0
LWPOLYLINE
  5
1A9
330
17E
100
AcDbEntity
  8
AM_4
100
AcDbPolyline
 90
        3
 70
     0
 43
0.0
 10
2.254909257229538
 20
0.1262953713852309
 10
2.21108797708269
 20
0.1577272497321278
 10
2.164721528538923
 20
0.1894430570778462
  0
LINE
  5
1AA
330
17E
100
AcDbEntity
  8
AM_4
100
AcDbLine
 10
2.257167864371098
 20
0.0878529476487882
 30
0.0
 11
2.254909257229538
 21
0.1262953713852309
 31
0.0
  0
LWPOLYLINE
  5
1AB
330
17E
100
AcDbEntity
  8
AM_4
100
AcDbPolyline
 90
        3
 70
     0
 43
0.0
 10
2.164721528538923
 20
0.1894430570778462
 10
2.116164073876944
 20
0.2210168999241537
 10
2.065466200151692
 20
0.2525907427704614
  0
LWPOLYLINE
  5
1AC
330
17E
100
AcDbEntity
  8
AM_4
100
AcDbPolyline
 90
        3
 70
     0
 43
0.0
 10
2.065466200151692
 20
-0.252590742770461
 10
2.115940555045535
 20
-0.2211588644235641
 10
2.164721528538923
 20
-0.1894430570778458
  0
LWPOLYLINE
  5
1AD
330
17E
100
AcDbEntity
  8
AM_4
100
AcDbPolyline
 90
        3
 70
     0
 43
0.0
 10
1.876023143073846
 20
0.1262953713852309
 10
1.879349680447344
 20
0.0634316146914369
 10
1.880556942922154
 20
0.0000000000000002
  0
LWPOLYLINE
  5
1AE
330
17E
100
AcDbEntity
  8
AM_4
100
AcDbPolyline
 90
        3
 70
     0
 43
0.0
 10
1.830556942922154
 20
0.0000000000000002
 10
1.831753633314671
 20
0.0631476856926155
 10
1.835090742770461
 20
0.1262953713852309
  0
LWPOLYLINE
  5
1AF
330
17E
100
AcDbEntity
  8
AM_4
100
AcDbPolyline
 90
        4
 70
     0
 43
0.0
 10
1.835090742770461
 20
-0.1262953713852304
 10
1.833298149181075
 20
-0.0967996321117976
 10
1.83126985704369
 20
-0.0485424412477541
 10
1.830556942922154
 20
0.0000000000000002
  0
LINE
  5
1B0
330
17E
100
AcDbEntity
  8
AM_4
100
AcDbLine
 10
2.065466200151692
 20
-0.252590742770461
 30
0.0
 11
2.024533799848307
 21
-0.252590742770461
 31
0.0
  0
LWPOLYLINE
  5
1B1
330
17E
100
AcDbEntity
  8
AM_4
100
AcDbPolyline
 90
        3
 70
     0
 43
0.0
 10
1.975278471461077
 20
-0.1894430570778458
 10
2.021442545338021
 20
-0.2210168999241534
 10
2.065466200151692
 20
-0.252590742770461
  0
LINE
  5
1B2
330
17E
100
AcDbEntity
  8
AM_4
100
AcDbLine
 10
1.876023143073846
 20
-0.1262953713852304
 30
0.0
 11
1.835090742770461
 21
-0.1262953713852304
 31
0.0
  0
LWPOLYLINE
  5
1B3
330
17E
100
AcDbEntity
  8
AM_4
100
AcDbPolyline
 90
        3
 70
     0
 43
0.0
 10
1.925278471461077
 20
-0.1894430570778458
 10
1.879114397584132
 20
-0.1578692142315381
 10
1.835090742770461
 20
-0.1262953713852304
  0
LWPOLYLINE
  5
1B4
330
17E
100
AcDbEntity
  8
AM_4
100
AcDbPolyline
 90
        3
 70
     0
 43
0.0
 10
2.024533799848307
 20
-0.252590742770461
 10
1.974059444954464
 20
-0.2211588644235641
 10
1.925278471461077
 20
-0.1894430570778458
  0
ELLIPSE
  5
1B5
330
17E
100
AcDbEntity
  8
AM_4
100
AcDbEllipse
 10
2.07
 20
0.0000000000000003
 30
0.0
 11
-4.018372309702253E-17
 21
-0.21875
 31
0.0
210
0.0
220
0.0
230
1.0
 40
0.86602540378444
 41
2.108622323974869
 42
7.316155636794511
  0
LWPOLYLINE
  5
1B6
330
17E
100
AcDbEntity
  8
AM_4
100
AcDbPolyline
 90
        4
 70
     0
 43
0.0
 10
1.880556942922154
 20
0.0000000000000002
 10
1.879848162563585
 20
-0.0483998160558987
 10
1.877815736663232
 20
-0.0967996321117976
 10
1.876023143073846
 20
-0.1262953713852304
  0
LWPOLYLINE
  5
1B7
330
17E
100
AcDbEntity
  8
AM_4
100
AcDbPolyline
 90
        3
 70
     0
 43
0.0
 10
1.876023143073846
 20
-0.1262953713852304
 10
1.926497497967689
 20
-0.1577272497321274
 10
1.975278471461077
 20
-0.1894430570778458
  0
LINE
  5
1B8
330
17E
100
AcDbEntity
  8
AM_4
100
AcDbLine
 10
1.876023143073846
 20
0.1262953713852309
 30
0.0
 11
1.835090742770461
 21
0.1262953713852309
 31
0.0
  0
LWPOLYLINE
  5
1B9
330
17E
100
AcDbEntity
  8
AM_4
100
AcDbPolyline
 90
        3
 70
     0
 43
0.0
 10
1.975278471461077
 20
0.1894430570778462
 10
1.926721016799098
 20
0.1578692142315385
 10
1.876023143073846
 20
0.1262953713852309
  0
LWPOLYLINE
  5
1BA
330
17E
100
AcDbEntity
  8
AM_4
100
AcDbPolyline
 90
        3
 70
     0
 43
0.0
 10
2.065466200151692
 20
0.2525907427704614
 10
2.021644920004844
 20
0.2211588644235645
 10
1.975278471461077
 20
0.1894430570778462
  0
LINE
  5
1BB
330
17E
100
AcDbEntity
  8
AM_4
100
AcDbLine
 10
2.065466200151692
 20
0.2525907427704614
 30
0.0
 11
2.024533799848307
 21
0.2525907427704614
 31
0.0
  0
LWPOLYLINE
  5
1BC
330
17E
100
AcDbEntity
  8
AM_4
100
AcDbPolyline
 90
        3
 70
     0
 43
0.0
 10
1.925278471461077
 20
0.1894430570778462
 10
1.973835926123055
 20
0.2210168999241538
 10
2.024533799848307
 20
0.2525907427704614
  0
LWPOLYLINE
  5
1BD
330
17E
100
AcDbEntity
  8
AM_4
100
AcDbPolyline
 90
        3
 70
     0
 43
0.0
 10
1.835090742770461
 20
0.1262953713852309
 10
1.878912022917309
 20
0.1577272497321278
 10
1.925278471461077
 20
0.1894430570778462
  0
ELLIPSE
  5
1BE
330
17E
100
AcDbEntity
  8
AM_4
100
AcDbEllipse
 10
2.069999999999999
 20
0.0000000000000005
 30
0.0
 11
-3.926523799766198E-17
 21
-0.2137499999999998
 31
0.0
210
0.0
220
0.0
230
1.0
 40
0.8660254037844397
 41
2.155305801354535
 42
7.269472159414843
  0
ELLIPSE
  5
1BF
330
17E
100
AcDbEntity
  8
AM_4
100
AcDbEllipse
 10
2.079159099270443
 20
0.0000000000000019
 30
0.0
 11
-3.169399141454427E-17
 21
-0.1725340532830139
 31
0.0
210
0.0
220
0.0
230
1.0
 40
0.8660254037844327
 41
2.468322243442266
 42
6.956455717327103
  0
ELLIPSE
  5
1C0
330
17E
100
AcDbEntity
  8
AM_4
100
AcDbEllipse
 10
2.106376560809286
 20
0.0000000000000003
 30
0.0
 11
-2.182689656893358E-17
 21
-0.1188200907348977
 31
0.0
210
0.0
220
0.0
230
1.0
 40
0.8660254037844387
 41
3.089421211179335
 42
6.335356749590049
  0
ELLIPSE
  5
1C1
330
17E
100
AcDbEntity
  8
AM_4
100
AcDbEllipse
 10
2.1225
 20
0.0000000000000002
 30
0.0
 11
-1.928818708657084E-17
 21
-0.1050000000000001
 31
0.0
210
0.0
220
0.0
230
1.0
 40
0.8660254037844352
 41
3.566671979497897
 42
5.858105981271481
  0
LINE
  5
1C2
330
17E
100
AcDbEntity
  8
AM_4
100
AcDbLine
 10
2.05875
 20
-0.0524999999999999
 30
0.0
 11
2.06625
 21
-0.0674999999999999
 31
0.0
  0
LINE
  5
1C3
330
17E
100
AcDbEntity
  8
AM_4
100
AcDbLine
 10
2.06625
 20
0.0675000000000004
 30
0.0
 11
2.058749999999999
 21
0.0525000000000004
 31
0.0
  0
ELLIPSE
  5
1C4
330
17E
100
AcDbEntity
  8
AM_4
100
AcDbEllipse
 10
2.137500000000002
 20
0.0000000000000006
 30
0.0
 11
-1.928818708657098E-17
 21
-0.1050000000000009
 31
0.0
210
0.0
220
0.0
230
1.0
 40
0.8660254037844499
 41
4.188790204786399
 42
5.23598775598299
  0
LINE
  5
1C5
330
17E
100
AcDbEntity
  8
AM_4
100
AcDbLine
 10
2.269726847792107
 20
0.073347420521869
 30
0.0
 11
2.249315310731619
 21
0.0964365416902994
 31
0.0
  0
LINE
  5
1C6
330
17E
100
AcDbEntity
  8
AM_4
100
AcDbLine
 10
2.249315310731619
 20
-0.0964365416902989
 30
0.0
 11
2.269726847792107
 21
-0.0733474205218685
 31
0.0
  0
ELLIPSE
  5
1C7
330
17E
100
AcDbEntity
  8
AM_4
100
AcDbEllipse
 10
2.167499999999998
 20
-0.0000000000000009
 30
0.0
 11
-2.479909768273412E-17
 21
-0.1350000000000012
 31
0.0
210
0.0
220
0.0
230
1.0
 40
0.8660254037844402
 41
2.36648364287467
 42
7.058294317894722
  0
ELLIPSE
  5
1C8
330
17E
100
AcDbEntity
  8
AM_4
100
AcDbEllipse
 10
2.2075
 20
0.0000000000000001
 30
0.0
 11
-1.886162459184662E-17
 21
-0.1026779019331877
 31
0.0
210
0.0
220
0.0
230
1.0
 40
0.8660254037844383
 41
0.0
 42
6.283185307179586
  0
ENDBLK
  5
181
330
17E
100
AcDbEntity
  8
0
100
AcDbBlockEnd
  0
BLOCK
  5
1CB
330
1C9
100
AcDbEntity
  8
0
100
AcDbBlockBegin
  2
7_071140Ho_0_in_071182_4
 70
     2
 10
0.0
 20
0.0
 30
0.0
  3
7_071140Ho_0_in_071182_4
  1

  0
ATTDEF
  5
1CD
330
1C9
100
AcDbEntity
  8
AM_6
100
AcDbText
 10
12.0
 20
1.9195
 30
0.0
 40
0.5
  1
EP2B-IP -(Labyrinth Seal)-Housing -Inch
100
AcDbAttributeDefinition
  3

  2
NN
 70
     8
280
     0
  0
ATTDEF
  5
1CE
330
1C9
100
AcDbEntity
  8
AM_6
100
AcDbText
 10
12.0
 20
1.4195
 30
0.0
 40
0.5
  1
Imperial/E 2 Bolt Piliow Block Bearings
100
AcDbAttributeDefinition
  3

  2
NT
 70
     8
280
     0
  0
ATTDEF
  5
1CF
330
1C9
100
AcDbEntity
  8
AM_6
100
AcDbText
 10
12.0
 20
0.9195000000000002
 30
0.0
 40
0.5
  1
071140Ho
100
AcDbAttributeDefinition
  3

  2
NB
 70
     8
280
     0
  0
ATTDEF
  5
1D0
330
1C9
100
AcDbEntity
  8
AM_6
100
AcDbText
 10
12.0
 20
0.4195000000000002
 30
0.0
 40
0.5
  1
$PN.Ho
100
AcDbAttributeDefinition
  3

  2
NBSYN
 70
     8
280
     0
  0
ATTDEF
  5
1D1
330
1C9
100
AcDbEntity
  8
AM_6
100
AcDbText
 10
12.0
 20
-0.0804999999999998
 30
0.0
 40
0.5
  1
071140
100
AcDbAttributeDefinition
  3

  2
LINA
 70
     8
280
     0
  0
ATTDEF
  5
1D2
330
1C9
100
AcDbEntity
  8
AM_6
100
AcDbText
 10
12.0
 20
-0.5804999999999998
 30
0.0
 40
0.5
  1
3-1/2
100
AcDbAttributeDefinition
  3

  2
SS
 70
     8
280
     0
  0
ATTDEF
  5
1D3
330
1C9
100
AcDbEntity
  8
AM_6
100
AcDbText
 10
12.0
 20
-1.0805
 30
0.0
 40
0.5
  1
3.500000
100
AcDbAttributeDefinition
  3

  2
SS1
 70
     8
280
     0
  0
ATTDEF
  5
1D4
330
1C9
100
AcDbEntity
  8
AM_6
100
AcDbText
 10
12.0
 20
-1.5805
 30
0.0
 40
0.5
  1
Non-Expansion
100
AcDbAttributeDefinition
  3

  2
TYPE
 70
     8
280
     0
  0
ATTDEF
  5
1D5
330
1C9
100
AcDbEntity
  8
AM_6
100
AcDbText
 10
12.0
 20
-2.0805
 30
0.0
 40
0.5
  1
071140
100
AcDbAttributeDefinition
  3

  2
PN1
 70
     8
280
     0
  0
ATTDEF
  5
1D6
330
1C9
100
AcDbEntity
  8
AM_6
100
AcDbText
 10
12.0
 20
-2.5805
 30
0.0
 40
0.5
  1
071203
100
AcDbAttributeDefinition
  3

  2
PN2
 70
     8
280
     0
  0
ATTDEF
  5
1D7
330
1C9
100
AcDbEntity
  8
AM_6
100
AcDbText
 10
12.0
 20
-3.0805
 30
0.0
 40
0.5
  1
EP2B-IP-308L
100
AcDbAttributeDefinition
  3

  2
DES1
 70
     8
280
     0
  0
ATTDEF
  5
1D8
330
1C9
100
AcDbEntity
  8
AM_6
100
AcDbText
 10
12.0
 20
-3.5805
 30
0.0
 40
0.5
  1
Non-Expansion Type
100
AcDbAttributeDefinition
  3

  2
EF
 70
     8
280
     0
  0
ATTDEF
  5
1D9
330
1C9
100
AcDbEntity
  8
AM_6
100
AcDbText
 10
12.0
 20
-4.0805
 30
0.0
 40
0.5
  1
1
100
AcDbAttributeDefinition
  3

  2
EF1
 70
     8
280
     0
  0
ATTDEF
  5
1DA
330
1C9
100
AcDbEntity
  8
AM_6
100
AcDbText
 10
12.0
 20
-4.5805
 30
0.0
 40
0.5
  1
Labyrinth Seal
100
AcDbAttributeDefinition
  3

  2
ST
 70
     8
280
     0
  0
ATTDEF
  5
1DB
330
1C9
100
AcDbEntity
  8
AM_6
100
AcDbText
 10
12.0
 20
-5.0805
 30
0.0
 40
0.5
  1
1
100
AcDbAttributeDefinition
  3

  2
ST1
 70
     8
280
     0
  0
ATTDEF
  5
1DC
330
1C9
100
AcDbEntity
  8
AM_6
100
AcDbText
 10
12.0
 20
-5.5805
 30
0.0
 40
0.5
  1
4.17
100
AcDbAttributeDefinition
  3

  2
A
 70
     8
280
     0
  0
ATTDEF
  5
1DD
330
1C9
100
AcDbEntity
  8
AM_6
100
AcDbText
 10
12.0
 20
-6.0805
 30
0.0
 40
0.5
  1
4.1700000
100
AcDbAttributeDefinition
  3

  2
A1
 70
     8
280
     0
  0
ATTDEF
  5
1DE
330
1C9
100
AcDbEntity
  8
AM_6
100
AcDbText
 10
12.0
 20
-6.5805
 30
0.0
 40
0.5
  1
14
100
AcDbAttributeDefinition
  3

  2
B
 70
     8
280
     0
  0
ATTDEF
  5
1DF
330
1C9
100
AcDbEntity
  8
AM_6
100
AcDbText
 10
12.0
 20
-7.0805
 30
0.0
 40
0.5
  1
14.0000000
100
AcDbAttributeDefinition
  3

  2
B1
 70
     8
280
     0
  0
ATTDEF
  5
1E0
330
1C9
100
AcDbEntity
  8
AM_6
100
AcDbText
 10
12.0
 20
-7.5805
 30
0.0
 40
0.5
  1
3.49
100
AcDbAttributeDefinition
  3

  2
C
 70
     8
280
     0
  0
ATTDEF
  5
1E1
330
1C9
100
AcDbEntity
  8
AM_6
100
AcDbText
 10
12.0
 20
-8.0805
 30
0.0
 40
0.5
  1
3.4900000
100
AcDbAttributeDefinition
  3

  2
C1
 70
     8
280
     0
  0
ATTDEF
  5
1E2
330
1C9
100
AcDbEntity
  8
AM_6
100
AcDbText
 10
12.0
 20
-8.5805
 30
0.0
 40
0.5
  1
10.81
100
AcDbAttributeDefinition
  3

  2
DMIN
 70
     8
280
     0
  0
ATTDEF
  5
1E3
330
1C9
100
AcDbEntity
  8
AM_6
100
AcDbText
 10
12.0
 20
-9.0805
 30
0.0
 40
0.5
  1
10.8100000
100
AcDbAttributeDefinition
  3

  2
DMIN1
 70
     8
280
     0
  0
ATTDEF
  5
1E4
330
1C9
100
AcDbEntity
  8
AM_6
100
AcDbText
 10
12.0
 20
-9.5805
 30
0.0
 40
0.5
  1
11.19
100
AcDbAttributeDefinition
  3

  2
DMAX
 70
     8
280
     0
  0
ATTDEF
  5
1E5
330
1C9
100
AcDbEntity
  8
AM_6
100
AcDbText
 10
12.0
 20
-10.0805
 30
0.0
 40
0.5
  1
11.1900000
100
AcDbAttributeDefinition
  3

  2
DMAX1
 70
     8
280
     0
  0
ATTDEF
  5
1E6
330
1C9
100
AcDbEntity
  8
AM_6
100
AcDbText
 10
12.0
 20
-10.5805
 30
0.0
 40
0.5
  1
7/8
100
AcDbAttributeDefinition
  3

  2
F
 70
     8
280
     0
  0
ATTDEF
  5
1E7
330
1C9
100
AcDbEntity
  8
AM_6
100
AcDbText
 10
12.0
 20
-11.0805
 30
0.0
 40
0.5
  1
0.8750000
100
AcDbAttributeDefinition
  3

  2
F1
 70
     8
280
     0
  0
ATTDEF
  5
1E8
330
1C9
100
AcDbEntity
  8
AM_6
100
AcDbText
 10
12.0
 20
-11.5805
 30
0.0
 40
0.5
  1
1.19
100
AcDbAttributeDefinition
  3

  2
G
 70
     8
280
     0
  0
ATTDEF
  5
1E9
330
1C9
100
AcDbEntity
  8
AM_6
100
AcDbText
 10
12.0
 20
-12.0805
 30
0.0
 40
0.5
  1
1.190000
100
AcDbAttributeDefinition
  3

  2
G1
 70
     8
280
     0
  0
ATTDEF
  5
1EA
330
1C9
100
AcDbEntity
  8
AM_6
100
AcDbText
 10
12.0
 20
-12.5805
 30
0.0
 40
0.5
  1
2.25
100
AcDbAttributeDefinition
  3

  2
H
 70
     8
280
     0
  0
ATTDEF
  5
1EB
330
1C9
100
AcDbEntity
  8
AM_6
100
AcDbText
 10
12.0
 20
-13.0805
 30
0.0
 40
0.5
  1
2.2500000
100
AcDbAttributeDefinition
  3

  2
H1
 70
     8
280
     0
  0
ATTDEF
  5
1EC
330
1C9
100
AcDbEntity
  8
AM_6
100
AcDbText
 10
12.0
 20
-13.5805
 30
0.0
 40
0.5
  1
7.69
100
AcDbAttributeDefinition
  3

  2
J
 70
     8
280
     0
  0
ATTDEF
  5
1ED
330
1C9
100
AcDbEntity
  8
AM_6
100
AcDbText
 10
12.0
 20
-14.0805
 30
0.0
 40
0.5
  1
7.690000
100
AcDbAttributeDefinition
  3

  2
J1
 70
     8
280
     0
  0
ATTDEF
  5
1EE
330
1C9
100
AcDbEntity
  8
AM_6
100
AcDbText
 10
12.0
 20
-14.5805
 30
0.0
 40
0.5
  1
5.00
100
AcDbAttributeDefinition
  3

  2
L
 70
     8
280
     0
  0
ATTDEF
  5
1EF
330
1C9
100
AcDbEntity
  8
AM_6
100
AcDbText
 10
12.0
 20
-15.0805
 30
0.0
 40
0.5
  1
5.0000000
100
AcDbAttributeDefinition
  3

  2
L1
 70
     8
280
     0
  0
ATTDEF
  5
1F0
330
1C9
100
AcDbEntity
  8
AM_6
100
AcDbText
 10
12.0
 20
-15.5805
 30
0.0
 40
0.5
  1
3.75
100
AcDbAttributeDefinition
  3

  2
M
 70
     8
280
     0
  0
ATTDEF
  5
1F1
330
1C9
100
AcDbEntity
  8
AM_6
100
AcDbText
 10
12.0
 20
-16.0805
 30
0.0
 40
0.5
  1
3.750000
100
AcDbAttributeDefinition
  3

  2
M1
 70
     8
280
     0
  0
ATTDEF
  5
1F2
330
1C9
100
AcDbEntity
  8
AM_6
100
AcDbText
 10
12.0
 20
-16.5805
 30
0.0
 40
0.5
  1
1.51
100
AcDbAttributeDefinition
  3

  2
R
 70
     8
280
     0
  0
ATTDEF
  5
1F3
330
1C9
100
AcDbEntity
  8
AM_6
100
AcDbText
 10
12.0
 20
-17.0805
 30
0.0
 40
0.5
  1
1.510000
100
AcDbAttributeDefinition
  3

  2
R1
 70
     8
280
     0
  0
ATTDEF
  5
1F4
330
1C9
100
AcDbEntity
  8
AM_6
100
AcDbText
 10
12.0
 20
-17.5805
 30
0.0
 40
0.5
  1
2.66
100
AcDbAttributeDefinition
  3

  2
S
 70
     8
280
     0
  0
ATTDEF
  5
1F5
330
1C9
100
AcDbEntity
  8
AM_6
100
AcDbText
 10
12.0
 20
-18.0805
 30
0.0
 40
0.5
  1
2.660000
100
AcDbAttributeDefinition
  3

  2
S1
 70
     8
280
     0
  0
ATTDEF
  5
1F6
330
1C9
100
AcDbEntity
  8
AM_6
100
AcDbText
 10
12.0
 20
-18.5805
 30
0.0
 40
0.5
  1
0.25
100
AcDbAttributeDefinition
  3

  2
X
 70
     8
280
     0
  0
ATTDEF
  5
1F7
330
1C9
100
AcDbEntity
  8
AM_6
100
AcDbText
 10
12.0
 20
-19.0805
 30
0.0
 40
0.5
  1
0.250000
100
AcDbAttributeDefinition
  3

  2
X1
 70
     8
280
     0
  0
ATTDEF
  5
1F8
330
1C9
100
AcDbEntity
  8
AM_6
100
AcDbText
 10
12.0
 20
-19.5805
 30
0.0
 40
0.5
  1
0.025
100
AcDbAttributeDefinition
  3

  2
Y
 70
     8
280
     0
  0
ATTDEF
  5
1F9
330
1C9
100
AcDbEntity
  8
AM_6
100
AcDbText
 10
12.0
 20
-20.0805
 30
0.0
 40
0.5
  1
4.05
100
AcDbAttributeDefinition
  3

  2
Z
 70
     8
280
     0
  0
ATTDEF
  5
1FA
330
1C9
100
AcDbEntity
  8
AM_6
100
AcDbText
 10
12.0
 20
-20.5805
 30
0.0
 40
0.5
  1
4.050000
100
AcDbAttributeDefinition
  3

  2
Z1
 70
     8
280
     0
  0
ATTDEF
  5
1FB
330
1C9
100
AcDbEntity
  8
AM_6
100
AcDbText
 10
12.0
 20
-21.0805
 30
0.0
 40
0.5
  1
6.2992
100
AcDbAttributeDefinition
  3

  2
BORE
 70
     8
280
     0
  0
ATTDEF
  5
1FC
330
1C9
100
AcDbEntity
  8
AM_6
100
AcDbText
 10
12.0
 20
-21.5805
 30
0.0
 40
0.5
  1
baldor
100
AcDbAttributeDefinition
  3

  2
COMPANY
 70
     8
280
     0
  0
LINE
  5
1FD
330
1C9
100
AcDbEntity
  8
AM_9
100
AcDbLine
 10
3.1496
 20
-1.5705
 30
0.0
 11
3.1496
 21
1.5705
 31
0.0
  0
LINE
  5
1FE
330
1C9
100
AcDbEntity
  8
AM_9
100
AcDbLine
 10
-3.1496
 20
1.5705
 30
0.0
 11
-3.1496
 21
-1.5705
 31
0.0
  0
ELLIPSE
  5
1FF
330
1C9
100
AcDbEntity
  8
AM_9
100
AcDbEllipse
 10
1.97
 20
0.0000000000000003
 30
0.0
 11
-9.184850993605152E-17
 21
-0.5000000000000002
 31
0.0
210
0.0
220
0.0
230
1.0
 40
0.8660254037844407
 41
0.0
 42
3.019856495378997
  0
LINE
  5
200
330
1C9
100
AcDbEntity
  8
AM_9
100
AcDbLine
 10
1.972197157655724
 20
0.4999935608954493
 30
0.0
 11
1.97
 21
0.5000000000000002
 31
0.0
  0
LWPOLYLINE
  5
201
330
1C9
100
AcDbEntity
  8
AM_9
100
AcDbPolyline
 90
       27
 70
     0
 43
0.0
 10
2.020269093754893
 20
-0.4965900949526385
 10
2.065238960849681
 20
-0.4875108951087886
 10
2.110800863358694
 20
-0.4720980807393448
 10
2.154139030057017
 20
-0.4509138500774269
 10
2.19496841155139
 20
-0.4240025786970955
 10
2.232885874978405
 20
-0.3917470193827101
 10
2.267256918550198
 20
-0.3547451361800846
 10
2.297982148770796
 20
-0.3129688823606153
 10
2.324638875605684
 20
-0.2671104106464124
 10
2.346789728176842
 20
-0.2180229198754225
 10
2.36422519869781
 20
-0.1661002848739283
 10
2.376872896573976
 20
-0.1118911623425659
 10
2.384522930210219
 20
-0.0564252701769747
 10
2.387055247649644
 20
-0.0006168346335285
 10
2.384587612848458
 20
0.0553759232512184
 10
2.377160765832404
 20
0.1104932555595938
 10
2.364815727482548
 20
0.164009502975648
 10
2.347683455426826
 20
0.2156404964874624
 10
2.326040803926817
 20
0.2644329372793625
 10
2.299825709351908
 20
0.3101344789395048
 10
2.26938390896272
 20
0.352097391618983
 10
2.235212617360688
 20
0.389548847911366
 10
2.197278043700769
 20
0.4222531970163051
 10
2.15610952921912
 20
0.4497340557695189
 10
2.112422009862085
 20
0.4714681814252336
 10
2.066673227208152
 20
0.4871229757392975
 10
2.019869600791202
 20
0.4966444901833851
  0
LINE
  5
204
330
1C9
100
AcDbEntity
  8
AM_7
100
AcDbLine
 10
0.0
 20
1.9195
 30
0.0
 11
0.0
 21
-2.86984375
 31
0.0
  0
LINE
  5
205
330
1C9
100
AcDbEntity
  8
AM_7
100
AcDbLine
 10
-6.054374999999999
 20
0.0000000000000006
 30
0.0
 11
-4.945625000000001
 21
0.0000000000000003
 31
0.0
  0
LINE
  5
206
330
1C9
100
AcDbEntity
  8
AM_7
100
AcDbLine
 10
-5.594999999999999
 20
-0.4593749999999994
 30
0.0
 11
-5.594999999999999
 21
0.4593750000000006
 31
0.0
  0
LINE
  5
207
330
1C9
100
AcDbEntity
  8
AM_7
100
AcDbLine
 10
4.945625000000001
 20
-0.0000000000000001
 30
0.0
 11
6.054374999999999
 21
-0.0000000000000004
 31
0.0
  0
LINE
  5
208
330
1C9
100
AcDbEntity
  8
AM_7
100
AcDbLine
 10
5.405000000000001
 20
-0.4593750000000001
 30
0.0
 11
5.405000000000001
 21
0.459375
 31
0.0
  0
LINE
  5
209
330
1C9
100
AcDbEntity
  8
AM_7
100
AcDbLine
 10
5.594999999999999
 20
-0.4593750000000004
 30
0.0
 11
5.594999999999999
 21
0.4593749999999996
 31
0.0
  0
LINE
  5
20A
330
1C9
100
AcDbEntity
  8
AM_7
100
AcDbLine
 10
-5.405000000000001
 20
-0.4593749999999998
 30
0.0
 11
-5.405000000000001
 21
0.4593750000000003
 31
0.0
  0
LINE
  5
20B
330
1C9
100
AcDbEntity
  8
AM_4
100
AcDbLine
 10
7.0
 20
-1.396
 30
0.0
 11
7.000000000000001
 21
1.395999999999999
 31
0.0
  0
LINE
  5
20C
330
1C9
100
AcDbEntity
  8
AM_4
100
AcDbLine
 10
7.000000000000001
 20
1.395999999999999
 30
0.0
 11
6.651
 21
1.745
 31
0.0
  0
LINE
  5
20D
330
1C9
100
AcDbEntity
  8
AM_4
100
AcDbLine
 10
6.651000000000001
 20
-1.745
 30
0.0
 11
7.0
 21
-1.396
 31
0.0
  0
LINE
  5
20E
330
1C9
100
AcDbEntity
  8
AM_4
100
AcDbLine
 10
-7.0
 20
1.396
 30
0.0
 11
-7.0
 21
-1.396
 31
0.0
  0
LINE
  5
20F
330
1C9
100
AcDbEntity
  8
AM_4
100
AcDbLine
 10
-6.651000000000005
 20
1.744999999999994
 30
0.0
 11
-7.0
 21
1.396
 31
0.0
  0
LINE
  5
210
330
1C9
100
AcDbEntity
  8
AM_4
100
AcDbLine
 10
-7.0
 20
-1.396
 30
0.0
 11
-6.651000000000005
 21
-1.744999999999995
 31
0.0
  0
LWPOLYLINE
  5
211
330
1C9
100
AcDbEntity
  8
AM_4
100
AcDbPolyline
 90
       13
 70
     0
 43
0.0
 10
6.774999999999999
 20
0.6617887145128386
 10
6.812873140834165
 20
0.5554726427616413
 10
6.844028604553402
 20
0.4471816328142919
 10
6.868739970130854
 20
0.3353359540073266
 10
6.886353117186169
 20
0.2221134913983395
 10
6.896663113796135
 20
0.1099030813406509
 10
6.899997734994055
 20
-0.0028668893618265
 10
6.89614990828259
 20
-0.1180515241459349
 10
6.885026814033568
 20
-0.2326138851197491
 10
6.86760850949022
 20
-0.3412990144606866
 10
6.843641982349713
 20
-0.4486991478121232
 10
6.812633027025114
 20
-0.556219067853405
 10
6.774999999999999
 20
-0.6617887145128383
  0
ARC
  5
212
330
1C9
100
AcDbEntity
  8
AM_4
100
AcDbCircle
 10
5.085642789373816
 20
-0.0000000000000004
 30
0.0
 40
1.814357210626185
100
AcDbArc
 50
285.8933452650369
 51
338.6077367261001
  0
ARC
  5
213
330
1C9
100
AcDbEntity
  8
AM_4
100
AcDbCircle
 10
5.085642789373815
 20
-0.0000000000000004
 30
0.0
 40
1.814357210626186
100
AcDbArc
 50
21.39226327389992
 51
74.10665473496306
  0
LINE
  5
214
330
1C9
100
AcDbEntity
  8
AM_4
100
AcDbLine
 10
5.594999999999999
 20
0.4374999999999998
 30
0.0
 11
5.405000000000001
 21
0.4374999999999998
 31
0.0
  0
ARC
  5
215
330
1C9
100
AcDbEntity
  8
AM_4
100
AcDbCircle
 10
5.594999999999999
 20
-0.0000000000000004
 30
0.0
 40
0.4374999999999997
100
AcDbArc
 50
270.0
 51
90.0
  0
LINE
  5
216
330
1C9
100
AcDbEntity
  8
AM_4
100
AcDbLine
 10
5.405000000000001
 20
-0.4375
 30
0.0
 11
5.595
 21
-0.4375000000000001
 31
0.0
  0
ARC
  5
217
330
1C9
100
AcDbEntity
  8
AM_4
100
AcDbCircle
 10
5.405000000000001
 20
0.0
 30
0.0
 40
0.4374999999999999
100
AcDbArc
 50
90.0
 51
270.0
  0
LINE
  5
218
330
1C9
100
AcDbEntity
  8
AM_4
100
AcDbLine
 10
6.774999999999999
 20
-0.6617887145128389
 30
0.0
 11
6.774999999999999
 21
0.6617887145128384
 31
0.0
  0
LWPOLYLINE
  5
219
330
1C9
100
AcDbEntity
  8
AM_4
100
AcDbPolyline
 90
       13
 70
     0
 43
0.0
 10
-6.775000000000001
 20
-0.6617887145128333
 10
-6.812873140834167
 20
-0.5554726427616364
 10
-6.844028604553403
 20
-0.4471816328142874
 10
-6.868739970130855
 20
-0.3353359540073224
 10
-6.886353117186169
 20
-0.2221134913983357
 10
-6.896663113796135
 20
-0.1099030813406473
 10
-6.899997734994055
 20
0.0028668893618298
 10
-6.896149908282588
 20
0.1180515241459379
 10
-6.885026814033568
 20
0.2326138851197517
 10
-6.86760850949022
 20
0.3412990144606871
 10
-6.843641982349714
 20
0.4486991478121217
 10
-6.812633027025115
 20
0.5562190678534014
 10
-6.775000000000001
 20
0.6617887145128325
  0
LINE
  5
21A
330
1C9
100
AcDbEntity
  8
AM_4
100
AcDbLine
 10
-5.405000000000001
 20
0.4375000000000004
 30
0.0
 11
-5.594999999999999
 21
0.4375000000000005
 31
0.0
  0
ARC
  5
21B
330
1C9
100
AcDbEntity
  8
AM_4
100
AcDbCircle
 10
-5.405000000000001
 20
0.0000000000000003
 30
0.0
 40
0.4374999999999997
100
AcDbArc
 50
270.0
 51
90.0
  0
LINE
  5
21C
330
1C9
100
AcDbEntity
  8
AM_4
100
AcDbLine
 10
-5.594999999999999
 20
-0.4374999999999993
 30
0.0
 11
-5.405
 21
-0.4374999999999994
 31
0.0
  0
ARC
  5
21D
330
1C9
100
AcDbEntity
  8
AM_4
100
AcDbCircle
 10
-5.594999999999999
 20
0.0000000000000007
 30
0.0
 40
0.4374999999999998
100
AcDbArc
 50
90.0
 51
270.0
  0
ARC
  5
21E
330
1C9
100
AcDbEntity
  8
AM_4
100
AcDbCircle
 10
-5.085642789373821
 20
-0.0000000000000033
 30
0.0
 40
1.81435721062618
100
AcDbArc
 50
201.3922632738997
 51
254.1066547349625
  0
ARC
  5
21F
330
1C9
100
AcDbEntity
  8
AM_4
100
AcDbCircle
 10
-5.085642789373814
 20
-0.0000000000000016
 30
0.0
 40
1.814357210626187
100
AcDbArc
 50
105.8933452650376
 51
158.6077367261003
  0
LINE
  5
220
330
1C9
100
AcDbEntity
  8
AM_4
100
AcDbLine
 10
-6.775000000000001
 20
-0.6617887145128334
 30
0.0
 11
-6.775000000000001
 21
0.6617887145128328
 31
0.0
  0
LINE
  5
221
330
1C9
100
AcDbEntity
  8
AM_4
100
AcDbLine
 10
-4.0075
 20
-1.246428571428571
 30
0.0
 11
-4.0075
 21
1.246428571428571
 31
0.0
  0
LINE
  5
222
330
1C9
100
AcDbEntity
  8
AM_4
100
AcDbLine
 10
4.0075
 20
-1.246428571428571
 30
0.0
 11
4.0075
 21
1.246428571428571
 31
0.0
  0
LINE
  5
223
330
1C9
100
AcDbEntity
  8
AM_4
100
AcDbLine
 10
4.362951834958301
 20
1.246428571428572
 30
0.0
 11
4.362951834958301
 21
1.745
 31
0.0
  0
LINE
  5
224
330
1C9
100
AcDbEntity
  8
AM_4
100
AcDbLine
 10
4.339499999999999
 20
1.745
 30
0.0
 11
6.651
 21
1.745
 31
0.0
  0
LINE
  5
225
330
1C9
100
AcDbEntity
  8
AM_4
100
AcDbLine
 10
4.165000000000001
 20
1.5705
 30
0.0
 11
4.339499999999999
 21
1.745
 31
0.0
  0
LINE
  5
226
330
1C9
100
AcDbEntity
  8
AM_4
100
AcDbLine
 10
4.3395
 20
-1.745
 30
0.0
 11
4.164999999999998
 21
-1.5705
 31
0.0
  0
LINE
  5
227
330
1C9
100
AcDbEntity
  8
AM_4
100
AcDbLine
 10
4.3395
 20
-1.745
 30
0.0
 11
6.651000000000001
 21
-1.745
 31
0.0
  0
LINE
  5
228
330
1C9
100
AcDbEntity
  8
AM_4
100
AcDbLine
 10
4.362951834958301
 20
-1.745
 30
0.0
 11
4.362951834958301
 21
-1.246428571428571
 31
0.0
  0
LINE
  5
229
330
1C9
100
AcDbEntity
  8
AM_4
100
AcDbLine
 10
-4.362951834958298
 20
-1.745
 30
0.0
 11
-4.362951834958298
 21
-1.246428571428571
 31
0.0
  0
LINE
  5
22A
330
1C9
100
AcDbEntity
  8
AM_4
100
AcDbLine
 10
-6.651000000000005
 20
-1.744999999999995
 30
0.0
 11
-4.339500000000001
 21
-1.745
 31
0.0
  0
LINE
  5
22B
330
1C9
100
AcDbEntity
  8
AM_4
100
AcDbLine
 10
-4.165000000000001
 20
-1.5705
 30
0.0
 11
-4.339500000000001
 21
-1.745
 31
0.0
  0
LINE
  5
22C
330
1C9
100
AcDbEntity
  8
AM_4
100
AcDbLine
 10
-4.3395
 20
1.745
 30
0.0
 11
-4.164999999999998
 21
1.570499999999999
 31
0.0
  0
LINE
  5
22D
330
1C9
100
AcDbEntity
  8
AM_4
100
AcDbLine
 10
-6.651000000000005
 20
1.744999999999994
 30
0.0
 11
-4.3395
 21
1.745
 31
0.0
  0
LINE
  5
22E
330
1C9
100
AcDbEntity
  8
AM_4
100
AcDbLine
 10
-4.362951834958298
 20
1.246428571428571
 30
0.0
 11
-4.362951834958298
 21
1.745
 31
0.0
  0
LINE
  5
22F
330
1C9
100
AcDbEntity
  8
AM_4
100
AcDbLine
 10
4.139784713896383
 20
1.246428571428572
 30
0.0
 11
4.139784713896383
 21
1.5705
 31
0.0
  0
LINE
  5
230
330
1C9
100
AcDbEntity
  8
AM_4
100
AcDbLine
 10
4.139784713896383
 20
-1.5705
 30
0.0
 11
4.139784713896383
 21
-1.246428571428571
 31
0.0
  0
LINE
  5
231
330
1C9
100
AcDbEntity
  8
AM_4
100
AcDbLine
 10
-4.139784713896383
 20
1.246428571428572
 30
0.0
 11
-4.139784713896383
 21
1.5705
 31
0.0
  0
LINE
  5
232
330
1C9
100
AcDbEntity
  8
AM_4
100
AcDbLine
 10
-4.139784713896383
 20
-1.5705
 30
0.0
 11
-4.139784713896383
 21
-1.246428571428571
 31
0.0
  0
ELLIPSE
  5
233
330
1C9
100
AcDbEntity
  8
AM_4
100
AcDbEllipse
 10
1.97
 20
0.0000000000000002
 30
0.0
 11
-9.184850993605148E-17
 21
-0.5
 31
0.0
210
0.0
220
0.0
230
1.0
 40
0.8660254037844397
 41
3.141592653589793
 42
6.283185307179586
  0
ELLIPSE
  5
234
330
1C9
100
AcDbEntity
  8
AM_4
100
AcDbEllipse
 10
2.02
 20
0.0000000000000002
 30
0.0
 11
2.449293598294707E-17
 21
0.4
 31
0.0
210
0.0
220
0.0
230
1.0
 40
0.8660254037844384
 41
0.0
 42
6.283185307179586
  0
LWPOLYLINE
  5
235
330
1C9
100
AcDbEntity
  8
AM_4
100
AcDbPolyline
 90
       42
 70
     0
 43
0.0
 10
1.970295897799706
 20
-0.4999998905556029
 10
1.971761342789044
 20
-0.4999961220742009
 10
2.007392183243339
 20
-0.4982491676756891
 10
2.04274715426371
 20
-0.4933397734671016
 10
2.077608711166952
 20
-0.4853062927096849
 10
2.111768031522895
 20
-0.4742019579533817
 10
2.145020306529321
 20
-0.4600948048549151
 10
2.177164528705099
 20
-0.4430681122045424
 10
2.208003678910431
 20
-0.4232212020660683
 10
2.237345438281046
 20
-0.4006703540118445
 10
2.265003449821585
 20
-0.3755495596633542
 10
2.290799045743384
 20
-0.3480108705066677
 10
2.314563266163333
 20
-0.3182241702290339
 10
2.336138945288581
 20
-0.2863763140265953
 10
2.355382644112603
 20
-0.2526696918978393
 10
2.372166258796947
 20
-0.2173203611521128
 10
2.38637821207903
 20
-0.1805559366420646
 10
2.397924216641336
 20
-0.1426134236474474
 10
2.406727664264634
 20
-0.1037371401229222
 10
2.41272973291289
 20
-0.0641768207134187
 10
2.415889316192707
 20
-0.0241859412372496
 10
2.416182872921752
 20
0.0159797406419318
 10
2.413604277524253
 20
0.0560634621487293
 10
2.408164989013051
 20
0.0958071189254707
 10
2.399893947299175
 20
0.1349550563905684
 10
2.38883764860015
 20
0.1732539953905441
 10
2.375060440650101
 20
0.2104540733511662
 10
2.358644878144793
 20
0.24631023295035
 10
2.339692072545513
 20
0.2805838587801578
 10
2.318321930206839
 20
0.3130447125191789
 10
2.294673140943304
 20
0.34347317913398
 10
2.268902762410117
 20
0.3716627771436252
 10
2.241185257673373
 20
0.3974228107138971
 10
2.211710894295543
 20
0.4205809659987312
 10
2.180683502808541
 20
0.4409856025645306
 10
2.1483177048424
 20
0.4585074870437209
 10
2.114835827291027
 20
0.4730407732172239
 10
2.080464786449334
 20
0.4845031431470392
 10
2.04543323363584
 20
0.4928351604278913
 10
2.009969200314397
 20
0.4979990125632086
 10
1.974298384262041
 20
0.4999769043241757
 10
1.969485928447814
 20
0.4999996696629385
  0
LINE
  5
236
330
1C9
100
AcDbEntity
  8
AM_4
100
AcDbLine
 10
-3.907904253262009
 20
1.246428571428572
 30
0.0
 11
-3.907904253262009
 21
1.5705
 31
0.0
  0
LINE
  5
237
330
1C9
100
AcDbEntity
  8
AM_4
100
AcDbLine
 10
-3.895
 20
1.246428571428572
 30
0.0
 11
-4.362951834958298
 21
1.246428571428571
 31
0.0
  0
LINE
  5
238
330
1C9
100
AcDbEntity
  8
AM_4
100
AcDbLine
 10
-3.895
 20
-1.246428571428571
 30
0.0
 11
-3.895
 21
1.246428571428572
 31
0.0
  0
LINE
  5
239
330
1C9
100
AcDbEntity
  8
AM_4
100
AcDbLine
 10
-3.895
 20
-1.246428571428571
 30
0.0
 11
-4.362951834958298
 21
-1.246428571428571
 31
0.0
  0
LINE
  5
23A
330
1C9
100
AcDbEntity
  8
AM_4
100
AcDbLine
 10
-3.907904253262009
 20
-1.5705
 30
0.0
 11
-3.907904253262009
 21
-1.246428571428571
 31
0.0
  0
LINE
  5
23B
330
1C9
100
AcDbEntity
  8
AM_4
100
AcDbLine
 10
3.90790425326201
 20
1.246428571428572
 30
0.0
 11
3.90790425326201
 21
1.5705
 31
0.0
  0
LINE
  5
23C
330
1C9
100
AcDbEntity
  8
AM_4
100
AcDbLine
 10
3.90790425326201
 20
-1.5705
 30
0.0
 11
3.90790425326201
 21
-1.246428571428571
 31
0.0
  0
LINE
  5
23D
330
1C9
100
AcDbEntity
  8
AM_4
100
AcDbLine
 10
4.362951834958301
 20
-1.246428571428571
 30
0.0
 11
3.895
 21
-1.246428571428571
 31
0.0
  0
LINE
  5
23E
330
1C9
100
AcDbEntity
  8
AM_4
100
AcDbLine
 10
3.895
 20
1.246428571428572
 30
0.0
 11
3.895
 21
-1.246428571428571
 31
0.0
  0
LINE
  5
23F
330
1C9
100
AcDbEntity
  8
AM_4
100
AcDbLine
 10
4.362951834958301
 20
1.246428571428572
 30
0.0
 11
3.895
 21
1.246428571428572
 31
0.0
  0
LWPOLYLINE
  5
240
330
1C9
100
AcDbEntity
  8
AM_4
100
AcDbPolyline
 90
       29
 70
     0
 43
0.0
 10
1.97
 20
0.5000000000000002
 10
1.921838561262416
 20
0.4968843103833099
 10
1.873748574634001
 20
0.4876546704667225
 10
1.826643991626261
 20
0.4724872236504638
 10
1.780772335797339
 20
0.4513221193254502
 10
1.736839221977382
 20
0.4245082723738533
 10
1.69570642637315
 20
0.3925463582334494
 10
1.657604261897375
 20
0.3553977907555265
 10
1.623198386998423
 20
0.3136755968178323
 10
1.593193512955952
 20
0.2681520397533501
 10
1.567922077172867
 20
0.2190191818872047
 10
1.54773067096152
 20
0.1669386188752161
 10
1.53305693782877
 20
0.112893682610622
 10
1.524082196963076
 20
0.0568191383963514
 10
1.521059968199658
 20
0.0000000000000002
 10
1.524003021075559
 20
-0.0557926543266122
 10
1.532705104092562
 20
-0.1110552451343543
 10
1.546975603834617
 20
-0.1647462246669787
 10
1.566713856422607
 20
-0.2163195146072991
 10
1.591604946689193
 20
-0.2653414574309201
 10
1.621126902597832
 20
-0.310908260682284
 10
1.655185659195039
 20
-0.3527518278191411
 10
1.693200662041338
 20
-0.3902996536593794
 10
1.73440235479181
 20
-0.4228543010646044
 10
1.778538847583769
 20
-0.4501202281596073
 10
1.824969994646825
 20
-0.4717884040946769
 10
1.872771499780511
 20
-0.4874409978143704
 10
1.921269525060928
 20
-0.4968395940516618
 10
1.97
 20
-0.4999999999999998
  0
LINE
  5
241
330
1C9
100
AcDbEntity
  8
AM_4
100
AcDbLine
 10
-1.049866666666667
 20
-1.5705
 30
0.0
 11
-1.049866666666667
 21
1.5705
 31
0.0
  0
LINE
  5
242
330
1C9
100
AcDbEntity
  8
AM_4
100
AcDbLine
 10
-0.9373666666666675
 20
-1.5705
 30
0.0
 11
-0.9373666666666642
 21
1.5705
 31
0.0
  0
LINE
  5
243
330
1C9
100
AcDbEntity
  8
AM_4
100
AcDbLine
 10
1.049866666666667
 20
-1.5705
 30
0.0
 11
1.049866666666667
 21
1.5705
 31
0.0
  0
LINE
  5
244
330
1C9
100
AcDbEntity
  8
AM_4
100
AcDbLine
 10
4.165000000000001
 20
1.5705
 30
0.0
 11
-4.164999999999997
 21
1.5705
 31
0.0
  0
LINE
  5
245
330
1C9
100
AcDbEntity
  8
AM_4
100
AcDbLine
 10
0.9373666666666642
 20
-1.5705
 30
0.0
 11
0.9373666666666675
 21
1.5705
 31
0.0
  0
LINE
  5
246
330
1C9
100
AcDbEntity
  8
AM_4
100
AcDbLine
 10
-4.165000000000001
 20
-1.5705
 30
0.0
 11
4.164999999999997
 21
-1.5705
 31
0.0
  0
ENDBLK
  5
1CC
330
1C9
100
AcDbEntity
  8
0
100
AcDbBlockEnd
  0
ENDSEC
  0
SECTION
  2
ENTITIES
  0
INSERT
  5
6F
330
1F
100
AcDbEntity
  8
0
100
AcDbBlockReference
  2
1_071182_4
 10
0.0
 20
0.0
 30
0.0
  0
POINT
  5
248
330
1F
100
AcDbEntity
  8
ConnectionPoints
100
AcDbPoint
 10
0.0
 20
-2.412833333333333
 30
2.222222222222222
  0
POINT
  5
249
330
1F
100
AcDbEntity
  8
ConnectionPoints
100
AcDbPoint
 10
0.0
 20
-2.342833333333334
 30
0.0000000000000001
  0
POINT
  5
24A
330
1F
100
AcDbEntity
  8
ConnectionPoints
100
AcDbPoint
 10
0.0
 20
-2.66
 30
0.0000000000000002
  0
POINT
  5
24B
330
1F
100
AcDbEntity
  8
ConnectionPoints
100
AcDbPoint
 10
0.0
 20
-2.541833333333333
 30
0.0000000000000002
  0
POINT
  5
24C
330
1F
100
AcDbEntity
  8
ConnectionPoints
100
AcDbPoint
 10
0.0
 20
-2.342833333333334
 30
2.222222222222222
  0
POINT
  5
24D
330
1F
100
AcDbEntity
  8
ConnectionPoints
100
AcDbPoint
 10
0.0
 20
-2.342833333333334
 30
-2.222222222222222
  0
POINT
  5
24E
330
1F
100
AcDbEntity
  8
ConnectionPoints
100
AcDbPoint
 10
0.0
 20
-2.342833333333334
 30
0.0000000000000001
  0
POINT
  5
24F
330
1F
100
AcDbEntity
  8
ConnectionPoints
100
AcDbPoint
 10
2.02
 20
0.0000000000000002
 30
3.498742631289133
  0
POINT
  5
250
330
1F
100
AcDbEntity
  8
ConnectionPoints
100
AcDbPoint
 10
2.02
 20
0.0000000000000002
 30
3.498742631289133
  0
POINT
  5
251
330
1F
100
AcDbEntity
  8
ConnectionPoints
100
AcDbPoint
 10
0.0
 20
-2.41
 30
0.0000000000000001
  0
POINT
  5
252
330
1F
100
AcDbEntity
  8
ConnectionPoints
100
AcDbPoint
 10
0.0
 20
-2.66
 30
0.0000000000000002
  0
ENDSEC
  0
SECTION
  2
OBJECTS
  0
DICTIONARY
  5
C
330
0
100
AcDbDictionary
281
     1
  3
ACAD_DETAILVIEWSTYLE
350
25A
  3
ACAD_GROUP
350
D
  3
ACAD_LAYOUT
350
1A
  3
ACAD_MATERIAL
350
43
  3
ACAD_MLEADERSTYLE
350
6B
  3
ACAD_MLINESTYLE
350
17
  3
ACAD_PLOTSETTINGS
350
19
  3
ACAD_PLOTSTYLENAME
350
E
  3
ACAD_SCALELIST
350
47
  3
ACAD_SECTIONVIEWSTYLE
350
25B
  3
ACAD_TABLESTYLE
350
69
  3
ACAD_VISUALSTYLE
350
2A
  3
ACDB_RECOMPOSE_DATA
350
257
  3
AcDbVariableDictionary
350
253
  0
SUN
  5
6D
330
29
100
AcDbSun
 90
        1
290
     0
 63
     7
421
 16777215
 40
1.0
291
     1
 91
  2455826
 92
 54000000
292
     0
 70
     2
 71
   256
280
     1
  0
DICTIONARY
  5
25A
102
{ACAD_REACTORS
330
C
102
}
330
C
100
AcDbDictionary
281
     1
  0
DICTIONARY
  5
D
102
{ACAD_REACTORS
330
C
102
}
330
C
100
AcDbDictionary
281
     1
  0
DICTIONARY
  5
1A
102
{ACAD_REACTORS
330
C
102
}
330
C
100
AcDbDictionary
281
     1
  3
Layout1
350
1E
  3
Layout2
350
26
  3
Model
350
22
  0
DICTIONARY
  5
43
102
{ACAD_REACTORS
330
C
102
}
330
C
100
AcDbDictionary
281
     1
  3
ByBlock
350
45
  3
ByLayer
350
44
  3
Global
350
46
  0
DICTIONARY
  5
6B
102
{ACAD_REACTORS
330
C
102
}
330
C
100
AcDbDictionary
281
     1
  3
Standard
350
6C
  0
DICTIONARY
  5
17
102
{ACAD_REACTORS
330
C
102
}
330
C
100
AcDbDictionary
281
     1
  3
Standard
350
18
  0
DICTIONARY
  5
19
102
{ACAD_REACTORS
330
C
102
}
330
C
100
AcDbDictionary
281
     1
  0
ACDBDICTIONARYWDFLT
  5
E
102
{ACAD_REACTORS
330
C
102
}
330
C
100
AcDbDictionary
281
     1
  3
Normal
350
F
100
AcDbDictionaryWithDefault
340
F
  0
DICTIONARY
  5
47
102
{ACAD_REACTORS
330
C
102
}
330
C
100
AcDbDictionary
281
     1
  3
A0
350
48
  3
A1
350
49
  3
A2
350
4A
  3
A3
350
4B
  3
A4
350
4C
  3
A5
350
4D
  3
A6
350
4E
  3
A7
350
4F
  3
A8
350
50
  3
A9
350
51
  3
B0
350
52
  3
B1
350
53
  3
B2
350
54
  3
B3
350
55
  3
B4
350
56
  3
B5
350
57
  3
B6
350
58
  3
B7
350
59
  3
B8
350
5A
  3
B9
350
5B
  3
C0
350
5C
  3
C1
350
5D
  3
C2
350
5E
  3
C3
350
5F
  3
C4
350
60
  3
C5
350
61
  3
C6
350
62
  3
C7
350
63
  3
C8
350
64
  3
C9
350
65
  3
D0
350
66
  3
D1
350
67
  3
D2
350
68
  0
DICTIONARY
  5
25B
102
{ACAD_REACTORS
330
C
102
}
330
C
100
AcDbDictionary
281
     1
  0
DICTIONARY
  5
69
102
{ACAD_REACTORS
330
C
102
}
330
C
100
AcDbDictionary
281
     1
  3
Standard
350
6A
  0
DICTIONARY
  5
2A
102
{ACAD_REACTORS
330
C
102
}
330
C
100
AcDbDictionary
281
     1
  3
2dWireframe
350
2F
  3
Basic
350
32
  3
Brighten
350
36
  3
ColorChange
350
3A
  3
Conceptual
350
34
  3
Dim
350
35
  3
EdgeColorOff
350
3D
  3
Facepattern
350
39
  3
Flat
350
2B
  3
FlatWithEdges
350
2C
  3
Gouraud
350
2D
  3
GouraudWithEdges
350
2E
  3
Hidden
350
31
  3
JitterOff
350
3B
  3
Linepattern
350
38
  3
OverhangOff
350
3C
  3
Realistic
350
33
  3
Shaded
350
42
  3
Shaded with edges
350
41
  3
Shades of Gray
350
3E
  3
Sketchy
350
3F
  3
Thicken
350
37
  3
Wireframe
350
30
  3
X-Ray
350
40
  0
XRECORD
  5
257
102
{ACAD_REACTORS
330
C
102
}
330
C
100
AcDbXrecord
280
     1
 90
        1
330
6A
  0
DICTIONARY
  5
253
102
{ACAD_REACTORS
330
C
102
}
330
C
100
AcDbDictionary
281
     1
  3
CANNOSCALE
350
254
  3
CMLEADERSTYLE
350
259
  3
CTABLESTYLE
350
258
  0
LAYOUT
  5
1E
102
{ACAD_REACTORS
330
1A
102
}
330
1A
100
AcDbPlotSettings
  1

  2
none_device
  4

  6

 40
0.0
 41
0.0
 42
0.0
 43
0.0
 44
0.0
 45
0.0
 46
0.0
 47
0.0
 48
0.0
 49
0.0
140
0.0
141
0.0
142
1.0
143
1.0
 70
   688
 72
     0
 73
     0
 74
     5
  7

 75
    16
 76
     0
 77
     2
 78
   300
147
1.0
148
0.0
149
0.0
100
AcDbLayout
  1
Layout1
 70
     1
 71
     1
 10
0.0
 20
0.0
 11
12.0
 21
9.0
 12
0.0
 22
0.0
 32
0.0
 14
1.000000000000000E+20
 24
1.000000000000000E+20
 34
1.000000000000000E+20
 15
-1.000000000000000E+20
 25
-1.000000000000000E+20
 35
-1.000000000000000E+20
146
0.0
 13
0.0
 23
0.0
 33
0.0
 16
1.0
 26
0.0
 36
0.0
 17
0.0
 27
1.0
 37
0.0
 76
     0
330
1B
  0
LAYOUT
  5
26
102
{ACAD_REACTORS
330
1A
102
}
330
1A
100
AcDbPlotSettings
  1

  2
none_device
  4

  6

 40
0.0
 41
0.0
 42
0.0
 43
0.0
 44
0.0
 45
0.0
 46
0.0
 47
0.0
 48
0.0
 49
0.0
140
0.0
141
0.0
142
1.0
143
1.0
 70
   688
 72
     0
 73
     0
 74
     5
  7

 75
    16
 76
     0
 77
     2
 78
   300
147
1.0
148
0.0
149
0.0
100
AcDbLayout
  1
Layout2
 70
     1
 71
     2
 10
0.0
 20
0.0
 11
0.0
 21
0.0
 12
0.0
 22
0.0
 32
0.0
 14
0.0
 24
0.0
 34
0.0
 15
0.0
 25
0.0
 35
0.0
146
0.0
 13
0.0
 23
0.0
 33
0.0
 16
1.0
 26
0.0
 36
0.0
 17
0.0
 27
1.0
 37
0.0
 76
     0
330
23
  0
LAYOUT
  5
22
102
{ACAD_REACTORS
330
1A
102
}
330
1A
100
AcDbPlotSettings
  1

  2
none_device
  4
Letter_(8.50_x_11.00_Inches)
  6

 40
6.35
 41
6.35
 42
6.35000508
 43
6.35000508
 44
215.9
 45
279.4
 46
0.0
 47
0.0
 48
0.0
 49
0.0
140
0.0
141
0.0
142
1.0
143
1.0
 70
  1712
 72
     0
 73
     0
 74
     0
  7

 75
     0
 76
     0
 77
     2
 78
   300
147
1.0
148
0.0
149
0.0
100
AcDbLayout
  1
Model
 70
     1
 71
     0
 10
0.0
 20
0.0
 11
12.0
 21
9.0
 12
0.0
 22
0.0
 32
0.0
 14
1.000000000000000E+20
 24
1.000000000000000E+20
 34
1.000000000000000E+20
 15
-1.000000000000000E+20
 25
-1.000000000000000E+20
 35
-1.000000000000000E+20
146
0.0
 13
0.0
 23
0.0
 33
0.0
 16
1.0
 26
0.0
 36
0.0
 17
0.0
 27
1.0
 37
0.0
 76
     0
330
1F
331
29
  0
MATERIAL
  5
45
102
{ACAD_REACTORS
330
43
102
}
330
43
100
AcDbMaterial
  1
ByBlock
 72
     1
 94
      127
  0
MATERIAL
  5
44
102
{ACAD_REACTORS
330
43
102
}
330
43
100
AcDbMaterial
  1
ByLayer
 72
     1
 94
      127
  0
MATERIAL
  5
46
102
{ACAD_REACTORS
330
43
102
}
330
43
100
AcDbMaterial
  1
Global
 72
     1
 94
      127
  0
MLEADERSTYLE
  5
6C
102
{ACAD_REACTORS
330
6B
102
}
330
6B
100
AcDbMLeaderStyle
179
     2
170
     2
171
     1
172
     0
 90
        2
 40
0.0
 41
0.0
173
     1
 91
-1056964608
340
14
 92
       -2
290
     1
 42
0.09
291
     1
 43
0.36
  3
Standard
341
0
 44
0.18
300

342
11
174
     1
178
     6
175
     1
176
     0
 93
-1056964608
 45
0.18
292
     0
297
     0
 46
0.18
343
0
 94
-1056964608
 47
1.0
 49
1.0
140
1.0
293
     1
141
0.0
294
     1
177
     0
142
1.0
295
     0
296
     0
143
0.125
271
     0
272
     9
273
     9
298
     0
  0
MLINESTYLE
  5
18
102
{ACAD_REACTORS
330
17
102
}
330
17
100
AcDbMlineStyle
  2
Standard
 70
     0
  3

 62
   256
 51
90.0
 52
90.0
 71
     2
 49
0.5
 62
   256
  6
BYLAYER
 49
-0.5
 62
   256
  6
BYLAYER
  0
ACDBPLACEHOLDER
  5
F
102
{ACAD_REACTORS
330
E
102
}
330
E
  0
SCALE
  5
48
102
{ACAD_REACTORS
330
47
102
}
330
47
100
AcDbScale
 70
     0
300
1:1
140
1.0
141
1.0
290
     1
  0
SCALE
  5
49
102
{ACAD_REACTORS
330
47
102
}
330
47
100
AcDbScale
 70
     0
300
1:2
140
1.0
141
2.0
290
     0
  0
SCALE
  5
4A
102
{ACAD_REACTORS
330
47
102
}
330
47
100
AcDbScale
 70
     0
300
1:4
140
1.0
141
4.0
290
     0
  0
SCALE
  5
4B
102
{ACAD_REACTORS
330
47
102
}
330
47
100
AcDbScale
 70
     0
300
1:5
140
1.0
141
5.0
290
     0
  0
SCALE
  5
4C
102
{ACAD_REACTORS
330
47
102
}
330
47
100
AcDbScale
 70
     0
300
1:8
140
1.0
141
8.0
290
     0
  0
SCALE
  5
4D
102
{ACAD_REACTORS
330
47
102
}
330
47
100
AcDbScale
 70
     0
300
1:10
140
1.0
141
10.0
290
     0
  0
SCALE
  5
4E
102
{ACAD_REACTORS
330
47
102
}
330
47
100
AcDbScale
 70
     0
300
1:16
140
1.0
141
16.0
290
     0
  0
SCALE
  5
4F
102
{ACAD_REACTORS
330
47
102
}
330
47
100
AcDbScale
 70
     0
300
1:20
140
1.0
141
20.0
290
     0
  0
SCALE
  5
50
102
{ACAD_REACTORS
330
47
102
}
330
47
100
AcDbScale
 70
     0
300
1:30
140
1.0
141
30.0
290
     0
  0
SCALE
  5
51
102
{ACAD_REACTORS
330
47
102
}
330
47
100
AcDbScale
 70
     0
300
1:40
140
1.0
141
40.0
290
     0
  0
SCALE
  5
52
102
{ACAD_REACTORS
330
47
102
}
330
47
100
AcDbScale
 70
     0
300
1:50
140
1.0
141
50.0
290
     0
  0
SCALE
  5
53
102
{ACAD_REACTORS
330
47
102
}
330
47
100
AcDbScale
 70
     0
300
1:100
140
1.0
141
100.0
290
     0
  0
SCALE
  5
54
102
{ACAD_REACTORS
330
47
102
}
330
47
100
AcDbScale
 70
     0
300
2:1
140
2.0
141
1.0
290
     0
  0
SCALE
  5
55
102
{ACAD_REACTORS
330
47
102
}
330
47
100
AcDbScale
 70
     0
300
4:1
140
4.0
141
1.0
290
     0
  0
SCALE
  5
56
102
{ACAD_REACTORS
330
47
102
}
330
47
100
AcDbScale
 70
     0
300
8:1
140
8.0
141
1.0
290
     0
  0
SCALE
  5
57
102
{ACAD_REACTORS
330
47
102
}
330
47
100
AcDbScale
 70
     0
300
10:1
140
10.0
141
1.0
290
     0
  0
SCALE
  5
58
102
{ACAD_REACTORS
330
47
102
}
330
47
100
AcDbScale
 70
     0
300
100:1
140
100.0
141
1.0
290
     0
  0
SCALE
  5
59
102
{ACAD_REACTORS
330
47
102
}
330
47
100
AcDbScale
 70
     0
300
1/128" = 1'-0"
140
0.0078125
141
12.0
290
     0
  0
SCALE
  5
5A
102
{ACAD_REACTORS
330
47
102
}
330
47
100
AcDbScale
 70
     0
300
1/64" = 1'-0"
140
0.015625
141
12.0
290
     0
  0
SCALE
  5
5B
102
{ACAD_REACTORS
330
47
102
}
330
47
100
AcDbScale
 70
     0
300
1/32" = 1'-0"
140
0.03125
141
12.0
290
     0
  0
SCALE
  5
5C
102
{ACAD_REACTORS
330
47
102
}
330
47
100
AcDbScale
 70
     0
300
1/16" = 1'-0"
140
0.0625
141
12.0
290
     0
  0
SCALE
  5
5D
102
{ACAD_REACTORS
330
47
102
}
330
47
100
AcDbScale
 70
     0
300
3/32" = 1'-0"
140
0.09375
141
12.0
290
     0
  0
SCALE
  5
5E
102
{ACAD_REACTORS
330
47
102
}
330
47
100
AcDbScale
 70
     0
300
1/8" = 1'-0"
140
0.125
141
12.0
290
     0
  0
SCALE
  5
5F
102
{ACAD_REACTORS
330
47
102
}
330
47
100
AcDbScale
 70
     0
300
3/16" = 1'-0"
140
0.1875
141
12.0
290
     0
  0
SCALE
  5
60
102
{ACAD_REACTORS
330
47
102
}
330
47
100
AcDbScale
 70
     0
300
1/4" = 1'-0"
140
0.25
141
12.0
290
     0
  0
SCALE
  5
61
102
{ACAD_REACTORS
330
47
102
}
330
47
100
AcDbScale
 70
     0
300
3/8" = 1'-0"
140
0.375
141
12.0
290
     0
  0
SCALE
  5
62
102
{ACAD_REACTORS
330
47
102
}
330
47
100
AcDbScale
 70
     0
300
1/2" = 1'-0"
140
0.5
141
12.0
290
     0
  0
SCALE
  5
63
102
{ACAD_REACTORS
330
47
102
}
330
47
100
AcDbScale
 70
     0
300
3/4" = 1'-0"
140
0.75
141
12.0
290
     0
  0
SCALE
  5
64
102
{ACAD_REACTORS
330
47
102
}
330
47
100
AcDbScale
 70
     0
300
1" = 1'-0"
140
1.0
141
12.0
290
     0
  0
SCALE
  5
65
102
{ACAD_REACTORS
330
47
102
}
330
47
100
AcDbScale
 70
     0
300
1-1/2" = 1'-0"
140
1.5
141
12.0
290
     0
  0
SCALE
  5
66
102
{ACAD_REACTORS
330
47
102
}
330
47
100
AcDbScale
 70
     0
300
3" = 1'-0"
140
3.0
141
12.0
290
     0
  0
SCALE
  5
67
102
{ACAD_REACTORS
330
47
102
}
330
47
100
AcDbScale
 70
     0
300
6" = 1'-0"
140
6.0
141
12.0
290
     0
  0
SCALE
  5
68
102
{ACAD_REACTORS
330
47
102
}
330
47
100
AcDbScale
 70
     0
300
1'-0" = 1'-0"
140
12.0
141
12.0
290
     0
  0
TABLESTYLE
  5
6A
102
{ACAD_REACTORS
330
69
102
}
102
{ACAD_XDICTIONARY
360
255
102
}
330
69
100
AcDbTableStyle
  3
Standard
 70
     0
 71
     0
 40
0.06
 41
0.06
280
     0
281
     0
  7
Standard
140
0.18
170
     2
 62
     0
 63
   257
283
     0
 90
        4
 91
        0
  1

274
    -2
284
     1
 64
     0
275
    -2
285
     1
 65
     0
276
    -2
286
     1
 66
     0
277
    -2
287
     1
 67
     0
278
    -2
288
     1
 68
     0
279
    -2
289
     1
 69
     0
  7
Standard
140
0.25
170
     5
 62
     0
 63
   257
283
     0
 90
        4
 91
        0
  1

274
    -2
284
     1
 64
     0
275
    -2
285
     1
 65
     0
276
    -2
286
     1
 66
     0
277
    -2
287
     1
 67
     0
278
    -2
288
     1
 68
     0
279
    -2
289
     1
 69
     0
  7
Standard
140
0.18
170
     5
 62
     0
 63
   257
283
     0
 90
        4
 91
        0
  1

274
    -2
284
     1
 64
     0
275
    -2
285
     1
 65
     0
276
    -2
286
     1
 66
     0
277
    -2
287
     1
 67
     0
278
    -2
288
     1
 68
     0
279
    -2
289
     1
 69
     0
  0
VISUALSTYLE
  5
2F
102
{ACAD_REACTORS
330
2A
102
}
330
2A
100
AcDbVisualStyle
  2
2dWireframe
 70
     4
177
     3
291
     0
 70
    58
 90
        0
176
     1
 90
        2
176
     1
 90
        0
176
     1
 90
        0
176
     1
 40
0.6
176
     1
 40
30.0
176
     1
 62
     7
420
 16777215
176
     1
 90
        1
176
     1
 90
        4
176
     1
 62
     7
176
     1
 62
   257
176
     1
 90
        1
176
     1
 90
        1
176
     1
 40
1.0
176
     1
 90
        0
176
     1
 62
   257
176
     1
 40
1.0
176
     1
 90
        1
176
     1
 90
        6
176
     1
 90
        2
176
     1
 62
     7
176
     1
 90
        5
176
     1
 90
        0
176
     1
 90
        0
176
     1
290
     0
176
     1
 90
        1
176
     1
 40
0.0
176
     1
 90
        0
176
     1
290
     1
176
     1
290
     1
176
     1
290
     0
176
     1
290
     0
176
     1
290
     0
176
     1
290
     0
176
     1
290
     0
176
     1
290
     0
176
     1
290
     0
176
     1
 90
       50
176
     1
 40
0.0
176
     1
 40
1.0
176
     1
 90
        0
176
     1
 62
    18
420
        0
176
     1
 90
       50
176
     1
 90
        3
176
     1
 62
     5
420
      255
176
     1
290
     0
176
     1
 90
       50
176
     1
 90
       50
176
     1
 90
       50
176
     1
290
     0
176
     1
 90
       50
176
     1
 62
   256
176
     0
 40
1.0
176
     0
 90
        2
176
     1
  1
strokes_ogs.tif
176
     1
290
     0
176
     1
 40
1.0
176
     1
 40
1.0
176
     1
  0
VISUALSTYLE
  5
32
102
{ACAD_REACTORS
330
2A
102
}
330
2A
100
AcDbVisualStyle
  2
Basic
 70
     7
177
     3
291
     1
 70
    58
 90
        1
176
     1
 90
        0
176
     1
 90
        1
176
     1
 90
        0
176
     1
 40
0.6
176
     1
 40
30.0
176
     1
 62
     7
420
 16777215
176
     1
 90
        0
176
     1
 90
        4
176
     1
 62
     7
176
     1
 62
   257
176
     1
 90
        1
176
     1
 90
        1
176
     1
 40
1.0
176
     1
 90
        8
176
     1
 62
     7
176
     1
 40
1.0
176
     1
 90
        1
176
     1
 90
        6
176
     1
 90
        2
176
     1
 62
     7
176
     1
 90
        5
176
     1
 90
        0
176
     1
 90
        0
176
     1
290
     0
176
     1
 90
        1
176
     1
 40
0.0
176
     1
 90
        0
176
     1
290
     0
176
     1
290
     1
176
     1
290
     1
176
     1
290
     0
176
     1
290
     0
176
     1
290
     0
176
     1
290
     0
176
     1
290
     0
176
     1
290
     0
176
     1
 90
       50
176
     1
 40
0.0
176
     1
 40
1.0
176
     1
 90
        0
176
     1
 62
    18
420
        0
176
     1
 90
       50
176
     1
 90
        3
176
     1
 62
     5
420
      255
176
     1
290
     0
176
     1
 90
       50
176
     1
 90
       50
176
     1
 90
       50
176
     1
290
     0
176
     1
 90
       50
176
     1
 62
   256
176
     0
 40
1.0
176
     0
 90
        2
176
     1
  1
strokes_ogs.tif
176
     1
290
     0
176
     1
 40
1.0
176
     1
 40
1.0
176
     1
  0
VISUALSTYLE
  5
36
102
{ACAD_REACTORS
330
2A
102
}
330
2A
100
AcDbVisualStyle
  2
Brighten
 70
    12
177
     3
291
     1
 70
    58
 90
        2
176
     1
 90
        2
176
     1
 90
        0
176
     1
 90
        0
176
     1
 40
0.6
176
     1
 40
30.0
176
     1
 62
     7
420
 16777215
176
     1
 90
        1
176
     1
 90
        4
176
     1
 62
     7
176
     1
 62
   257
176
     1
 90
        1
176
     1
 90
        1
176
     1
 40
1.0
176
     1
 90
        8
176
     1
 62
     7
176
     1
 40
1.0
176
     1
 90
        1
176
     1
 90
        6
176
     1
 90
        2
176
     1
 62
     7
176
     1
 90
        5
176
     1
 90
        0
176
     1
 90
        0
176
     1
290
     0
176
     1
 90
        1
176
     1
 40
50.0
176
     1
 90
        0
176
     1
290
     0
176
     1
290
     1
176
     1
290
     1
176
     1
290
     0
176
     1
290
     0
176
     1
290
     0
176
     1
290
     0
176
     1
290
     0
176
     1
290
     0
176
     1
 90
       50
176
     1
 40
0.0
176
     1
 40
1.0
176
     1
 90
        0
176
     1
 62
    18
420
        0
176
     1
 90
       50
176
     1
 90
        3
176
     1
 62
     5
420
      255
176
     1
290
     0
176
     1
 90
       50
176
     1
 90
       50
176
     1
 90
       50
176
     1
290
     0
176
     1
 90
       50
176
     1
 62
   256
176
     0
 40
1.0
176
     0
 90
        2
176
     1
  1
strokes_ogs.tif
176
     1
290
     0
176
     1
 40
1.0
176
     1
 40
1.0
176
     1
  0
VISUALSTYLE
  5
3A
102
{ACAD_REACTORS
330
2A
102
}
330
2A
100
AcDbVisualStyle
  2
ColorChange
 70
    16
177
     3
291
     1
 70
    58
 90
        2
176
     1
 90
        2
176
     1
 90
        3
176
     1
 90
        0
176
     1
 40
0.6
176
     1
 40
30.0
176
     1
 62
     8
420
  8421504
176
     1
 90
        1
176
     1
 90
        4
176
     1
 62
     7
176
     1
 62
   257
176
     1
 90
        1
176
     1
 90
        1
176
     1
 40
1.0
176
     1
 90
        8
176
     1
 62
     8
420
  8421504
176
     1
 40
1.0
176
     1
 90
        1
176
     1
 90
        6
176
     1
 90
        2
176
     1
 62
     7
176
     1
 90
        5
176
     1
 90
        0
176
     1
 90
        0
176
     1
290
     0
176
     1
 90
        1
176
     1
 40
0.0
176
     1
 90
        0
176
     1
290
     0
176
     1
290
     1
176
     1
290
     1
176
     1
290
     0
176
     1
290
     0
176
     1
290
     0
176
     1
290
     0
176
     1
290
     0
176
     1
290
     0
176
     1
 90
       50
176
     1
 40
0.0
176
     1
 40
1.0
176
     1
 90
        0
176
     1
 62
    18
420
        0
176
     1
 90
       50
176
     1
 90
        3
176
     1
 62
     5
420
      255
176
     1
290
     0
176
     1
 90
       50
176
     1
 90
       50
176
     1
 90
       50
176
     1
290
     0
176
     1
 90
       50
176
     1
 62
   256
176
     0
 40
1.0
176
     0
 90
        2
176
     1
  1
strokes_ogs.tif
176
     1
290
     0
176
     1
 40
1.0
176
     1
 40
1.0
176
     1
  0
VISUALSTYLE
  5
34
102
{ACAD_REACTORS
330
2A
102
}
330
2A
100
AcDbVisualStyle
  2
Conceptual
 70
     9
177
     3
291
     0
 70
    58
 90
        3
176
     1
 90
        2
176
     1
 90
        0
176
     1
 90
        0
176
     1
 40
0.6
176
     1
 40
30.0
176
     1
 62
     7
420
 16777215
176
     1
 90
        2
176
     1
 90
        2
176
     1
 62
     7
176
     1
 62
   257
176
     1
 90
        1
176
     1
 90
        1
176
     1
 40
179.0
176
     1
 90
        8
176
     1
 62
     7
176
     1
 40
1.0
176
     1
 90
        1
176
     1
 90
        6
176
     1
 90
        2
176
     1
 62
     7
176
     1
 90
        3
176
     1
 90
        0
176
     1
 90
        0
176
     1
290
     0
176
     1
 90
        1
176
     1
 40
0.0
176
     1
 90
        0
176
     1
290
     0
176
     1
290
     1
176
     1
290
     1
176
     1
290
     0
176
     1
290
     0
176
     1
290
     0
176
     1
290
     0
176
     1
290
     0
176
     1
290
     0
176
     1
 90
       50
176
     1
 40
0.0
176
     1
 40
1.0
176
     1
 90
        0
176
     1
 62
    18
420
        0
176
     1
 90
       50
176
     1
 90
        3
176
     1
 62
     5
420
      255
176
     1
290
     0
176
     1
 90
       50
176
     1
 90
       50
176
     1
 90
       50
176
     1
290
     0
176
     1
 90
       50
176
     1
 62
   256
176
     0
 40
1.0
176
     0
 90
        2
176
     1
  1
strokes_ogs.tif
176
     1
290
     0
176
     1
 40
1.0
176
     1
 40
1.0
176
     1
  0
VISUALSTYLE
  5
35
102
{ACAD_REACTORS
330
2A
102
}
330
2A
100
AcDbVisualStyle
  2
Dim
 70
    11
177
     3
291
     1
 70
    58
 90
        2
176
     1
 90
        2
176
     1
 90
        0
176
     1
 90
        0
176
     1
 40
0.6
176
     1
 40
30.0
176
     1
 62
     7
420
 16777215
176
     1
 90
        1
176
     1
 90
        4
176
     1
 62
     7
176
     1
 62
   257
176
     1
 90
        1
176
     1
 90
        1
176
     1
 40
1.0
176
     1
 90
        8
176
     1
 62
     7
176
     1
 40
1.0
176
     1
 90
        1
176
     1
 90
        6
176
     1
 90
        2
176
     1
 62
     7
176
     1
 90
        5
176
     1
 90
        0
176
     1
 90
        0
176
     1
290
     0
176
     1
 90
        1
176
     1
 40
-50.0
176
     1
 90
        0
176
     1
290
     0
176
     1
290
     1
176
     1
290
     1
176
     1
290
     0
176
     1
290
     0
176
     1
290
     0
176
     1
290
     0
176
     1
290
     0
176
     1
290
     0
176
     1
 90
       50
176
     1
 40
0.0
176
     1
 40
1.0
176
     1
 90
        0
176
     1
 62
    18
420
        0
176
     1
 90
       50
176
     1
 90
        3
176
     1
 62
     5
420
      255
176
     1
290
     0
176
     1
 90
       50
176
     1
 90
       50
176
     1
 90
       50
176
     1
290
     0
176
     1
 90
       50
176
     1
 62
   256
176
     0
 40
1.0
176
     0
 90
        2
176
     1
  1
strokes_ogs.tif
176
     1
290
     0
176
     1
 40
1.0
176
     1
 40
1.0
176
     1
  0
VISUALSTYLE
  5
3D
102
{ACAD_REACTORS
330
2A
102
}
330
2A
100
AcDbVisualStyle
  2
EdgeColorOff
 70
    22
177
     3
291
     1
 70
    58
 90
        2
176
     0
 90
        2
176
     0
 90
        0
176
     0
 90
        0
176
     0
 40
0.6
176
     0
 40
30.0
176
     0
 62
     7
420
 16777215
176
     0
 90
        1
176
     0
 90
        4
176
     0
 62
     7
176
     0
 62
   257
176
     0
 90
        1
176
     0
 90
        1
176
     0
 40
1.0
176
     0
 90
        8
176
     2
 62
     7
176
     0
 40
1.0
176
     0
 90
        1
176
     0
 90
        6
176
     0
 90
        2
176
     0
 62
     7
176
     0
 90
        5
176
     0
 90
        0
176
     0
 90
        0
176
     0
290
     0
176
     0
 90
        1
176
     0
 40
0.0
176
     0
 90
        0
176
     0
290
     0
176
     0
290
     1
176
     0
290
     1
176
     0
290
     0
176
     0
290
     0
176
     0
290
     0
176
     0
290
     0
176
     0
290
     0
176
     0
290
     0
176
     0
 90
       50
176
     0
 40
0.0
176
     0
 40
1.0
176
     0
 90
        0
176
     0
 62
    18
420
        0
176
     0
 90
       50
176
     0
 90
        3
176
     0
 62
     5
420
      255
176
     0
290
     0
176
     0
 90
       50
176
     0
 90
       50
176
     0
 90
       50
176
     0
290
     0
176
     0
 90
       50
176
     0
 62
   256
176
     0
 40
1.0
176
     0
 90
        2
176
     0
  1
strokes_ogs.tif
176
     0
290
     0
176
     0
 40
1.0
176
     0
 40
1.0
176
     0
  0
VISUALSTYLE
  5
39
102
{ACAD_REACTORS
330
2A
102
}
330
2A
100
AcDbVisualStyle
  2
Facepattern
 70
    15
177
     3
291
     1
 70
    58
 90
        2
176
     1
 90
        2
176
     1
 90
        0
176
     1
 90
        0
176
     1
 40
0.6
176
     1
 40
30.0
176
     1
 62
     7
420
 16777215
176
     1
 90
        1
176
     1
 90
        4
176
     1
 62
     7
176
     1
 62
   257
176
     1
 90
        1
176
     1
 90
        1
176
     1
 40
1.0
176
     1
 90
        8
176
     1
 62
     7
176
     1
 40
1.0
176
     1
 90
        1
176
     1
 90
        6
176
     1
 90
        2
176
     1
 62
     7
176
     1
 90
        5
176
     1
 90
        0
176
     1
 90
        0
176
     1
290
     0
176
     1
 90
        1
176
     1
 40
0.0
176
     1
 90
        0
176
     1
290
     0
176
     1
290
     1
176
     1
290
     1
176
     1
290
     0
176
     1
290
     0
176
     1
290
     0
176
     1
290
     0
176
     1
290
     0
176
     1
290
     0
176
     1
 90
       50
176
     1
 40
0.0
176
     1
 40
1.0
176
     1
 90
        0
176
     1
 62
    18
420
        0
176
     1
 90
       50
176
     1
 90
        3
176
     1
 62
     5
420
      255
176
     1
290
     0
176
     1
 90
       50
176
     1
 90
       50
176
     1
 90
       50
176
     1
290
     0
176
     1
 90
       50
176
     1
 62
   256
176
     0
 40
1.0
176
     0
 90
        2
176
     1
  1
strokes_ogs.tif
176
     1
290
     0
176
     1
 40
1.0
176
     1
 40
1.0
176
     1
  0
VISUALSTYLE
  5
2B
102
{ACAD_REACTORS
330
2A
102
}
330
2A
100
AcDbVisualStyle
  2
Flat
 70
     0
177
     3
291
     1
 70
    58
 90
        2
176
     1
 90
        1
176
     1
 90
        1
176
     1
 90
        2
176
     1
 40
0.6
176
     1
 40
30.0
176
     1
 62
     7
420
 16777215
176
     1
 90
        0
176
     1
 90
        0
176
     1
 62
     7
176
     1
 62
   257
176
     1
 90
        1
176
     1
 90
        1
176
     1
 40
1.0
176
     1
 90
        8
176
     1
 62
     7
176
     1
 40
1.0
176
     1
 90
        1
176
     1
 90
        6
176
     1
 90
        2
176
     1
 62
     7
176
     1
 90
        5
176
     1
 90
        0
176
     1
 90
        0
176
     1
290
     0
176
     1
 90
       13
176
     1
 40
0.0
176
     1
 90
        0
176
     1
290
     0
176
     1
290
     1
176
     1
290
     1
176
     1
290
     0
176
     1
290
     0
176
     1
290
     0
176
     1
290
     0
176
     1
290
     0
176
     1
290
     0
176
     1
 90
       50
176
     1
 40
0.0
176
     1
 40
1.0
176
     1
 90
        0
176
     1
 62
    18
420
        0
176
     1
 90
       50
176
     1
 90
        3
176
     1
 62
     5
420
      255
176
     1
290
     0
176
     1
 90
       50
176
     1
 90
       50
176
     1
 90
       50
176
     1
290
     0
176
     1
 90
       50
176
     1
 62
   256
176
     0
 40
1.0
176
     0
 90
        2
176
     1
  1
strokes_ogs.tif
176
     1
290
     0
176
     1
 40
1.0
176
     1
 40
1.0
176
     1
  0
VISUALSTYLE
  5
2C
102
{ACAD_REACTORS
330
2A
102
}
330
2A
100
AcDbVisualStyle
  2
FlatWithEdges
 70
     1
177
     3
291
     1
 70
    58
 90
        2
176
     1
 90
        1
176
     1
 90
        1
176
     1
 90
        2
176
     1
 40
0.6
176
     1
 40
30.0
176
     1
 62
     7
420
 16777215
176
     1
 90
        1
176
     1
 90
        0
176
     1
 62
     7
176
     1
 62
   257
176
     1
 90
        1
176
     1
 90
        1
176
     1
 40
1.0
176
     1
 90
        0
176
     1
 62
   257
176
     1
 40
1.0
176
     1
 90
        1
176
     1
 90
        6
176
     1
 90
        2
176
     1
 62
     7
176
     1
 90
        5
176
     1
 90
        0
176
     1
 90
        0
176
     1
290
     0
176
     1
 90
       13
176
     1
 40
0.0
176
     1
 90
        0
176
     1
290
     0
176
     1
290
     1
176
     1
290
     1
176
     1
290
     0
176
     1
290
     0
176
     1
290
     0
176
     1
290
     0
176
     1
290
     0
176
     1
290
     0
176
     1
 90
       50
176
     1
 40
0.0
176
     1
 40
1.0
176
     1
 90
        0
176
     1
 62
    18
420
        0
176
     1
 90
       50
176
     1
 90
        3
176
     1
 62
     5
420
      255
176
     1
290
     0
176
     1
 90
       50
176
     1
 90
       50
176
     1
 90
       50
176
     1
290
     0
176
     1
 90
       50
176
     1
 62
   256
176
     0
 40
1.0
176
     0
 90
        2
176
     1
  1
strokes_ogs.tif
176
     1
290
     0
176
     1
 40
1.0
176
     1
 40
1.0
176
     1
  0
VISUALSTYLE
  5
2D
102
{ACAD_REACTORS
330
2A
102
}
330
2A
100
AcDbVisualStyle
  2
Gouraud
 70
     2
177
     3
291
     1
 70
    58
 90
        2
176
     1
 90
        2
176
     1
 90
        1
176
     1
 90
        2
176
     1
 40
0.6
176
     1
 40
30.0
176
     1
 62
     7
420
 16777215
176
     1
 90
        0
176
     1
 90
        0
176
     1
 62
     7
176
     1
 62
   257
176
     1
 90
        1
176
     1
 90
        1
176
     1
 40
1.0
176
     1
 90
        0
176
     1
 62
     7
176
     1
 40
1.0
176
     1
 90
        1
176
     1
 90
        6
176
     1
 90
        2
176
     1
 62
     7
176
     1
 90
        5
176
     1
 90
        0
176
     1
 90
        0
176
     1
290
     0
176
     1
 90
       13
176
     1
 40
0.0
176
     1
 90
        0
176
     1
290
     0
176
     1
290
     1
176
     1
290
     1
176
     1
290
     0
176
     1
290
     0
176
     1
290
     0
176
     1
290
     0
176
     1
290
     0
176
     1
290
     0
176
     1
 90
       50
176
     1
 40
0.0
176
     1
 40
1.0
176
     1
 90
        0
176
     1
 62
    18
420
        0
176
     1
 90
       50
176
     1
 90
        3
176
     1
 62
     5
420
      255
176
     1
290
     0
176
     1
 90
       50
176
     1
 90
       50
176
     1
 90
       50
176
     1
290
     0
176
     1
 90
       50
176
     1
 62
   256
176
     0
 40
1.0
176
     0
 90
        2
176
     1
  1
strokes_ogs.tif
176
     1
290
     0
176
     1
 40
1.0
176
     1
 40
1.0
176
     1
  0
VISUALSTYLE
  5
2E
102
{ACAD_REACTORS
330
2A
102
}
330
2A
100
AcDbVisualStyle
  2
GouraudWithEdges
 70
     3
177
     3
291
     1
 70
    58
 90
        2
176
     1
 90
        2
176
     1
 90
        1
176
     1
 90
        2
176
     1
 40
0.6
176
     1
 40
30.0
176
     1
 62
     7
420
 16777215
176
     1
 90
        1
176
     1
 90
        0
176
     1
 62
     7
176
     1
 62
   257
176
     1
 90
        1
176
     1
 90
        1
176
     1
 40
1.0
176
     1
 90
        0
176
     1
 62
   257
176
     1
 40
1.0
176
     1
 90
        1
176
     1
 90
        6
176
     1
 90
        2
176
     1
 62
     7
176
     1
 90
        5
176
     1
 90
        0
176
     1
 90
        0
176
     1
290
     0
176
     1
 90
       13
176
     1
 40
0.0
176
     1
 90
        0
176
     1
290
     0
176
     1
290
     1
176
     1
290
     1
176
     1
290
     0
176
     1
290
     0
176
     1
290
     0
176
     1
290
     0
176
     1
290
     0
176
     1
290
     0
176
     1
 90
       50
176
     1
 40
0.0
176
     1
 40
1.0
176
     1
 90
        0
176
     1
 62
    18
420
        0
176
     1
 90
       50
176
     1
 90
        3
176
     1
 62
     5
420
      255
176
     1
290
     0
176
     1
 90
       50
176
     1
 90
       50
176
     1
 90
       50
176
     1
290
     0
176
     1
 90
       50
176
     1
 62
   256
176
     0
 40
1.0
176
     0
 90
        2
176
     1
  1
strokes_ogs.tif
176
     1
290
     0
176
     1
 40
1.0
176
     1
 40
1.0
176
     1
  0
VISUALSTYLE
  5
31
102
{ACAD_REACTORS
330
2A
102
}
330
2A
100
AcDbVisualStyle
  2
Hidden
 70
     6
177
     3
291
     0
 70
    58
 90
        1
176
     1
 90
        2
176
     1
 90
        2
176
     1
 90
        0
176
     1
 40
0.6
176
     1
 40
30.0
176
     1
 62
     7
420
 16777215
176
     1
 90
        2
176
     1
 90
        2
176
     1
 62
     7
176
     1
 62
   257
176
     1
 90
        2
176
     1
 90
        1
176
     1
 40
40.0
176
     1
 90
        0
176
     1
 62
   257
176
     1
 40
1.0
176
     1
 90
        1
176
     1
 90
        6
176
     1
 90
        2
176
     1
 62
     7
176
     1
 90
        3
176
     1
 90
        0
176
     1
 90
        0
176
     1
290
     0
176
     1
 90
        1
176
     1
 40
0.0
176
     1
 90
        0
176
     1
290
     0
176
     1
290
     1
176
     1
290
     1
176
     1
290
     0
176
     1
290
     0
176
     1
290
     0
176
     1
290
     0
176
     1
290
     0
176
     1
290
     0
176
     1
 90
       50
176
     1
 40
0.0
176
     1
 40
1.0
176
     1
 90
        0
176
     1
 62
    18
420
        0
176
     1
 90
       50
176
     1
 90
        3
176
     1
 62
     5
420
      255
176
     1
290
     0
176
     1
 90
       50
176
     1
 90
       50
176
     1
 90
       50
176
     1
290
     0
176
     1
 90
       50
176
     1
 62
   256
176
     0
 40
1.0
176
     0
 90
        2
176
     1
  1
strokes_ogs.tif
176
     1
290
     0
176
     1
 40
1.0
176
     1
 40
1.0
176
     1
  0
VISUALSTYLE
  5
3B
102
{ACAD_REACTORS
330
2A
102
}
330
2A
100
AcDbVisualStyle
  2
JitterOff
 70
    20
177
     3
291
     1
 70
    58
 90
        2
176
     0
 90
        2
176
     0
 90
        0
176
     0
 90
        0
176
     0
 40
0.6
176
     0
 40
30.0
176
     0
 62
     7
420
 16777215
176
     0
 90
        1
176
     0
 90
        4
176
     0
 62
     7
176
     0
 62
   257
176
     0
 90
        1
176
     0
 90
        1
176
     0
 40
1.0
176
     0
 90
       10
176
     2
 62
     7
176
     0
 40
1.0
176
     0
 90
        1
176
     0
 90
        6
176
     0
 90
        2
176
     0
 62
     7
176
     0
 90
        5
176
     0
 90
        0
176
     0
 90
        0
176
     0
290
     0
176
     0
 90
        1
176
     0
 40
0.0
176
     0
 90
        0
176
     0
290
     0
176
     0
290
     1
176
     0
290
     1
176
     0
290
     0
176
     0
290
     0
176
     0
290
     0
176
     0
290
     0
176
     0
290
     0
176
     0
290
     0
176
     0
 90
       50
176
     0
 40
0.0
176
     0
 40
1.0
176
     0
 90
        0
176
     0
 62
    18
420
        0
176
     0
 90
       50
176
     0
 90
        3
176
     0
 62
     5
420
      255
176
     0
290
     0
176
     0
 90
       50
176
     0
 90
       50
176
     0
 90
       50
176
     0
290
     0
176
     0
 90
       50
176
     0
 62
   256
176
     0
 40
1.0
176
     0
 90
        2
176
     0
  1
strokes_ogs.tif
176
     0
290
     0
176
     0
 40
1.0
176
     0
 40
1.0
176
     0
  0
VISUALSTYLE
  5
38
102
{ACAD_REACTORS
330
2A
102
}
330
2A
100
AcDbVisualStyle
  2
Linepattern
 70
    14
177
     3
291
     1
 70
    58
 90
        2
176
     1
 90
        2
176
     1
 90
        0
176
     1
 90
        0
176
     1
 40
0.6
176
     1
 40
30.0
176
     1
 62
     7
420
 16777215
176
     1
 90
        1
176
     1
 90
        4
176
     1
 62
     7
176
     1
 62
   257
176
     1
 90
        7
176
     1
 90
        7
176
     1
 40
1.0
176
     1
 90
        8
176
     1
 62
     7
176
     1
 40
1.0
176
     1
 90
        1
176
     1
 90
        6
176
     1
 90
        2
176
     1
 62
     7
176
     1
 90
        5
176
     1
 90
        0
176
     1
 90
        0
176
     1
290
     0
176
     1
 90
        1
176
     1
 40
0.0
176
     1
 90
        0
176
     1
290
     0
176
     1
290
     1
176
     1
290
     1
176
     1
290
     0
176
     1
290
     0
176
     1
290
     0
176
     1
290
     0
176
     1
290
     0
176
     1
290
     0
176
     1
 90
       50
176
     1
 40
0.0
176
     1
 40
1.0
176
     1
 90
        0
176
     1
 62
    18
420
        0
176
     1
 90
       50
176
     1
 90
        3
176
     1
 62
     5
420
      255
176
     1
290
     0
176
     1
 90
       50
176
     1
 90
       50
176
     1
 90
       50
176
     1
290
     0
176
     1
 90
       50
176
     1
 62
   256
176
     0
 40
1.0
176
     0
 90
        2
176
     1
  1
strokes_ogs.tif
176
     1
290
     0
176
     1
 40
1.0
176
     1
 40
1.0
176
     1
  0
VISUALSTYLE
  5
3C
102
{ACAD_REACTORS
330
2A
102
}
330
2A
100
AcDbVisualStyle
  2
OverhangOff
 70
    21
177
     3
291
     1
 70
    58
 90
        2
176
     0
 90
        2
176
     0
 90
        0
176
     0
 90
        0
176
     0
 40
0.6
176
     0
 40
30.0
176
     0
 62
     7
420
 16777215
176
     0
 90
        1
176
     0
 90
        4
176
     0
 62
     7
176
     0
 62
   257
176
     0
 90
        1
176
     0
 90
        1
176
     0
 40
1.0
176
     0
 90
        9
176
     2
 62
     7
176
     0
 40
1.0
176
     0
 90
        1
176
     0
 90
        6
176
     0
 90
        2
176
     0
 62
     7
176
     0
 90
        5
176
     0
 90
        0
176
     0
 90
        0
176
     0
290
     0
176
     0
 90
        1
176
     0
 40
0.0
176
     0
 90
        0
176
     0
290
     0
176
     0
290
     1
176
     0
290
     1
176
     0
290
     0
176
     0
290
     0
176
     0
290
     0
176
     0
290
     0
176
     0
290
     0
176
     0
290
     0
176
     0
 90
       50
176
     0
 40
0.0
176
     0
 40
1.0
176
     0
 90
        0
176
     0
 62
    18
420
        0
176
     0
 90
       50
176
     0
 90
        3
176
     0
 62
     5
420
      255
176
     0
290
     0
176
     0
 90
       50
176
     0
 90
       50
176
     0
 90
       50
176
     0
290
     0
176
     0
 90
       50
176
     0
 62
   256
176
     0
 40
1.0
176
     0
 90
        2
176
     0
  1
strokes_ogs.tif
176
     0
290
     0
176
     0
 40
1.0
176
     0
 40
1.0
176
     0
  0
VISUALSTYLE
  5
33
102
{ACAD_REACTORS
330
2A
102
}
330
2A
100
AcDbVisualStyle
  2
Realistic
 70
     8
177
     3
291
     0
 70
    58
 90
        2
176
     1
 90
        3
176
     1
 90
        0
176
     1
 90
        2
176
     1
 40
0.6
176
     1
 40
30.0
176
     1
 62
     7
420
 16777215
176
     1
 90
        0
176
     1
 90
        0
176
     1
 62
     7
176
     1
 62
   257
176
     1
 90
        1
176
     1
 90
        1
176
     1
 40
1.0
176
     1
 90
        8
176
     1
 62
   257
176
     1
 40
1.0
176
     1
 90
        1
176
     1
 90
        6
176
     1
 90
        2
176
     1
 62
     7
176
     1
 90
        3
176
     1
 90
        0
176
     1
 90
        0
176
     1
290
     0
176
     1
 90
       13
176
     1
 40
0.0
176
     1
 90
        0
176
     1
290
     0
176
     1
290
     1
176
     1
290
     1
176
     1
290
     0
176
     1
290
     0
176
     1
290
     0
176
     1
290
     0
176
     1
290
     0
176
     1
290
     0
176
     1
 90
       50
176
     1
 40
0.0
176
     1
 40
1.0
176
     1
 90
        0
176
     1
 62
    18
420
        0
176
     1
 90
       50
176
     1
 90
        3
176
     1
 62
     5
420
      255
176
     1
290
     0
176
     1
 90
       50
176
     1
 90
       50
176
     1
 90
       50
176
     1
290
     0
176
     1
 90
       50
176
     1
 62
   256
176
     0
 40
1.0
176
     0
 90
        2
176
     1
  1
strokes_ogs.tif
176
     1
290
     0
176
     1
 40
1.0
176
     1
 40
1.0
176
     1
  0
VISUALSTYLE
  5
42
102
{ACAD_REACTORS
330
2A
102
}
330
2A
100
AcDbVisualStyle
  2
Shaded
 70
    27
177
     3
291
     0
 70
    58
 90
        2
176
     1
 90
        2
176
     1
 90
        1
176
     1
 90
        2
176
     1
 40
0.6
176
     1
 40
30.0
176
     1
 62
     7
420
 16777215
176
     1
 90
        0
176
     1
 90
        4
176
     1
 62
     7
176
     1
 62
   257
176
     1
 90
        1
176
     1
 90
        1
176
     1
 40
1.0
176
     1
 90
        8
176
     1
 62
   257
176
     1
 40
1.0
176
     1
 90
        1
176
     1
 90
        6
176
     1
 90
        2
176
     1
 62
     8
420
  7895160
176
     1
 90
        3
176
     1
 90
        0
176
     1
 90
        0
176
     1
290
     0
176
     1
 90
        5
176
     1
 40
0.0
176
     1
 90
        0
176
     1
290
     0
176
     1
290
     1
176
     1
290
     1
176
     1
290
     0
176
     1
290
     0
176
     1
290
     0
176
     1
290
     0
176
     1
290
     0
176
     1
290
     0
176
     1
 90
       50
176
     1
 40
0.0
176
     1
 40
1.0
176
     1
 90
        0
176
     1
 62
    18
420
        0
176
     1
 90
       50
176
     1
 90
        3
176
     1
 62
     5
420
      255
176
     1
290
     0
176
     1
 90
       50
176
     1
 90
       50
176
     1
 90
       50
176
     1
290
     0
176
     1
 90
       50
176
     1
 62
   256
176
     0
 40
1.0
176
     0
 90
        2
176
     1
  1
strokes_ogs.tif
176
     1
290
     0
176
     1
 40
1.0
176
     1
 40
1.0
176
     1
  0
VISUALSTYLE
  5
41
102
{ACAD_REACTORS
330
2A
102
}
330
2A
100
AcDbVisualStyle
  2
Shaded with edges
 70
    26
177
     3
291
     0
 70
    58
 90
        2
176
     1
 90
        2
176
     1
 90
        1
176
     1
 90
        2
176
     1
 40
0.6
176
     1
 40
30.0
176
     1
 62
     7
420
 16777215
176
     1
 90
        1
176
     1
 90
       10
176
     1
 62
     7
176
     1
 62
   257
176
     1
 90
        2
176
     1
 90
        1
176
     1
 40
1.0
176
     1
 90
        8
176
     1
 62
   257
176
     1
 40
1.0
176
     1
 90
        1
176
     1
 90
        6
176
     1
 90
        2
176
     1
 62
     7
176
     1
 90
        3
176
     1
 90
        0
176
     1
 90
        0
176
     1
290
     0
176
     1
 90
        5
176
     1
 40
0.0
176
     1
 90
        0
176
     1
290
     0
176
     1
290
     1
176
     1
290
     1
176
     1
290
     0
176
     1
290
     0
176
     1
290
     0
176
     1
290
     0
176
     1
290
     0
176
     1
290
     0
176
     1
 90
       50
176
     1
 40
0.0
176
     1
 40
1.0
176
     1
 90
        0
176
     1
 62
    18
420
        0
176
     1
 90
       50
176
     1
 90
        3
176
     1
 62
     5
420
      255
176
     1
290
     0
176
     1
 90
       50
176
     1
 90
       50
176
     1
 90
       50
176
     1
290
     0
176
     1
 90
       50
176
     1
 62
   256
176
     0
 40
1.0
176
     0
 90
        2
176
     1
  1
strokes_ogs.tif
176
     1
290
     0
176
     1
 40
1.0
176
     1
 40
1.0
176
     1
  0
VISUALSTYLE
  5
3E
102
{ACAD_REACTORS
330
2A
102
}
330
2A
100
AcDbVisualStyle
  2
Shades of Gray
 70
    23
177
     3
291
     0
 70
    58
 90
        2
176
     1
 90
        2
176
     1
 90
        3
176
     1
 90
        0
176
     1
 40
0.6
176
     1
 40
30.0
176
     1
 62
     7
420
 16777215
176
     1
 90
        2
176
     1
 90
        2
176
     1
 62
     7
176
     1
 62
     7
176
     1
 90
        1
176
     1
 90
        1
176
     1
 40
40.0
176
     1
 90
        8
176
     1
 62
     7
176
     1
 40
1.0
176
     1
 90
        1
176
     1
 90
        6
176
     1
 90
        2
176
     1
 62
     7
176
     1
 90
        3
176
     1
 90
        0
176
     1
 90
        0
176
     1
290
     0
176
     1
 90
        1
176
     1
 40
0.0
176
     1
 90
        0
176
     1
290
     0
176
     1
290
     1
176
     1
290
     1
176
     1
290
     0
176
     1
290
     0
176
     1
290
     0
176
     1
290
     0
176
     1
290
     0
176
     1
290
     0
176
     1
 90
       50
176
     1
 40
0.0
176
     1
 40
1.0
176
     1
 90
        0
176
     1
 62
    18
420
        0
176
     1
 90
       50
176
     1
 90
        3
176
     1
 62
     5
420
      255
176
     1
290
     0
176
     1
 90
       50
176
     1
 90
       50
176
     1
 90
       50
176
     1
290
     0
176
     1
 90
       50
176
     1
 62
   256
176
     0
 40
1.0
176
     0
 90
        2
176
     1
  1
strokes_ogs.tif
176
     1
290
     0
176
     1
 40
1.0
176
     1
 40
1.0
176
     1
  0
VISUALSTYLE
  5
3F
102
{ACAD_REACTORS
330
2A
102
}
330
2A
100
AcDbVisualStyle
  2
Sketchy
 70
    24
177
     3
291
     0
 70
    58
 90
        1
176
     1
 90
        2
176
     1
 90
        2
176
     1
 90
        0
176
     1
 40
0.6
176
     1
 40
30.0
176
     1
 62
     7
420
 16777215
176
     1
 90
        2
176
     1
 90
        2
176
     1
 62
     7
176
     1
 62
     7
176
     1
 90
        1
176
     1
 90
        1
176
     1
 40
40.0
176
     1
 90
       11
176
     1
 62
     7
176
     1
 40
1.0
176
     1
 90
        1
176
     1
 90
        6
176
     1
 90
        2
176
     1
 62
     7
176
     1
 90
        6
176
     1
 90
        0
176
     1
 90
        0
176
     1
290
     0
176
     1
 90
        1
176
     1
 40
0.0
176
     1
 90
        0
176
     1
290
     0
176
     1
290
     1
176
     1
290
     1
176
     1
290
     0
176
     1
290
     0
176
     1
290
     0
176
     1
290
     0
176
     1
290
     0
176
     1
290
     0
176
     1
 90
       50
176
     1
 40
0.0
176
     1
 40
1.0
176
     1
 90
        0
176
     1
 62
    18
420
        0
176
     1
 90
       50
176
     1
 90
        3
176
     1
 62
     5
420
      255
176
     1
290
     0
176
     1
 90
       50
176
     1
 90
       50
176
     1
 90
       50
176
     1
290
     0
176
     1
 90
       50
176
     1
 62
   256
176
     0
 40
1.0
176
     0
 90
        2
176
     1
  1
strokes_ogs.tif
176
     1
290
     0
176
     1
 40
1.0
176
     1
 40
1.0
176
     1
  0
VISUALSTYLE
  5
37
102
{ACAD_REACTORS
330
2A
102
}
330
2A
100
AcDbVisualStyle
  2
Thicken
 70
    13
177
     3
291
     1
 70
    58
 90
        2
176
     1
 90
        2
176
     1
 90
        0
176
     1
 90
        0
176
     1
 40
0.6
176
     1
 40
30.0
176
     1
 62
     7
420
 16777215
176
     1
 90
        1
176
     1
 90
        4
176
     1
 62
     7
176
     1
 62
   257
176
     1
 90
        1
176
     1
 90
        1
176
     1
 40
1.0
176
     1
 90
       12
176
     1
 62
     7
176
     1
 40
1.0
176
     1
 90
        1
176
     1
 90
        6
176
     1
 90
        2
176
     1
 62
     7
176
     1
 90
        5
176
     1
 90
        0
176
     1
 90
        0
176
     1
290
     0
176
     1
 90
        1
176
     1
 40
0.0
176
     1
 90
        0
176
     1
290
     0
176
     1
290
     1
176
     1
290
     1
176
     1
290
     0
176
     1
290
     0
176
     1
290
     0
176
     1
290
     0
176
     1
290
     0
176
     1
290
     0
176
     1
 90
       50
176
     1
 40
0.0
176
     1
 40
1.0
176
     1
 90
        0
176
     1
 62
    18
420
        0
176
     1
 90
       50
176
     1
 90
        3
176
     1
 62
     5
420
      255
176
     1
290
     0
176
     1
 90
       50
176
     1
 90
       50
176
     1
 90
       50
176
     1
290
     0
176
     1
 90
       50
176
     1
 62
   256
176
     0
 40
1.0
176
     0
 90
        2
176
     1
  1
strokes_ogs.tif
176
     1
290
     0
176
     1
 40
1.0
176
     1
 40
1.0
176
     1
  0
VISUALSTYLE
  5
30
102
{ACAD_REACTORS
330
2A
102
}
330
2A
100
AcDbVisualStyle
  2
Wireframe
 70
     5
177
     3
291
     0
 70
    58
 90
        0
176
     1
 90
        2
176
     1
 90
        0
176
     1
 90
        0
176
     1
 40
0.6
176
     1
 40
30.0
176
     1
 62
     7
420
 16777215
176
     1
 90
        1
176
     1
 90
        4
176
     1
 62
     7
176
     1
 62
   257
176
     1
 90
        1
176
     1
 90
        1
176
     1
 40
1.0
176
     1
 90
        0
176
     1
 62
   257
176
     1
 40
1.0
176
     1
 90
        1
176
     1
 90
        6
176
     1
 90
        2
176
     1
 62
     7
176
     1
 90
        3
176
     1
 90
        0
176
     1
 90
        0
176
     1
290
     0
176
     1
 90
        1
176
     1
 40
0.0
176
     1
 90
        0
176
     1
290
     0
176
     1
290
     1
176
     1
290
     1
176
     1
290
     0
176
     1
290
     0
176
     1
290
     0
176
     1
290
     0
176
     1
290
     0
176
     1
290
     0
176
     1
 90
       50
176
     1
 40
0.0
176
     1
 40
1.0
176
     1
 90
        0
176
     1
 62
    18
420
        0
176
     1
 90
       50
176
     1
 90
        3
176
     1
 62
     5
420
      255
176
     1
290
     0
176
     1
 90
       50
176
     1
 90
       50
176
     1
 90
       50
176
     1
290
     0
176
     1
 90
       50
176
     1
 62
   256
176
     0
 40
1.0
176
     0
 90
        2
176
     1
  1
strokes_ogs.tif
176
     1
290
     0
176
     1
 40
1.0
176
     1
 40
1.0
176
     1
  0
VISUALSTYLE
  5
40
102
{ACAD_REACTORS
330
2A
102
}
330
2A
100
AcDbVisualStyle
  2
X-Ray
 70
    25
177
     3
291
     0
 70
    58
 90
        2
176
     1
 90
        2
176
     1
 90
        1
176
     1
 90
        1
176
     1
 40
0.5
176
     1
 40
30.0
176
     1
 62
     7
420
 16777215
176
     1
 90
        1
176
     1
 90
        0
176
     1
 62
     7
176
     1
 62
   257
176
     1
 90
        1
176
     1
 90
        1
176
     1
 40
1.0
176
     1
 90
        8
176
     1
 62
     7
176
     1
 40
1.0
176
     1
 90
        1
176
     1
 90
        6
176
     1
 90
        2
176
     1
 62
     7
176
     1
 90
        3
176
     1
 90
        0
176
     1
 90
        0
176
     1
290
     0
176
     1
 90
       13
176
     1
 40
0.0
176
     1
 90
        0
176
     1
290
     0
176
     1
290
     1
176
     1
290
     1
176
     1
290
     0
176
     1
290
     0
176
     1
290
     0
176
     1
290
     0
176
     1
290
     0
176
     1
290
     0
176
     1
 90
       50
176
     1
 40
0.0
176
     1
 40
1.0
176
     1
 90
        0
176
     1
 62
    18
420
        0
176
     1
 90
       50
176
     1
 90
        3
176
     1
 62
     5
420
      255
176
     1
290
     0
176
     1
 90
       50
176
     1
 90
       50
176
     1
 90
       50
176
     1
290
     0
176
     1
 90
       50
176
     1
 62
   256
176
     0
 40
1.0
176
     0
 90
        2
176
     1
  1
strokes_ogs.tif
176
     1
290
     0
176
     1
 40
1.0
176
     1
 40
1.0
176
     1
  0
DICTIONARYVAR
  5
254
102
{ACAD_REACTORS
330
253
102
}
330
253
100
DictionaryVariables
280
     0
  1
1:1
  0
DICTIONARYVAR
  5
259
102
{ACAD_REACTORS
330
253
102
}
330
253
100
DictionaryVariables
280
     0
  1
Standard
  0
DICTIONARYVAR
  5
258
102
{ACAD_REACTORS
330
253
102
}
330
253
100
DictionaryVariables
280
     0
  1
Standard
  0
DICTIONARY
  5
255
330
6A
100
AcDbDictionary
280
     1
281
     1
  3
ACAD_ROUNDTRIP_2008_TABLESTYLE_CELLSTYLEMAP
360
256
  0
CELLSTYLEMAP
  5
256
102
{ACAD_REACTORS
330
255
102
}
330
255
100
AcDbCellStyleMap
 90
        3
300
CELLSTYLE
  1
TABLEFORMAT_BEGIN
 90
        5
170
     1
 91
        0
 92
    32768
 62
   257
 93
        1
300
CONTENTFORMAT
  1
CONTENTFORMAT_BEGIN
 90
        0
 91
        0
 92
        4
 93
        0
300

 40
0.0
140
1.0
 94
        5
 62
     0
340
11
144
0.25
309
CONTENTFORMAT_END
171
     1
301
MARGIN
  1
CELLMARGIN_BEGIN
 40
0.06
 40
0.06
 40
0.06
 40
0.06
 40
0.06
 40
0.06
309
CELLMARGIN_END
 94
        6
 95
        1
302
GRIDFORMAT
  1
GRIDFORMAT_BEGIN
 90
        0
 91
        1
 62
     0
 92
       -2
340
14
 93
        0
 40
0.045
309
GRIDFORMAT_END
 95
        2
302
GRIDFORMAT
  1
GRIDFORMAT_BEGIN
 90
        0
 91
        1
 62
     0
 92
       -2
340
14
 93
        0
 40
0.045
309
GRIDFORMAT_END
 95
        4
302
GRIDFORMAT
  1
GRIDFORMAT_BEGIN
 90
        0
 91
        1
 62
     0
 92
       -2
340
14
 93
        0
 40
0.045
309
GRIDFORMAT_END
 95
        8
302
GRIDFORMAT
  1
GRIDFORMAT_BEGIN
 90
        0
 91
        1
 62
     0
 92
       -2
340
14
 93
        0
 40
0.045
309
GRIDFORMAT_END
 95
       16
302
GRIDFORMAT
  1
GRIDFORMAT_BEGIN
 90
        0
 91
        1
 62
     0
 92
       -2
340
14
 93
        0
 40
0.045
309
GRIDFORMAT_END
 95
       32
302
GRIDFORMAT
  1
GRIDFORMAT_BEGIN
 90
        0
 91
        1
 62
     0
 92
       -2
340
14
 93
        0
 40
0.045
309
GRIDFORMAT_END
309
TABLEFORMAT_END
  1
CELLSTYLE_BEGIN
 90
        1
 91
        1
300
_TITLE
309
CELLSTYLE_END
300
CELLSTYLE
  1
TABLEFORMAT_BEGIN
 90
        5
170
     1
 91
        0
 92
        0
 62
   257
 93
        1
300
CONTENTFORMAT
  1
CONTENTFORMAT_BEGIN
 90
        0
 91
        0
 92
        4
 93
        0
300

 40
0.0
140
1.0
 94
        5
 62
     0
340
11
144
0.18
309
CONTENTFORMAT_END
171
     1
301
MARGIN
  1
CELLMARGIN_BEGIN
 40
0.06
 40
0.06
 40
0.06
 40
0.06
 40
0.06
 40
0.06
309
CELLMARGIN_END
 94
        6
 95
        1
302
GRIDFORMAT
  1
GRIDFORMAT_BEGIN
 90
        0
 91
        1
 62
     0
 92
       -2
340
14
 93
        0
 40
0.045
309
GRIDFORMAT_END
 95
        2
302
GRIDFORMAT
  1
GRIDFORMAT_BEGIN
 90
        0
 91
        1
 62
     0
 92
       -2
340
14
 93
        0
 40
0.045
309
GRIDFORMAT_END
 95
        4
302
GRIDFORMAT
  1
GRIDFORMAT_BEGIN
 90
        0
 91
        1
 62
     0
 92
       -2
340
14
 93
        0
 40
0.045
309
GRIDFORMAT_END
 95
        8
302
GRIDFORMAT
  1
GRIDFORMAT_BEGIN
 90
        0
 91
        1
 62
     0
 92
       -2
340
14
 93
        0
 40
0.045
309
GRIDFORMAT_END
 95
       16
302
GRIDFORMAT
  1
GRIDFORMAT_BEGIN
 90
        0
 91
        1
 62
     0
 92
       -2
340
14
 93
        0
 40
0.045
309
GRIDFORMAT_END
 95
       32
302
GRIDFORMAT
  1
GRIDFORMAT_BEGIN
 90
        0
 91
        1
 62
     0
 92
       -2
340
14
 93
        0
 40
0.045
309
GRIDFORMAT_END
309
TABLEFORMAT_END
  1
CELLSTYLE_BEGIN
 90
        2
 91
        1
300
_HEADER
309
CELLSTYLE_END
300
CELLSTYLE
  1
TABLEFORMAT_BEGIN
 90
        5
170
     1
 91
        0
 92
        0
 62
   257
 93
        1
300
CONTENTFORMAT
  1
CONTENTFORMAT_BEGIN
 90
        0
 91
        0
 92
        4
 93
        0
300

 40
0.0
140
1.0
 94
        2
 62
     0
340
11
144
0.18
309
CONTENTFORMAT_END
171
     1
301
MARGIN
  1
CELLMARGIN_BEGIN
 40
0.06
 40
0.06
 40
0.06
 40
0.06
 40
0.06
 40
0.06
309
CELLMARGIN_END
 94
        6
 95
        1
302
GRIDFORMAT
  1
GRIDFORMAT_BEGIN
 90
        0
 91
        1
 62
     0
 92
       -2
340
14
 93
        0
 40
0.045
309
GRIDFORMAT_END
 95
        2
302
GRIDFORMAT
  1
GRIDFORMAT_BEGIN
 90
        0
 91
        1
 62
     0
 92
       -2
340
14
 93
        0
 40
0.045
309
GRIDFORMAT_END
 95
        4
302
GRIDFORMAT
  1
GRIDFORMAT_BEGIN
 90
        0
 91
        1
 62
     0
 92
       -2
340
14
 93
        0
 40
0.045
309
GRIDFORMAT_END
 95
        8
302
GRIDFORMAT
  1
GRIDFORMAT_BEGIN
 90
        0
 91
        1
 62
     0
 92
       -2
340
14
 93
        0
 40
0.045
309
GRIDFORMAT_END
 95
       16
302
GRIDFORMAT
  1
GRIDFORMAT_BEGIN
 90
        0
 91
        1
 62
     0
 92
       -2
340
14
 93
        0
 40
0.045
309
GRIDFORMAT_END
 95
       32
302
GRIDFORMAT
  1
GRIDFORMAT_BEGIN
 90
        0
 91
        1
 62
     0
 92
       -2
340
14
 93
        0
 40
0.045
309
GRIDFORMAT_END
309
TABLEFORMAT_END
  1
CELLSTYLE_BEGIN
 90
        3
 91
        2
300
_DATA
309
CELLSTYLE_END
  0
ENDSEC
  0
EOF