0
SECTION
  2
HEADER
  9
$ACADVER
  1
AC1027
  9
$ACADMAINTVER
 70
     8
  9
$DWGCODEPAGE
  3
ANSI_1252
  9
$REQUIREDVERSIONS
160
                 0
  9
$COMMENTS
  1
File was created by Cadenas
  9
$CUSTOMPROPERTYTAG
  1
NN
  9
$CUSTOMPROPERTY
  1
Imperial - IP Pillow Block with Type E Dimensions 1-3/8 thru 2-3/16 inch 2-Bolt Labyrinth Seal Expansion
  9
$CUSTOMPROPERTYTAG
  1
NT
  9
$CUSTOMPROPERTY
  1
Imperial/E 2 Bolt Piliow Block Bearings
  9
$CUSTOMPROPERTYTAG
  1
NB
  9
$CUSTOMPROPERTY
  1
071179
  9
$CUSTOMPROPERTYTAG
  1
NBSYN
  9
$CUSTOMPROPERTY
  1
$PN.
  9
$CUSTOMPROPERTYTAG
  1
LINA
  9
$CUSTOMPROPERTY
  1
071179
  9
$CUSTOMPROPERTYTAG
  1
SS
  9
$CUSTOMPROPERTY
  1
3-3/16
  9
$CUSTOMPROPERTYTAG
  1
TYPE
  9
$CUSTOMPROPERTY
  1
Non-Expansion
  9
$CUSTOMPROPERTYTAG
  1
PN
  9
$CUSTOMPROPERTY
  1
071179
  9
$CUSTOMPROPERTYTAG
  1
DESCRIPTION
  9
$CUSTOMPROPERTY
  1
EP2B-IP-303L
  9
$CUSTOMPROPERTYTAG
  1
ST
  9
$CUSTOMPROPERTY
  1
Labyrinth Seal
  9
$CUSTOMPROPERTYTAG
  1
A
  9
$CUSTOMPROPERTY
  1
4.17
  9
$CUSTOMPROPERTYTAG
  1
B
  9
$CUSTOMPROPERTY
  1
14
  9
$CUSTOMPROPERTYTAG
  1
C
  9
$CUSTOMPROPERTY
  1
3.49
  9
$CUSTOMPROPERTYTAG
  1
DMIN
  9
$CUSTOMPROPERTY
  1
10.81
  9
$CUSTOMPROPERTYTAG
  1
DMAX
  9
$CUSTOMPROPERTY
  1
11.19
  9
$CUSTOMPROPERTYTAG
  1
F
  9
$CUSTOMPROPERTY
  1
7/8
  9
$CUSTOMPROPERTYTAG
  1
G
  9
$CUSTOMPROPERTY
  1
1.19
  9
$CUSTOMPROPERTYTAG
  1
H
  9
$CUSTOMPROPERTY
  1
2.25
  9
$CUSTOMPROPERTYTAG
  1
J
  9
$CUSTOMPROPERTY
  1
7.69
  9
$CUSTOMPROPERTYTAG
  1
L
  9
$CUSTOMPROPERTY
  1
5.00
  9
$CUSTOMPROPERTYTAG
  1
M
  9
$CUSTOMPROPERTY
  1
3.75
  9
$CUSTOMPROPERTYTAG
  1
R
  9
$CUSTOMPROPERTY
  1
1.51
  9
$CUSTOMPROPERTYTAG
  1
S
  9
$CUSTOMPROPERTY
  1
2.66
  9
$CUSTOMPROPERTYTAG
  1
X
  9
$CUSTOMPROPERTY
  1
0.25
  9
$CUSTOMPROPERTYTAG
  1
Y
  9
$CUSTOMPROPERTY
  1
0.025
  9
$CUSTOMPROPERTYTAG
  1
Z
  9
$CUSTOMPROPERTY
  1
4.05
  9
$CUSTOMPROPERTYTAG
  1
COMPANY
  9
$CUSTOMPROPERTY
  1
baldor
  9
$INSBASE
 10
0.0
 20
0.0
 30
0.0
  9
$EXTMIN
 10
1.000000000000000E+20
 20
1.000000000000000E+20
 30
1.000000000000000E+20
  9
$EXTMAX
 10
-1.000000000000000E+20
 20
-1.000000000000000E+20
 30
-1.000000000000000E+20
  9
$LIMMIN
 10
0.0
 20
0.0
  9
$LIMMAX
 10
12.0
 20
9.0
  9
$ORTHOMODE
 70
     0
  9
$REGENMODE
 70
     1
  9
$FILLMODE
 70
     1
  9
$QTEXTMODE
 70
     0
  9
$MIRRTEXT
 70
     1
  9
$LTSCALE
 40
1.0
  9
$ATTMODE
 70
     1
  9
$TEXTSIZE
 40
0.2
  9
$TRACEWID
 40
0.05
  9
$TEXTSTYLE
  7
Standard
  9
$CLAYER
  8
0
  9
$CELTYPE
  6
ByLayer
  9
$CECOLOR
 62
   256
  9
$CELTSCALE
 40
1.0
  9
$DISPSILH
 70
     0
  9
$DIMSCALE
 40
1.0
  9
$DIMASZ
 40
0.18
  9
$DIMEXO
 40
0.0625
  9
$DIMDLI
 40
0.38
  9
$DIMRND
 40
0.0
  9
$DIMDLE
 40
0.0
  9
$DIMEXE
 40
0.18
  9
$DIMTP
 40
0.0
  9
$DIMTM
 40
0.0
  9
$DIMTXT
 40
0.18
  9
$DIMCEN
 40
0.09
  9
$DIMTSZ
 40
0.0
  9
$DIMTOL
 70
     0
  9
$DIMLIM
 70
     0
  9
$DIMTIH
 70
     1
  9
$DIMTOH
 70
     1
  9
$DIMSE1
 70
     0
  9
$DIMSE2
 70
     0
  9
$DIMTAD
 70
     0
  9
$DIMZIN
 70
     0
  9
$DIMBLK
  1

  9
$DIMASO
 70
     1
  9
$DIMSHO
 70
     1
  9
$DIMPOST
  1

  9
$DIMAPOST
  1

  9
$DIMALT
 70
     0
  9
$DIMALTD
 70
     2
  9
$DIMALTF
 40
25.4
  9
$DIMLFAC
 40
1.0
  9
$DIMTOFL
 70
     0
  9
$DIMTVP
 40
0.0
  9
$DIMTIX
 70
     0
  9
$DIMSOXD
 70
     0
  9
$DIMSAH
 70
     0
  9
$DIMBLK1
  1

  9
$DIMBLK2
  1

  9
$DIMSTYLE
  2
Standard
  9
$DIMCLRD
 70
     0
  9
$DIMCLRE
 70
     0
  9
$DIMCLRT
 70
     0
  9
$DIMTFAC
 40
1.0
  9
$DIMGAP
 40
0.09
  9
$DIMJUST
 70
     0
  9
$DIMSD1
 70
     0
  9
$DIMSD2
 70
     0
  9
$DIMTOLJ
 70
     1
  9
$DIMTZIN
 70
     0
  9
$DIMALTZ
 70
     0
  9
$DIMALTTZ
 70
     0
  9
$DIMUPT
 70
     0
  9
$DIMDEC
 70
     4
  9
$DIMTDEC
 70
     4
  9
$DIMALTU
 70
     2
  9
$DIMALTTD
 70
     2
  9
$DIMTXSTY
  7
Standard
  9
$DIMAUNIT
 70
     0
  9
$DIMADEC
 70
     0
  9
$DIMALTRND
 40
0.0
  9
$DIMAZIN
 70
     0
  9
$DIMDSEP
 70
    46
  9
$DIMATFIT
 70
     3
  9
$DIMFRAC
 70
     0
  9
$DIMLDRBLK
  1

  9
$DIMLUNIT
 70
     2
  9
$DIMLWD
 70
    -2
  9
$DIMLWE
 70
    -2
  9
$DIMTMOVE
 70
     0
  9
$DIMFXL
 40
1.0
  9
$DIMFXLON
 70
     0
  9
$DIMJOGANG
 40
0.7853981633974483
  9
$DIMTFILL
 70
     0
  9
$DIMTFILLCLR
 70
     0
  9
$DIMARCSYM
 70
     0
  9
$DIMLTYPE
  6

  9
$DIMLTEX1
  6

  9
$DIMLTEX2
  6

  9
$DIMTXTDIRECTION
 70
     0
  9
$LUNITS
 70
     2
  9
$LUPREC
 70
     4
  9
$SKETCHINC
 40
0.1
  9
$FILLETRAD
 40
0.5
  9
$AUNITS
 70
     0
  9
$AUPREC
 70
     0
  9
$MENU
  1
.
  9
$ELEVATION
 40
0.0
  9
$PELEVATION
 40
0.0
  9
$THICKNESS
 40
0.0
  9
$LIMCHECK
 70
     0
  9
$CHAMFERA
 40
0.0
  9
$CHAMFERB
 40
0.0
  9
$CHAMFERC
 40
0.0
  9
$CHAMFERD
 40
0.0
  9
$SKPOLY
 70
     0
  9
$TDCREATE
 40
2458168.9827036
  9
$TDUCREATE
 40
2458168.941036933
  9
$TDUPDATE
 40
2458168.982703785
  9
$TDUUPDATE
 40
2458168.941037118
  9
$TDINDWG
 40
0.0000000116
  9
$TDUSRTIMER
 40
0.0000000116
  9
$USRTIMER
 70
     1
  9
$ANGBASE
 50
0.0
  9
$ANGDIR
 70
     0
  9
$PDMODE
 70
     0
  9
$PDSIZE
 40
0.0
  9
$PLINEWID
 40
0.0
  9
$SPLFRAME
 70
     0
  9
$SPLINETYPE
 70
     6
  9
$SPLINESEGS
 70
     8
  9
$HANDSEED
  5
232
  9
$SURFTAB1
 70
     6
  9
$SURFTAB2
 70
     6
  9
$SURFTYPE
 70
     6
  9
$SURFU
 70
     6
  9
$SURFV
 70
     6
  9
$UCSBASE
  2

  9
$UCSNAME
  2

  9
$UCSORG
 10
0.0
 20
0.0
 30
0.0
  9
$UCSXDIR
 10
1.0
 20
0.0
 30
0.0
  9
$UCSYDIR
 10
0.0
 20
1.0
 30
0.0
  9
$UCSORTHOREF
  2

  9
$UCSORTHOVIEW
 70
     0
  9
$UCSORGTOP
 10
0.0
 20
0.0
 30
0.0
  9
$UCSORGBOTTOM
 10
0.0
 20
0.0
 30
0.0
  9
$UCSORGLEFT
 10
0.0
 20
0.0
 30
0.0
  9
$UCSORGRIGHT
 10
0.0
 20
0.0
 30
0.0
  9
$UCSORGFRONT
 10
0.0
 20
0.0
 30
0.0
  9
$UCSORGBACK
 10
0.0
 20
0.0
 30
0.0
  9
$PUCSBASE
  2

  9
$PUCSNAME
  2

  9
$PUCSORG
 10
0.0
 20
0.0
 30
0.0
  9
$PUCSXDIR
 10
1.0
 20
0.0
 30
0.0
  9
$PUCSYDIR
 10
0.0
 20
1.0
 30
0.0
  9
$PUCSORTHOREF
  2

  9
$PUCSORTHOVIEW
 70
     0
  9
$PUCSORGTOP
 10
0.0
 20
0.0
 30
0.0
  9
$PUCSORGBOTTOM
 10
0.0
 20
0.0
 30
0.0
  9
$PUCSORGLEFT
 10
0.0
 20
0.0
 30
0.0
  9
$PUCSORGRIGHT
 10
0.0
 20
0.0
 30
0.0
  9
$PUCSORGFRONT
 10
0.0
 20
0.0
 30
0.0
  9
$PUCSORGBACK
 10
0.0
 20
0.0
 30
0.0
  9
$USERI1
 70
     0
  9
$USERI2
 70
     0
  9
$USERI3
 70
     0
  9
$USERI4
 70
     0
  9
$USERI5
 70
     0
  9
$USERR1
 40
0.0
  9
$USERR2
 40
0.0
  9
$USERR3
 40
0.0
  9
$USERR4
 40
0.0
  9
$USERR5
 40
0.0
  9
$WORLDVIEW
 70
     1
  9
$SHADEDGE
 70
     3
  9
$SHADEDIF
 70
    70
  9
$TILEMODE
 70
     1
  9
$MAXACTVP
 70
    64
  9
$PINSBASE
 10
0.0
 20
0.0
 30
0.0
  9
$PLIMCHECK
 70
     0
  9
$PEXTMIN
 10
1.000000000000000E+20
 20
1.000000000000000E+20
 30
1.000000000000000E+20
  9
$PEXTMAX
 10
-1.000000000000000E+20
 20
-1.000000000000000E+20
 30
-1.000000000000000E+20
  9
$PLIMMIN
 10
0.0
 20
0.0
  9
$PLIMMAX
 10
12.0
 20
9.0
  9
$UNITMODE
 70
     0
  9
$VISRETAIN
 70
     1
  9
$PLINEGEN
 70
     0
  9
$PSLTSCALE
 70
     1
  9
$TREEDEPTH
 70
  3020
  9
$CMLSTYLE
  2
Standard
  9
$CMLJUST
 70
     0
  9
$CMLSCALE
 40
1.0
  9
$PROXYGRAPHICS
 70
     1
  9
$MEASUREMENT
 70
     0
  9
$CELWEIGHT
370
    -1
  9
$ENDCAPS
280
     0
  9
$JOINSTYLE
280
     0
  9
$LWDISPLAY
290
     0
  9
$INSUNITS
 70
     1
  9
$HYPERLINKBASE
  1

  9
$STYLESHEET
  1

  9
$XEDIT
290
     1
  9
$CEPSNTYPE
380
     0
  9
$PSTYLEMODE
290
     1
  9
$FINGERPRINTGUID
  2
{4A925037-7CC6-4F24-B4A3-DCBE6B3DFB24}
  9
$VERSIONGUID
  2
{FAEB1C32-E019-11D5-929B-00C0DF256EC4}
  9
$EXTNAMES
290
     1
  9
$PSVPSCALE
 40
0.0
  9
$OLESTARTUP
290
     0
  9
$SORTENTS
280
   127
  9
$INDEXCTL
280
     0
  9
$HIDETEXT
280
     1
  9
$XCLIPFRAME
280
     2
  9
$HALOGAP
280
     0
  9
$OBSCOLOR
 70
   257
  9
$OBSLTYPE
280
     0
  9
$INTERSECTIONDISPLAY
280
     0
  9
$INTERSECTIONCOLOR
 70
   257
  9
$DIMASSOC
280
     2
  9
$PROJECTNAME
  1

  9
$CAMERADISPLAY
290
     0
  9
$LENSLENGTH
 40
50.0
  9
$CAMERAHEIGHT
 40
0.0
  9
$STEPSPERSEC
 40
2.0
  9
$STEPSIZE
 40
6.0
  9
$3DDWFPREC
 40
2.0
  9
$PSOLWIDTH
 40
0.25
  9
$PSOLHEIGHT
 40
4.0
  9
$LOFTANG1
 40
1.570796326794897
  9
$LOFTANG2
 40
1.570796326794897
  9
$LOFTMAG1
 40
0.0
  9
$LOFTMAG2
 40
0.0
  9
$LOFTPARAM
 70
     7
  9
$LOFTNORMALS
280
     1
  9
$LATITUDE
 40
37.795
  9
$LONGITUDE
 40
-122.394
  9
$NORTHDIRECTION
 40
0.0
  9
$TIMEZONE
 70
 -8000
  9
$LIGHTGLYPHDISPLAY
280
     1
  9
$TILEMODELIGHTSYNCH
280
     1
  9
$CMATERIAL
347
44
  9
$SOLIDHIST
280
     0
  9
$SHOWHIST
280
     1
  9
$DWFFRAME
280
     2
  9
$DGNFRAME
280
     2
  9
$REALWORLDSCALE
290
     1
  9
$INTERFERECOLOR
 62
   256
  9
$CSHADOW
280
     0
  9
$SHADOWPLANELOCATION
 40
0.0
  0
ENDSEC
  0
SECTION
  2
CLASSES
  0
CLASS
  1
ACDBDICTIONARYWDFLT
  2
AcDbDictionaryWithDefault
  3
ObjectDBX Classes
 90
        0
 91
        4
280
     0
281
     0
  0
CLASS
  1
VISUALSTYLE
  2
AcDbVisualStyle
  3
ObjectDBX Classes
 90
     4095
 91
        4
280
     0
281
     0
  0
CLASS
  1
MATERIAL
  2
AcDbMaterial
  3
ObjectDBX Classes
 90
     1153
 91
        4
280
     0
281
     0
  0
CLASS
  1
SCALE
  2
AcDbScale
  3
ObjectDBX Classes
 90
     1153
 91
        4
280
     0
281
     0
  0
CLASS
  1
TABLESTYLE
  2
AcDbTableStyle
  3
ObjectDBX Classes
 90
     4095
 91
        4
280
     0
281
     0
  0
CLASS
  1
MLEADERSTYLE
  2
AcDbMLeaderStyle
  3
ACDB_MLEADERSTYLE_CLASS
 90
     4095
 91
        4
280
     0
281
     0
  0
CLASS
  1
SUN
  2
AcDbSun
  3
SCENEOE
 90
     1153
 91
        4
280
     0
281
     0
  0
CLASS
  1
DICTIONARYVAR
  2
AcDbDictionaryVar
  3
ObjectDBX Classes
 90
        0
 91
        4
280
     0
281
     0
  0
CLASS
  1
CELLSTYLEMAP
  2
AcDbCellStyleMap
  3
ObjectDBX Classes
 90
     1152
 91
        4
280
     0
281
     0
  0
ENDSEC
  0
SECTION
  2
TABLES
  0
TABLE
  2
VPORT
  5
8
330
0
100
AcDbSymbolTable
 70
     1
  0
VPORT
  5
29
330
8
100
AcDbSymbolTableRecord
100
AcDbViewportTableRecord
  2
*Active
 70
     0
 10
0.0
 20
0.0
 11
1.0
 21
1.0
 12
0.0
 22
0.0950000000000006
 13
0.0
 23
0.0
 14
0.5
 24
0.5
 15
0.5
 25
0.5
 16
0.0
 26
0.0
 36
1.0
 17
0.0
 27
0.0
 37
0.0
 40
7.843800000000002
 41
1.820546163849154
 42
50.0
 43
0.0
 44
0.0
 50
0.0
 51
0.0
 71
     0
 72
   100
 73
     1
 74
     3
 75
     0
 76
     0
 77
     0
 78
     0
281
     0
 65
     1
110
0.0
120
0.0
130
0.0
111
1.0
121
0.0
131
0.0
112
0.0
122
1.0
132
0.0
 79
     0
146
0.0
348
2F
 60
     3
 61
     5
292
     1
282
     1
141
0.0
142
0.0
 63
   250
361
6D
  0
ENDTAB
  0
TABLE
  2
LTYPE
  5
5
330
0
100
AcDbSymbolTable
 70
     3
  0
LTYPE
  5
14
330
5
100
AcDbSymbolTableRecord
100
AcDbLinetypeTableRecord
  2
ByBlock
 70
     0
  3

 72
    65
 73
     0
 40
0.0
  0
LTYPE
  5
15
330
5
100
AcDbSymbolTableRecord
100
AcDbLinetypeTableRecord
  2
ByLayer
 70
     0
  3

 72
    65
 73
     0
 40
0.0
  0
LTYPE
  5
16
330
5
100
AcDbSymbolTableRecord
100
AcDbLinetypeTableRecord
  2
Continuous
 70
     0
  3
Solid line
 72
    65
 73
     0
 40
0.0
  0
LTYPE
  5
A0
330
5
100
AcDbSymbolTableRecord
100
AcDbLinetypeTableRecord
  2
Center
 70
     0
  3

 72
    65
 73
     4
 40
1.5
 49
0.45
 74
     0
 49
-0.5
 74
     0
 49
0.05
 74
     0
 49
-0.5
 74
     0
  0
LTYPE
  5
E6
330
5
100
AcDbSymbolTableRecord
100
AcDbLinetypeTableRecord
  2
Dashed
 70
     0
  3

 72
    65
 73
     2
 40
2.0
 49
1.0
 74
     0
 49
-1.0
 74
     0
  0
ENDTAB
  0
TABLE
  2
LAYER
  5
2
330
0
100
AcDbSymbolTable
 70
     7
  0
LAYER
  5
10
330
2
100
AcDbSymbolTableRecord
100
AcDbLayerTableRecord
  2
0
 70
     0
 62
     7
  6
Continuous
370
    -3
390
F
347
46
348
0
  0
LAYER
  5
72
330
2
100
AcDbSymbolTableRecord
100
AcDbLayerTableRecord
  2
AM_6
 70
     0
 62
    -2
  6
Continuous
370
    35
390
F
347
46
348
0
  0
LAYER
  5
9E
330
2
100
AcDbSymbolTableRecord
100
AcDbLayerTableRecord
  2
AM_5
 70
     0
 62
     3
  6
Continuous
370
    25
390
F
347
46
348
0
  0
LAYER
  5
A1
330
2
100
AcDbSymbolTableRecord
100
AcDbLayerTableRecord
  2
AM_7
 70
     0
 62
     7
  6
Center
370
    25
390
F
347
46
348
0
  0
LAYER
  5
A3
330
2
100
AcDbSymbolTableRecord
100
AcDbLayerTableRecord
  2
AM_4
 70
     0
 62
     7
  6
Continuous
370
    50
390
F
347
46
348
0
  0
LAYER
  5
E7
330
2
100
AcDbSymbolTableRecord
100
AcDbLayerTableRecord
  2
AM_9
 70
     0
 62
     6
  6
Dashed
370
    25
390
F
347
46
348
0
  0
LAYER
  5
21D
330
2
100
AcDbSymbolTableRecord
100
AcDbLayerTableRecord
  2
ConnectionPoints
 70
     0
 62
     7
  6
Continuous
370
    50
390
F
347
46
348
0
  0
ENDTAB
  0
TABLE
  2
STYLE
  5
3
330
0
100
AcDbSymbolTable
 70
     1
  0
STYLE
  5
11
330
3
100
AcDbSymbolTableRecord
100
AcDbTextStyleTableRecord
  2
Standard
 70
     0
 40
0.0
 41
1.0
 50
0.0
 71
     0
 42
0.2
  3
txt
  4

  0
ENDTAB
  0
TABLE
  2
VIEW
  5
6
330
0
100
AcDbSymbolTable
 70
     0
  0
ENDTAB
  0
TABLE
  2
UCS
  5
7
330
0
100
AcDbSymbolTable
 70
     0
  0
ENDTAB
  0
TABLE
  2
APPID
  5
9
330
0
100
AcDbSymbolTable
 70
     1
  0
APPID
  5
12
330
9
100
AcDbSymbolTableRecord
100
AcDbRegAppTableRecord
  2
ACAD
 70
     0
  0
ENDTAB
  0
TABLE
  2
DIMSTYLE
  5
A
330
0
100
AcDbSymbolTable
 70
     1
100
AcDbDimStyleTable
  0
DIMSTYLE
105
27
330
A
100
AcDbSymbolTableRecord
100
AcDbDimStyleTableRecord
  2
Standard
 70
     0
178
     0
340
11
  0
ENDTAB
  0
TABLE
  2
BLOCK_RECORD
  5
1
330
0
100
AcDbSymbolTable
 70
     8
  0
BLOCK_RECORD
  5
1F
330
1
100
AcDbSymbolTableRecord
100
AcDbBlockTableRecord
  2
*Model_Space
340
22
 70
     0
280
     1
281
     0
  0
BLOCK_RECORD
  5
1B
330
1
100
AcDbSymbolTableRecord
100
AcDbBlockTableRecord
  2
*Paper_Space
340
1E
 70
     0
280
     1
281
     0
  0
BLOCK_RECORD
  5
23
330
1
100
AcDbSymbolTableRecord
100
AcDbBlockTableRecord
  2
*Paper_Space0
340
26
 70
     0
280
     1
281
     0
  0
BLOCK_RECORD
  5
6E
330
1
100
AcDbSymbolTableRecord
100
AcDbBlockTableRecord
  2
1_071179_0
340
0
102
{BLKREFS
331
6F
102
}
 70
     0
280
     1
281
     0
  0
BLOCK_RECORD
  5
8E
330
1
100
AcDbSymbolTableRecord
100
AcDbBlockTableRecord
  2
2_ASME_B18_3_1_4_1_0_in_071179_0
340
0
102
{BLKREFS
331
8F
102
}
 70
     0
280
     1
281
     0
  0
BLOCK_RECORD
  5
AE
330
1
100
AcDbSymbolTableRecord
100
AcDbBlockTableRecord
  2
3_ASME_B18_3_1_4_2_0_in_071179_0
340
0
102
{BLKREFS
331
AF
102
}
 70
     0
280
     1
281
     0
  0
BLOCK_RECORD
  5
CA
330
1
100
AcDbSymbolTableRecord
100
AcDbBlockTableRecord
  2
4_070901LWE_0_in_071179_0
340
0
102
{BLKREFS
331
CB
102
}
 70
     0
280
     1
281
     0
  0
BLOCK_RECORD
  5
11A
330
1
100
AcDbSymbolTableRecord
100
AcDbBlockTableRecord
  2
5_070933EL_0_in_071179_0
340
0
102
{BLKREFS
331
11B
102
}
 70
     0
280
     1
281
     0
  0
BLOCK_RECORD
  5
17A
330
1
100
AcDbSymbolTableRecord
100
AcDbBlockTableRecord
  2
6_405015E_Inch_0_in_071179_0
340
0
102
{BLKREFS
331
17B
102
}
 70
     0
280
     1
281
     0
  0
BLOCK_RECORD
  5
1AF
330
1
100
AcDbSymbolTableRecord
100
AcDbBlockTableRecord
  2
7_071180Ho_0_in_071179_0
340
0
102
{BLKREFS
331
1B0
102
}
 70
     0
280
     1
281
     0
  0
ENDTAB
  0
ENDSEC
  0
SECTION
  2
BLOCKS
  0
BLOCK
  5
20
330
1F
100
AcDbEntity
  8
0
100
AcDbBlockBegin
  2
*Model_Space
 70
     0
 10
0.0
 20
0.0
 30
0.0
  3
*Model_Space
  1

  0
ENDBLK
  5
21
330
1F
100
AcDbEntity
  8
0
100
AcDbBlockEnd
  0
BLOCK
  5
1C
330
1B
100
AcDbEntity
 67
     1
  8
0
100
AcDbBlockBegin
  2
*Paper_Space
 70
     0
 10
0.0
 20
0.0
 30
0.0
  3
*Paper_Space
  1

  0
ENDBLK
  5
1D
330
1B
100
AcDbEntity
 67
     1
  8
0
100
AcDbBlockEnd
  0
BLOCK
  5
24
330
23
100
AcDbEntity
  8
0
100
AcDbBlockBegin
  2
*Paper_Space0
 70
     0
 10
0.0
 20
0.0
 30
0.0
  3
*Paper_Space0
  1

  0
ENDBLK
  5
25
330
23
100
AcDbEntity
  8
0
100
AcDbBlockEnd
  0
BLOCK
  5
70
330
6E
100
AcDbEntity
  8
0
100
AcDbBlockBegin
  2
1_071179_0
 70
     2
 10
0.0
 20
0.0
 30
0.0
  3
1_071179_0
  1

  0
ATTDEF
  5
73
330
6E
100
AcDbEntity
  8
AM_6
100
AcDbText
 10
12.0
 20
3.94
 30
0.0
 40
0.5
  1
Imperial - IP Pillow Block with Type E Dimensions 1-3/8 thru 2-3/16 inch 2-Bolt Labyrinth Seal Expansion
100
AcDbAttributeDefinition
  3

  2
NN
 70
     8
280
     0
  0
ATTDEF
  5
74
330
6E
100
AcDbEntity
  8
AM_6
100
AcDbText
 10
12.0
 20
3.44
 30
0.0
 40
0.5
  1
Imperial/E 2 Bolt Piliow Block Bearings
100
AcDbAttributeDefinition
  3

  2
NT
 70
     8
280
     0
  0
ATTDEF
  5
75
330
6E
100
AcDbEntity
  8
AM_6
100
AcDbText
 10
12.0
 20
2.94
 30
0.0
 40
0.5
  1
071179
100
AcDbAttributeDefinition
  3

  2
NB
 70
     8
280
     0
  0
ATTDEF
  5
76
330
6E
100
AcDbEntity
  8
AM_6
100
AcDbText
 10
12.0
 20
2.44
 30
0.0
 40
0.5
  1
$PN.
100
AcDbAttributeDefinition
  3

  2
NBSYN
 70
     8
280
     0
  0
ATTDEF
  5
77
330
6E
100
AcDbEntity
  8
AM_6
100
AcDbText
 10
12.0
 20
1.94
 30
0.0
 40
0.5
  1
071179
100
AcDbAttributeDefinition
  3

  2
LINA
 70
     8
280
     0
  0
ATTDEF
  5
78
330
6E
100
AcDbEntity
  8
AM_6
100
AcDbText
 10
12.0
 20
1.44
 30
0.0
 40
0.5
  1
3-3/16
100
AcDbAttributeDefinition
  3

  2
SS
 70
     8
280
     0
  0
ATTDEF
  5
79
330
6E
100
AcDbEntity
  8
AM_6
100
AcDbText
 10
12.0
 20
0.9400000000000004
 30
0.0
 40
0.5
  1
Non-Expansion
100
AcDbAttributeDefinition
  3

  2
TYPE
 70
     8
280
     0
  0
ATTDEF
  5
7A
330
6E
100
AcDbEntity
  8
AM_6
100
AcDbText
 10
12.0
 20
0.4400000000000004
 30
0.0
 40
0.5
  1
071179
100
AcDbAttributeDefinition
  3

  2
PN
 70
     8
280
     0
  0
ATTDEF
  5
7B
330
6E
100
AcDbEntity
  8
AM_6
100
AcDbText
 10
12.0
 20
-0.0599999999999996
 30
0.0
 40
0.5
  1
EP2B-IP-303L
100
AcDbAttributeDefinition
  3

  2
DESCRIPTION
 70
     8
280
     0
  0
ATTDEF
  5
7C
330
6E
100
AcDbEntity
  8
AM_6
100
AcDbText
 10
12.0
 20
-0.5599999999999996
 30
0.0
 40
0.5
  1
Labyrinth Seal
100
AcDbAttributeDefinition
  3

  2
ST
 70
     8
280
     0
  0
ATTDEF
  5
7D
330
6E
100
AcDbEntity
  8
AM_6
100
AcDbText
 10
12.0
 20
-1.06
 30
0.0
 40
0.5
  1
4.17
100
AcDbAttributeDefinition
  3

  2
A
 70
     8
280
     0
  0
ATTDEF
  5
7E
330
6E
100
AcDbEntity
  8
AM_6
100
AcDbText
 10
12.0
 20
-1.56
 30
0.0
 40
0.5
  1
14
100
AcDbAttributeDefinition
  3

  2
B
 70
     8
280
     0
  0
ATTDEF
  5
7F
330
6E
100
AcDbEntity
  8
AM_6
100
AcDbText
 10
12.0
 20
-2.06
 30
0.0
 40
0.5
  1
3.49
100
AcDbAttributeDefinition
  3

  2
C
 70
     8
280
     0
  0
ATTDEF
  5
80
330
6E
100
AcDbEntity
  8
AM_6
100
AcDbText
 10
12.0
 20
-2.56
 30
0.0
 40
0.5
  1
10.81
100
AcDbAttributeDefinition
  3

  2
DMIN
 70
     8
280
     0
  0
ATTDEF
  5
81
330
6E
100
AcDbEntity
  8
AM_6
100
AcDbText
 10
12.0
 20
-3.06
 30
0.0
 40
0.5
  1
11.19
100
AcDbAttributeDefinition
  3

  2
DMAX
 70
     8
280
     0
  0
ATTDEF
  5
82
330
6E
100
AcDbEntity
  8
AM_6
100
AcDbText
 10
12.0
 20
-3.56
 30
0.0
 40
0.5
  1
7/8
100
AcDbAttributeDefinition
  3

  2
F
 70
     8
280
     0
  0
ATTDEF
  5
83
330
6E
100
AcDbEntity
  8
AM_6
100
AcDbText
 10
12.0
 20
-4.06
 30
0.0
 40
0.5
  1
1.19
100
AcDbAttributeDefinition
  3

  2
G
 70
     8
280
     0
  0
ATTDEF
  5
84
330
6E
100
AcDbEntity
  8
AM_6
100
AcDbText
 10
12.0
 20
-4.56
 30
0.0
 40
0.5
  1
2.25
100
AcDbAttributeDefinition
  3

  2
H
 70
     8
280
     0
  0
ATTDEF
  5
85
330
6E
100
AcDbEntity
  8
AM_6
100
AcDbText
 10
12.0
 20
-5.06
 30
0.0
 40
0.5
  1
7.69
100
AcDbAttributeDefinition
  3

  2
J
 70
     8
280
     0
  0
ATTDEF
  5
86
330
6E
100
AcDbEntity
  8
AM_6
100
AcDbText
 10
12.0
 20
-5.56
 30
0.0
 40
0.5
  1
5.00
100
AcDbAttributeDefinition
  3

  2
L
 70
     8
280
     0
  0
ATTDEF
  5
87
330
6E
100
AcDbEntity
  8
AM_6
100
AcDbText
 10
12.0
 20
-6.06
 30
0.0
 40
0.5
  1
3.75
100
AcDbAttributeDefinition
  3

  2
M
 70
     8
280
     0
  0
ATTDEF
  5
88
330
6E
100
AcDbEntity
  8
AM_6
100
AcDbText
 10
12.0
 20
-6.56
 30
0.0
 40
0.5
  1
1.51
100
AcDbAttributeDefinition
  3

  2
R
 70
     8
280
     0
  0
ATTDEF
  5
89
330
6E
100
AcDbEntity
  8
AM_6
100
AcDbText
 10
12.0
 20
-7.06
 30
0.0
 40
0.5
  1
2.66
100
AcDbAttributeDefinition
  3

  2
S
 70
     8
280
     0
  0
ATTDEF
  5
8A
330
6E
100
AcDbEntity
  8
AM_6
100
AcDbText
 10
12.0
 20
-7.56
 30
0.0
 40
0.5
  1
0.25
100
AcDbAttributeDefinition
  3

  2
X
 70
     8
280
     0
  0
ATTDEF
  5
8B
330
6E
100
AcDbEntity
  8
AM_6
100
AcDbText
 10
12.0
 20
-8.059999999999999
 30
0.0
 40
0.5
  1
0.025
100
AcDbAttributeDefinition
  3

  2
Y
 70
     8
280
     0
  0
ATTDEF
  5
8C
330
6E
100
AcDbEntity
  8
AM_6
100
AcDbText
 10
12.0
 20
-8.559999999999999
 30
0.0
 40
0.5
  1
4.05
100
AcDbAttributeDefinition
  3

  2
Z
 70
     8
280
     0
  0
ATTDEF
  5
8D
330
6E
100
AcDbEntity
  8
AM_6
100
AcDbText
 10
12.0
 20
-9.059999999999999
 30
0.0
 40
0.5
  1
baldor
100
AcDbAttributeDefinition
  3

  2
COMPANY
 70
     8
280
     0
  0
INSERT
  5
8F
330
6E
100
AcDbEntity
  8
0
100
AcDbBlockReference
  2
2_ASME_B18_3_1_4_1_0_in_071179_0
 10
0.0
 20
0.0
 30
0.0
  0
INSERT
  5
AF
330
6E
100
AcDbEntity
  8
0
100
AcDbBlockReference
  2
3_ASME_B18_3_1_4_2_0_in_071179_0
 10
0.0
 20
0.0
 30
0.0
  0
INSERT
  5
CB
330
6E
100
AcDbEntity
  8
0
100
AcDbBlockReference
  2
4_070901LWE_0_in_071179_0
 10
0.0
 20
0.0
 30
0.0
  0
INSERT
  5
11B
330
6E
100
AcDbEntity
  8
0
100
AcDbBlockReference
  2
5_070933EL_0_in_071179_0
 10
0.0
 20
0.0
 30
0.0
  0
INSERT
  5
17B
330
6E
100
AcDbEntity
  8
0
100
AcDbBlockReference
  2
6_405015E_Inch_0_in_071179_0
 10
0.0
 20
0.0
 30
0.0
  0
INSERT
  5
1B0
330
6E
100
AcDbEntity
  8
0
100
AcDbBlockReference
  2
7_071180Ho_0_in_071179_0
 10
0.0
 20
0.0
 30
0.0
  0
ENDBLK
  5
71
330
6E
100
AcDbEntity
  8
0
100
AcDbBlockEnd
  0
BLOCK
  5
90
330
8E
100
AcDbEntity
  8
0
100
AcDbBlockBegin
  2
2_ASME_B18_3_1_4_1_0_in_071179_0
 70
     2
 10
0.0
 20
0.0
 30
0.0
  3
2_ASME_B18_3_1_4_1_0_in_071179_0
  1

  0
ATTDEF
  5
92
330
8E
100
AcDbEntity
  8
AM_6
100
AcDbText
 10
5.229425
 20
-1.916916666666666
 30
0.0
 40
0.5
  1
ANSI/ASME B18.3-1998
100
AcDbAttributeDefinition
  3

  2
NN
 70
     8
280
     0
  0
ATTDEF
  5
93
330
8E
100
AcDbEntity
  8
AM_6
100
AcDbText
 10
5.229425
 20
-2.416916666666666
 30
0.0
 40
0.5
  1
Socket Button Head Cap Screws
100
AcDbAttributeDefinition
  3

  2
NT
 70
     8
280
     0
  0
ATTDEF
  5
94
330
8E
100
AcDbEntity
  8
AM_6
100
AcDbText
 10
5.229425
 20
-2.916916666666666
 30
0.0
 40
0.5
  1
ASME B18.3-1/4
100
AcDbAttributeDefinition
  3

  2
NB
 70
     8
280
     0
  0
ATTDEF
  5
95
330
8E
100
AcDbEntity
  8
AM_6
100
AcDbText
 10
5.229425
 20
-3.416916666666666
 30
0.0
 40
0.5
  1
ASME B18.3-$NS.
100
AcDbAttributeDefinition
  3

  2
NBSYN
 70
     8
280
     0
  0
ATTDEF
  5
96
330
8E
100
AcDbEntity
  8
AM_6
100
AcDbText
 10
5.229425
 20
-3.916916666666666
 30
0.0
 40
0.5
  1
ASME B18.3-1/4
100
AcDbAttributeDefinition
  3

  2
LINA
 70
     8
280
     0
  0
ATTDEF
  5
97
330
8E
100
AcDbEntity
  8
AM_6
100
AcDbText
 10
5.229425
 20
-4.416916666666666
 30
0.0
 40
0.5
  1
1/4
100
AcDbAttributeDefinition
  3

  2
NS
 70
     8
280
     0
  0
ATTDEF
  5
98
330
8E
100
AcDbEntity
  8
AM_6
100
AcDbText
 10
5.229425
 20
-4.916916666666666
 30
0.0
 40
0.5
  1
0.437
100
AcDbAttributeDefinition
  3

  2
A
 70
     8
280
     0
  0
ATTDEF
  5
99
330
8E
100
AcDbEntity
  8
AM_6
100
AcDbText
 10
5.229425
 20
-5.416916666666666
 30
0.0
 40
0.5
  1
0.132
100
AcDbAttributeDefinition
  3

  2
H
 70
     8
280
     0
  0
ATTDEF
  5
9A
330
8E
100
AcDbEntity
  8
AM_6
100
AcDbText
 10
5.229425
 20
-5.916916666666666
 30
0.0
 40
0.5
  1
0.800
100
AcDbAttributeDefinition
  3

  2
L
 70
     8
280
     0
  0
ATTDEF
  5
9B
330
8E
100
AcDbEntity
  8
AM_6
100
AcDbText
 10
5.229425
 20
-6.416916666666666
 30
0.0
 40
0.5
  1
0.031
100
AcDbAttributeDefinition
  3

  2
S
 70
     8
280
     0
  0
ATTDEF
  5
9C
330
8E
100
AcDbEntity
  8
AM_6
100
AcDbText
 10
5.229425
 20
-6.916916666666666
 30
0.0
 40
0.5
  1
0.156250
100
AcDbAttributeDefinition
  3

  2
J
 70
     8
280
     0
  0
ATTDEF
  5
9D
330
8E
100
AcDbEntity
  8
AM_6
100
AcDbText
 10
5.229425
 20
-7.416916666666666
 30
0.0
 40
0.5
  1
baldor
100
AcDbAttributeDefinition
  3

  2
COMPANY
 70
     8
280
     0
  0
ARC
  5
9F
330
8E
100
AcDbEntity
  8
AM_5
100
AcDbCircle
 10
0.0
 20
-2.135416666666667
 30
0.0
 40
0.0952500000000001
100
AcDbArc
 50
75.00000000000001
 51
15.00000000000004
  0
LINE
  5
A2
330
8E
100
AcDbEntity
  8
AM_7
100
AcDbLine
 10
-0.2294250000000002
 20
-2.135416666666667
 30
0.0
 11
0.2294250000000002
 21
-2.135416666666667
 31
0.0
  0
LINE
  5
A4
330
8E
100
AcDbEntity
  8
AM_4
100
AcDbLine
 10
0.078125
 20
-2.090311176886227
 30
0.0
 11
0.078125
 21
-2.180522156447106
 31
0.0
  0
LINE
  5
A5
330
8E
100
AcDbEntity
  8
AM_4
100
AcDbLine
 10
-0.078125
 20
-2.180522156447106
 30
0.0
 11
-0.078125
 21
-2.090311176886227
 31
0.0
  0
LINE
  5
A6
330
8E
100
AcDbEntity
  8
AM_4
100
AcDbLine
 10
-0.078125
 20
-2.090311176886227
 30
0.0
 11
0.0
 21
-2.045205687105788
 31
0.0
  0
LINE
  5
A7
330
8E
100
AcDbEntity
  8
AM_4
100
AcDbLine
 10
0.0
 20
-2.045205687105788
 30
0.0
 11
0.078125
 21
-2.090311176886227
 31
0.0
  0
LINE
  5
A8
330
8E
100
AcDbEntity
  8
AM_4
100
AcDbLine
 10
0.078125
 20
-2.180522156447106
 30
0.0
 11
0.0
 21
-2.225627646227545
 31
0.0
  0
LINE
  5
A9
330
8E
100
AcDbEntity
  8
AM_4
100
AcDbLine
 10
0.0
 20
-2.225627646227545
 30
0.0
 11
-0.078125
 21
-2.180522156447106
 31
0.0
  0
CIRCLE
  5
AA
330
8E
100
AcDbEntity
  8
AM_4
100
AcDbCircle
 10
0.0
 20
-2.135416666666667
 30
0.0
 40
0.1175
  0
ARC
  5
AB
330
8E
100
AcDbEntity
  8
AM_5
100
AcDbCircle
 10
0.0
 20
-2.135416666666667
 30
0.0
 40
0.09525
100
AcDbArc
 50
345.0
 51
285.0
  0
CIRCLE
  5
AC
330
8E
100
AcDbEntity
  8
AM_4
100
AcDbCircle
 10
0.0
 20
-2.135416666666667
 30
0.0
 40
0.2185000000000001
  0
CIRCLE
  5
AD
330
8E
100
AcDbEntity
  8
AM_5
100
AcDbCircle
 10
0.0000000000000005
 20
-2.135416666666667
 30
0.0
 40
0.1063999999999998
  0
ENDBLK
  5
91
330
8E
100
AcDbEntity
  8
0
100
AcDbBlockEnd
  0
BLOCK
  5
B0
330
AE
100
AcDbEntity
  8
0
100
AcDbBlockBegin
  2
3_ASME_B18_3_1_4_2_0_in_071179_0
 70
     2
 10
0.0
 20
0.0
 30
0.0
  3
3_ASME_B18_3_1_4_2_0_in_071179_0
  1

  0
ATTDEF
  5
B2
330
AE
100
AcDbEntity
  8
AM_6
100
AcDbText
 10
5.229425
 20
2.353916666666667
 30
0.0
 40
0.5
  1
ANSI/ASME B18.3-1998
100
AcDbAttributeDefinition
  3

  2
NN
 70
     8
280
     0
  0
ATTDEF
  5
B3
330
AE
100
AcDbEntity
  8
AM_6
100
AcDbText
 10
5.229425
 20
1.853916666666667
 30
0.0
 40
0.5
  1
Socket Button Head Cap Screws
100
AcDbAttributeDefinition
  3

  2
NT
 70
     8
280
     0
  0
ATTDEF
  5
B4
330
AE
100
AcDbEntity
  8
AM_6
100
AcDbText
 10
5.229425
 20
1.353916666666667
 30
0.0
 40
0.5
  1
ASME B18.3-1/4
100
AcDbAttributeDefinition
  3

  2
NB
 70
     8
280
     0
  0
ATTDEF
  5
B5
330
AE
100
AcDbEntity
  8
AM_6
100
AcDbText
 10
5.229425
 20
0.8539166666666667
 30
0.0
 40
0.5
  1
ASME B18.3-$NS.
100
AcDbAttributeDefinition
  3

  2
NBSYN
 70
     8
280
     0
  0
ATTDEF
  5
B6
330
AE
100
AcDbEntity
  8
AM_6
100
AcDbText
 10
5.229425
 20
0.3539166666666667
 30
0.0
 40
0.5
  1
ASME B18.3-1/4
100
AcDbAttributeDefinition
  3

  2
LINA
 70
     8
280
     0
  0
ATTDEF
  5
B7
330
AE
100
AcDbEntity
  8
AM_6
100
AcDbText
 10
5.229425
 20
-0.1460833333333333
 30
0.0
 40
0.5
  1
1/4
100
AcDbAttributeDefinition
  3

  2
NS
 70
     8
280
     0
  0
ATTDEF
  5
B8
330
AE
100
AcDbEntity
  8
AM_6
100
AcDbText
 10
5.229425
 20
-0.6460833333333333
 30
0.0
 40
0.5
  1
0.437
100
AcDbAttributeDefinition
  3

  2
A
 70
     8
280
     0
  0
ATTDEF
  5
B9
330
AE
100
AcDbEntity
  8
AM_6
100
AcDbText
 10
5.229425
 20
-1.146083333333333
 30
0.0
 40
0.5
  1
0.132
100
AcDbAttributeDefinition
  3

  2
H
 70
     8
280
     0
  0
ATTDEF
  5
BA
330
AE
100
AcDbEntity
  8
AM_6
100
AcDbText
 10
5.229425
 20
-1.646083333333333
 30
0.0
 40
0.5
  1
0.800
100
AcDbAttributeDefinition
  3

  2
L
 70
     8
280
     0
  0
ATTDEF
  5
BB
330
AE
100
AcDbEntity
  8
AM_6
100
AcDbText
 10
5.229425
 20
-2.146083333333333
 30
0.0
 40
0.5
  1
0.031
100
AcDbAttributeDefinition
  3

  2
S
 70
     8
280
     0
  0
ATTDEF
  5
BC
330
AE
100
AcDbEntity
  8
AM_6
100
AcDbText
 10
5.229425
 20
-2.646083333333333
 30
0.0
 40
0.5
  1
0.156250
100
AcDbAttributeDefinition
  3

  2
J
 70
     8
280
     0
  0
ATTDEF
  5
BD
330
AE
100
AcDbEntity
  8
AM_6
100
AcDbText
 10
5.229425
 20
-3.146083333333333
 30
0.0
 40
0.5
  1
baldor
100
AcDbAttributeDefinition
  3

  2
COMPANY
 70
     8
280
     0
  0
ARC
  5
BE
330
AE
100
AcDbEntity
  8
AM_5
100
AcDbCircle
 10
-0.0000000000000001
 20
2.135416666666667
 30
0.0
 40
0.0952500000000001
100
AcDbArc
 50
75.00000000000001
 51
15.00000000000004
  0
LINE
  5
BF
330
AE
100
AcDbEntity
  8
AM_7
100
AcDbLine
 10
-0.2294250000000002
 20
2.135416666666667
 30
0.0
 11
0.2294250000000002
 21
2.135416666666667
 31
0.0
  0
LINE
  5
C0
330
AE
100
AcDbEntity
  8
AM_4
100
AcDbLine
 10
0.078125
 20
2.090311176886227
 30
0.0
 11
0.0
 21
2.045205687105788
 31
0.0
  0
LINE
  5
C1
330
AE
100
AcDbEntity
  8
AM_4
100
AcDbLine
 10
-0.078125
 20
2.180522156447106
 30
0.0
 11
0.0
 21
2.225627646227545
 31
0.0
  0
LINE
  5
C2
330
AE
100
AcDbEntity
  8
AM_4
100
AcDbLine
 10
0.0
 20
2.225627646227545
 30
0.0
 11
0.078125
 21
2.180522156447106
 31
0.0
  0
LINE
  5
C3
330
AE
100
AcDbEntity
  8
AM_4
100
AcDbLine
 10
0.078125
 20
2.180522156447106
 30
0.0
 11
0.078125
 21
2.090311176886227
 31
0.0
  0
LINE
  5
C4
330
AE
100
AcDbEntity
  8
AM_4
100
AcDbLine
 10
-0.078125
 20
2.090311176886227
 30
0.0
 11
-0.078125
 21
2.180522156447106
 31
0.0
  0
LINE
  5
C5
330
AE
100
AcDbEntity
  8
AM_4
100
AcDbLine
 10
0.0
 20
2.045205687105788
 30
0.0
 11
-0.078125
 21
2.090311176886227
 31
0.0
  0
CIRCLE
  5
C6
330
AE
100
AcDbEntity
  8
AM_4
100
AcDbCircle
 10
0.0
 20
2.135416666666667
 30
0.0
 40
0.1175
  0
ARC
  5
C7
330
AE
100
AcDbEntity
  8
AM_5
100
AcDbCircle
 10
0.0
 20
2.135416666666667
 30
0.0
 40
0.09525
100
AcDbArc
 50
345.0
 51
285.0
  0
CIRCLE
  5
C8
330
AE
100
AcDbEntity
  8
AM_4
100
AcDbCircle
 10
0.0
 20
2.135416666666667
 30
0.0
 40
0.2185000000000001
  0
CIRCLE
  5
C9
330
AE
100
AcDbEntity
  8
AM_5
100
AcDbCircle
 10
0.0000000000000005
 20
2.135416666666666
 30
0.0
 40
0.1063999999999998
  0
ENDBLK
  5
B1
330
AE
100
AcDbEntity
  8
0
100
AcDbBlockEnd
  0
BLOCK
  5
CC
330
CA
100
AcDbEntity
  8
0
100
AcDbBlockBegin
  2
4_070901LWE_0_in_071179_0
 70
     2
 10
0.0
 20
0.0
 30
0.0
  3
4_070901LWE_0_in_071179_0
  1

  0
ATTDEF
  5
CE
330
CA
100
AcDbEntity
  8
AM_6
100
AcDbText
 10
7.5
 20
2.5
 30
0.0
 40
0.5
  1
Imperial/E Insert Lockwasher -Inch
100
AcDbAttributeDefinition
  3

  2
NN
 70
     8
280
     0
  0
ATTDEF
  5
CF
330
CA
100
AcDbEntity
  8
AM_6
100
AcDbText
 10
7.5
 20
2.0
 30
0.0
 40
0.5
  1
Imperial/E Bearings
100
AcDbAttributeDefinition
  3

  2
NT
 70
     8
280
     0
  0
ATTDEF
  5
D0
330
CA
100
AcDbEntity
  8
AM_6
100
AcDbText
 10
7.5
 20
1.5
 30
0.0
 40
0.5
  1
070901LWE
100
AcDbAttributeDefinition
  3

  2
NB
 70
     8
280
     0
  0
ATTDEF
  5
D1
330
CA
100
AcDbEntity
  8
AM_6
100
AcDbText
 10
7.5
 20
1.0
 30
0.0
 40
0.5
  1
$PN.LWE
100
AcDbAttributeDefinition
  3

  2
NBSYN
 70
     8
280
     0
  0
ATTDEF
  5
D2
330
CA
100
AcDbEntity
  8
AM_6
100
AcDbText
 10
7.5
 20
0.5
 30
0.0
 40
0.5
  1
070901
100
AcDbAttributeDefinition
  3

  2
LINA
 70
     8
280
     0
  0
ATTDEF
  5
D3
330
CA
100
AcDbEntity
  8
AM_6
100
AcDbText
 10
7.5
 20
0.0
 30
0.0
 40
0.5
  1
3-3/16
100
AcDbAttributeDefinition
  3

  2
SS
 70
     8
280
     0
  0
ATTDEF
  5
D4
330
CA
100
AcDbEntity
  8
AM_6
100
AcDbText
 10
7.5
 20
-0.5
 30
0.0
 40
0.5
  1
5.000000
100
AcDbAttributeDefinition
  3

  2
E1
 70
     8
280
     0
  0
ATTDEF
  5
D5
330
CA
100
AcDbEntity
  8
AM_6
100
AcDbText
 10
7.5
 20
-1.0
 30
0.0
 40
0.5
  1
3.187500
100
AcDbAttributeDefinition
  3

  2
SS1
 70
     8
280
     0
  0
ATTDEF
  5
D6
330
CA
100
AcDbEntity
  8
AM_6
100
AcDbText
 10
7.5
 20
-1.5
 30
0.0
 40
0.5
  1
070901
100
AcDbAttributeDefinition
  3

  2
PN
 70
     8
280
     0
  0
ATTDEF
  5
D7
330
CA
100
AcDbEntity
  8
AM_6
100
AcDbText
 10
7.5
 20
-2.0
 30
0.0
 40
0.5
  1
INS-IP-303R
100
AcDbAttributeDefinition
  3

  2
DESCRIPTION
 70
     8
280
     0
  0
ATTDEF
  5
D8
330
CA
100
AcDbEntity
  8
AM_6
100
AcDbText
 10
7.5
 20
-2.5
 30
0.0
 40
0.5
  1
6.2992
100
AcDbAttributeDefinition
  3

  2
A
 70
     8
280
     0
  0
ATTDEF
  5
D9
330
CA
100
AcDbEntity
  8
AM_6
100
AcDbText
 10
7.5
 20
-3.0
 30
0.0
 40
0.5
  1
1-5/8
100
AcDbAttributeDefinition
  3

  2
B
 70
     8
280
     0
  0
ATTDEF
  5
DA
330
CA
100
AcDbEntity
  8
AM_6
100
AcDbText
 10
7.5
 20
-3.5
 30
0.0
 40
0.5
  1
1.625000
100
AcDbAttributeDefinition
  3

  2
B1
 70
     8
280
     0
  0
ATTDEF
  5
DB
330
CA
100
AcDbEntity
  8
AM_6
100
AcDbText
 10
7.5
 20
-4.0
 30
0.0
 40
0.5
  1
4-11/64
100
AcDbAttributeDefinition
  3

  2
C
 70
     8
280
     0
  0
ATTDEF
  5
DC
330
CA
100
AcDbEntity
  8
AM_6
100
AcDbText
 10
7.5
 20
-4.5
 30
0.0
 40
0.5
  1
4.171875
100
AcDbAttributeDefinition
  3

  2
C1
 70
     8
280
     0
  0
ATTDEF
  5
DD
330
CA
100
AcDbEntity
  8
AM_6
100
AcDbText
 10
7.5
 20
-5.0
 30
0.0
 40
0.5
  1
1.483
100
AcDbAttributeDefinition
  3

  2
D
 70
     8
280
     0
  0
ATTDEF
  5
DE
330
CA
100
AcDbEntity
  8
AM_6
100
AcDbText
 10
7.5
 20
-5.5
 30
0.0
 40
0.5
  1
5
100
AcDbAttributeDefinition
  3

  2
E
 70
     8
280
     0
  0
ATTDEF
  5
DF
330
CA
100
AcDbEntity
  8
AM_6
100
AcDbText
 10
7.5
 20
-6.0
 30
0.0
 40
0.5
  1
0.2500
100
AcDbAttributeDefinition
  3

  2
NDM
 70
     8
280
     0
  0
ATTDEF
  5
E0
330
CA
100
AcDbEntity
  8
AM_6
100
AcDbText
 10
7.5
 20
-6.5
 30
0.0
 40
0.5
  1
0.1960
100
AcDbAttributeDefinition
  3

  2
KDM
 70
     8
280
     0
  0
ATTDEF
  5
E1
330
CA
100
AcDbEntity
  8
AM_6
100
AcDbText
 10
7.5
 20
-7.0
 30
0.0
 40
0.5
  1
4.28
100
AcDbAttributeDefinition
  3

  2
AL
 70
     8
280
     0
  0
ATTDEF
  5
E2
330
CA
100
AcDbEntity
  8
AM_6
100
AcDbText
 10
7.5
 20
-7.5
 30
0.0
 40
0.5
  1
0.50
100
AcDbAttributeDefinition
  3

  2
BL
 70
     8
280
     0
  0
ATTDEF
  5
E3
330
CA
100
AcDbEntity
  8
AM_6
100
AcDbText
 10
7.5
 20
-8.0
 30
0.0
 40
0.5
  1
0.07
100
AcDbAttributeDefinition
  3

  2
CL
 70
     8
280
     0
  0
ATTDEF
  5
E4
330
CA
100
AcDbEntity
  8
AM_6
100
AcDbText
 10
7.5
 20
-8.5
 30
0.0
 40
0.5
  1
0.44
100
AcDbAttributeDefinition
  3

  2
DL
 70
     8
280
     0
  0
ATTDEF
  5
E5
330
CA
100
AcDbEntity
  8
AM_6
100
AcDbText
 10
7.5
 20
-9.0
 30
0.0
 40
0.5
  1
baldor
100
AcDbAttributeDefinition
  3

  2
COMPANY
 70
     8
280
     0
  0
ARC
  5
E8
330
CA
100
AcDbEntity
  8
AM_9
100
AcDbCircle
 10
0.0000000000000566
 20
-0.0000000000001388
 30
0.0
 40
1.677631578947519
100
AcDbArc
 50
108.2269426693965
 51
116.7730573306034
  0
LINE
  5
E9
330
CA
100
AcDbEntity
  8
AM_9
100
AcDbLine
 10
-0.1249999999999993
 20
-2.135416666666667
 30
0.0
 11
-0.1249999999999996
 21
-1.956203804405053
 31
0.0
  0
LINE
  5
EA
330
CA
100
AcDbEntity
  8
AM_9
100
AcDbLine
 10
0.1250000000000006
 20
-1.956203804405054
 30
0.0
 11
0.1250000000000006
 21
-2.135416666666667
 31
0.0
  0
LINE
  5
EB
330
CA
100
AcDbEntity
  8
AM_9
100
AcDbLine
 10
-0.1249999999999999
 20
1.956203804405053
 30
0.0
 11
-0.1249999999999998
 21
2.135416666666667
 31
0.0
  0
LINE
  5
EC
330
CA
100
AcDbEntity
  8
AM_9
100
AcDbLine
 10
0.1250000000000003
 20
2.135416666666667
 30
0.0
 11
0.1250000000000003
 21
1.956203804405053
 31
0.0
  0
LINE
  5
ED
330
CA
100
AcDbEntity
  8
AM_7
100
AcDbLine
 10
1.378755500514135
 20
-1.510005512584388
 30
0.0
 11
1.641255524654642
 21
-1.510005512584388
 31
0.0
  0
LINE
  5
EE
330
CA
100
AcDbEntity
  8
AM_7
100
AcDbLine
 10
1.510005512584388
 20
-1.641255524654642
 30
0.0
 11
1.510005512584388
 21
-1.378755500514134
 31
0.0
  0
LINE
  5
EF
330
CA
100
AcDbEntity
  8
AM_7
100
AcDbLine
 10
1.378755500514135
 20
1.510005512584389
 30
0.0
 11
1.641255524654642
 21
1.510005512584389
 31
0.0
  0
LINE
  5
F0
330
CA
100
AcDbEntity
  8
AM_7
100
AcDbLine
 10
1.510005512584389
 20
1.378755500514135
 30
0.0
 11
1.510005512584389
 21
1.641255524654642
 31
0.0
  0
LINE
  5
F1
330
CA
100
AcDbEntity
  8
AM_7
100
AcDbLine
 10
-1.641255524654642
 20
-1.510005512584389
 30
0.0
 11
-1.378755500514134
 21
-1.510005512584389
 31
0.0
  0
LINE
  5
F2
330
CA
100
AcDbEntity
  8
AM_7
100
AcDbLine
 10
-1.510005512584388
 20
-1.641255524654643
 30
0.0
 11
-1.510005512584388
 21
-1.378755500514135
 31
0.0
  0
LINE
  5
F3
330
CA
100
AcDbEntity
  8
AM_7
100
AcDbLine
 10
-2.135470275154979
 20
-0.1312500120702547
 30
0.0
 11
-2.135470275154979
 21
0.1312500120702533
 31
0.0
  0
LINE
  5
F4
330
CA
100
AcDbEntity
  8
AM_7
100
AcDbLine
 10
2.135470275154979
 20
-0.1312500120702533
 30
0.0
 11
2.135470275154979
 21
0.1312500120702537
 31
0.0
  0
LINE
  5
F5
330
CA
100
AcDbEntity
  8
AM_7
100
AcDbLine
 10
-1.641255524654642
 20
1.510005512584389
 30
0.0
 11
-1.378755500514135
 21
1.510005512584389
 31
0.0
  0
LINE
  5
F6
330
CA
100
AcDbEntity
  8
AM_7
100
AcDbLine
 10
-1.510005512584389
 20
1.378755500514136
 30
0.0
 11
-1.510005512584389
 21
1.641255524654642
 31
0.0
  0
LINE
  5
F7
330
CA
100
AcDbEntity
  8
AM_4
100
AcDbLine
 10
-0.1249999999999996
 20
-1.956203804405053
 30
0.0
 11
-0.1249999999999995
 21
-1.718432677062248
 31
0.0
  0
ARC
  5
F8
330
CA
100
AcDbEntity
  8
AM_4
100
AcDbCircle
 10
0.0000000000000016
 20
0.0000000000000056
 30
0.0
 40
1.722972972972978
100
AcDbArc
 50
229.1604077094989
 51
265.8395922905012
  0
ARC
  5
F9
330
CA
100
AcDbEntity
  8
AM_4
100
AcDbCircle
 10
1.510005512584389
 20
1.510005512584388
 30
0.0
 40
0.1250000114954795
100
AcDbArc
 50
314.9754276804956
 51
135.0245723195046
  0
LINE
  5
FA
330
CA
100
AcDbEntity
  8
AM_4
100
AcDbLine
 10
0.1250000000000007
 20
-1.718432677062248
 30
0.0
 11
0.1250000000000006
 21
-1.956203804405054
 31
0.0
  0
ARC
  5
FB
330
CA
100
AcDbEntity
  8
AM_4
100
AcDbCircle
 10
-1.510005512584388
 20
1.510005512584389
 30
0.0
 40
0.1250000114954793
100
AcDbArc
 50
44.97542768051562
 51
225.0245723195048
  0
LINE
  5
FC
330
CA
100
AcDbEntity
  8
AM_4
100
AcDbLine
 10
-0.5247322847707344
 20
1.593456539727622
 30
0.0
 11
-0.5421307735826001
 21
1.635460207382025
 31
0.0
  0
CIRCLE
  5
FD
330
CA
100
AcDbEntity
  8
AM_4
100
AcDbCircle
 10
0.0
 20
0.0
 30
0.0
 40
2.5
  0
LINE
  5
FE
330
CA
100
AcDbEntity
  8
AM_4
100
AcDbLine
 10
-1.126727051314947
 20
-1.30350374661159
 30
0.0
 11
-1.421579258010454
 21
-1.598355953307092
 31
0.0
  0
LINE
  5
FF
330
CA
100
AcDbEntity
  8
AM_4
100
AcDbLine
 10
-1.421579258010486
 20
1.598355953307123
 30
0.0
 11
-1.126727051314949
 21
1.303503746611586
 31
0.0
  0
ARC
  5
100
330
CA
100
AcDbEntity
  8
AM_4
100
AcDbCircle
 10
-0.0000000000000007
 20
-0.0000000000000004
 30
0.0
 40
1.722972972972973
100
AcDbArc
 50
274.1604077094987
 51
310.8395922905013
  0
LINE
  5
101
330
CA
100
AcDbEntity
  8
AM_4
100
AcDbLine
 10
1.421579258010486
 20
-1.598355953307123
 30
0.0
 11
1.12672705131495
 21
-1.303503746611586
 31
0.0
  0
ARC
  5
102
330
CA
100
AcDbEntity
  8
AM_4
100
AcDbCircle
 10
-0.00000000000001
 20
-0.0000000000000059
 30
0.0
 40
1.722972972972984
100
AcDbArc
 50
4.160407709498943
 51
40.83959229050124
  0
LINE
  5
103
330
CA
100
AcDbEntity
  8
AM_4
100
AcDbLine
 10
1.598355953307092
 20
1.421579258010455
 30
0.0
 11
1.303503746611586
 21
1.126727051314949
 31
0.0
  0
ARC
  5
104
330
CA
100
AcDbEntity
  8
AM_4
100
AcDbCircle
 10
0.0000000000000232
 20
-0.0000000000000295
 30
0.0
 40
1.72297297297301
100
AcDbArc
 50
116.660407709499
 51
130.8395922905013
  0
ARC
  5
105
330
CA
100
AcDbEntity
  8
AM_4
100
AcDbCircle
 10
-0.0000000000000022
 20
0.0000000000000007
 30
0.0
 40
1.722972972972975
100
AcDbArc
 50
319.1604077094988
 51
355.8395922905012
  0
ARC
  5
106
330
CA
100
AcDbEntity
  8
AM_4
100
AcDbCircle
 10
0.0000000000000031
 20
0.0000000000000024
 30
0.0
 40
1.722972972972976
100
AcDbArc
 50
184.1604077094988
 51
220.8395922905013
  0
LINE
  5
107
330
CA
100
AcDbEntity
  8
AM_4
100
AcDbLine
 10
1.718432677062248
 20
0.1250000000000012
 30
0.0
 11
2.135416666666667
 21
0.1250000000000002
 31
0.0
  0
ARC
  5
108
330
CA
100
AcDbEntity
  8
AM_4
100
AcDbCircle
 10
0.0000000000000149
 20
-0.0000000000000289
 30
0.0
 40
1.593750000000032
100
AcDbArc
 50
108.0015933311116
 51
116.9984066688886
  0
ARC
  5
109
330
CA
100
AcDbEntity
  8
AM_4
100
AcDbCircle
 10
1.510005512584388
 20
-1.510005512584388
 30
0.0
 40
0.1250000114954796
100
AcDbArc
 50
224.9754276805159
 51
45.02457231950432
  0
LINE
  5
10A
330
CA
100
AcDbEntity
  8
AM_4
100
AcDbLine
 10
1.303503746611587
 20
-1.126727051314949
 30
0.0
 11
1.598355953307092
 21
-1.421579258010455
 31
0.0
  0
LINE
  5
10B
330
CA
100
AcDbEntity
  8
AM_4
100
AcDbLine
 10
1.126727051314947
 20
1.303503746611589
 30
0.0
 11
1.421579258010455
 21
1.598355953307092
 31
0.0
  0
LINE
  5
10C
330
CA
100
AcDbEntity
  8
AM_4
100
AcDbLine
 10
-1.303503746611587
 20
1.12672705131495
 30
0.0
 11
-1.598355953307091
 21
1.421579258010455
 31
0.0
  0
ARC
  5
10D
330
CA
100
AcDbEntity
  8
AM_4
100
AcDbCircle
 10
-1.510005512584388
 20
-1.510005512584389
 30
0.0
 40
0.1250000114954796
100
AcDbArc
 50
134.9754276804955
 51
315.0245723195046
  0
LINE
  5
10E
330
CA
100
AcDbEntity
  8
AM_4
100
AcDbLine
 10
-0.1250000000000002
 20
1.718432677062248
 30
0.0
 11
-0.1249999999999999
 21
1.956203804405053
 31
0.0
  0
ARC
  5
10F
330
CA
100
AcDbEntity
  8
AM_4
100
AcDbCircle
 10
0.0000000000000064
 20
-0.0000000000000298
 30
0.0
 40
1.722972972973003
100
AcDbArc
 50
94.16040770949884
 51
108.3395922905012
  0
ARC
  5
110
330
CA
100
AcDbEntity
  8
AM_4
100
AcDbCircle
 10
2.135470275154979
 20
0.0
 30
0.0
 40
0.1250000114954796
100
AcDbArc
 50
269.9754276804955
 51
90.02457231950477
  0
LINE
  5
111
330
CA
100
AcDbEntity
  8
AM_4
100
AcDbLine
 10
2.135416666666667
 20
-0.125
 30
0.0
 11
1.718432677062248
 21
-0.1249999999999998
 31
0.0
  0
LINE
  5
112
330
CA
100
AcDbEntity
  8
AM_4
100
AcDbLine
 10
-1.598355953307091
 20
-1.421579258010455
 30
0.0
 11
-1.303503746611586
 21
-1.12672705131495
 31
0.0
  0
LINE
  5
113
330
CA
100
AcDbEntity
  8
AM_4
100
AcDbLine
 10
-1.718432677062248
 20
-0.1250000000000007
 30
0.0
 11
-2.135416666666667
 21
-0.125000000000001
 31
0.0
  0
ARC
  5
114
330
CA
100
AcDbEntity
  8
AM_4
100
AcDbCircle
 10
-2.135470275154979
 20
-0.000000000000001
 30
0.0
 40
0.1250000114954798
100
AcDbArc
 50
89.97542768049524
 51
270.0245723195046
  0
LINE
  5
115
330
CA
100
AcDbEntity
  8
AM_4
100
AcDbLine
 10
-2.135416666666667
 20
0.1249999999999993
 30
0.0
 11
-1.718432677062248
 21
0.1249999999999993
 31
0.0
  0
ARC
  5
116
330
CA
100
AcDbEntity
  8
AM_4
100
AcDbCircle
 10
0.0000000000000049
 20
-0.0000000000000017
 30
0.0
 40
1.722972972972978
100
AcDbArc
 50
139.1604077094988
 51
175.8395922905012
  0
LINE
  5
117
330
CA
100
AcDbEntity
  8
AM_4
100
AcDbLine
 10
-0.7731006567104219
 20
1.539789349290753
 30
0.0
 11
-0.7557021678985559
 21
1.49778568163635
 31
0.0
  0
LINE
  5
118
330
CA
100
AcDbEntity
  8
AM_4
100
AcDbLine
 10
0.1250000000000003
 20
1.956203804405053
 30
0.0
 11
0.1250000000000002
 21
1.718432677062248
 31
0.0
  0
ARC
  5
119
330
CA
100
AcDbEntity
  8
AM_4
100
AcDbCircle
 10
-0.0000000000000009
 20
-0.0000000000000038
 30
0.0
 40
1.722972972972977
100
AcDbArc
 50
49.16040770949887
 51
85.83959229050129
  0
ENDBLK
  5
CD
330
CA
100
AcDbEntity
  8
0
100
AcDbBlockEnd
  0
BLOCK
  5
11C
330
11A
100
AcDbEntity
  8
0
100
AcDbBlockBegin
  2
5_070933EL_0_in_071179_0
 70
     2
 10
0.0
 20
0.0
 30
0.0
  3
5_070933EL_0_in_071179_0
  1

  0
ATTDEF
  5
11E
330
11A
100
AcDbEntity
  8
AM_6
100
AcDbText
 10
8.139599999999998
 20
3.139599999999999
 30
0.0
 40
0.5
  1
Imperial/E Insert -Inch
100
AcDbAttributeDefinition
  3

  2
NN
 70
     8
280
     0
  0
ATTDEF
  5
11F
330
11A
100
AcDbEntity
  8
AM_6
100
AcDbText
 10
8.139599999999998
 20
2.639599999999999
 30
0.0
 40
0.5
  1
Imperial Bearings
100
AcDbAttributeDefinition
  3

  2
NT
 70
     8
280
     0
  0
ATTDEF
  5
120
330
11A
100
AcDbEntity
  8
AM_6
100
AcDbText
 10
8.139599999999998
 20
2.139599999999999
 30
0.0
 40
0.5
  1
070933EL
100
AcDbAttributeDefinition
  3

  2
NB
 70
     8
280
     0
  0
ATTDEF
  5
121
330
11A
100
AcDbEntity
  8
AM_6
100
AcDbText
 10
8.139599999999998
 20
1.639599999999999
 30
0.0
 40
0.5
  1
$PN.
100
AcDbAttributeDefinition
  3

  2
NBSYN
 70
     8
280
     0
  0
ATTDEF
  5
122
330
11A
100
AcDbEntity
  8
AM_6
100
AcDbText
 10
8.139599999999998
 20
1.139599999999999
 30
0.0
 40
0.5
  1
070933EL
100
AcDbAttributeDefinition
  3

  2
LINA
 70
     8
280
     0
  0
ATTDEF
  5
123
330
11A
100
AcDbEntity
  8
AM_6
100
AcDbText
 10
8.139599999999998
 20
0.6395999999999988
 30
0.0
 40
0.5
  1
3-3/16
100
AcDbAttributeDefinition
  3

  2
SS
 70
     8
280
     0
  0
ATTDEF
  5
124
330
11A
100
AcDbEntity
  8
AM_6
100
AcDbText
 10
8.139599999999998
 20
0.1395999999999988
 30
0.0
 40
0.5
  1
3.187500
100
AcDbAttributeDefinition
  3

  2
SS1
 70
     8
280
     0
  0
ATTDEF
  5
125
330
11A
100
AcDbEntity
  8
AM_6
100
AcDbText
 10
8.139599999999998
 20
-0.3604000000000012
 30
0.0
 40
0.5
  1
070933EL
100
AcDbAttributeDefinition
  3

  2
PN
 70
     8
280
     0
  0
ATTDEF
  5
126
330
11A
100
AcDbEntity
  8
AM_6
100
AcDbText
 10
8.139599999999998
 20
-0.8604000000000012
 30
0.0
 40
0.5
  1
INS-IP-303L
100
AcDbAttributeDefinition
  3

  2
DESCRIPTION
 70
     8
280
     0
  0
ATTDEF
  5
127
330
11A
100
AcDbEntity
  8
AM_6
100
AcDbText
 10
8.139599999999998
 20
-1.360400000000001
 30
0.0
 40
0.5
  1
Labyrinth Seal
100
AcDbAttributeDefinition
  3

  2
ST
 70
     8
280
     0
  0
ATTDEF
  5
128
330
11A
100
AcDbEntity
  8
AM_6
100
AcDbText
 10
8.139599999999998
 20
-1.860400000000001
 30
0.0
 40
0.5
  1
2
100
AcDbAttributeDefinition
  3

  2
ST1
 70
     8
280
     0
  0
ATTDEF
  5
129
330
11A
100
AcDbEntity
  8
AM_6
100
AcDbText
 10
8.139599999999998
 20
-2.360400000000001
 30
0.0
 40
0.5
  1
6.2992
100
AcDbAttributeDefinition
  3

  2
A
 70
     8
280
     0
  0
ATTDEF
  5
12A
330
11A
100
AcDbEntity
  8
AM_6
100
AcDbText
 10
8.139599999999998
 20
-2.860400000000001
 30
0.0
 40
0.5
  1
1-5/8
100
AcDbAttributeDefinition
  3

  2
B
 70
     8
280
     0
  0
ATTDEF
  5
12B
330
11A
100
AcDbEntity
  8
AM_6
100
AcDbText
 10
8.139599999999998
 20
-3.360400000000001
 30
0.0
 40
0.5
  1
1.625000
100
AcDbAttributeDefinition
  3

  2
B1
 70
     8
280
     0
  0
ATTDEF
  5
12C
330
11A
100
AcDbEntity
  8
AM_6
100
AcDbText
 10
8.139599999999998
 20
-3.860400000000001
 30
0.0
 40
0.5
  1
4-11/64
100
AcDbAttributeDefinition
  3

  2
C
 70
     8
280
     0
  0
ATTDEF
  5
12D
330
11A
100
AcDbEntity
  8
AM_6
100
AcDbText
 10
8.139599999999998
 20
-4.360400000000001
 30
0.0
 40
0.5
  1
4.171875
100
AcDbAttributeDefinition
  3

  2
C1
 70
     8
280
     0
  0
ATTDEF
  5
12E
330
11A
100
AcDbEntity
  8
AM_6
100
AcDbText
 10
8.139599999999998
 20
-4.860400000000001
 30
0.0
 40
0.5
  1
4.59000
100
AcDbAttributeDefinition
  3

  2
CR
 70
     8
280
     0
  0
ATTDEF
  5
12F
330
11A
100
AcDbEntity
  8
AM_6
100
AcDbText
 10
8.139599999999998
 20
-5.360400000000001
 30
0.0
 40
0.5
  1
1.483
100
AcDbAttributeDefinition
  3

  2
D
 70
     8
280
     0
  0
ATTDEF
  5
130
330
11A
100
AcDbEntity
  8
AM_6
100
AcDbText
 10
8.139599999999998
 20
-5.860400000000001
 30
0.0
 40
0.5
  1
5
100
AcDbAttributeDefinition
  3

  2
E
 70
     8
280
     0
  0
ATTDEF
  5
131
330
11A
100
AcDbEntity
  8
AM_6
100
AcDbText
 10
8.139599999999998
 20
-6.360400000000001
 30
0.0
 40
0.5
  1
5.000000
100
AcDbAttributeDefinition
  3

  2
E1
 70
     8
280
     0
  0
ATTDEF
  5
132
330
11A
100
AcDbEntity
  8
AM_6
100
AcDbText
 10
8.139599999999998
 20
-6.860400000000001
 30
0.0
 40
0.5
  1
0.2500
100
AcDbAttributeDefinition
  3

  2
NDM
 70
     8
280
     0
  0
ATTDEF
  5
133
330
11A
100
AcDbEntity
  8
AM_6
100
AcDbText
 10
8.139599999999998
 20
-7.360400000000001
 30
0.0
 40
0.5
  1
0.1960
100
AcDbAttributeDefinition
  3

  2
KDM
 70
     8
280
     0
  0
ATTDEF
  5
134
330
11A
100
AcDbEntity
  8
AM_6
100
AcDbText
 10
8.139599999999998
 20
-7.860400000000001
 30
0.0
 40
0.5
  1
4.28
100
AcDbAttributeDefinition
  3

  2
AL
 70
     8
280
     0
  0
ATTDEF
  5
135
330
11A
100
AcDbEntity
  8
AM_6
100
AcDbText
 10
8.139599999999998
 20
-8.360400000000002
 30
0.0
 40
0.5
  1
0.50
100
AcDbAttributeDefinition
  3

  2
BL
 70
     8
280
     0
  0
ATTDEF
  5
136
330
11A
100
AcDbEntity
  8
AM_6
100
AcDbText
 10
8.139599999999998
 20
-8.860400000000002
 30
0.0
 40
0.5
  1
0.07
100
AcDbAttributeDefinition
  3

  2
CL
 70
     8
280
     0
  0
ATTDEF
  5
137
330
11A
100
AcDbEntity
  8
AM_6
100
AcDbText
 10
8.139599999999998
 20
-9.360400000000002
 30
0.0
 40
0.5
  1
0.44
100
AcDbAttributeDefinition
  3

  2
DL
 70
     8
280
     0
  0
ATTDEF
  5
138
330
11A
100
AcDbEntity
  8
AM_6
100
AcDbText
 10
8.139599999999998
 20
-9.860400000000002
 30
0.0
 40
0.5
  1
0.8000
100
AcDbAttributeDefinition
  3

  2
LL
 70
     8
280
     0
  0
ATTDEF
  5
139
330
11A
100
AcDbEntity
  8
AM_6
100
AcDbText
 10
8.139599999999998
 20
-10.3604
 30
0.0
 40
0.5
  1
0.025
100
AcDbAttributeDefinition
  3

  2
Y
 70
     8
280
     0
  0
ATTDEF
  5
13A
330
11A
100
AcDbEntity
  8
AM_6
100
AcDbText
 10
8.139599999999998
 20
-10.8604
 30
0.0
 40
0.5
  1
0.025000
100
AcDbAttributeDefinition
  3

  2
Y1
 70
     8
280
     0
  0
ATTDEF
  5
13B
330
11A
100
AcDbEntity
  8
AM_6
100
AcDbText
 10
8.139599999999998
 20
-11.3604
 30
0.0
 40
0.5
  1
4-3/64
100
AcDbAttributeDefinition
  3

  2
Z
 70
     8
280
     0
  0
ATTDEF
  5
13C
330
11A
100
AcDbEntity
  8
AM_6
100
AcDbText
 10
8.139599999999998
 20
-11.8604
 30
0.0
 40
0.5
  1
4.046875
100
AcDbAttributeDefinition
  3

  2
Z1
 70
     8
280
     0
  0
ATTDEF
  5
13D
330
11A
100
AcDbEntity
  8
AM_6
100
AcDbText
 10
8.139599999999998
 20
-12.3604
 30
0.0
 40
0.5
  1
1.10000
100
AcDbAttributeDefinition
  3

  2
P1
 70
     8
280
     0
  0
ATTDEF
  5
13E
330
11A
100
AcDbEntity
  8
AM_6
100
AcDbText
 10
8.139599999999998
 20
-12.8604
 30
0.0
 40
0.5
  1
1.61000
100
AcDbAttributeDefinition
  3

  2
H1
 70
     8
280
     0
  0
ATTDEF
  5
13F
330
11A
100
AcDbEntity
  8
AM_6
100
AcDbText
 10
8.139599999999998
 20
-13.3604
 30
0.0
 40
0.5
  1
0.79000
100
AcDbAttributeDefinition
  3

  2
G1
 70
     8
280
     0
  0
ATTDEF
  5
140
330
11A
100
AcDbEntity
  8
AM_6
100
AcDbText
 10
8.139599999999998
 20
-13.8604
 30
0.0
 40
0.5
  1
0.13200
100
AcDbAttributeDefinition
  3

  2
CW
 70
     8
280
     0
  0
ATTDEF
  5
141
330
11A
100
AcDbEntity
  8
AM_6
100
AcDbText
 10
8.139599999999998
 20
-14.3604
 30
0.0
 40
0.5
  1
5.00000
100
AcDbAttributeDefinition
  3

  2
L1
 70
     8
280
     0
  0
ATTDEF
  5
142
330
11A
100
AcDbEntity
  8
AM_6
100
AcDbText
 10
8.139599999999998
 20
-14.8604
 30
0.0
 40
0.5
  1
baldor
100
AcDbAttributeDefinition
  3

  2
COMPANY
 70
     8
280
     0
  0
CIRCLE
  5
143
330
11A
100
AcDbEntity
  8
AM_9
100
AcDbCircle
 10
0.0
 20
0.0
 30
0.0
 40
2.0234375
  0
CIRCLE
  5
144
330
11A
100
AcDbEntity
  8
AM_9
100
AcDbCircle
 10
0.0
 20
0.0
 30
0.0
 40
2.697916666666666
  0
CIRCLE
  5
145
330
11A
100
AcDbEntity
  8
AM_9
100
AcDbCircle
 10
0.0
 20
0.0
 30
0.0
 40
2.704226135594408
  0
CIRCLE
  5
146
330
11A
100
AcDbEntity
  8
AM_9
100
AcDbCircle
 10
0.0
 20
0.0
 30
0.0
 40
2.790828675972853
  0
CIRCLE
  5
147
330
11A
100
AcDbEntity
  8
AM_9
100
AcDbCircle
 10
0.0
 20
0.0
 30
0.0
 40
2.9496
  0
CIRCLE
  5
148
330
11A
100
AcDbEntity
  8
AM_9
100
AcDbCircle
 10
0.0
 20
0.0
 30
0.0
 40
3.0996
  0
CIRCLE
  5
149
330
11A
100
AcDbEntity
  8
AM_9
100
AcDbCircle
 10
0.0
 20
0.0
 30
0.0
 40
3.06835
  0
CIRCLE
  5
14A
330
11A
100
AcDbEntity
  8
AM_9
100
AcDbCircle
 10
0.0
 20
-2.135416666666667
 30
0.0
 40
0.09795
  0
CIRCLE
  5
14B
330
11A
100
AcDbEntity
  8
AM_9
100
AcDbCircle
 10
0.0
 20
2.135416666666667
 30
0.0
 40
0.09795
  0
ARC
  5
14C
330
11A
100
AcDbEntity
  8
AM_9
100
AcDbCircle
 10
0.000000000000041
 20
-0.0000000000000964
 30
0.0
 40
1.682058047493508
100
AcDbArc
 50
108.2382083689943
 51
116.7617916310058
  0
LINE
  5
14D
330
11A
100
AcDbEntity
  8
AM_9
100
AcDbLine
 10
1.336431816442575
 20
1.689985207035848
 30
0.0
 11
1.582129214637148
 21
1.935682605230422
 31
0.0
  0
LINE
  5
14E
330
11A
100
AcDbEntity
  8
AM_9
100
AcDbLine
 10
-1.582129214637148
 20
1.935682605230422
 30
0.0
 11
-1.336431816442575
 21
1.689985207035849
 31
0.0
  0
LINE
  5
14F
330
11A
100
AcDbEntity
  8
AM_9
100
AcDbLine
 10
-1.60153881363697
 20
1.424878209841453
 30
0.0
 11
-1.689985207035848
 21
1.336431816442575
 31
0.0
  0
LINE
  5
150
330
11A
100
AcDbEntity
  8
AM_9
100
AcDbLine
 10
-1.336431816442575
 20
1.689985207035849
 30
0.0
 11
-1.424878209841453
 21
1.601538813636971
 31
0.0
  0
LINE
  5
151
330
11A
100
AcDbEntity
  8
AM_9
100
AcDbLine
 10
-1.689985207035848
 20
1.336431816442575
 30
0.0
 11
-1.935682605230422
 21
1.582129214637148
 31
0.0
  0
LINE
  5
152
330
11A
100
AcDbEntity
  8
AM_9
100
AcDbLine
 10
-1.935682605230422
 20
-1.582129214637148
 30
0.0
 11
-1.689985207035849
 21
-1.336431816442575
 31
0.0
  0
LINE
  5
153
330
11A
100
AcDbEntity
  8
AM_9
100
AcDbLine
 10
-1.424878209841453
 20
-1.601538813636971
 30
0.0
 11
-1.336431816442575
 21
-1.689985207035848
 31
0.0
  0
LINE
  5
154
330
11A
100
AcDbEntity
  8
AM_9
100
AcDbLine
 10
-1.689985207035849
 20
-1.336431816442575
 30
0.0
 11
-1.60153881363697
 21
-1.424878209841453
 31
0.0
  0
LINE
  5
155
330
11A
100
AcDbEntity
  8
AM_9
100
AcDbLine
 10
-1.336431816442575
 20
-1.689985207035848
 30
0.0
 11
-1.582129214637148
 21
-1.935682605230422
 31
0.0
  0
LINE
  5
156
330
11A
100
AcDbEntity
  8
AM_9
100
AcDbLine
 10
1.582129214637148
 20
-1.935682605230422
 30
0.0
 11
1.336431816442575
 21
-1.689985207035849
 31
0.0
  0
LINE
  5
157
330
11A
100
AcDbEntity
  8
AM_9
100
AcDbLine
 10
1.601538813636971
 20
-1.424878209841453
 30
0.0
 11
1.689985207035848
 21
-1.336431816442575
 31
0.0
  0
LINE
  5
158
330
11A
100
AcDbEntity
  8
AM_9
100
AcDbLine
 10
1.336431816442575
 20
-1.689985207035849
 30
0.0
 11
1.424878209841453
 21
-1.60153881363697
 31
0.0
  0
LINE
  5
159
330
11A
100
AcDbEntity
  8
AM_9
100
AcDbLine
 10
1.689985207035848
 20
-1.336431816442575
 30
0.0
 11
1.935682605230422
 21
-1.582129214637148
 31
0.0
  0
LINE
  5
15A
330
11A
100
AcDbEntity
  8
AM_9
100
AcDbLine
 10
1.935682605230423
 20
1.582129214637147
 30
0.0
 11
1.689985207035849
 21
1.336431816442574
 31
0.0
  0
LINE
  5
15B
330
11A
100
AcDbEntity
  8
AM_9
100
AcDbLine
 10
1.424878209841453
 20
1.601538813636971
 30
0.0
 11
1.336431816442575
 21
1.689985207035848
 31
0.0
  0
LINE
  5
15C
330
11A
100
AcDbEntity
  8
AM_9
100
AcDbLine
 10
1.689985207035849
 20
1.336431816442574
 30
0.0
 11
1.601538813636971
 21
1.424878209841453
 31
0.0
  0
ARC
  5
15D
330
11A
100
AcDbEntity
  8
AM_5
100
AcDbCircle
 10
0.0000000000000003
 20
2.135416666666667
 30
0.0
 40
0.1250000000000001
100
AcDbArc
 50
75.0000000000001
 51
14.99999999999994
  0
ARC
  5
15E
330
11A
100
AcDbEntity
  8
AM_5
100
AcDbCircle
 10
0.0000000000000003
 20
-2.135416666666667
 30
0.0
 40
0.1250000000000001
100
AcDbArc
 50
75.0000000000001
 51
14.99999999999994
  0
CIRCLE
  5
15F
330
11A
100
AcDbEntity
  8
AM_4
100
AcDbCircle
 10
0.0
 20
0.0
 30
0.0
 40
3.139599999999999
  0
CIRCLE
  5
160
330
11A
100
AcDbEntity
  8
AM_4
100
AcDbCircle
 10
0.0
 20
0.0
 30
0.0
 40
2.576350945850737
  0
LINE
  5
161
330
11A
100
AcDbEntity
  8
AM_4
100
AcDbLine
 10
1.587587230988546
 20
-1.94114062158182
 30
0.0
 11
1.582129214637148
 21
-1.935682605230422
 31
0.0
  0
LINE
  5
162
330
11A
100
AcDbEntity
  8
AM_4
100
AcDbLine
 10
1.582129214637148
 20
1.935682605230422
 30
0.0
 11
1.587587230988547
 21
1.94114062158182
 31
0.0
  0
LINE
  5
163
330
11A
100
AcDbEntity
  8
AM_4
100
AcDbLine
 10
1.935682605230422
 20
-1.582129214637148
 30
0.0
 11
1.94114062158182
 21
-1.587587230988546
 31
0.0
  0
LINE
  5
164
330
11A
100
AcDbEntity
  8
AM_4
100
AcDbLine
 10
1.941140621581821
 20
1.587587230988545
 30
0.0
 11
1.935682605230423
 21
1.582129214637147
 31
0.0
  0
CIRCLE
  5
165
330
11A
100
AcDbEntity
  8
AM_4
100
AcDbCircle
 10
0.0
 20
0.0
 30
0.0
 40
2.526358561092915
  0
ARC
  5
166
330
11A
100
AcDbEntity
  8
AM_4
100
AcDbCircle
 10
0.0000000000000597
 20
-0.0000000000000602
 30
0.0
 40
2.50768022856833
100
AcDbArc
 50
309.2784655318101
 51
320.7215344681899
  0
LINE
  5
167
330
11A
100
AcDbEntity
  8
AM_4
100
AcDbLine
 10
-1.582129214637148
 20
-1.935682605230422
 30
0.0
 11
-1.587587230988547
 21
-1.94114062158182
 31
0.0
  0
ARC
  5
168
330
11A
100
AcDbEntity
  8
AM_4
100
AcDbCircle
 10
-0.0000000000000591
 20
-0.0000000000000584
 30
0.0
 40
2.507680228568332
100
AcDbArc
 50
219.2784655318101
 51
230.7215344681898
  0
LINE
  5
169
330
11A
100
AcDbEntity
  8
AM_4
100
AcDbLine
 10
-1.941140621581821
 20
-1.587587230988546
 30
0.0
 11
-1.935682605230422
 21
-1.582129214637148
 31
0.0
  0
LINE
  5
16A
330
11A
100
AcDbEntity
  8
AM_4
100
AcDbLine
 10
-1.935682605230422
 20
1.582129214637148
 30
0.0
 11
-1.94114062158182
 21
1.587587230988546
 31
0.0
  0
ARC
  5
16B
330
11A
100
AcDbEntity
  8
AM_4
100
AcDbCircle
 10
-0.0000000000000586
 20
0.0000000000000588
 30
0.0
 40
2.507680228568332
100
AcDbArc
 50
129.2784655318101
 51
140.7215344681899
  0
LINE
  5
16C
330
11A
100
AcDbEntity
  8
AM_4
100
AcDbLine
 10
-1.587587230988546
 20
1.94114062158182
 30
0.0
 11
-1.582129214637148
 21
1.935682605230422
 31
0.0
  0
ARC
  5
16D
330
11A
100
AcDbEntity
  8
AM_4
100
AcDbCircle
 10
-0.0000000000000036
 20
-0.0000000000000038
 30
0.0
 40
2.507680228568419
100
AcDbArc
 50
39.2784655318103
 51
50.72153446818967
  0
LINE
  5
16E
330
11A
100
AcDbEntity
  8
AM_4
100
AcDbLine
 10
-1.424878209841453
 20
1.601538813636971
 30
0.0
 11
-1.60153881363697
 21
1.424878209841453
 31
0.0
  0
LINE
  5
16F
330
11A
100
AcDbEntity
  8
AM_4
100
AcDbLine
 10
-1.60153881363697
 20
-1.424878209841453
 30
0.0
 11
-1.424878209841453
 21
-1.601538813636971
 31
0.0
  0
LINE
  5
170
330
11A
100
AcDbEntity
  8
AM_4
100
AcDbLine
 10
1.424878209841453
 20
-1.60153881363697
 30
0.0
 11
1.601538813636971
 21
-1.424878209841453
 31
0.0
  0
LINE
  5
171
330
11A
100
AcDbEntity
  8
AM_4
100
AcDbLine
 10
1.601538813636971
 20
1.424878209841453
 30
0.0
 11
1.424878209841453
 21
1.601538813636971
 31
0.0
  0
LINE
  5
172
330
11A
100
AcDbEntity
  8
AM_4
100
AcDbLine
 10
-0.4925379857930965
 20
1.515732626504714
 30
0.0
 11
-0.5247322847707345
 21
1.593456539727622
 31
0.0
  0
ARC
  5
173
330
11A
100
AcDbEntity
  8
AM_4
100
AcDbCircle
 10
0.000000000000002
 20
0.0000000000000011
 30
0.0
 40
1.59375
100
AcDbArc
 50
116.9984066688886
 51
108.0015933311115
  0
LINE
  5
174
330
11A
100
AcDbEntity
  8
AM_4
100
AcDbLine
 10
-0.7557021678985558
 20
1.49778568163635
 30
0.0
 11
-0.7235078689209181
 21
1.420061768413442
 31
0.0
  0
ARC
  5
175
330
11A
100
AcDbEntity
  8
AM_4
100
AcDbCircle
 10
0.0000000000000027
 20
0.0000000000000012
 30
0.0
 40
1.677631578947369
100
AcDbArc
 50
116.7730573306039
 51
108.2269426693963
  0
ARC
  5
176
330
11A
100
AcDbEntity
  8
AM_5
100
AcDbCircle
 10
-0.0000000000000002
 20
2.135416666666667
 30
0.0
 40
0.1249999999999998
100
AcDbArc
 50
165.0000000000001
 51
104.9999999999999
  0
ARC
  5
177
330
11A
100
AcDbEntity
  8
AM_5
100
AcDbCircle
 10
-0.0000000000000002
 20
-2.135416666666667
 30
0.0
 40
0.1249999999999998
100
AcDbArc
 50
165.0
 51
104.9999999999999
  0
ARC
  5
178
330
11A
100
AcDbEntity
  8
AM_5
100
AcDbCircle
 10
0.0000000000000001
 20
2.135416666666667
 30
0.0
 40
0.1250000000000002
100
AcDbArc
 50
105.0
 51
14.99999999999992
  0
ARC
  5
179
330
11A
100
AcDbEntity
  8
AM_5
100
AcDbCircle
 10
0.0000000000000001
 20
-2.135416666666667
 30
0.0
 40
0.1250000000000002
100
AcDbArc
 50
105.0
 51
14.99999999999992
  0
ENDBLK
  5
11D
330
11A
100
AcDbEntity
  8
0
100
AcDbBlockEnd
  0
BLOCK
  5
17C
330
17A
100
AcDbEntity
  8
0
100
AcDbBlockBegin
  2
6_405015E_Inch_0_in_071179_0
 70
     2
 10
0.0
 20
0.0
 30
0.0
  3
6_405015E_Inch_0_in_071179_0
  1

  0
ATTDEF
  5
17E
330
17A
100
AcDbEntity
  8
AM_6
100
AcDbText
 10
7.296421671481427
 20
3.874841108674891
 30
0.0
 40
0.5
  1
405015E -Inch
100
AcDbAttributeDefinition
  3

  2
NN
 70
     8
280
     0
  0
ATTDEF
  5
17F
330
17A
100
AcDbEntity
  8
AM_6
100
AcDbText
 10
7.296421671481427
 20
3.374841108674891
 30
0.0
 40
0.5
  1
Grease Fitting
100
AcDbAttributeDefinition
  3

  2
NT
 70
     8
280
     0
  0
ATTDEF
  5
180
330
17A
100
AcDbEntity
  8
AM_6
100
AcDbText
 10
7.296421671481427
 20
2.874841108674891
 30
0.0
 40
0.5
  1
405015E-Inch
100
AcDbAttributeDefinition
  3

  2
NB
 70
     8
280
     0
  0
ATTDEF
  5
181
330
17A
100
AcDbEntity
  8
AM_6
100
AcDbText
 10
7.296421671481427
 20
2.374841108674891
 30
0.0
 40
0.5
  1
$MN.-Inch
100
AcDbAttributeDefinition
  3

  2
NBSYN
 70
     8
280
     0
  0
ATTDEF
  5
182
330
17A
100
AcDbEntity
  8
AM_6
100
AcDbText
 10
7.296421671481427
 20
1.874841108674891
 30
0.0
 40
0.5
  1
405015E
100
AcDbAttributeDefinition
  3

  2
LINA
 70
     8
280
     0
  0
ATTDEF
  5
183
330
17A
100
AcDbEntity
  8
AM_6
100
AcDbText
 10
7.296421671481427
 20
1.374841108674891
 30
0.0
 40
0.5
  1
405015E
100
AcDbAttributeDefinition
  3

  2
MN
 70
     8
280
     0
  0
ATTDEF
  5
184
330
17A
100
AcDbEntity
  8
AM_6
100
AcDbText
 10
7.296421671481427
 20
0.8748411086748908
 30
0.0
 40
0.5
  1
1/8 x 27PTF
100
AcDbAttributeDefinition
  3

  2
T
 70
     8
280
     0
  0
ATTDEF
  5
185
330
17A
100
AcDbEntity
  8
AM_6
100
AcDbText
 10
7.296421671481427
 20
0.3748411086748908
 30
0.0
 40
0.5
  1
baldor
100
AcDbAttributeDefinition
  3

  2
COMPANY
 70
     8
280
     0
  0
LINE
  5
186
330
17A
100
AcDbEntity
  8
AM_9
100
AcDbLine
 10
2.027712000506657
 20
3.188294463050122
 30
0.0
 11
2.077865287586382
 21
3.201732995820901
 31
0.0
  0
LINE
  5
187
330
17A
100
AcDbEntity
  8
AM_9
100
AcDbLine
 10
1.733849466722563
 20
3.400350622602116
 30
0.0
 11
1.747287999493342
 21
3.350197335522391
 31
0.0
  0
LINE
  5
188
330
17A
100
AcDbEntity
  8
AM_9
100
AcDbLine
 10
1.747287999493342
 20
3.350197335522391
 30
0.0
 11
2.027712000506657
 21
3.188294463050122
 31
0.0
  0
LINE
  5
189
330
17A
100
AcDbEntity
  8
AM_9
100
AcDbLine
 10
2.077865287586382
 20
3.201732995820901
 30
0.0
 11
2.198186369872023
 21
3.395866682677597
 31
0.0
  0
LINE
  5
18A
330
17A
100
AcDbEntity
  8
AM_9
100
AcDbLine
 10
1.841813630127976
 20
3.601618579900668
 30
0.0
 11
1.733849466722563
 21
3.400350622602116
 31
0.0
  0
LINE
  5
18B
330
17A
100
AcDbEntity
  8
AM_9
100
AcDbLine
 10
1.733849466722563
 20
3.400350622602116
 30
0.0
 11
2.077865287586382
 21
3.201732995820901
 31
0.0
  0
LINE
  5
18C
330
17A
100
AcDbEntity
  8
AM_5
100
AcDbLine
 10
2.133056457620485
 20
3.358263910306877
 30
0.0
 11
2.027712000506657
 21
3.188294463050122
 31
0.0
  0
LINE
  5
18D
330
17A
100
AcDbEntity
  8
AM_5
100
AcDbLine
 10
2.198186369872023
 20
3.395866682677598
 30
0.0
 11
2.133056457620485
 21
3.358263910306877
 31
0.0
  0
LINE
  5
18E
330
17A
100
AcDbEntity
  8
AM_5
100
AcDbLine
 10
1.811011392043692
 20
3.544196715608829
 30
0.0
 11
2.16385869570477
 21
3.340480229857272
 31
0.0
  0
LINE
  5
18F
330
17A
100
AcDbEntity
  8
AM_5
100
AcDbLine
 10
1.841813630127976
 20
3.526413035159224
 30
0.0
 11
1.747287999493342
 21
3.350197335522391
 31
0.0
  0
LINE
  5
190
330
17A
100
AcDbEntity
  8
AM_5
100
AcDbLine
 10
1.841813630127977
 20
3.601618579900668
 30
0.0
 11
1.841813630127976
 21
3.526413035159224
 31
0.0
  0
LINE
  5
191
330
17A
100
AcDbEntity
  8
AM_4
100
AcDbLine
 10
2.213432667397366
 20
3.623777839064942
 30
0.0
 11
2.228432667397366
 21
3.649758601178476
 31
0.0
  0
LINE
  5
192
330
17A
100
AcDbEntity
  8
AM_4
100
AcDbLine
 10
2.046567332602633
 20
3.754758601178476
 30
0.0
 11
2.031567332602633
 21
3.728777839064943
 31
0.0
  0
LINE
  5
193
330
17A
100
AcDbEntity
  8
AM_4
100
AcDbLine
 10
2.031567332602633
 20
3.728777839064943
 30
0.0
 11
2.003475343752892
 21
3.707761268561328
 31
0.0
  0
LINE
  5
194
330
17A
100
AcDbEntity
  8
AM_4
100
AcDbLine
 10
2.209277777865679
 20
3.58894117782643
 30
0.0
 11
2.213432667397366
 21
3.623777839064942
 31
0.0
  0
LINE
  5
195
330
17A
100
AcDbEntity
  8
AM_4
100
AcDbLine
 10
2.031567332602633
 20
3.728777839064943
 30
0.0
 11
2.213432667397366
 21
3.623777839064942
 31
0.0
  0
LINE
  5
196
330
17A
100
AcDbEntity
  8
AM_4
100
AcDbLine
 10
2.118578328518572
 20
3.874841108674891
 30
0.0
 11
2.0505865704891
 21
3.821720125405542
 31
0.0
  0
LINE
  5
197
330
17A
100
AcDbEntity
  8
AM_4
100
AcDbLine
 10
2.284413429510899
 20
3.686720125405542
 30
0.0
 11
2.296421671481427
 21
3.772163206741703
 31
0.0
  0
LINE
  5
198
330
17A
100
AcDbEntity
  8
AM_4
100
AcDbLine
 10
2.118578328518572
 20
3.874841108674891
 30
0.0
 11
2.296421671481427
 21
3.772163206741703
 31
0.0
  0
LINE
  5
199
330
17A
100
AcDbEntity
  8
AM_4
100
AcDbLine
 10
2.228432667397366
 20
3.649758601178476
 30
0.0
 11
2.284413429510899
 21
3.686720125405542
 31
0.0
  0
LINE
  5
19A
330
17A
100
AcDbEntity
  8
AM_4
100
AcDbLine
 10
2.0505865704891
 20
3.821720125405542
 30
0.0
 11
2.046567332602633
 21
3.754758601178476
 31
0.0
  0
LINE
  5
19B
330
17A
100
AcDbEntity
  8
AM_4
100
AcDbLine
 10
2.0505865704891
 20
3.821720125405542
 30
0.0
 11
2.284413429510899
 21
3.686720125405542
 31
0.0
  0
LINE
  5
19C
330
17A
100
AcDbEntity
  8
AM_4
100
AcDbLine
 10
2.046567332602633
 20
3.754758601178476
 30
0.0
 11
2.228432667397366
 21
3.649758601178476
 31
0.0
  0
LINE
  5
19D
330
17A
100
AcDbEntity
  8
AM_4
100
AcDbLine
 10
2.003475343752892
 20
3.707761268561328
 30
0.0
 11
1.929740226109451
 21
3.687476223597055
 31
0.0
  0
LINE
  5
19E
330
17A
100
AcDbEntity
  8
AM_4
100
AcDbLine
 10
2.22857797243143
 20
3.514942170314039
 30
0.0
 11
2.209277777865679
 21
3.58894117782643
 31
0.0
  0
LINE
  5
19F
330
17A
100
AcDbEntity
  8
AM_4
100
AcDbLine
 10
2.003475343752892
 20
3.707761268561328
 30
0.0
 11
2.209277777865679
 21
3.58894117782643
 31
0.0
  0
LINE
  5
1A0
330
17A
100
AcDbEntity
  8
AM_4
100
AcDbLine
 10
2.209443057077845
 20
3.389367631289133
 30
0.0
 11
2.259443057077845
 21
3.475970171667576
 31
0.0
  0
LINE
  5
1A1
330
17A
100
AcDbEntity
  8
AM_4
100
AcDbLine
 10
1.880556942922154
 20
3.694720171667576
 30
0.0
 11
2.259443057077845
 21
3.475970171667576
 31
0.0
  0
LINE
  5
1A2
330
17A
100
AcDbEntity
  8
AM_4
100
AcDbLine
 10
1.880556942922154
 20
3.694720171667576
 30
0.0
 11
1.830556942922154
 21
3.608117631289133
 31
0.0
  0
LINE
  5
1A3
330
17A
100
AcDbEntity
  8
AM_4
100
AcDbLine
 10
1.929740226109451
 20
3.687476223597055
 30
0.0
 11
1.884887069941076
 21
3.692220171667577
 31
0.0
  0
LINE
  5
1A4
330
17A
100
AcDbEntity
  8
AM_4
100
AcDbLine
 10
2.255112930058923
 20
3.478470171667576
 30
0.0
 11
2.22857797243143
 21
3.514942170314039
 31
0.0
  0
LINE
  5
1A5
330
17A
100
AcDbEntity
  8
AM_4
100
AcDbLine
 10
1.929740226109451
 20
3.687476223597055
 30
0.0
 11
2.22857797243143
 21
3.514942170314039
 31
0.0
  0
LWPOLYLINE
  5
1A6
330
17A
100
AcDbEntity
  8
AM_4
100
AcDbPolyline
 90
        4
 70
     0
 43
0.0
 10
2.164721528538923
 20
3.530657671667576
 10
2.188098203671654
 20
3.516459760709499
 10
2.210912694566495
 20
3.501222289121747
 10
2.254909257229538
 20
3.46811739997896
  0
LWPOLYLINE
  5
1A7
330
17A
100
AcDbEntity
  8
AM_4
100
AcDbPolyline
 90
        4
 70
     0
 43
0.0
 10
2.065466200151692
 20
3.57749239997896
 10
2.115965666325706
 20
3.556021576311319
 10
2.140594219845348
 20
3.543877944978878
 10
2.164721528538923
 20
3.530657671667576
  0
LWPOLYLINE
  5
1A8
330
17A
100
AcDbEntity
  8
AM_4
100
AcDbPolyline
 90
        4
 70
     0
 43
0.0
 10
2.213976856926152
 20
3.397220402977749
 10
2.163477390752139
 20
3.41869122664539
 10
2.138848837232497
 20
3.430834857977832
 10
2.114721528538922
 20
3.444055131289133
  0
LINE
  5
1A9
330
17A
100
AcDbEntity
  8
AM_4
100
AcDbLine
 10
2.065466200151692
 20
3.57749239997896
 30
0.0
 11
2.024533799848307
 21
3.506595402977749
 31
0.0
  0
LWPOLYLINE
  5
1AA
330
17A
100
AcDbEntity
  8
AM_4
100
AcDbPolyline
 90
        4
 70
     0
 43
0.0
 10
1.975278471461077
 20
3.640032671667577
 10
1.998655146593808
 20
3.625834760709499
 10
2.021469637488649
 20
3.610597289121747
 10
2.065466200151692
 20
3.57749239997896
  0
LWPOLYLINE
  5
1AB
330
17A
100
AcDbEntity
  8
AM_4
100
AcDbPolyline
 90
        4
 70
     0
 43
0.0
 10
1.876023143073846
 20
3.686867399978961
 10
1.92652260924786
 20
3.665396576311319
 10
1.951151162767502
 20
3.653252944978877
 10
1.975278471461077
 20
3.640032671667577
  0
LWPOLYLINE
  5
1AC
330
17A
100
AcDbEntity
  8
AM_4
100
AcDbPolyline
 90
        4
 70
     0
 43
0.0
 10
1.925278471461077
 20
3.553430131289133
 10
1.901901796328345
 20
3.56762804224721
 10
1.879114397584132
 20
3.582846609849902
 10
1.835090742770461
 20
3.615970402977749
  0
LWPOLYLINE
  5
1AD
330
17A
100
AcDbEntity
  8
AM_4
100
AcDbPolyline
 90
        4
 70
     0
 43
0.0
 10
2.114721528538922
 20
3.444055131289133
 10
2.091344853406191
 20
3.45825304224721
 10
2.06853036251135
 20
3.473490513834963
 10
2.024533799848307
 20
3.506595402977749
  0
LWPOLYLINE
  5
1AE
330
17A
100
AcDbEntity
  8
AM_4
100
AcDbPolyline
 90
        4
 70
     0
 43
0.0
 10
2.024533799848307
 20
3.506595402977749
 10
1.986522461323964
 20
3.522368014629437
 10
1.949405780154651
 20
3.540209857977832
 10
1.925278471461077
 20
3.553430131289133
  0
ENDBLK
  5
17D
330
17A
100
AcDbEntity
  8
0
100
AcDbBlockEnd
  0
BLOCK
  5
1B1
330
1AF
100
AcDbEntity
  8
0
100
AcDbBlockBegin
  2
7_071180Ho_0_in_071179_0
 70
     2
 10
0.0
 20
0.0
 30
0.0
  3
7_071180Ho_0_in_071179_0
  1

  0
ATTDEF
  5
1B3
330
1AF
100
AcDbEntity
  8
AM_6
100
AcDbText
 10
12.0
 20
3.94
 30
0.0
 40
0.5
  1
EP2B-IP -(Labyrinth Seal)-Housing -Inch
100
AcDbAttributeDefinition
  3

  2
NN
 70
     8
280
     0
  0
ATTDEF
  5
1B4
330
1AF
100
AcDbEntity
  8
AM_6
100
AcDbText
 10
12.0
 20
3.44
 30
0.0
 40
0.5
  1
Imperial/E 2 Bolt Piliow Block Bearings
100
AcDbAttributeDefinition
  3

  2
NT
 70
     8
280
     0
  0
ATTDEF
  5
1B5
330
1AF
100
AcDbEntity
  8
AM_6
100
AcDbText
 10
12.0
 20
2.94
 30
0.0
 40
0.5
  1
071180Ho
100
AcDbAttributeDefinition
  3

  2
NB
 70
     8
280
     0
  0
ATTDEF
  5
1B6
330
1AF
100
AcDbEntity
  8
AM_6
100
AcDbText
 10
12.0
 20
2.44
 30
0.0
 40
0.5
  1
$PN.Ho
100
AcDbAttributeDefinition
  3

  2
NBSYN
 70
     8
280
     0
  0
ATTDEF
  5
1B7
330
1AF
100
AcDbEntity
  8
AM_6
100
AcDbText
 10
12.0
 20
1.94
 30
0.0
 40
0.5
  1
071180
100
AcDbAttributeDefinition
  3

  2
LINA
 70
     8
280
     0
  0
ATTDEF
  5
1B8
330
1AF
100
AcDbEntity
  8
AM_6
100
AcDbText
 10
12.0
 20
1.44
 30
0.0
 40
0.5
  1
3-3/16
100
AcDbAttributeDefinition
  3

  2
SS
 70
     8
280
     0
  0
ATTDEF
  5
1B9
330
1AF
100
AcDbEntity
  8
AM_6
100
AcDbText
 10
12.0
 20
0.9400000000000004
 30
0.0
 40
0.5
  1
3.187500
100
AcDbAttributeDefinition
  3

  2
SS1
 70
     8
280
     0
  0
ATTDEF
  5
1BA
330
1AF
100
AcDbEntity
  8
AM_6
100
AcDbText
 10
12.0
 20
0.4400000000000004
 30
0.0
 40
0.5
  1
Non-Expansion
100
AcDbAttributeDefinition
  3

  2
TYPE
 70
     8
280
     0
  0
ATTDEF
  5
1BB
330
1AF
100
AcDbEntity
  8
AM_6
100
AcDbText
 10
12.0
 20
-0.0599999999999996
 30
0.0
 40
0.5
  1
071180
100
AcDbAttributeDefinition
  3

  2
PN1
 70
     8
280
     0
  0
ATTDEF
  5
1BC
330
1AF
100
AcDbEntity
  8
AM_6
100
AcDbText
 10
12.0
 20
-0.5599999999999996
 30
0.0
 40
0.5
  1
071200
100
AcDbAttributeDefinition
  3

  2
PN2
 70
     8
280
     0
  0
ATTDEF
  5
1BD
330
1AF
100
AcDbEntity
  8
AM_6
100
AcDbText
 10
12.0
 20
-1.06
 30
0.0
 40
0.5
  1
EP2B-IP-303L
100
AcDbAttributeDefinition
  3

  2
DES1
 70
     8
280
     0
  0
ATTDEF
  5
1BE
330
1AF
100
AcDbEntity
  8
AM_6
100
AcDbText
 10
12.0
 20
-1.56
 30
0.0
 40
0.5
  1
Non-Expansion Type
100
AcDbAttributeDefinition
  3

  2
EF
 70
     8
280
     0
  0
ATTDEF
  5
1BF
330
1AF
100
AcDbEntity
  8
AM_6
100
AcDbText
 10
12.0
 20
-2.06
 30
0.0
 40
0.5
  1
1
100
AcDbAttributeDefinition
  3

  2
EF1
 70
     8
280
     0
  0
ATTDEF
  5
1C0
330
1AF
100
AcDbEntity
  8
AM_6
100
AcDbText
 10
12.0
 20
-2.56
 30
0.0
 40
0.5
  1
Labyrinth Seal
100
AcDbAttributeDefinition
  3

  2
ST
 70
     8
280
     0
  0
ATTDEF
  5
1C1
330
1AF
100
AcDbEntity
  8
AM_6
100
AcDbText
 10
12.0
 20
-3.06
 30
0.0
 40
0.5
  1
1
100
AcDbAttributeDefinition
  3

  2
ST1
 70
     8
280
     0
  0
ATTDEF
  5
1C2
330
1AF
100
AcDbEntity
  8
AM_6
100
AcDbText
 10
12.0
 20
-3.56
 30
0.0
 40
0.5
  1
4.17
100
AcDbAttributeDefinition
  3

  2
A
 70
     8
280
     0
  0
ATTDEF
  5
1C3
330
1AF
100
AcDbEntity
  8
AM_6
100
AcDbText
 10
12.0
 20
-4.06
 30
0.0
 40
0.5
  1
4.1700000
100
AcDbAttributeDefinition
  3

  2
A1
 70
     8
280
     0
  0
ATTDEF
  5
1C4
330
1AF
100
AcDbEntity
  8
AM_6
100
AcDbText
 10
12.0
 20
-4.56
 30
0.0
 40
0.5
  1
14
100
AcDbAttributeDefinition
  3

  2
B
 70
     8
280
     0
  0
ATTDEF
  5
1C5
330
1AF
100
AcDbEntity
  8
AM_6
100
AcDbText
 10
12.0
 20
-5.06
 30
0.0
 40
0.5
  1
14.0000000
100
AcDbAttributeDefinition
  3

  2
B1
 70
     8
280
     0
  0
ATTDEF
  5
1C6
330
1AF
100
AcDbEntity
  8
AM_6
100
AcDbText
 10
12.0
 20
-5.56
 30
0.0
 40
0.5
  1
3.49
100
AcDbAttributeDefinition
  3

  2
C
 70
     8
280
     0
  0
ATTDEF
  5
1C7
330
1AF
100
AcDbEntity
  8
AM_6
100
AcDbText
 10
12.0
 20
-6.06
 30
0.0
 40
0.5
  1
3.4900000
100
AcDbAttributeDefinition
  3

  2
C1
 70
     8
280
     0
  0
ATTDEF
  5
1C8
330
1AF
100
AcDbEntity
  8
AM_6
100
AcDbText
 10
12.0
 20
-6.56
 30
0.0
 40
0.5
  1
10.81
100
AcDbAttributeDefinition
  3

  2
DMIN
 70
     8
280
     0
  0
ATTDEF
  5
1C9
330
1AF
100
AcDbEntity
  8
AM_6
100
AcDbText
 10
12.0
 20
-7.06
 30
0.0
 40
0.5
  1
10.8100000
100
AcDbAttributeDefinition
  3

  2
DMIN1
 70
     8
280
     0
  0
ATTDEF
  5
1CA
330
1AF
100
AcDbEntity
  8
AM_6
100
AcDbText
 10
12.0
 20
-7.56
 30
0.0
 40
0.5
  1
11.19
100
AcDbAttributeDefinition
  3

  2
DMAX
 70
     8
280
     0
  0
ATTDEF
  5
1CB
330
1AF
100
AcDbEntity
  8
AM_6
100
AcDbText
 10
12.0
 20
-8.059999999999999
 30
0.0
 40
0.5
  1
11.1900000
100
AcDbAttributeDefinition
  3

  2
DMAX1
 70
     8
280
     0
  0
ATTDEF
  5
1CC
330
1AF
100
AcDbEntity
  8
AM_6
100
AcDbText
 10
12.0
 20
-8.559999999999999
 30
0.0
 40
0.5
  1
7/8
100
AcDbAttributeDefinition
  3

  2
F
 70
     8
280
     0
  0
ATTDEF
  5
1CD
330
1AF
100
AcDbEntity
  8
AM_6
100
AcDbText
 10
12.0
 20
-9.059999999999999
 30
0.0
 40
0.5
  1
0.8750000
100
AcDbAttributeDefinition
  3

  2
F1
 70
     8
280
     0
  0
ATTDEF
  5
1CE
330
1AF
100
AcDbEntity
  8
AM_6
100
AcDbText
 10
12.0
 20
-9.559999999999999
 30
0.0
 40
0.5
  1
1.19
100
AcDbAttributeDefinition
  3

  2
G
 70
     8
280
     0
  0
ATTDEF
  5
1CF
330
1AF
100
AcDbEntity
  8
AM_6
100
AcDbText
 10
12.0
 20
-10.06
 30
0.0
 40
0.5
  1
1.190000
100
AcDbAttributeDefinition
  3

  2
G1
 70
     8
280
     0
  0
ATTDEF
  5
1D0
330
1AF
100
AcDbEntity
  8
AM_6
100
AcDbText
 10
12.0
 20
-10.56
 30
0.0
 40
0.5
  1
2.25
100
AcDbAttributeDefinition
  3

  2
H
 70
     8
280
     0
  0
ATTDEF
  5
1D1
330
1AF
100
AcDbEntity
  8
AM_6
100
AcDbText
 10
12.0
 20
-11.06
 30
0.0
 40
0.5
  1
2.2500000
100
AcDbAttributeDefinition
  3

  2
H1
 70
     8
280
     0
  0
ATTDEF
  5
1D2
330
1AF
100
AcDbEntity
  8
AM_6
100
AcDbText
 10
12.0
 20
-11.56
 30
0.0
 40
0.5
  1
7.69
100
AcDbAttributeDefinition
  3

  2
J
 70
     8
280
     0
  0
ATTDEF
  5
1D3
330
1AF
100
AcDbEntity
  8
AM_6
100
AcDbText
 10
12.0
 20
-12.06
 30
0.0
 40
0.5
  1
7.690000
100
AcDbAttributeDefinition
  3

  2
J1
 70
     8
280
     0
  0
ATTDEF
  5
1D4
330
1AF
100
AcDbEntity
  8
AM_6
100
AcDbText
 10
12.0
 20
-12.56
 30
0.0
 40
0.5
  1
5.00
100
AcDbAttributeDefinition
  3

  2
L
 70
     8
280
     0
  0
ATTDEF
  5
1D5
330
1AF
100
AcDbEntity
  8
AM_6
100
AcDbText
 10
12.0
 20
-13.06
 30
0.0
 40
0.5
  1
5.0000000
100
AcDbAttributeDefinition
  3

  2
L1
 70
     8
280
     0
  0
ATTDEF
  5
1D6
330
1AF
100
AcDbEntity
  8
AM_6
100
AcDbText
 10
12.0
 20
-13.56
 30
0.0
 40
0.5
  1
3.75
100
AcDbAttributeDefinition
  3

  2
M
 70
     8
280
     0
  0
ATTDEF
  5
1D7
330
1AF
100
AcDbEntity
  8
AM_6
100
AcDbText
 10
12.0
 20
-14.06
 30
0.0
 40
0.5
  1
3.750000
100
AcDbAttributeDefinition
  3

  2
M1
 70
     8
280
     0
  0
ATTDEF
  5
1D8
330
1AF
100
AcDbEntity
  8
AM_6
100
AcDbText
 10
12.0
 20
-14.56
 30
0.0
 40
0.5
  1
1.51
100
AcDbAttributeDefinition
  3

  2
R
 70
     8
280
     0
  0
ATTDEF
  5
1D9
330
1AF
100
AcDbEntity
  8
AM_6
100
AcDbText
 10
12.0
 20
-15.06
 30
0.0
 40
0.5
  1
1.510000
100
AcDbAttributeDefinition
  3

  2
R1
 70
     8
280
     0
  0
ATTDEF
  5
1DA
330
1AF
100
AcDbEntity
  8
AM_6
100
AcDbText
 10
12.0
 20
-15.56
 30
0.0
 40
0.5
  1
2.66
100
AcDbAttributeDefinition
  3

  2
S
 70
     8
280
     0
  0
ATTDEF
  5
1DB
330
1AF
100
AcDbEntity
  8
AM_6
100
AcDbText
 10
12.0
 20
-16.06
 30
0.0
 40
0.5
  1
2.660000
100
AcDbAttributeDefinition
  3

  2
S1
 70
     8
280
     0
  0
ATTDEF
  5
1DC
330
1AF
100
AcDbEntity
  8
AM_6
100
AcDbText
 10
12.0
 20
-16.56
 30
0.0
 40
0.5
  1
0.25
100
AcDbAttributeDefinition
  3

  2
X
 70
     8
280
     0
  0
ATTDEF
  5
1DD
330
1AF
100
AcDbEntity
  8
AM_6
100
AcDbText
 10
12.0
 20
-17.06
 30
0.0
 40
0.5
  1
0.250000
100
AcDbAttributeDefinition
  3

  2
X1
 70
     8
280
     0
  0
ATTDEF
  5
1DE
330
1AF
100
AcDbEntity
  8
AM_6
100
AcDbText
 10
12.0
 20
-17.56
 30
0.0
 40
0.5
  1
0.025
100
AcDbAttributeDefinition
  3

  2
Y
 70
     8
280
     0
  0
ATTDEF
  5
1DF
330
1AF
100
AcDbEntity
  8
AM_6
100
AcDbText
 10
12.0
 20
-18.06
 30
0.0
 40
0.5
  1
4.05
100
AcDbAttributeDefinition
  3

  2
Z
 70
     8
280
     0
  0
ATTDEF
  5
1E0
330
1AF
100
AcDbEntity
  8
AM_6
100
AcDbText
 10
12.0
 20
-18.56
 30
0.0
 40
0.5
  1
4.050000
100
AcDbAttributeDefinition
  3

  2
Z1
 70
     8
280
     0
  0
ATTDEF
  5
1E1
330
1AF
100
AcDbEntity
  8
AM_6
100
AcDbText
 10
12.0
 20
-19.06
 30
0.0
 40
0.5
  1
6.2992
100
AcDbAttributeDefinition
  3

  2
BORE
 70
     8
280
     0
  0
ATTDEF
  5
1E2
330
1AF
100
AcDbEntity
  8
AM_6
100
AcDbText
 10
12.0
 20
-19.56
 30
0.0
 40
0.5
  1
baldor
100
AcDbAttributeDefinition
  3

  2
COMPANY
 70
     8
280
     0
  0
LINE
  5
1E3
330
1AF
100
AcDbEntity
  8
AM_9
100
AcDbLine
 10
-5.594999999999999
 20
-1.5
 30
0.0
 11
-5.594999999999999
 21
-3.75
 31
0.0
  0
LINE
  5
1E4
330
1AF
100
AcDbEntity
  8
AM_9
100
AcDbLine
 10
-6.032499999999999
 20
-1.5
 30
0.0
 11
-6.032499999999999
 21
-3.75
 31
0.0
  0
LINE
  5
1E5
330
1AF
100
AcDbEntity
  8
AM_9
100
AcDbLine
 10
-5.405
 20
-1.5
 30
0.0
 11
-5.405
 21
-3.75
 31
0.0
  0
LINE
  5
1E6
330
1AF
100
AcDbEntity
  8
AM_9
100
AcDbLine
 10
-4.967500000000001
 20
-3.75
 30
0.0
 11
-4.967500000000001
 21
-1.5
 31
0.0
  0
LINE
  5
1E7
330
1AF
100
AcDbEntity
  8
AM_9
100
AcDbLine
 10
5.405000000000001
 20
-1.5
 30
0.0
 11
5.405000000000001
 21
-3.75
 31
0.0
  0
LINE
  5
1E8
330
1AF
100
AcDbEntity
  8
AM_9
100
AcDbLine
 10
4.967500000000001
 20
-1.5
 30
0.0
 11
4.967500000000001
 21
-3.75
 31
0.0
  0
LINE
  5
1E9
330
1AF
100
AcDbEntity
  8
AM_9
100
AcDbLine
 10
5.595
 20
-1.5
 30
0.0
 11
5.595
 21
-3.75
 31
0.0
  0
LINE
  5
1EA
330
1AF
100
AcDbEntity
  8
AM_9
100
AcDbLine
 10
6.032499999999999
 20
-3.75
 30
0.0
 11
6.032499999999999
 21
-1.5
 31
0.0
  0
ARC
  5
1EB
330
1AF
100
AcDbEntity
  8
AM_9
100
AcDbCircle
 10
4.007500000000001
 20
-1.3875
 30
0.0
 40
0.1125000000000007
100
AcDbArc
 50
180.0
 51
270.0
  0
LINE
  5
1EC
330
1AF
100
AcDbEntity
  8
AM_9
100
AcDbLine
 10
3.895
 20
0.5937802623866824
 30
0.0
 11
3.895
 21
-1.3875
 31
0.0
  0
LINE
  5
1ED
330
1AF
100
AcDbEntity
  8
AM_9
100
AcDbLine
 10
4.0075
 20
-1.5
 30
0.0
 11
4.362951834958301
 21
-1.5
 31
0.0
  0
LINE
  5
1EE
330
1AF
100
AcDbEntity
  8
AM_9
100
AcDbLine
 10
-4.362951834958298
 20
-1.5
 30
0.0
 11
-4.0075
 21
-1.5
 31
0.0
  0
LINE
  5
1EF
330
1AF
100
AcDbEntity
  8
AM_9
100
AcDbLine
 10
-3.895000000000001
 20
-1.3875
 30
0.0
 11
-3.895
 21
0.5937802623866807
 31
0.0
  0
ARC
  5
1F0
330
1AF
100
AcDbEntity
  8
AM_9
100
AcDbCircle
 10
-4.007499999999999
 20
-1.387500000000001
 30
0.0
 40
0.1124999999999985
100
AcDbArc
 50
270.0
 51
0.0
  0
LINE
  5
1F1
330
1AF
100
AcDbEntity
  8
AM_7
100
AcDbLine
 10
-3.30708
 20
0.0
 30
0.0
 11
3.30708
 21
0.0
 31
0.0
  0
LINE
  5
1F2
330
1AF
100
AcDbEntity
  8
AM_7
100
AcDbLine
 10
0.0
 20
-3.30708
 30
0.0
 11
0.0
 21
3.30708
 31
0.0
  0
LINE
  5
1F3
330
1AF
100
AcDbEntity
  8
AM_7
100
AcDbLine
 10
1.691713975224909
 20
2.93013455696386
 30
0.0
 11
2.2235
 21
3.851214970629399
 31
0.0
  0
LINE
  5
1F4
330
1AF
100
AcDbEntity
  8
AM_4
100
AcDbLine
 10
2.387188578287869
 20
3.134731904842705
 30
0.0
 11
2.403012701892219
 21
3.162140090910689
 31
0.0
  0
LINE
  5
1F5
330
1AF
100
AcDbEntity
  8
AM_4
100
AcDbLine
 10
1.536987298107781
 20
3.662140090910689
 30
0.0
 11
2.403012701892219
 21
3.162140090910689
 31
0.0
  0
LINE
  5
1F6
330
1AF
100
AcDbEntity
  8
AM_4
100
AcDbLine
 10
1.673589838486224
 20
3.698742631289133
 30
0.0
 11
2.36641016008807
 21
3.298742632112264
 31
0.0
  0
ARC
  5
1F7
330
1AF
100
AcDbEntity
  8
AM_4
100
AcDbCircle
 10
2.316410161513775
 20
3.212140090910689
 30
0.0
 40
0.1000000000000003
100
AcDbArc
 50
330.0000000000002
 51
59.99999999999999
  0
ARC
  5
1F8
330
1AF
100
AcDbEntity
  8
AM_4
100
AcDbCircle
 10
1.623589838486224
 20
3.612140090910689
 30
0.0
 40
0.0999999999999996
100
AcDbArc
 50
59.99999999999984
 51
150.0000000000003
  0
LINE
  5
1F9
330
1AF
100
AcDbEntity
  8
AM_4
100
AcDbLine
 10
1.536987298107781
 20
3.662140090910689
 30
0.0
 11
1.521059968199658
 21
3.634553146280909
 31
0.0
  0
ARC
  5
1FA
330
1AF
100
AcDbEntity
  8
AM_4
100
AcDbCircle
 10
4.362951834958324
 20
-1.274999999999994
 30
0.0
 40
0.2250000000000239
100
AcDbArc
 50
187.3182715630445
 51
208.3834485560158
  0
ARC
  5
1FB
330
1AF
100
AcDbEntity
  8
AM_4
100
AcDbCircle
 10
-4.362951834958286
 20
-1.275000000000005
 30
0.0
 40
0.2249999999999863
100
AcDbArc
 50
331.61655144398
 51
352.6817284369573
  0
CIRCLE
  5
1FC
330
1AF
100
AcDbEntity
  8
AM_4
100
AcDbCircle
 10
0.0
 20
0.0
 30
0.0
 40
3.1496
  0
ARC
  5
1FD
330
1AF
100
AcDbEntity
  8
AM_4
100
AcDbCircle
 10
-0.9373666666666667
 20
3.8275
 30
0.0
 40
0.1124999999999998
100
AcDbArc
 50
90.0
 51
180.0
  0
LINE
  5
1FE
330
1AF
100
AcDbEntity
  8
AM_4
100
AcDbLine
 10
-0.9373666666666675
 20
3.94
 30
0.0
 11
0.9373666666666642
 21
3.94
 31
0.0
  0
LINE
  5
1FF
330
1AF
100
AcDbEntity
  8
AM_4
100
AcDbLine
 10
1.049866666666667
 20
3.827500000000001
 30
0.0
 11
1.049866666666667
 21
3.797549207347053
 31
0.0
  0
LINE
  5
200
330
1AF
100
AcDbEntity
  8
AM_4
100
AcDbLine
 10
-4.139784713896383
 20
-1.303660706148588
 30
0.0
 11
-3.907904253262009
 21
0.5018808098908517
 31
0.0
  0
ARC
  5
201
330
1AF
100
AcDbEntity
  8
AM_4
100
AcDbCircle
 10
0.937366666666668
 20
3.827500000000001
 30
0.0
 40
0.1124999999999987
100
AcDbArc
 50
0.0
 51
90.0
  0
ARC
  5
202
330
1AF
100
AcDbEntity
  8
AM_4
100
AcDbCircle
 10
0.0000000000000022
 20
-0.0000000000000013
 30
0.0
 40
3.940000000000002
100
AcDbArc
 50
105.4539395479368
 51
172.6817284369561
  0
LINE
  5
203
330
1AF
100
AcDbEntity
  8
AM_4
100
AcDbLine
 10
3.90790425326201
 20
0.5018808098908484
 30
0.0
 11
4.139784713896383
 21
-1.303660706148589
 31
0.0
  0
LINE
  5
204
330
1AF
100
AcDbEntity
  8
AM_4
100
AcDbLine
 10
-1.049866666666667
 20
3.797549207347052
 30
0.0
 11
-1.049866666666667
 21
3.827500000000001
 31
0.0
  0
ARC
  5
205
330
1AF
100
AcDbEntity
  8
AM_4
100
AcDbCircle
 10
0.0000000000000018
 20
0.0000000000000027
 30
0.0
 40
3.939999999999998
100
AcDbArc
 50
7.318271563043774
 51
74.54606045206326
  0
LINE
  5
206
330
1AF
100
AcDbEntity
  8
AM_4
100
AcDbLine
 10
-6.775000000000001
 20
-1.5
 30
0.0
 11
-4.362951834958298
 21
-1.5
 31
0.0
  0
LWPOLYLINE
  5
207
330
1AF
100
AcDbEntity
  8
AM_4
100
AcDbPolyline
 90
        7
 70
     0
 43
0.0
 10
-6.775000000000001
 20
-1.5
 10
-6.812873140834167
 20
-1.503190899613724
 10
-6.844028604553403
 20
-1.510850398661566
 10
-6.868739970130855
 20
-1.520445443005696
 10
-6.886353117186169
 20
-1.529486616077254
 10
-6.896663113796135
 20
-1.535691894214587
 10
-6.899999999998179
 20
-1.537917130660086
  0
LINE
  5
208
330
1AF
100
AcDbEntity
  8
AM_4
100
AcDbLine
 10
-6.900000000000001
 20
-1.537859135520809
 30
0.0
 11
-6.900000000000001
 21
-2.625
 31
0.0
  0
LWPOLYLINE
  5
209
330
1AF
100
AcDbEntity
  8
AM_4
100
AcDbPolyline
 90
       13
 70
     0
 43
0.0
 10
-4.165000000000001
 20
-1.381958267733929
 10
-4.175075293762664
 20
-1.39880389843767
 10
-4.186580441446782
 20
-1.414707306719462
 10
-4.199427881931483
 20
-1.429547458039541
 10
-4.213519838437179
 20
-1.443211409885633
 10
-4.228749062665909
 20
-1.455595171333668
 10
-4.244999651025632
 20
-1.466604494481509
 10
-4.262147926726558
 20
-1.476155591732388
 10
-4.280063381036193
 20
-1.484175773469117
 10
-4.298609666529592
 20
-1.49060400126596
 10
-4.317645634775597
 20
-1.495391352427914
 10
-4.337026410561624
 20
-1.498501392321955
 10
-4.339500000000001
 20
-1.49877446556095
  0
LINE
  5
20A
330
1AF
100
AcDbEntity
  8
AM_4
100
AcDbLine
 10
-4.165000000000001
 20
-1.381958267733928
 30
0.0
 11
-4.165000000000001
 21
-3.75
 31
0.0
  0
LINE
  5
20B
330
1AF
100
AcDbEntity
  8
AM_4
100
AcDbLine
 10
-7.0
 20
-2.625
 30
0.0
 11
-5.582500000000018
 21
-2.625
 31
0.0
  0
LINE
  5
20C
330
1AF
100
AcDbEntity
  8
AM_4
100
AcDbLine
 10
-7.0
 20
-2.625
 30
0.0
 11
-7.0
 21
-3.75
 31
0.0
  0
LINE
  5
20D
330
1AF
100
AcDbEntity
  8
AM_4
100
AcDbLine
 10
4.362951834958301
 20
-1.5
 30
0.0
 11
6.774999999999999
 21
-1.5
 31
0.0
  0
LINE
  5
20E
330
1AF
100
AcDbEntity
  8
AM_4
100
AcDbLine
 10
6.900000000000001
 20
-2.625
 30
0.0
 11
6.900000000000001
 21
-1.537859135520809
 31
0.0
  0
LWPOLYLINE
  5
20F
330
1AF
100
AcDbEntity
  8
AM_4
100
AcDbPolyline
 90
        8
 70
     0
 43
0.0
 10
6.899999999998179
 20
-1.537917130660087
 10
6.899997734994055
 20
-1.537915617310381
 10
6.89614990828259
 20
-1.535360789976006
 10
6.885026814033568
 20
-1.528737165531468
 10
6.86760850949022
 20
-1.519932725463194
 10
6.843641982349713
 20
-1.510726160581602
 10
6.812633027025114
 20
-1.503150479307384
 10
6.774999999999999
 20
-1.5
  0
LWPOLYLINE
  5
210
330
1AF
100
AcDbEntity
  8
AM_4
100
AcDbPolyline
 90
       13
 70
     0
 43
0.0
 10
4.3395
 20
-1.49877446556095
 10
4.320086011558394
 20
-1.495878974065545
 10
4.300998257915953
 20
-1.491302460207132
 10
4.282382008403397
 20
-1.485079754019546
 10
4.264378943920316
 20
-1.477258214054247
 10
4.247126078657971
 20
-1.467897366953146
 10
4.230754717338577
 20
-1.457068454414918
 10
4.21538945590707
 20
-1.444853891002653
 10
4.201147233280746
 20
-1.431346636919275
 10
4.188136441373476
 20
-1.416649490524261
 10
4.176456100167806
 20
-1.400874305976056
 10
4.166195104113097
 20
-1.384141141954389
 10
4.164999999999998
 20
-1.381958267733921
  0
LINE
  5
211
330
1AF
100
AcDbEntity
  8
AM_4
100
AcDbLine
 10
4.164999999999997
 20
-1.38195826773392
 30
0.0
 11
4.164999999999997
 21
-3.75
 31
0.0
  0
LINE
  5
212
330
1AF
100
AcDbEntity
  8
AM_4
100
AcDbLine
 10
5.5825
 20
-2.625
 30
0.0
 11
7.0
 21
-2.625
 31
0.0
  0
LINE
  5
213
330
1AF
100
AcDbEntity
  8
AM_4
100
AcDbLine
 10
-7.0
 20
-3.75
 30
0.0
 11
7.0
 21
-3.75
 31
0.0
  0
LINE
  5
214
330
1AF
100
AcDbEntity
  8
AM_4
100
AcDbLine
 10
7.0
 20
-2.625
 30
0.0
 11
7.0
 21
-3.75
 31
0.0
  0
ARC
  5
215
330
1AF
100
AcDbEntity
  8
AM_4
100
AcDbCircle
 10
4.362951834958293
 20
-1.275000000000104
 30
0.0
 40
0.2249999999998952
100
AcDbArc
 50
264.0171728570764
 51
270.0
  0
LINE
  5
216
330
1AF
100
AcDbEntity
  8
AM_4
100
AcDbLine
 10
5.5825
 20
-2.625
 30
0.0
 11
5.5825
 21
-1.5
 31
0.0
  0
LINE
  5
217
330
1AF
100
AcDbEntity
  8
AM_4
100
AcDbLine
 10
4.3395
 20
-3.75
 30
0.0
 11
4.3395
 21
-1.49877446556095
 31
0.0
  0
LINE
  5
218
330
1AF
100
AcDbEntity
  8
AM_4
100
AcDbLine
 10
6.651000000000001
 20
-2.625
 30
0.0
 11
6.651
 21
-3.75
 31
0.0
  0
LINE
  5
219
330
1AF
100
AcDbEntity
  8
AM_4
100
AcDbLine
 10
-5.582500000000018
 20
-2.625
 30
0.0
 11
-5.582500000000018
 21
-1.5
 31
0.0
  0
LINE
  5
21A
330
1AF
100
AcDbEntity
  8
AM_4
100
AcDbLine
 10
-6.650999999999999
 20
-3.75
 30
0.0
 11
-6.651000000000005
 21
-2.625
 31
0.0
  0
LINE
  5
21B
330
1AF
100
AcDbEntity
  8
AM_4
100
AcDbLine
 10
-4.339500000000001
 20
-1.49877446556095
 30
0.0
 11
-4.3395
 21
-3.75
 31
0.0
  0
ARC
  5
21C
330
1AF
100
AcDbEntity
  8
AM_4
100
AcDbCircle
 10
-4.36295183495829
 20
-1.275000000000173
 30
0.0
 40
0.2249999999998273
100
AcDbArc
 50
270.0
 51
275.9828271429245
  0
ENDBLK
  5
1B2
330
1AF
100
AcDbEntity
  8
0
100
AcDbBlockEnd
  0
ENDSEC
  0
SECTION
  2
ENTITIES
  0
INSERT
  5
6F
330
1F
100
AcDbEntity
  8
0
100
AcDbBlockReference
  2
1_071179_0
 10
0.0
 20
0.0
 30
0.0
  0
POINT
  5
21E
330
1F
100
AcDbEntity
  8
ConnectionPoints
100
AcDbPoint
 10
0.0
 20
2.135416666666667
 30
2.412833333333333
  0
POINT
  5
21F
330
1F
100
AcDbEntity
  8
ConnectionPoints
100
AcDbPoint
 10
0.0
 20
0.0
 30
2.342833333333334
  0
POINT
  5
220
330
1F
100
AcDbEntity
  8
ConnectionPoints
100
AcDbPoint
 10
0.0
 20
0.0
 30
2.66
  0
POINT
  5
221
330
1F
100
AcDbEntity
  8
ConnectionPoints
100
AcDbPoint
 10
0.0
 20
0.0
 30
2.541833333333333
  0
POINT
  5
222
330
1F
100
AcDbEntity
  8
ConnectionPoints
100
AcDbPoint
 10
0.0
 20
2.135416666666667
 30
2.342833333333334
  0
POINT
  5
223
330
1F
100
AcDbEntity
  8
ConnectionPoints
100
AcDbPoint
 10
0.0
 20
-2.135416666666667
 30
2.342833333333334
  0
POINT
  5
224
330
1F
100
AcDbEntity
  8
ConnectionPoints
100
AcDbPoint
 10
0.0
 20
0.0
 30
2.342833333333334
  0
POINT
  5
225
330
1F
100
AcDbEntity
  8
ConnectionPoints
100
AcDbPoint
 10
2.02
 20
3.498742631289133
 30
0.0
  0
POINT
  5
226
330
1F
100
AcDbEntity
  8
ConnectionPoints
100
AcDbPoint
 10
2.02
 20
3.498742631289133
 30
0.0
  0
POINT
  5
227
330
1F
100
AcDbEntity
  8
ConnectionPoints
100
AcDbPoint
 10
0.0
 20
0.0
 30
2.41
  0
POINT
  5
228
330
1F
100
AcDbEntity
  8
ConnectionPoints
100
AcDbPoint
 10
0.0
 20
0.0
 30
2.66
  0
ENDSEC
  0
SECTION
  2
OBJECTS
  0
DICTIONARY
  5
C
330
0
100
AcDbDictionary
281
     1
  3
ACAD_DETAILVIEWSTYLE
350
230
  3
ACAD_GROUP
350
D
  3
ACAD_LAYOUT
350
1A
  3
ACAD_MATERIAL
350
43
  3
ACAD_MLEADERSTYLE
350
6B
  3
ACAD_MLINESTYLE
350
17
  3
ACAD_PLOTSETTINGS
350
19
  3
ACAD_PLOTSTYLENAME
350
E
  3
ACAD_SCALELIST
350
47
  3
ACAD_SECTIONVIEWSTYLE
350
231
  3
ACAD_TABLESTYLE
350
69
  3
ACAD_VISUALSTYLE
350
2A
  3
ACDB_RECOMPOSE_DATA
350
22D
  3
AcDbVariableDictionary
350
229
  0
SUN
  5
6D
330
29
100
AcDbSun
 90
        1
290
     0
 63
     7
421
 16777215
 40
1.0
291
     1
 91
  2455826
 92
 54000000
292
     0
 70
     2
 71
   256
280
     1
  0
DICTIONARY
  5
230
102
{ACAD_REACTORS
330
C
102
}
330
C
100
AcDbDictionary
281
     1
  0
DICTIONARY
  5
D
102
{ACAD_REACTORS
330
C
102
}
330
C
100
AcDbDictionary
281
     1
  0
DICTIONARY
  5
1A
102
{ACAD_REACTORS
330
C
102
}
330
C
100
AcDbDictionary
281
     1
  3
Layout1
350
1E
  3
Layout2
350
26
  3
Model
350
22
  0
DICTIONARY
  5
43
102
{ACAD_REACTORS
330
C
102
}
330
C
100
AcDbDictionary
281
     1
  3
ByBlock
350
45
  3
ByLayer
350
44
  3
Global
350
46
  0
DICTIONARY
  5
6B
102
{ACAD_REACTORS
330
C
102
}
330
C
100
AcDbDictionary
281
     1
  3
Standard
350
6C
  0
DICTIONARY
  5
17
102
{ACAD_REACTORS
330
C
102
}
330
C
100
AcDbDictionary
281
     1
  3
Standard
350
18
  0
DICTIONARY
  5
19
102
{ACAD_REACTORS
330
C
102
}
330
C
100
AcDbDictionary
281
     1
  0
ACDBDICTIONARYWDFLT
  5
E
102
{ACAD_REACTORS
330
C
102
}
330
C
100
AcDbDictionary
281
     1
  3
Normal
350
F
100
AcDbDictionaryWithDefault
340
F
  0
DICTIONARY
  5
47
102
{ACAD_REACTORS
330
C
102
}
330
C
100
AcDbDictionary
281
     1
  3
A0
350
48
  3
A1
350
49
  3
A2
350
4A
  3
A3
350
4B
  3
A4
350
4C
  3
A5
350
4D
  3
A6
350
4E
  3
A7
350
4F
  3
A8
350
50
  3
A9
350
51
  3
B0
350
52
  3
B1
350
53
  3
B2
350
54
  3
B3
350
55
  3
B4
350
56
  3
B5
350
57
  3
B6
350
58
  3
B7
350
59
  3
B8
350
5A
  3
B9
350
5B
  3
C0
350
5C
  3
C1
350
5D
  3
C2
350
5E
  3
C3
350
5F
  3
C4
350
60
  3
C5
350
61
  3
C6
350
62
  3
C7
350
63
  3
C8
350
64
  3
C9
350
65
  3
D0
350
66
  3
D1
350
67
  3
D2
350
68
  0
DICTIONARY
  5
231
102
{ACAD_REACTORS
330
C
102
}
330
C
100
AcDbDictionary
281
     1
  0
DICTIONARY
  5
69
102
{ACAD_REACTORS
330
C
102
}
330
C
100
AcDbDictionary
281
     1
  3
Standard
350
6A
  0
DICTIONARY
  5
2A
102
{ACAD_REACTORS
330
C
102
}
330
C
100
AcDbDictionary
281
     1
  3
2dWireframe
350
2F
  3
Basic
350
32
  3
Brighten
350
36
  3
ColorChange
350
3A
  3
Conceptual
350
34
  3
Dim
350
35
  3
EdgeColorOff
350
3D
  3
Facepattern
350
39
  3
Flat
350
2B
  3
FlatWithEdges
350
2C
  3
Gouraud
350
2D
  3
GouraudWithEdges
350
2E
  3
Hidden
350
31
  3
JitterOff
350
3B
  3
Linepattern
350
38
  3
OverhangOff
350
3C
  3
Realistic
350
33
  3
Shaded
350
42
  3
Shaded with edges
350
41
  3
Shades of Gray
350
3E
  3
Sketchy
350
3F
  3
Thicken
350
37
  3
Wireframe
350
30
  3
X-Ray
350
40
  0
XRECORD
  5
22D
102
{ACAD_REACTORS
330
C
102
}
330
C
100
AcDbXrecord
280
     1
 90
        1
330
6A
  0
DICTIONARY
  5
229
102
{ACAD_REACTORS
330
C
102
}
330
C
100
AcDbDictionary
281
     1
  3
CANNOSCALE
350
22A
  3
CMLEADERSTYLE
350
22F
  3
CTABLESTYLE
350
22E
  0
LAYOUT
  5
1E
102
{ACAD_REACTORS
330
1A
102
}
330
1A
100
AcDbPlotSettings
  1

  2
none_device
  4

  6

 40
0.0
 41
0.0
 42
0.0
 43
0.0
 44
0.0
 45
0.0
 46
0.0
 47
0.0
 48
0.0
 49
0.0
140
0.0
141
0.0
142
1.0
143
1.0
 70
   688
 72
     0
 73
     0
 74
     5
  7

 75
    16
 76
     0
 77
     2
 78
   300
147
1.0
148
0.0
149
0.0
100
AcDbLayout
  1
Layout1
 70
     1
 71
     1
 10
0.0
 20
0.0
 11
12.0
 21
9.0
 12
0.0
 22
0.0
 32
0.0
 14
1.000000000000000E+20
 24
1.000000000000000E+20
 34
1.000000000000000E+20
 15
-1.000000000000000E+20
 25
-1.000000000000000E+20
 35
-1.000000000000000E+20
146
0.0
 13
0.0
 23
0.0
 33
0.0
 16
1.0
 26
0.0
 36
0.0
 17
0.0
 27
1.0
 37
0.0
 76
     0
330
1B
  0
LAYOUT
  5
26
102
{ACAD_REACTORS
330
1A
102
}
330
1A
100
AcDbPlotSettings
  1

  2
none_device
  4

  6

 40
0.0
 41
0.0
 42
0.0
 43
0.0
 44
0.0
 45
0.0
 46
0.0
 47
0.0
 48
0.0
 49
0.0
140
0.0
141
0.0
142
1.0
143
1.0
 70
   688
 72
     0
 73
     0
 74
     5
  7

 75
    16
 76
     0
 77
     2
 78
   300
147
1.0
148
0.0
149
0.0
100
AcDbLayout
  1
Layout2
 70
     1
 71
     2
 10
0.0
 20
0.0
 11
0.0
 21
0.0
 12
0.0
 22
0.0
 32
0.0
 14
0.0
 24
0.0
 34
0.0
 15
0.0
 25
0.0
 35
0.0
146
0.0
 13
0.0
 23
0.0
 33
0.0
 16
1.0
 26
0.0
 36
0.0
 17
0.0
 27
1.0
 37
0.0
 76
     0
330
23
  0
LAYOUT
  5
22
102
{ACAD_REACTORS
330
1A
102
}
330
1A
100
AcDbPlotSettings
  1

  2
none_device
  4
Letter_(8.50_x_11.00_Inches)
  6

 40
6.35
 41
6.35
 42
6.35000508
 43
6.35000508
 44
215.9
 45
279.4
 46
0.0
 47
0.0
 48
0.0
 49
0.0
140
0.0
141
0.0
142
1.0
143
1.0
 70
  1712
 72
     0
 73
     0
 74
     0
  7

 75
     0
 76
     0
 77
     2
 78
   300
147
1.0
148
0.0
149
0.0
100
AcDbLayout
  1
Model
 70
     1
 71
     0
 10
0.0
 20
0.0
 11
12.0
 21
9.0
 12
0.0
 22
0.0
 32
0.0
 14
1.000000000000000E+20
 24
1.000000000000000E+20
 34
1.000000000000000E+20
 15
-1.000000000000000E+20
 25
-1.000000000000000E+20
 35
-1.000000000000000E+20
146
0.0
 13
0.0
 23
0.0
 33
0.0
 16
1.0
 26
0.0
 36
0.0
 17
0.0
 27
1.0
 37
0.0
 76
     0
330
1F
331
29
  0
MATERIAL
  5
45
102
{ACAD_REACTORS
330
43
102
}
330
43
100
AcDbMaterial
  1
ByBlock
 72
     1
 94
      127
  0
MATERIAL
  5
44
102
{ACAD_REACTORS
330
43
102
}
330
43
100
AcDbMaterial
  1
ByLayer
 72
     1
 94
      127
  0
MATERIAL
  5
46
102
{ACAD_REACTORS
330
43
102
}
330
43
100
AcDbMaterial
  1
Global
 72
     1
 94
      127
  0
MLEADERSTYLE
  5
6C
102
{ACAD_REACTORS
330
6B
102
}
330
6B
100
AcDbMLeaderStyle
179
     2
170
     2
171
     1
172
     0
 90
        2
 40
0.0
 41
0.0
173
     1
 91
-1056964608
340
14
 92
       -2
290
     1
 42
0.09
291
     1
 43
0.36
  3
Standard
341
0
 44
0.18
300

342
11
174
     1
178
     6
175
     1
176
     0
 93
-1056964608
 45
0.18
292
     0
297
     0
 46
0.18
343
0
 94
-1056964608
 47
1.0
 49
1.0
140
1.0
293
     1
141
0.0
294
     1
177
     0
142
1.0
295
     0
296
     0
143
0.125
271
     0
272
     9
273
     9
298
     0
  0
MLINESTYLE
  5
18
102
{ACAD_REACTORS
330
17
102
}
330
17
100
AcDbMlineStyle
  2
Standard
 70
     0
  3

 62
   256
 51
90.0
 52
90.0
 71
     2
 49
0.5
 62
   256
  6
BYLAYER
 49
-0.5
 62
   256
  6
BYLAYER
  0
ACDBPLACEHOLDER
  5
F
102
{ACAD_REACTORS
330
E
102
}
330
E
  0
SCALE
  5
48
102
{ACAD_REACTORS
330
47
102
}
330
47
100
AcDbScale
 70
     0
300
1:1
140
1.0
141
1.0
290
     1
  0
SCALE
  5
49
102
{ACAD_REACTORS
330
47
102
}
330
47
100
AcDbScale
 70
     0
300
1:2
140
1.0
141
2.0
290
     0
  0
SCALE
  5
4A
102
{ACAD_REACTORS
330
47
102
}
330
47
100
AcDbScale
 70
     0
300
1:4
140
1.0
141
4.0
290
     0
  0
SCALE
  5
4B
102
{ACAD_REACTORS
330
47
102
}
330
47
100
AcDbScale
 70
     0
300
1:5
140
1.0
141
5.0
290
     0
  0
SCALE
  5
4C
102
{ACAD_REACTORS
330
47
102
}
330
47
100
AcDbScale
 70
     0
300
1:8
140
1.0
141
8.0
290
     0
  0
SCALE
  5
4D
102
{ACAD_REACTORS
330
47
102
}
330
47
100
AcDbScale
 70
     0
300
1:10
140
1.0
141
10.0
290
     0
  0
SCALE
  5
4E
102
{ACAD_REACTORS
330
47
102
}
330
47
100
AcDbScale
 70
     0
300
1:16
140
1.0
141
16.0
290
     0
  0
SCALE
  5
4F
102
{ACAD_REACTORS
330
47
102
}
330
47
100
AcDbScale
 70
     0
300
1:20
140
1.0
141
20.0
290
     0
  0
SCALE
  5
50
102
{ACAD_REACTORS
330
47
102
}
330
47
100
AcDbScale
 70
     0
300
1:30
140
1.0
141
30.0
290
     0
  0
SCALE
  5
51
102
{ACAD_REACTORS
330
47
102
}
330
47
100
AcDbScale
 70
     0
300
1:40
140
1.0
141
40.0
290
     0
  0
SCALE
  5
52
102
{ACAD_REACTORS
330
47
102
}
330
47
100
AcDbScale
 70
     0
300
1:50
140
1.0
141
50.0
290
     0
  0
SCALE
  5
53
102
{ACAD_REACTORS
330
47
102
}
330
47
100
AcDbScale
 70
     0
300
1:100
140
1.0
141
100.0
290
     0
  0
SCALE
  5
54
102
{ACAD_REACTORS
330
47
102
}
330
47
100
AcDbScale
 70
     0
300
2:1
140
2.0
141
1.0
290
     0
  0
SCALE
  5
55
102
{ACAD_REACTORS
330
47
102
}
330
47
100
AcDbScale
 70
     0
300
4:1
140
4.0
141
1.0
290
     0
  0
SCALE
  5
56
102
{ACAD_REACTORS
330
47
102
}
330
47
100
AcDbScale
 70
     0
300
8:1
140
8.0
141
1.0
290
     0
  0
SCALE
  5
57
102
{ACAD_REACTORS
330
47
102
}
330
47
100
AcDbScale
 70
     0
300
10:1
140
10.0
141
1.0
290
     0
  0
SCALE
  5
58
102
{ACAD_REACTORS
330
47
102
}
330
47
100
AcDbScale
 70
     0
300
100:1
140
100.0
141
1.0
290
     0
  0
SCALE
  5
59
102
{ACAD_REACTORS
330
47
102
}
330
47
100
AcDbScale
 70
     0
300
1/128" = 1'-0"
140
0.0078125
141
12.0
290
     0
  0
SCALE
  5
5A
102
{ACAD_REACTORS
330
47
102
}
330
47
100
AcDbScale
 70
     0
300
1/64" = 1'-0"
140
0.015625
141
12.0
290
     0
  0
SCALE
  5
5B
102
{ACAD_REACTORS
330
47
102
}
330
47
100
AcDbScale
 70
     0
300
1/32" = 1'-0"
140
0.03125
141
12.0
290
     0
  0
SCALE
  5
5C
102
{ACAD_REACTORS
330
47
102
}
330
47
100
AcDbScale
 70
     0
300
1/16" = 1'-0"
140
0.0625
141
12.0
290
     0
  0
SCALE
  5
5D
102
{ACAD_REACTORS
330
47
102
}
330
47
100
AcDbScale
 70
     0
300
3/32" = 1'-0"
140
0.09375
141
12.0
290
     0
  0
SCALE
  5
5E
102
{ACAD_REACTORS
330
47
102
}
330
47
100
AcDbScale
 70
     0
300
1/8" = 1'-0"
140
0.125
141
12.0
290
     0
  0
SCALE
  5
5F
102
{ACAD_REACTORS
330
47
102
}
330
47
100
AcDbScale
 70
     0
300
3/16" = 1'-0"
140
0.1875
141
12.0
290
     0
  0
SCALE
  5
60
102
{ACAD_REACTORS
330
47
102
}
330
47
100
AcDbScale
 70
     0
300
1/4" = 1'-0"
140
0.25
141
12.0
290
     0
  0
SCALE
  5
61
102
{ACAD_REACTORS
330
47
102
}
330
47
100
AcDbScale
 70
     0
300
3/8" = 1'-0"
140
0.375
141
12.0
290
     0
  0
SCALE
  5
62
102
{ACAD_REACTORS
330
47
102
}
330
47
100
AcDbScale
 70
     0
300
1/2" = 1'-0"
140
0.5
141
12.0
290
     0
  0
SCALE
  5
63
102
{ACAD_REACTORS
330
47
102
}
330
47
100
AcDbScale
 70
     0
300
3/4" = 1'-0"
140
0.75
141
12.0
290
     0
  0
SCALE
  5
64
102
{ACAD_REACTORS
330
47
102
}
330
47
100
AcDbScale
 70
     0
300
1" = 1'-0"
140
1.0
141
12.0
290
     0
  0
SCALE
  5
65
102
{ACAD_REACTORS
330
47
102
}
330
47
100
AcDbScale
 70
     0
300
1-1/2" = 1'-0"
140
1.5
141
12.0
290
     0
  0
SCALE
  5
66
102
{ACAD_REACTORS
330
47
102
}
330
47
100
AcDbScale
 70
     0
300
3" = 1'-0"
140
3.0
141
12.0
290
     0
  0
SCALE
  5
67
102
{ACAD_REACTORS
330
47
102
}
330
47
100
AcDbScale
 70
     0
300
6" = 1'-0"
140
6.0
141
12.0
290
     0
  0
SCALE
  5
68
102
{ACAD_REACTORS
330
47
102
}
330
47
100
AcDbScale
 70
     0
300
1'-0" = 1'-0"
140
12.0
141
12.0
290
     0
  0
TABLESTYLE
  5
6A
102
{ACAD_REACTORS
330
69
102
}
102
{ACAD_XDICTIONARY
360
22B
102
}
330
69
100
AcDbTableStyle
  3
Standard
 70
     0
 71
     0
 40
0.06
 41
0.06
280
     0
281
     0
  7
Standard
140
0.18
170
     2
 62
     0
 63
   257
283
     0
 90
        4
 91
        0
  1

274
    -2
284
     1
 64
     0
275
    -2
285
     1
 65
     0
276
    -2
286
     1
 66
     0
277
    -2
287
     1
 67
     0
278
    -2
288
     1
 68
     0
279
    -2
289
     1
 69
     0
  7
Standard
140
0.25
170
     5
 62
     0
 63
   257
283
     0
 90
        4
 91
        0
  1

274
    -2
284
     1
 64
     0
275
    -2
285
     1
 65
     0
276
    -2
286
     1
 66
     0
277
    -2
287
     1
 67
     0
278
    -2
288
     1
 68
     0
279
    -2
289
     1
 69
     0
  7
Standard
140
0.18
170
     5
 62
     0
 63
   257
283
     0
 90
        4
 91
        0
  1

274
    -2
284
     1
 64
     0
275
    -2
285
     1
 65
     0
276
    -2
286
     1
 66
     0
277
    -2
287
     1
 67
     0
278
    -2
288
     1
 68
     0
279
    -2
289
     1
 69
     0
  0
VISUALSTYLE
  5
2F
102
{ACAD_REACTORS
330
2A
102
}
330
2A
100
AcDbVisualStyle
  2
2dWireframe
 70
     4
177
     3
291
     0
 70
    58
 90
        0
176
     1
 90
        2
176
     1
 90
        0
176
     1
 90
        0
176
     1
 40
0.6
176
     1
 40
30.0
176
     1
 62
     7
420
 16777215
176
     1
 90
        1
176
     1
 90
        4
176
     1
 62
     7
176
     1
 62
   257
176
     1
 90
        1
176
     1
 90
        1
176
     1
 40
1.0
176
     1
 90
        0
176
     1
 62
   257
176
     1
 40
1.0
176
     1
 90
        1
176
     1
 90
        6
176
     1
 90
        2
176
     1
 62
     7
176
     1
 90
        5
176
     1
 90
        0
176
     1
 90
        0
176
     1
290
     0
176
     1
 90
        1
176
     1
 40
0.0
176
     1
 90
        0
176
     1
290
     1
176
     1
290
     1
176
     1
290
     0
176
     1
290
     0
176
     1
290
     0
176
     1
290
     0
176
     1
290
     0
176
     1
290
     0
176
     1
290
     0
176
     1
 90
       50
176
     1
 40
0.0
176
     1
 40
1.0
176
     1
 90
        0
176
     1
 62
    18
420
        0
176
     1
 90
       50
176
     1
 90
        3
176
     1
 62
     5
420
      255
176
     1
290
     0
176
     1
 90
       50
176
     1
 90
       50
176
     1
 90
       50
176
     1
290
     0
176
     1
 90
       50
176
     1
 62
   256
176
     0
 40
1.0
176
     0
 90
        2
176
     1
  1
strokes_ogs.tif
176
     1
290
     0
176
     1
 40
1.0
176
     1
 40
1.0
176
     1
  0
VISUALSTYLE
  5
32
102
{ACAD_REACTORS
330
2A
102
}
330
2A
100
AcDbVisualStyle
  2
Basic
 70
     7
177
     3
291
     1
 70
    58
 90
        1
176
     1
 90
        0
176
     1
 90
        1
176
     1
 90
        0
176
     1
 40
0.6
176
     1
 40
30.0
176
     1
 62
     7
420
 16777215
176
     1
 90
        0
176
     1
 90
        4
176
     1
 62
     7
176
     1
 62
   257
176
     1
 90
        1
176
     1
 90
        1
176
     1
 40
1.0
176
     1
 90
        8
176
     1
 62
     7
176
     1
 40
1.0
176
     1
 90
        1
176
     1
 90
        6
176
     1
 90
        2
176
     1
 62
     7
176
     1
 90
        5
176
     1
 90
        0
176
     1
 90
        0
176
     1
290
     0
176
     1
 90
        1
176
     1
 40
0.0
176
     1
 90
        0
176
     1
290
     0
176
     1
290
     1
176
     1
290
     1
176
     1
290
     0
176
     1
290
     0
176
     1
290
     0
176
     1
290
     0
176
     1
290
     0
176
     1
290
     0
176
     1
 90
       50
176
     1
 40
0.0
176
     1
 40
1.0
176
     1
 90
        0
176
     1
 62
    18
420
        0
176
     1
 90
       50
176
     1
 90
        3
176
     1
 62
     5
420
      255
176
     1
290
     0
176
     1
 90
       50
176
     1
 90
       50
176
     1
 90
       50
176
     1
290
     0
176
     1
 90
       50
176
     1
 62
   256
176
     0
 40
1.0
176
     0
 90
        2
176
     1
  1
strokes_ogs.tif
176
     1
290
     0
176
     1
 40
1.0
176
     1
 40
1.0
176
     1
  0
VISUALSTYLE
  5
36
102
{ACAD_REACTORS
330
2A
102
}
330
2A
100
AcDbVisualStyle
  2
Brighten
 70
    12
177
     3
291
     1
 70
    58
 90
        2
176
     1
 90
        2
176
     1
 90
        0
176
     1
 90
        0
176
     1
 40
0.6
176
     1
 40
30.0
176
     1
 62
     7
420
 16777215
176
     1
 90
        1
176
     1
 90
        4
176
     1
 62
     7
176
     1
 62
   257
176
     1
 90
        1
176
     1
 90
        1
176
     1
 40
1.0
176
     1
 90
        8
176
     1
 62
     7
176
     1
 40
1.0
176
     1
 90
        1
176
     1
 90
        6
176
     1
 90
        2
176
     1
 62
     7
176
     1
 90
        5
176
     1
 90
        0
176
     1
 90
        0
176
     1
290
     0
176
     1
 90
        1
176
     1
 40
50.0
176
     1
 90
        0
176
     1
290
     0
176
     1
290
     1
176
     1
290
     1
176
     1
290
     0
176
     1
290
     0
176
     1
290
     0
176
     1
290
     0
176
     1
290
     0
176
     1
290
     0
176
     1
 90
       50
176
     1
 40
0.0
176
     1
 40
1.0
176
     1
 90
        0
176
     1
 62
    18
420
        0
176
     1
 90
       50
176
     1
 90
        3
176
     1
 62
     5
420
      255
176
     1
290
     0
176
     1
 90
       50
176
     1
 90
       50
176
     1
 90
       50
176
     1
290
     0
176
     1
 90
       50
176
     1
 62
   256
176
     0
 40
1.0
176
     0
 90
        2
176
     1
  1
strokes_ogs.tif
176
     1
290
     0
176
     1
 40
1.0
176
     1
 40
1.0
176
     1
  0
VISUALSTYLE
  5
3A
102
{ACAD_REACTORS
330
2A
102
}
330
2A
100
AcDbVisualStyle
  2
ColorChange
 70
    16
177
     3
291
     1
 70
    58
 90
        2
176
     1
 90
        2
176
     1
 90
        3
176
     1
 90
        0
176
     1
 40
0.6
176
     1
 40
30.0
176
     1
 62
     8
420
  8421504
176
     1
 90
        1
176
     1
 90
        4
176
     1
 62
     7
176
     1
 62
   257
176
     1
 90
        1
176
     1
 90
        1
176
     1
 40
1.0
176
     1
 90
        8
176
     1
 62
     8
420
  8421504
176
     1
 40
1.0
176
     1
 90
        1
176
     1
 90
        6
176
     1
 90
        2
176
     1
 62
     7
176
     1
 90
        5
176
     1
 90
        0
176
     1
 90
        0
176
     1
290
     0
176
     1
 90
        1
176
     1
 40
0.0
176
     1
 90
        0
176
     1
290
     0
176
     1
290
     1
176
     1
290
     1
176
     1
290
     0
176
     1
290
     0
176
     1
290
     0
176
     1
290
     0
176
     1
290
     0
176
     1
290
     0
176
     1
 90
       50
176
     1
 40
0.0
176
     1
 40
1.0
176
     1
 90
        0
176
     1
 62
    18
420
        0
176
     1
 90
       50
176
     1
 90
        3
176
     1
 62
     5
420
      255
176
     1
290
     0
176
     1
 90
       50
176
     1
 90
       50
176
     1
 90
       50
176
     1
290
     0
176
     1
 90
       50
176
     1
 62
   256
176
     0
 40
1.0
176
     0
 90
        2
176
     1
  1
strokes_ogs.tif
176
     1
290
     0
176
     1
 40
1.0
176
     1
 40
1.0
176
     1
  0
VISUALSTYLE
  5
34
102
{ACAD_REACTORS
330
2A
102
}
330
2A
100
AcDbVisualStyle
  2
Conceptual
 70
     9
177
     3
291
     0
 70
    58
 90
        3
176
     1
 90
        2
176
     1
 90
        0
176
     1
 90
        0
176
     1
 40
0.6
176
     1
 40
30.0
176
     1
 62
     7
420
 16777215
176
     1
 90
        2
176
     1
 90
        2
176
     1
 62
     7
176
     1
 62
   257
176
     1
 90
        1
176
     1
 90
        1
176
     1
 40
179.0
176
     1
 90
        8
176
     1
 62
     7
176
     1
 40
1.0
176
     1
 90
        1
176
     1
 90
        6
176
     1
 90
        2
176
     1
 62
     7
176
     1
 90
        3
176
     1
 90
        0
176
     1
 90
        0
176
     1
290
     0
176
     1
 90
        1
176
     1
 40
0.0
176
     1
 90
        0
176
     1
290
     0
176
     1
290
     1
176
     1
290
     1
176
     1
290
     0
176
     1
290
     0
176
     1
290
     0
176
     1
290
     0
176
     1
290
     0
176
     1
290
     0
176
     1
 90
       50
176
     1
 40
0.0
176
     1
 40
1.0
176
     1
 90
        0
176
     1
 62
    18
420
        0
176
     1
 90
       50
176
     1
 90
        3
176
     1
 62
     5
420
      255
176
     1
290
     0
176
     1
 90
       50
176
     1
 90
       50
176
     1
 90
       50
176
     1
290
     0
176
     1
 90
       50
176
     1
 62
   256
176
     0
 40
1.0
176
     0
 90
        2
176
     1
  1
strokes_ogs.tif
176
     1
290
     0
176
     1
 40
1.0
176
     1
 40
1.0
176
     1
  0
VISUALSTYLE
  5
35
102
{ACAD_REACTORS
330
2A
102
}
330
2A
100
AcDbVisualStyle
  2
Dim
 70
    11
177
     3
291
     1
 70
    58
 90
        2
176
     1
 90
        2
176
     1
 90
        0
176
     1
 90
        0
176
     1
 40
0.6
176
     1
 40
30.0
176
     1
 62
     7
420
 16777215
176
     1
 90
        1
176
     1
 90
        4
176
     1
 62
     7
176
     1
 62
   257
176
     1
 90
        1
176
     1
 90
        1
176
     1
 40
1.0
176
     1
 90
        8
176
     1
 62
     7
176
     1
 40
1.0
176
     1
 90
        1
176
     1
 90
        6
176
     1
 90
        2
176
     1
 62
     7
176
     1
 90
        5
176
     1
 90
        0
176
     1
 90
        0
176
     1
290
     0
176
     1
 90
        1
176
     1
 40
-50.0
176
     1
 90
        0
176
     1
290
     0
176
     1
290
     1
176
     1
290
     1
176
     1
290
     0
176
     1
290
     0
176
     1
290
     0
176
     1
290
     0
176
     1
290
     0
176
     1
290
     0
176
     1
 90
       50
176
     1
 40
0.0
176
     1
 40
1.0
176
     1
 90
        0
176
     1
 62
    18
420
        0
176
     1
 90
       50
176
     1
 90
        3
176
     1
 62
     5
420
      255
176
     1
290
     0
176
     1
 90
       50
176
     1
 90
       50
176
     1
 90
       50
176
     1
290
     0
176
     1
 90
       50
176
     1
 62
   256
176
     0
 40
1.0
176
     0
 90
        2
176
     1
  1
strokes_ogs.tif
176
     1
290
     0
176
     1
 40
1.0
176
     1
 40
1.0
176
     1
  0
VISUALSTYLE
  5
3D
102
{ACAD_REACTORS
330
2A
102
}
330
2A
100
AcDbVisualStyle
  2
EdgeColorOff
 70
    22
177
     3
291
     1
 70
    58
 90
        2
176
     0
 90
        2
176
     0
 90
        0
176
     0
 90
        0
176
     0
 40
0.6
176
     0
 40
30.0
176
     0
 62
     7
420
 16777215
176
     0
 90
        1
176
     0
 90
        4
176
     0
 62
     7
176
     0
 62
   257
176
     0
 90
        1
176
     0
 90
        1
176
     0
 40
1.0
176
     0
 90
        8
176
     2
 62
     7
176
     0
 40
1.0
176
     0
 90
        1
176
     0
 90
        6
176
     0
 90
        2
176
     0
 62
     7
176
     0
 90
        5
176
     0
 90
        0
176
     0
 90
        0
176
     0
290
     0
176
     0
 90
        1
176
     0
 40
0.0
176
     0
 90
        0
176
     0
290
     0
176
     0
290
     1
176
     0
290
     1
176
     0
290
     0
176
     0
290
     0
176
     0
290
     0
176
     0
290
     0
176
     0
290
     0
176
     0
290
     0
176
     0
 90
       50
176
     0
 40
0.0
176
     0
 40
1.0
176
     0
 90
        0
176
     0
 62
    18
420
        0
176
     0
 90
       50
176
     0
 90
        3
176
     0
 62
     5
420
      255
176
     0
290
     0
176
     0
 90
       50
176
     0
 90
       50
176
     0
 90
       50
176
     0
290
     0
176
     0
 90
       50
176
     0
 62
   256
176
     0
 40
1.0
176
     0
 90
        2
176
     0
  1
strokes_ogs.tif
176
     0
290
     0
176
     0
 40
1.0
176
     0
 40
1.0
176
     0
  0
VISUALSTYLE
  5
39
102
{ACAD_REACTORS
330
2A
102
}
330
2A
100
AcDbVisualStyle
  2
Facepattern
 70
    15
177
     3
291
     1
 70
    58
 90
        2
176
     1
 90
        2
176
     1
 90
        0
176
     1
 90
        0
176
     1
 40
0.6
176
     1
 40
30.0
176
     1
 62
     7
420
 16777215
176
     1
 90
        1
176
     1
 90
        4
176
     1
 62
     7
176
     1
 62
   257
176
     1
 90
        1
176
     1
 90
        1
176
     1
 40
1.0
176
     1
 90
        8
176
     1
 62
     7
176
     1
 40
1.0
176
     1
 90
        1
176
     1
 90
        6
176
     1
 90
        2
176
     1
 62
     7
176
     1
 90
        5
176
     1
 90
        0
176
     1
 90
        0
176
     1
290
     0
176
     1
 90
        1
176
     1
 40
0.0
176
     1
 90
        0
176
     1
290
     0
176
     1
290
     1
176
     1
290
     1
176
     1
290
     0
176
     1
290
     0
176
     1
290
     0
176
     1
290
     0
176
     1
290
     0
176
     1
290
     0
176
     1
 90
       50
176
     1
 40
0.0
176
     1
 40
1.0
176
     1
 90
        0
176
     1
 62
    18
420
        0
176
     1
 90
       50
176
     1
 90
        3
176
     1
 62
     5
420
      255
176
     1
290
     0
176
     1
 90
       50
176
     1
 90
       50
176
     1
 90
       50
176
     1
290
     0
176
     1
 90
       50
176
     1
 62
   256
176
     0
 40
1.0
176
     0
 90
        2
176
     1
  1
strokes_ogs.tif
176
     1
290
     0
176
     1
 40
1.0
176
     1
 40
1.0
176
     1
  0
VISUALSTYLE
  5
2B
102
{ACAD_REACTORS
330
2A
102
}
330
2A
100
AcDbVisualStyle
  2
Flat
 70
     0
177
     3
291
     1
 70
    58
 90
        2
176
     1
 90
        1
176
     1
 90
        1
176
     1
 90
        2
176
     1
 40
0.6
176
     1
 40
30.0
176
     1
 62
     7
420
 16777215
176
     1
 90
        0
176
     1
 90
        0
176
     1
 62
     7
176
     1
 62
   257
176
     1
 90
        1
176
     1
 90
        1
176
     1
 40
1.0
176
     1
 90
        8
176
     1
 62
     7
176
     1
 40
1.0
176
     1
 90
        1
176
     1
 90
        6
176
     1
 90
        2
176
     1
 62
     7
176
     1
 90
        5
176
     1
 90
        0
176
     1
 90
        0
176
     1
290
     0
176
     1
 90
       13
176
     1
 40
0.0
176
     1
 90
        0
176
     1
290
     0
176
     1
290
     1
176
     1
290
     1
176
     1
290
     0
176
     1
290
     0
176
     1
290
     0
176
     1
290
     0
176
     1
290
     0
176
     1
290
     0
176
     1
 90
       50
176
     1
 40
0.0
176
     1
 40
1.0
176
     1
 90
        0
176
     1
 62
    18
420
        0
176
     1
 90
       50
176
     1
 90
        3
176
     1
 62
     5
420
      255
176
     1
290
     0
176
     1
 90
       50
176
     1
 90
       50
176
     1
 90
       50
176
     1
290
     0
176
     1
 90
       50
176
     1
 62
   256
176
     0
 40
1.0
176
     0
 90
        2
176
     1
  1
strokes_ogs.tif
176
     1
290
     0
176
     1
 40
1.0
176
     1
 40
1.0
176
     1
  0
VISUALSTYLE
  5
2C
102
{ACAD_REACTORS
330
2A
102
}
330
2A
100
AcDbVisualStyle
  2
FlatWithEdges
 70
     1
177
     3
291
     1
 70
    58
 90
        2
176
     1
 90
        1
176
     1
 90
        1
176
     1
 90
        2
176
     1
 40
0.6
176
     1
 40
30.0
176
     1
 62
     7
420
 16777215
176
     1
 90
        1
176
     1
 90
        0
176
     1
 62
     7
176
     1
 62
   257
176
     1
 90
        1
176
     1
 90
        1
176
     1
 40
1.0
176
     1
 90
        0
176
     1
 62
   257
176
     1
 40
1.0
176
     1
 90
        1
176
     1
 90
        6
176
     1
 90
        2
176
     1
 62
     7
176
     1
 90
        5
176
     1
 90
        0
176
     1
 90
        0
176
     1
290
     0
176
     1
 90
       13
176
     1
 40
0.0
176
     1
 90
        0
176
     1
290
     0
176
     1
290
     1
176
     1
290
     1
176
     1
290
     0
176
     1
290
     0
176
     1
290
     0
176
     1
290
     0
176
     1
290
     0
176
     1
290
     0
176
     1
 90
       50
176
     1
 40
0.0
176
     1
 40
1.0
176
     1
 90
        0
176
     1
 62
    18
420
        0
176
     1
 90
       50
176
     1
 90
        3
176
     1
 62
     5
420
      255
176
     1
290
     0
176
     1
 90
       50
176
     1
 90
       50
176
     1
 90
       50
176
     1
290
     0
176
     1
 90
       50
176
     1
 62
   256
176
     0
 40
1.0
176
     0
 90
        2
176
     1
  1
strokes_ogs.tif
176
     1
290
     0
176
     1
 40
1.0
176
     1
 40
1.0
176
     1
  0
VISUALSTYLE
  5
2D
102
{ACAD_REACTORS
330
2A
102
}
330
2A
100
AcDbVisualStyle
  2
Gouraud
 70
     2
177
     3
291
     1
 70
    58
 90
        2
176
     1
 90
        2
176
     1
 90
        1
176
     1
 90
        2
176
     1
 40
0.6
176
     1
 40
30.0
176
     1
 62
     7
420
 16777215
176
     1
 90
        0
176
     1
 90
        0
176
     1
 62
     7
176
     1
 62
   257
176
     1
 90
        1
176
     1
 90
        1
176
     1
 40
1.0
176
     1
 90
        0
176
     1
 62
     7
176
     1
 40
1.0
176
     1
 90
        1
176
     1
 90
        6
176
     1
 90
        2
176
     1
 62
     7
176
     1
 90
        5
176
     1
 90
        0
176
     1
 90
        0
176
     1
290
     0
176
     1
 90
       13
176
     1
 40
0.0
176
     1
 90
        0
176
     1
290
     0
176
     1
290
     1
176
     1
290
     1
176
     1
290
     0
176
     1
290
     0
176
     1
290
     0
176
     1
290
     0
176
     1
290
     0
176
     1
290
     0
176
     1
 90
       50
176
     1
 40
0.0
176
     1
 40
1.0
176
     1
 90
        0
176
     1
 62
    18
420
        0
176
     1
 90
       50
176
     1
 90
        3
176
     1
 62
     5
420
      255
176
     1
290
     0
176
     1
 90
       50
176
     1
 90
       50
176
     1
 90
       50
176
     1
290
     0
176
     1
 90
       50
176
     1
 62
   256
176
     0
 40
1.0
176
     0
 90
        2
176
     1
  1
strokes_ogs.tif
176
     1
290
     0
176
     1
 40
1.0
176
     1
 40
1.0
176
     1
  0
VISUALSTYLE
  5
2E
102
{ACAD_REACTORS
330
2A
102
}
330
2A
100
AcDbVisualStyle
  2
GouraudWithEdges
 70
     3
177
     3
291
     1
 70
    58
 90
        2
176
     1
 90
        2
176
     1
 90
        1
176
     1
 90
        2
176
     1
 40
0.6
176
     1
 40
30.0
176
     1
 62
     7
420
 16777215
176
     1
 90
        1
176
     1
 90
        0
176
     1
 62
     7
176
     1
 62
   257
176
     1
 90
        1
176
     1
 90
        1
176
     1
 40
1.0
176
     1
 90
        0
176
     1
 62
   257
176
     1
 40
1.0
176
     1
 90
        1
176
     1
 90
        6
176
     1
 90
        2
176
     1
 62
     7
176
     1
 90
        5
176
     1
 90
        0
176
     1
 90
        0
176
     1
290
     0
176
     1
 90
       13
176
     1
 40
0.0
176
     1
 90
        0
176
     1
290
     0
176
     1
290
     1
176
     1
290
     1
176
     1
290
     0
176
     1
290
     0
176
     1
290
     0
176
     1
290
     0
176
     1
290
     0
176
     1
290
     0
176
     1
 90
       50
176
     1
 40
0.0
176
     1
 40
1.0
176
     1
 90
        0
176
     1
 62
    18
420
        0
176
     1
 90
       50
176
     1
 90
        3
176
     1
 62
     5
420
      255
176
     1
290
     0
176
     1
 90
       50
176
     1
 90
       50
176
     1
 90
       50
176
     1
290
     0
176
     1
 90
       50
176
     1
 62
   256
176
     0
 40
1.0
176
     0
 90
        2
176
     1
  1
strokes_ogs.tif
176
     1
290
     0
176
     1
 40
1.0
176
     1
 40
1.0
176
     1
  0
VISUALSTYLE
  5
31
102
{ACAD_REACTORS
330
2A
102
}
330
2A
100
AcDbVisualStyle
  2
Hidden
 70
     6
177
     3
291
     0
 70
    58
 90
        1
176
     1
 90
        2
176
     1
 90
        2
176
     1
 90
        0
176
     1
 40
0.6
176
     1
 40
30.0
176
     1
 62
     7
420
 16777215
176
     1
 90
        2
176
     1
 90
        2
176
     1
 62
     7
176
     1
 62
   257
176
     1
 90
        2
176
     1
 90
        1
176
     1
 40
40.0
176
     1
 90
        0
176
     1
 62
   257
176
     1
 40
1.0
176
     1
 90
        1
176
     1
 90
        6
176
     1
 90
        2
176
     1
 62
     7
176
     1
 90
        3
176
     1
 90
        0
176
     1
 90
        0
176
     1
290
     0
176
     1
 90
        1
176
     1
 40
0.0
176
     1
 90
        0
176
     1
290
     0
176
     1
290
     1
176
     1
290
     1
176
     1
290
     0
176
     1
290
     0
176
     1
290
     0
176
     1
290
     0
176
     1
290
     0
176
     1
290
     0
176
     1
 90
       50
176
     1
 40
0.0
176
     1
 40
1.0
176
     1
 90
        0
176
     1
 62
    18
420
        0
176
     1
 90
       50
176
     1
 90
        3
176
     1
 62
     5
420
      255
176
     1
290
     0
176
     1
 90
       50
176
     1
 90
       50
176
     1
 90
       50
176
     1
290
     0
176
     1
 90
       50
176
     1
 62
   256
176
     0
 40
1.0
176
     0
 90
        2
176
     1
  1
strokes_ogs.tif
176
     1
290
     0
176
     1
 40
1.0
176
     1
 40
1.0
176
     1
  0
VISUALSTYLE
  5
3B
102
{ACAD_REACTORS
330
2A
102
}
330
2A
100
AcDbVisualStyle
  2
JitterOff
 70
    20
177
     3
291
     1
 70
    58
 90
        2
176
     0
 90
        2
176
     0
 90
        0
176
     0
 90
        0
176
     0
 40
0.6
176
     0
 40
30.0
176
     0
 62
     7
420
 16777215
176
     0
 90
        1
176
     0
 90
        4
176
     0
 62
     7
176
     0
 62
   257
176
     0
 90
        1
176
     0
 90
        1
176
     0
 40
1.0
176
     0
 90
       10
176
     2
 62
     7
176
     0
 40
1.0
176
     0
 90
        1
176
     0
 90
        6
176
     0
 90
        2
176
     0
 62
     7
176
     0
 90
        5
176
     0
 90
        0
176
     0
 90
        0
176
     0
290
     0
176
     0
 90
        1
176
     0
 40
0.0
176
     0
 90
        0
176
     0
290
     0
176
     0
290
     1
176
     0
290
     1
176
     0
290
     0
176
     0
290
     0
176
     0
290
     0
176
     0
290
     0
176
     0
290
     0
176
     0
290
     0
176
     0
 90
       50
176
     0
 40
0.0
176
     0
 40
1.0
176
     0
 90
        0
176
     0
 62
    18
420
        0
176
     0
 90
       50
176
     0
 90
        3
176
     0
 62
     5
420
      255
176
     0
290
     0
176
     0
 90
       50
176
     0
 90
       50
176
     0
 90
       50
176
     0
290
     0
176
     0
 90
       50
176
     0
 62
   256
176
     0
 40
1.0
176
     0
 90
        2
176
     0
  1
strokes_ogs.tif
176
     0
290
     0
176
     0
 40
1.0
176
     0
 40
1.0
176
     0
  0
VISUALSTYLE
  5
38
102
{ACAD_REACTORS
330
2A
102
}
330
2A
100
AcDbVisualStyle
  2
Linepattern
 70
    14
177
     3
291
     1
 70
    58
 90
        2
176
     1
 90
        2
176
     1
 90
        0
176
     1
 90
        0
176
     1
 40
0.6
176
     1
 40
30.0
176
     1
 62
     7
420
 16777215
176
     1
 90
        1
176
     1
 90
        4
176
     1
 62
     7
176
     1
 62
   257
176
     1
 90
        7
176
     1
 90
        7
176
     1
 40
1.0
176
     1
 90
        8
176
     1
 62
     7
176
     1
 40
1.0
176
     1
 90
        1
176
     1
 90
        6
176
     1
 90
        2
176
     1
 62
     7
176
     1
 90
        5
176
     1
 90
        0
176
     1
 90
        0
176
     1
290
     0
176
     1
 90
        1
176
     1
 40
0.0
176
     1
 90
        0
176
     1
290
     0
176
     1
290
     1
176
     1
290
     1
176
     1
290
     0
176
     1
290
     0
176
     1
290
     0
176
     1
290
     0
176
     1
290
     0
176
     1
290
     0
176
     1
 90
       50
176
     1
 40
0.0
176
     1
 40
1.0
176
     1
 90
        0
176
     1
 62
    18
420
        0
176
     1
 90
       50
176
     1
 90
        3
176
     1
 62
     5
420
      255
176
     1
290
     0
176
     1
 90
       50
176
     1
 90
       50
176
     1
 90
       50
176
     1
290
     0
176
     1
 90
       50
176
     1
 62
   256
176
     0
 40
1.0
176
     0
 90
        2
176
     1
  1
strokes_ogs.tif
176
     1
290
     0
176
     1
 40
1.0
176
     1
 40
1.0
176
     1
  0
VISUALSTYLE
  5
3C
102
{ACAD_REACTORS
330
2A
102
}
330
2A
100
AcDbVisualStyle
  2
OverhangOff
 70
    21
177
     3
291
     1
 70
    58
 90
        2
176
     0
 90
        2
176
     0
 90
        0
176
     0
 90
        0
176
     0
 40
0.6
176
     0
 40
30.0
176
     0
 62
     7
420
 16777215
176
     0
 90
        1
176
     0
 90
        4
176
     0
 62
     7
176
     0
 62
   257
176
     0
 90
        1
176
     0
 90
        1
176
     0
 40
1.0
176
     0
 90
        9
176
     2
 62
     7
176
     0
 40
1.0
176
     0
 90
        1
176
     0
 90
        6
176
     0
 90
        2
176
     0
 62
     7
176
     0
 90
        5
176
     0
 90
        0
176
     0
 90
        0
176
     0
290
     0
176
     0
 90
        1
176
     0
 40
0.0
176
     0
 90
        0
176
     0
290
     0
176
     0
290
     1
176
     0
290
     1
176
     0
290
     0
176
     0
290
     0
176
     0
290
     0
176
     0
290
     0
176
     0
290
     0
176
     0
290
     0
176
     0
 90
       50
176
     0
 40
0.0
176
     0
 40
1.0
176
     0
 90
        0
176
     0
 62
    18
420
        0
176
     0
 90
       50
176
     0
 90
        3
176
     0
 62
     5
420
      255
176
     0
290
     0
176
     0
 90
       50
176
     0
 90
       50
176
     0
 90
       50
176
     0
290
     0
176
     0
 90
       50
176
     0
 62
   256
176
     0
 40
1.0
176
     0
 90
        2
176
     0
  1
strokes_ogs.tif
176
     0
290
     0
176
     0
 40
1.0
176
     0
 40
1.0
176
     0
  0
VISUALSTYLE
  5
33
102
{ACAD_REACTORS
330
2A
102
}
330
2A
100
AcDbVisualStyle
  2
Realistic
 70
     8
177
     3
291
     0
 70
    58
 90
        2
176
     1
 90
        3
176
     1
 90
        0
176
     1
 90
        2
176
     1
 40
0.6
176
     1
 40
30.0
176
     1
 62
     7
420
 16777215
176
     1
 90
        0
176
     1
 90
        0
176
     1
 62
     7
176
     1
 62
   257
176
     1
 90
        1
176
     1
 90
        1
176
     1
 40
1.0
176
     1
 90
        8
176
     1
 62
   257
176
     1
 40
1.0
176
     1
 90
        1
176
     1
 90
        6
176
     1
 90
        2
176
     1
 62
     7
176
     1
 90
        3
176
     1
 90
        0
176
     1
 90
        0
176
     1
290
     0
176
     1
 90
       13
176
     1
 40
0.0
176
     1
 90
        0
176
     1
290
     0
176
     1
290
     1
176
     1
290
     1
176
     1
290
     0
176
     1
290
     0
176
     1
290
     0
176
     1
290
     0
176
     1
290
     0
176
     1
290
     0
176
     1
 90
       50
176
     1
 40
0.0
176
     1
 40
1.0
176
     1
 90
        0
176
     1
 62
    18
420
        0
176
     1
 90
       50
176
     1
 90
        3
176
     1
 62
     5
420
      255
176
     1
290
     0
176
     1
 90
       50
176
     1
 90
       50
176
     1
 90
       50
176
     1
290
     0
176
     1
 90
       50
176
     1
 62
   256
176
     0
 40
1.0
176
     0
 90
        2
176
     1
  1
strokes_ogs.tif
176
     1
290
     0
176
     1
 40
1.0
176
     1
 40
1.0
176
     1
  0
VISUALSTYLE
  5
42
102
{ACAD_REACTORS
330
2A
102
}
330
2A
100
AcDbVisualStyle
  2
Shaded
 70
    27
177
     3
291
     0
 70
    58
 90
        2
176
     1
 90
        2
176
     1
 90
        1
176
     1
 90
        2
176
     1
 40
0.6
176
     1
 40
30.0
176
     1
 62
     7
420
 16777215
176
     1
 90
        0
176
     1
 90
        4
176
     1
 62
     7
176
     1
 62
   257
176
     1
 90
        1
176
     1
 90
        1
176
     1
 40
1.0
176
     1
 90
        8
176
     1
 62
   257
176
     1
 40
1.0
176
     1
 90
        1
176
     1
 90
        6
176
     1
 90
        2
176
     1
 62
     8
420
  7895160
176
     1
 90
        3
176
     1
 90
        0
176
     1
 90
        0
176
     1
290
     0
176
     1
 90
        5
176
     1
 40
0.0
176
     1
 90
        0
176
     1
290
     0
176
     1
290
     1
176
     1
290
     1
176
     1
290
     0
176
     1
290
     0
176
     1
290
     0
176
     1
290
     0
176
     1
290
     0
176
     1
290
     0
176
     1
 90
       50
176
     1
 40
0.0
176
     1
 40
1.0
176
     1
 90
        0
176
     1
 62
    18
420
        0
176
     1
 90
       50
176
     1
 90
        3
176
     1
 62
     5
420
      255
176
     1
290
     0
176
     1
 90
       50
176
     1
 90
       50
176
     1
 90
       50
176
     1
290
     0
176
     1
 90
       50
176
     1
 62
   256
176
     0
 40
1.0
176
     0
 90
        2
176
     1
  1
strokes_ogs.tif
176
     1
290
     0
176
     1
 40
1.0
176
     1
 40
1.0
176
     1
  0
VISUALSTYLE
  5
41
102
{ACAD_REACTORS
330
2A
102
}
330
2A
100
AcDbVisualStyle
  2
Shaded with edges
 70
    26
177
     3
291
     0
 70
    58
 90
        2
176
     1
 90
        2
176
     1
 90
        1
176
     1
 90
        2
176
     1
 40
0.6
176
     1
 40
30.0
176
     1
 62
     7
420
 16777215
176
     1
 90
        1
176
     1
 90
       10
176
     1
 62
     7
176
     1
 62
   257
176
     1
 90
        2
176
     1
 90
        1
176
     1
 40
1.0
176
     1
 90
        8
176
     1
 62
   257
176
     1
 40
1.0
176
     1
 90
        1
176
     1
 90
        6
176
     1
 90
        2
176
     1
 62
     7
176
     1
 90
        3
176
     1
 90
        0
176
     1
 90
        0
176
     1
290
     0
176
     1
 90
        5
176
     1
 40
0.0
176
     1
 90
        0
176
     1
290
     0
176
     1
290
     1
176
     1
290
     1
176
     1
290
     0
176
     1
290
     0
176
     1
290
     0
176
     1
290
     0
176
     1
290
     0
176
     1
290
     0
176
     1
 90
       50
176
     1
 40
0.0
176
     1
 40
1.0
176
     1
 90
        0
176
     1
 62
    18
420
        0
176
     1
 90
       50
176
     1
 90
        3
176
     1
 62
     5
420
      255
176
     1
290
     0
176
     1
 90
       50
176
     1
 90
       50
176
     1
 90
       50
176
     1
290
     0
176
     1
 90
       50
176
     1
 62
   256
176
     0
 40
1.0
176
     0
 90
        2
176
     1
  1
strokes_ogs.tif
176
     1
290
     0
176
     1
 40
1.0
176
     1
 40
1.0
176
     1
  0
VISUALSTYLE
  5
3E
102
{ACAD_REACTORS
330
2A
102
}
330
2A
100
AcDbVisualStyle
  2
Shades of Gray
 70
    23
177
     3
291
     0
 70
    58
 90
        2
176
     1
 90
        2
176
     1
 90
        3
176
     1
 90
        0
176
     1
 40
0.6
176
     1
 40
30.0
176
     1
 62
     7
420
 16777215
176
     1
 90
        2
176
     1
 90
        2
176
     1
 62
     7
176
     1
 62
     7
176
     1
 90
        1
176
     1
 90
        1
176
     1
 40
40.0
176
     1
 90
        8
176
     1
 62
     7
176
     1
 40
1.0
176
     1
 90
        1
176
     1
 90
        6
176
     1
 90
        2
176
     1
 62
     7
176
     1
 90
        3
176
     1
 90
        0
176
     1
 90
        0
176
     1
290
     0
176
     1
 90
        1
176
     1
 40
0.0
176
     1
 90
        0
176
     1
290
     0
176
     1
290
     1
176
     1
290
     1
176
     1
290
     0
176
     1
290
     0
176
     1
290
     0
176
     1
290
     0
176
     1
290
     0
176
     1
290
     0
176
     1
 90
       50
176
     1
 40
0.0
176
     1
 40
1.0
176
     1
 90
        0
176
     1
 62
    18
420
        0
176
     1
 90
       50
176
     1
 90
        3
176
     1
 62
     5
420
      255
176
     1
290
     0
176
     1
 90
       50
176
     1
 90
       50
176
     1
 90
       50
176
     1
290
     0
176
     1
 90
       50
176
     1
 62
   256
176
     0
 40
1.0
176
     0
 90
        2
176
     1
  1
strokes_ogs.tif
176
     1
290
     0
176
     1
 40
1.0
176
     1
 40
1.0
176
     1
  0
VISUALSTYLE
  5
3F
102
{ACAD_REACTORS
330
2A
102
}
330
2A
100
AcDbVisualStyle
  2
Sketchy
 70
    24
177
     3
291
     0
 70
    58
 90
        1
176
     1
 90
        2
176
     1
 90
        2
176
     1
 90
        0
176
     1
 40
0.6
176
     1
 40
30.0
176
     1
 62
     7
420
 16777215
176
     1
 90
        2
176
     1
 90
        2
176
     1
 62
     7
176
     1
 62
     7
176
     1
 90
        1
176
     1
 90
        1
176
     1
 40
40.0
176
     1
 90
       11
176
     1
 62
     7
176
     1
 40
1.0
176
     1
 90
        1
176
     1
 90
        6
176
     1
 90
        2
176
     1
 62
     7
176
     1
 90
        6
176
     1
 90
        0
176
     1
 90
        0
176
     1
290
     0
176
     1
 90
        1
176
     1
 40
0.0
176
     1
 90
        0
176
     1
290
     0
176
     1
290
     1
176
     1
290
     1
176
     1
290
     0
176
     1
290
     0
176
     1
290
     0
176
     1
290
     0
176
     1
290
     0
176
     1
290
     0
176
     1
 90
       50
176
     1
 40
0.0
176
     1
 40
1.0
176
     1
 90
        0
176
     1
 62
    18
420
        0
176
     1
 90
       50
176
     1
 90
        3
176
     1
 62
     5
420
      255
176
     1
290
     0
176
     1
 90
       50
176
     1
 90
       50
176
     1
 90
       50
176
     1
290
     0
176
     1
 90
       50
176
     1
 62
   256
176
     0
 40
1.0
176
     0
 90
        2
176
     1
  1
strokes_ogs.tif
176
     1
290
     0
176
     1
 40
1.0
176
     1
 40
1.0
176
     1
  0
VISUALSTYLE
  5
37
102
{ACAD_REACTORS
330
2A
102
}
330
2A
100
AcDbVisualStyle
  2
Thicken
 70
    13
177
     3
291
     1
 70
    58
 90
        2
176
     1
 90
        2
176
     1
 90
        0
176
     1
 90
        0
176
     1
 40
0.6
176
     1
 40
30.0
176
     1
 62
     7
420
 16777215
176
     1
 90
        1
176
     1
 90
        4
176
     1
 62
     7
176
     1
 62
   257
176
     1
 90
        1
176
     1
 90
        1
176
     1
 40
1.0
176
     1
 90
       12
176
     1
 62
     7
176
     1
 40
1.0
176
     1
 90
        1
176
     1
 90
        6
176
     1
 90
        2
176
     1
 62
     7
176
     1
 90
        5
176
     1
 90
        0
176
     1
 90
        0
176
     1
290
     0
176
     1
 90
        1
176
     1
 40
0.0
176
     1
 90
        0
176
     1
290
     0
176
     1
290
     1
176
     1
290
     1
176
     1
290
     0
176
     1
290
     0
176
     1
290
     0
176
     1
290
     0
176
     1
290
     0
176
     1
290
     0
176
     1
 90
       50
176
     1
 40
0.0
176
     1
 40
1.0
176
     1
 90
        0
176
     1
 62
    18
420
        0
176
     1
 90
       50
176
     1
 90
        3
176
     1
 62
     5
420
      255
176
     1
290
     0
176
     1
 90
       50
176
     1
 90
       50
176
     1
 90
       50
176
     1
290
     0
176
     1
 90
       50
176
     1
 62
   256
176
     0
 40
1.0
176
     0
 90
        2
176
     1
  1
strokes_ogs.tif
176
     1
290
     0
176
     1
 40
1.0
176
     1
 40
1.0
176
     1
  0
VISUALSTYLE
  5
30
102
{ACAD_REACTORS
330
2A
102
}
330
2A
100
AcDbVisualStyle
  2
Wireframe
 70
     5
177
     3
291
     0
 70
    58
 90
        0
176
     1
 90
        2
176
     1
 90
        0
176
     1
 90
        0
176
     1
 40
0.6
176
     1
 40
30.0
176
     1
 62
     7
420
 16777215
176
     1
 90
        1
176
     1
 90
        4
176
     1
 62
     7
176
     1
 62
   257
176
     1
 90
        1
176
     1
 90
        1
176
     1
 40
1.0
176
     1
 90
        0
176
     1
 62
   257
176
     1
 40
1.0
176
     1
 90
        1
176
     1
 90
        6
176
     1
 90
        2
176
     1
 62
     7
176
     1
 90
        3
176
     1
 90
        0
176
     1
 90
        0
176
     1
290
     0
176
     1
 90
        1
176
     1
 40
0.0
176
     1
 90
        0
176
     1
290
     0
176
     1
290
     1
176
     1
290
     1
176
     1
290
     0
176
     1
290
     0
176
     1
290
     0
176
     1
290
     0
176
     1
290
     0
176
     1
290
     0
176
     1
 90
       50
176
     1
 40
0.0
176
     1
 40
1.0
176
     1
 90
        0
176
     1
 62
    18
420
        0
176
     1
 90
       50
176
     1
 90
        3
176
     1
 62
     5
420
      255
176
     1
290
     0
176
     1
 90
       50
176
     1
 90
       50
176
     1
 90
       50
176
     1
290
     0
176
     1
 90
       50
176
     1
 62
   256
176
     0
 40
1.0
176
     0
 90
        2
176
     1
  1
strokes_ogs.tif
176
     1
290
     0
176
     1
 40
1.0
176
     1
 40
1.0
176
     1
  0
VISUALSTYLE
  5
40
102
{ACAD_REACTORS
330
2A
102
}
330
2A
100
AcDbVisualStyle
  2
X-Ray
 70
    25
177
     3
291
     0
 70
    58
 90
        2
176
     1
 90
        2
176
     1
 90
        1
176
     1
 90
        1
176
     1
 40
0.5
176
     1
 40
30.0
176
     1
 62
     7
420
 16777215
176
     1
 90
        1
176
     1
 90
        0
176
     1
 62
     7
176
     1
 62
   257
176
     1
 90
        1
176
     1
 90
        1
176
     1
 40
1.0
176
     1
 90
        8
176
     1
 62
     7
176
     1
 40
1.0
176
     1
 90
        1
176
     1
 90
        6
176
     1
 90
        2
176
     1
 62
     7
176
     1
 90
        3
176
     1
 90
        0
176
     1
 90
        0
176
     1
290
     0
176
     1
 90
       13
176
     1
 40
0.0
176
     1
 90
        0
176
     1
290
     0
176
     1
290
     1
176
     1
290
     1
176
     1
290
     0
176
     1
290
     0
176
     1
290
     0
176
     1
290
     0
176
     1
290
     0
176
     1
290
     0
176
     1
 90
       50
176
     1
 40
0.0
176
     1
 40
1.0
176
     1
 90
        0
176
     1
 62
    18
420
        0
176
     1
 90
       50
176
     1
 90
        3
176
     1
 62
     5
420
      255
176
     1
290
     0
176
     1
 90
       50
176
     1
 90
       50
176
     1
 90
       50
176
     1
290
     0
176
     1
 90
       50
176
     1
 62
   256
176
     0
 40
1.0
176
     0
 90
        2
176
     1
  1
strokes_ogs.tif
176
     1
290
     0
176
     1
 40
1.0
176
     1
 40
1.0
176
     1
  0
DICTIONARYVAR
  5
22A
102
{ACAD_REACTORS
330
229
102
}
330
229
100
DictionaryVariables
280
     0
  1
1:1
  0
DICTIONARYVAR
  5
22F
102
{ACAD_REACTORS
330
229
102
}
330
229
100
DictionaryVariables
280
     0
  1
Standard
  0
DICTIONARYVAR
  5
22E
102
{ACAD_REACTORS
330
229
102
}
330
229
100
DictionaryVariables
280
     0
  1
Standard
  0
DICTIONARY
  5
22B
330
6A
100
AcDbDictionary
280
     1
281
     1
  3
ACAD_ROUNDTRIP_2008_TABLESTYLE_CELLSTYLEMAP
360
22C
  0
CELLSTYLEMAP
  5
22C
102
{ACAD_REACTORS
330
22B
102
}
330
22B
100
AcDbCellStyleMap
 90
        3
300
CELLSTYLE
  1
TABLEFORMAT_BEGIN
 90
        5
170
     1
 91
        0
 92
    32768
 62
   257
 93
        1
300
CONTENTFORMAT
  1
CONTENTFORMAT_BEGIN
 90
        0
 91
        0
 92
        4
 93
        0
300

 40
0.0
140
1.0
 94
        5
 62
     0
340
11
144
0.25
309
CONTENTFORMAT_END
171
     1
301
MARGIN
  1
CELLMARGIN_BEGIN
 40
0.06
 40
0.06
 40
0.06
 40
0.06
 40
0.06
 40
0.06
309
CELLMARGIN_END
 94
        6
 95
        1
302
GRIDFORMAT
  1
GRIDFORMAT_BEGIN
 90
        0
 91
        1
 62
     0
 92
       -2
340
14
 93
        0
 40
0.045
309
GRIDFORMAT_END
 95
        2
302
GRIDFORMAT
  1
GRIDFORMAT_BEGIN
 90
        0
 91
        1
 62
     0
 92
       -2
340
14
 93
        0
 40
0.045
309
GRIDFORMAT_END
 95
        4
302
GRIDFORMAT
  1
GRIDFORMAT_BEGIN
 90
        0
 91
        1
 62
     0
 92
       -2
340
14
 93
        0
 40
0.045
309
GRIDFORMAT_END
 95
        8
302
GRIDFORMAT
  1
GRIDFORMAT_BEGIN
 90
        0
 91
        1
 62
     0
 92
       -2
340
14
 93
        0
 40
0.045
309
GRIDFORMAT_END
 95
       16
302
GRIDFORMAT
  1
GRIDFORMAT_BEGIN
 90
        0
 91
        1
 62
     0
 92
       -2
340
14
 93
        0
 40
0.045
309
GRIDFORMAT_END
 95
       32
302
GRIDFORMAT
  1
GRIDFORMAT_BEGIN
 90
        0
 91
        1
 62
     0
 92
       -2
340
14
 93
        0
 40
0.045
309
GRIDFORMAT_END
309
TABLEFORMAT_END
  1
CELLSTYLE_BEGIN
 90
        1
 91
        1
300
_TITLE
309
CELLSTYLE_END
300
CELLSTYLE
  1
TABLEFORMAT_BEGIN
 90
        5
170
     1
 91
        0
 92
        0
 62
   257
 93
        1
300
CONTENTFORMAT
  1
CONTENTFORMAT_BEGIN
 90
        0
 91
        0
 92
        4
 93
        0
300

 40
0.0
140
1.0
 94
        5
 62
     0
340
11
144
0.18
309
CONTENTFORMAT_END
171
     1
301
MARGIN
  1
CELLMARGIN_BEGIN
 40
0.06
 40
0.06
 40
0.06
 40
0.06
 40
0.06
 40
0.06
309
CELLMARGIN_END
 94
        6
 95
        1
302
GRIDFORMAT
  1
GRIDFORMAT_BEGIN
 90
        0
 91
        1
 62
     0
 92
       -2
340
14
 93
        0
 40
0.045
309
GRIDFORMAT_END
 95
        2
302
GRIDFORMAT
  1
GRIDFORMAT_BEGIN
 90
        0
 91
        1
 62
     0
 92
       -2
340
14
 93
        0
 40
0.045
309
GRIDFORMAT_END
 95
        4
302
GRIDFORMAT
  1
GRIDFORMAT_BEGIN
 90
        0
 91
        1
 62
     0
 92
       -2
340
14
 93
        0
 40
0.045
309
GRIDFORMAT_END
 95
        8
302
GRIDFORMAT
  1
GRIDFORMAT_BEGIN
 90
        0
 91
        1
 62
     0
 92
       -2
340
14
 93
        0
 40
0.045
309
GRIDFORMAT_END
 95
       16
302
GRIDFORMAT
  1
GRIDFORMAT_BEGIN
 90
        0
 91
        1
 62
     0
 92
       -2
340
14
 93
        0
 40
0.045
309
GRIDFORMAT_END
 95
       32
302
GRIDFORMAT
  1
GRIDFORMAT_BEGIN
 90
        0
 91
        1
 62
     0
 92
       -2
340
14
 93
        0
 40
0.045
309
GRIDFORMAT_END
309
TABLEFORMAT_END
  1
CELLSTYLE_BEGIN
 90
        2
 91
        1
300
_HEADER
309
CELLSTYLE_END
300
CELLSTYLE
  1
TABLEFORMAT_BEGIN
 90
        5
170
     1
 91
        0
 92
        0
 62
   257
 93
        1
300
CONTENTFORMAT
  1
CONTENTFORMAT_BEGIN
 90
        0
 91
        0
 92
        4
 93
        0
300

 40
0.0
140
1.0
 94
        2
 62
     0
340
11
144
0.18
309
CONTENTFORMAT_END
171
     1
301
MARGIN
  1
CELLMARGIN_BEGIN
 40
0.06
 40
0.06
 40
0.06
 40
0.06
 40
0.06
 40
0.06
309
CELLMARGIN_END
 94
        6
 95
        1
302
GRIDFORMAT
  1
GRIDFORMAT_BEGIN
 90
        0
 91
        1
 62
     0
 92
       -2
340
14
 93
        0
 40
0.045
309
GRIDFORMAT_END
 95
        2
302
GRIDFORMAT
  1
GRIDFORMAT_BEGIN
 90
        0
 91
        1
 62
     0
 92
       -2
340
14
 93
        0
 40
0.045
309
GRIDFORMAT_END
 95
        4
302
GRIDFORMAT
  1
GRIDFORMAT_BEGIN
 90
        0
 91
        1
 62
     0
 92
       -2
340
14
 93
        0
 40
0.045
309
GRIDFORMAT_END
 95
        8
302
GRIDFORMAT
  1
GRIDFORMAT_BEGIN
 90
        0
 91
        1
 62
     0
 92
       -2
340
14
 93
        0
 40
0.045
309
GRIDFORMAT_END
 95
       16
302
GRIDFORMAT
  1
GRIDFORMAT_BEGIN
 90
        0
 91
        1
 62
     0
 92
       -2
340
14
 93
        0
 40
0.045
309
GRIDFORMAT_END
 95
       32
302
GRIDFORMAT
  1
GRIDFORMAT_BEGIN
 90
        0
 91
        1
 62
     0
 92
       -2
340
14
 93
        0
 40
0.045
309
GRIDFORMAT_END
309
TABLEFORMAT_END
  1
CELLSTYLE_BEGIN
 90
        3
 91
        2
300
_DATA
309
CELLSTYLE_END
  0
ENDSEC
  0
EOF